0
SECTION
  2
HEADER
  9
$ACADVER
  1
AC1027
  9
$ACADMAINTVER
 70
     8
  9
$DWGCODEPAGE
  3
ANSI_1252
  9
$REQUIREDVERSIONS
160
                 0
  9
$COMMENTS
  1
File was created by Cadenas
  9
$CUSTOMPROPERTYTAG
  1
NN
  9
$CUSTOMPROPERTY
  1
Imperial - IP Pillow Block with Type E Dimensions 1-3/8 thru 2-3/16 inch 2-Bolt Labyrinth Seal Expansion
  9
$CUSTOMPROPERTYTAG
  1
NT
  9
$CUSTOMPROPERTY
  1
Imperial/E 2 Bolt Piliow Block Bearings
  9
$CUSTOMPROPERTYTAG
  1
NB
  9
$CUSTOMPROPERTY
  1
071162
  9
$CUSTOMPROPERTYTAG
  1
NBSYN
  9
$CUSTOMPROPERTY
  1
$PN.
  9
$CUSTOMPROPERTYTAG
  1
LINA
  9
$CUSTOMPROPERTY
  1
071162
  9
$CUSTOMPROPERTYTAG
  1
SS
  9
$CUSTOMPROPERTY
  1
1-3/8
  9
$CUSTOMPROPERTYTAG
  1
TYPE
  9
$CUSTOMPROPERTY
  1
Non-Expansion
  9
$CUSTOMPROPERTYTAG
  1
PN
  9
$CUSTOMPROPERTY
  1
071162
  9
$CUSTOMPROPERTYTAG
  1
DESCRIPTION
  9
$CUSTOMPROPERTY
  1
EP2B-IP-106L
  9
$CUSTOMPROPERTYTAG
  1
ST
  9
$CUSTOMPROPERTY
  1
Labyrinth Seal
  9
$CUSTOMPROPERTYTAG
  1
A
  9
$CUSTOMPROPERTY
  1
2.63
  9
$CUSTOMPROPERTYTAG
  1
B
  9
$CUSTOMPROPERTY
  1
7.37
  9
$CUSTOMPROPERTYTAG
  1
C
  9
$CUSTOMPROPERTY
  1
2.12
  9
$CUSTOMPROPERTYTAG
  1
DMIN
  9
$CUSTOMPROPERTY
  1
5.63
  9
$CUSTOMPROPERTYTAG
  1
DMAX
  9
$CUSTOMPROPERTY
  1
5.88
  9
$CUSTOMPROPERTYTAG
  1
F
  9
$CUSTOMPROPERTY
  1
1/2
  9
$CUSTOMPROPERTYTAG
  1
G
  9
$CUSTOMPROPERTY
  1
0.75
  9
$CUSTOMPROPERTYTAG
  1
H
  9
$CUSTOMPROPERTY
  1
1.13
  9
$CUSTOMPROPERTYTAG
  1
J
  9
$CUSTOMPROPERTY
  1
3.85
  9
$CUSTOMPROPERTYTAG
  1
L
  9
$CUSTOMPROPERTY
  1
2.72
  9
$CUSTOMPROPERTYTAG
  1
M
  9
$CUSTOMPROPERTY
  1
1.875
  9
$CUSTOMPROPERTYTAG
  1
R
  9
$CUSTOMPROPERTY
  1
1.04
  9
$CUSTOMPROPERTYTAG
  1
S
  9
$CUSTOMPROPERTY
  1
1.59
  9
$CUSTOMPROPERTYTAG
  1
X
  9
$CUSTOMPROPERTY
  1
0.16
  9
$CUSTOMPROPERTYTAG
  1
Y
  9
$CUSTOMPROPERTY
  1
0.020
  9
$CUSTOMPROPERTYTAG
  1
Z
  9
$CUSTOMPROPERTY
  1
1.8
  9
$CUSTOMPROPERTYTAG
  1
COMPANY
  9
$CUSTOMPROPERTY
  1
baldor
  9
$INSBASE
 10
0.0
 20
0.0
 30
0.0
  9
$EXTMIN
 10
1.000000000000000E+20
 20
1.000000000000000E+20
 30
1.000000000000000E+20
  9
$EXTMAX
 10
-1.000000000000000E+20
 20
-1.000000000000000E+20
 30
-1.000000000000000E+20
  9
$LIMMIN
 10
0.0
 20
0.0
  9
$LIMMAX
 10
12.0
 20
9.0
  9
$ORTHOMODE
 70
     0
  9
$REGENMODE
 70
     1
  9
$FILLMODE
 70
     1
  9
$QTEXTMODE
 70
     0
  9
$MIRRTEXT
 70
     1
  9
$LTSCALE
 40
1.0
  9
$ATTMODE
 70
     1
  9
$TEXTSIZE
 40
0.2
  9
$TRACEWID
 40
0.05
  9
$TEXTSTYLE
  7
Standard
  9
$CLAYER
  8
0
  9
$CELTYPE
  6
ByLayer
  9
$CECOLOR
 62
   256
  9
$CELTSCALE
 40
1.0
  9
$DISPSILH
 70
     0
  9
$DIMSCALE
 40
1.0
  9
$DIMASZ
 40
0.18
  9
$DIMEXO
 40
0.0625
  9
$DIMDLI
 40
0.38
  9
$DIMRND
 40
0.0
  9
$DIMDLE
 40
0.0
  9
$DIMEXE
 40
0.18
  9
$DIMTP
 40
0.0
  9
$DIMTM
 40
0.0
  9
$DIMTXT
 40
0.18
  9
$DIMCEN
 40
0.09
  9
$DIMTSZ
 40
0.0
  9
$DIMTOL
 70
     0
  9
$DIMLIM
 70
     0
  9
$DIMTIH
 70
     1
  9
$DIMTOH
 70
     1
  9
$DIMSE1
 70
     0
  9
$DIMSE2
 70
     0
  9
$DIMTAD
 70
     0
  9
$DIMZIN
 70
     0
  9
$DIMBLK
  1

  9
$DIMASO
 70
     1
  9
$DIMSHO
 70
     1
  9
$DIMPOST
  1

  9
$DIMAPOST
  1

  9
$DIMALT
 70
     0
  9
$DIMALTD
 70
     2
  9
$DIMALTF
 40
25.4
  9
$DIMLFAC
 40
1.0
  9
$DIMTOFL
 70
     0
  9
$DIMTVP
 40
0.0
  9
$DIMTIX
 70
     0
  9
$DIMSOXD
 70
     0
  9
$DIMSAH
 70
     0
  9
$DIMBLK1
  1

  9
$DIMBLK2
  1

  9
$DIMSTYLE
  2
Standard
  9
$DIMCLRD
 70
     0
  9
$DIMCLRE
 70
     0
  9
$DIMCLRT
 70
     0
  9
$DIMTFAC
 40
1.0
  9
$DIMGAP
 40
0.09
  9
$DIMJUST
 70
     0
  9
$DIMSD1
 70
     0
  9
$DIMSD2
 70
     0
  9
$DIMTOLJ
 70
     1
  9
$DIMTZIN
 70
     0
  9
$DIMALTZ
 70
     0
  9
$DIMALTTZ
 70
     0
  9
$DIMUPT
 70
     0
  9
$DIMDEC
 70
     4
  9
$DIMTDEC
 70
     4
  9
$DIMALTU
 70
     2
  9
$DIMALTTD
 70
     2
  9
$DIMTXSTY
  7
Standard
  9
$DIMAUNIT
 70
     0
  9
$DIMADEC
 70
     0
  9
$DIMALTRND
 40
0.0
  9
$DIMAZIN
 70
     0
  9
$DIMDSEP
 70
    46
  9
$DIMATFIT
 70
     3
  9
$DIMFRAC
 70
     0
  9
$DIMLDRBLK
  1

  9
$DIMLUNIT
 70
     2
  9
$DIMLWD
 70
    -2
  9
$DIMLWE
 70
    -2
  9
$DIMTMOVE
 70
     0
  9
$DIMFXL
 40
1.0
  9
$DIMFXLON
 70
     0
  9
$DIMJOGANG
 40
0.7853981633974483
  9
$DIMTFILL
 70
     0
  9
$DIMTFILLCLR
 70
     0
  9
$DIMARCSYM
 70
     0
  9
$DIMLTYPE
  6

  9
$DIMLTEX1
  6

  9
$DIMLTEX2
  6

  9
$DIMTXTDIRECTION
 70
     0
  9
$LUNITS
 70
     2
  9
$LUPREC
 70
     4
  9
$SKETCHINC
 40
0.1
  9
$FILLETRAD
 40
0.5
  9
$AUNITS
 70
     0
  9
$AUPREC
 70
     0
  9
$MENU
  1
.
  9
$ELEVATION
 40
0.0
  9
$PELEVATION
 40
0.0
  9
$THICKNESS
 40
0.0
  9
$LIMCHECK
 70
     0
  9
$CHAMFERA
 40
0.0
  9
$CHAMFERB
 40
0.0
  9
$CHAMFERC
 40
0.0
  9
$CHAMFERD
 40
0.0
  9
$SKPOLY
 70
     0
  9
$TDCREATE
 40
2458168.983447037
  9
$TDUCREATE
 40
2458168.94178037
  9
$TDUPDATE
 40
2458168.983447396
  9
$TDUUPDATE
 40
2458168.941780729
  9
$TDINDWG
 40
0.0000000116
  9
$TDUSRTIMER
 40
0.0000000116
  9
$USRTIMER
 70
     1
  9
$ANGBASE
 50
0.0
  9
$ANGDIR
 70
     0
  9
$PDMODE
 70
     0
  9
$PDSIZE
 40
0.0
  9
$PLINEWID
 40
0.0
  9
$SPLFRAME
 70
     0
  9
$SPLINETYPE
 70
     6
  9
$SPLINESEGS
 70
     8
  9
$HANDSEED
  5
27E
  9
$SURFTAB1
 70
     6
  9
$SURFTAB2
 70
     6
  9
$SURFTYPE
 70
     6
  9
$SURFU
 70
     6
  9
$SURFV
 70
     6
  9
$UCSBASE
  2

  9
$UCSNAME
  2

  9
$UCSORG
 10
0.0
 20
0.0
 30
0.0
  9
$UCSXDIR
 10
1.0
 20
0.0
 30
0.0
  9
$UCSYDIR
 10
0.0
 20
1.0
 30
0.0
  9
$UCSORTHOREF
  2

  9
$UCSORTHOVIEW
 70
     0
  9
$UCSORGTOP
 10
0.0
 20
0.0
 30
0.0
  9
$UCSORGBOTTOM
 10
0.0
 20
0.0
 30
0.0
  9
$UCSORGLEFT
 10
0.0
 20
0.0
 30
0.0
  9
$UCSORGRIGHT
 10
0.0
 20
0.0
 30
0.0
  9
$UCSORGFRONT
 10
0.0
 20
0.0
 30
0.0
  9
$UCSORGBACK
 10
0.0
 20
0.0
 30
0.0
  9
$PUCSBASE
  2

  9
$PUCSNAME
  2

  9
$PUCSORG
 10
0.0
 20
0.0
 30
0.0
  9
$PUCSXDIR
 10
1.0
 20
0.0
 30
0.0
  9
$PUCSYDIR
 10
0.0
 20
1.0
 30
0.0
  9
$PUCSORTHOREF
  2

  9
$PUCSORTHOVIEW
 70
     0
  9
$PUCSORGTOP
 10
0.0
 20
0.0
 30
0.0
  9
$PUCSORGBOTTOM
 10
0.0
 20
0.0
 30
0.0
  9
$PUCSORGLEFT
 10
0.0
 20
0.0
 30
0.0
  9
$PUCSORGRIGHT
 10
0.0
 20
0.0
 30
0.0
  9
$PUCSORGFRONT
 10
0.0
 20
0.0
 30
0.0
  9
$PUCSORGBACK
 10
0.0
 20
0.0
 30
0.0
  9
$USERI1
 70
     0
  9
$USERI2
 70
     0
  9
$USERI3
 70
     0
  9
$USERI4
 70
     0
  9
$USERI5
 70
     0
  9
$USERR1
 40
0.0
  9
$USERR2
 40
0.0
  9
$USERR3
 40
0.0
  9
$USERR4
 40
0.0
  9
$USERR5
 40
0.0
  9
$WORLDVIEW
 70
     1
  9
$SHADEDGE
 70
     3
  9
$SHADEDIF
 70
    70
  9
$TILEMODE
 70
     1
  9
$MAXACTVP
 70
    64
  9
$PINSBASE
 10
0.0
 20
0.0
 30
0.0
  9
$PLIMCHECK
 70
     0
  9
$PEXTMIN
 10
1.000000000000000E+20
 20
1.000000000000000E+20
 30
1.000000000000000E+20
  9
$PEXTMAX
 10
-1.000000000000000E+20
 20
-1.000000000000000E+20
 30
-1.000000000000000E+20
  9
$PLIMMIN
 10
0.0
 20
0.0
  9
$PLIMMAX
 10
12.0
 20
9.0
  9
$UNITMODE
 70
     0
  9
$VISRETAIN
 70
     1
  9
$PLINEGEN
 70
     0
  9
$PSLTSCALE
 70
     1
  9
$TREEDEPTH
 70
  3020
  9
$CMLSTYLE
  2
Standard
  9
$CMLJUST
 70
     0
  9
$CMLSCALE
 40
1.0
  9
$PROXYGRAPHICS
 70
     1
  9
$MEASUREMENT
 70
     0
  9
$CELWEIGHT
370
    -1
  9
$ENDCAPS
280
     0
  9
$JOINSTYLE
280
     0
  9
$LWDISPLAY
290
     0
  9
$INSUNITS
 70
     1
  9
$HYPERLINKBASE
  1

  9
$STYLESHEET
  1

  9
$XEDIT
290
     1
  9
$CEPSNTYPE
380
     0
  9
$PSTYLEMODE
290
     1
  9
$FINGERPRINTGUID
  2
{9269F8D1-205A-4DD4-AC02-DE6D46559CBC}
  9
$VERSIONGUID
  2
{FAEB1C32-E019-11D5-929B-00C0DF256EC4}
  9
$EXTNAMES
290
     1
  9
$PSVPSCALE
 40
0.0
  9
$OLESTARTUP
290
     0
  9
$SORTENTS
280
   127
  9
$INDEXCTL
280
     0
  9
$HIDETEXT
280
     1
  9
$XCLIPFRAME
280
     2
  9
$HALOGAP
280
     0
  9
$OBSCOLOR
 70
   257
  9
$OBSLTYPE
280
     0
  9
$INTERSECTIONDISPLAY
280
     0
  9
$INTERSECTIONCOLOR
 70
   257
  9
$DIMASSOC
280
     2
  9
$PROJECTNAME
  1

  9
$CAMERADISPLAY
290
     0
  9
$LENSLENGTH
 40
50.0
  9
$CAMERAHEIGHT
 40
0.0
  9
$STEPSPERSEC
 40
2.0
  9
$STEPSIZE
 40
6.0
  9
$3DDWFPREC
 40
2.0
  9
$PSOLWIDTH
 40
0.25
  9
$PSOLHEIGHT
 40
4.0
  9
$LOFTANG1
 40
1.570796326794897
  9
$LOFTANG2
 40
1.570796326794897
  9
$LOFTMAG1
 40
0.0
  9
$LOFTMAG2
 40
0.0
  9
$LOFTPARAM
 70
     7
  9
$LOFTNORMALS
280
     1
  9
$LATITUDE
 40
37.795
  9
$LONGITUDE
 40
-122.394
  9
$NORTHDIRECTION
 40
0.0
  9
$TIMEZONE
 70
 -8000
  9
$LIGHTGLYPHDISPLAY
280
     1
  9
$TILEMODELIGHTSYNCH
280
     1
  9
$CMATERIAL
347
44
  9
$SOLIDHIST
280
     0
  9
$SHOWHIST
280
     1
  9
$DWFFRAME
280
     2
  9
$DGNFRAME
280
     2
  9
$REALWORLDSCALE
290
     1
  9
$INTERFERECOLOR
 62
   256
  9
$CSHADOW
280
     0
  9
$SHADOWPLANELOCATION
 40
0.0
  0
ENDSEC
  0
SECTION
  2
CLASSES
  0
CLASS
  1
ACDBDICTIONARYWDFLT
  2
AcDbDictionaryWithDefault
  3
ObjectDBX Classes
 90
        0
 91
        4
280
     0
281
     0
  0
CLASS
  1
VISUALSTYLE
  2
AcDbVisualStyle
  3
ObjectDBX Classes
 90
     4095
 91
        4
280
     0
281
     0
  0
CLASS
  1
MATERIAL
  2
AcDbMaterial
  3
ObjectDBX Classes
 90
     1153
 91
        4
280
     0
281
     0
  0
CLASS
  1
SCALE
  2
AcDbScale
  3
ObjectDBX Classes
 90
     1153
 91
        4
280
     0
281
     0
  0
CLASS
  1
TABLESTYLE
  2
AcDbTableStyle
  3
ObjectDBX Classes
 90
     4095
 91
        4
280
     0
281
     0
  0
CLASS
  1
MLEADERSTYLE
  2
AcDbMLeaderStyle
  3
ACDB_MLEADERSTYLE_CLASS
 90
     4095
 91
        4
280
     0
281
     0
  0
CLASS
  1
SUN
  2
AcDbSun
  3
SCENEOE
 90
     1153
 91
        4
280
     0
281
     0
  0
CLASS
  1
DICTIONARYVAR
  2
AcDbDictionaryVar
  3
ObjectDBX Classes
 90
        0
 91
        4
280
     0
281
     0
  0
CLASS
  1
CELLSTYLEMAP
  2
AcDbCellStyleMap
  3
ObjectDBX Classes
 90
     1152
 91
        4
280
     0
281
     0
  0
ENDSEC
  0
SECTION
  2
TABLES
  0
TABLE
  2
VPORT
  5
8
330
0
100
AcDbSymbolTable
 70
     1
  0
VPORT
  5
29
330
8
100
AcDbSymbolTableRecord
100
AcDbViewportTableRecord
  2
*Active
 70
     0
 10
0.0
 20
0.0
 11
1.0
 21
1.0
 12
-0.2650000000000006
 22
0.1490505951192436
 13
0.0
 23
0.0
 14
0.5
 24
0.5
 15
0.5
 25
0.5
 16
0.0
 26
0.0
 36
1.0
 17
0.0
 27
0.0
 37
0.0
 40
4.129063214043257
 41
0.7200906951212518
 42
50.0
 43
0.0
 44
0.0
 50
0.0
 51
0.0
 71
     0
 72
   100
 73
     1
 74
     3
 75
     0
 76
     0
 77
     0
 78
     0
281
     0
 65
     1
110
0.0
120
0.0
130
0.0
111
1.0
121
0.0
131
0.0
112
0.0
122
1.0
132
0.0
 79
     0
146
0.0
348
2F
 60
     3
 61
     5
292
     1
282
     1
141
0.0
142
0.0
 63
   250
361
6D
  0
ENDTAB
  0
TABLE
  2
LTYPE
  5
5
330
0
100
AcDbSymbolTable
 70
     3
  0
LTYPE
  5
14
330
5
100
AcDbSymbolTableRecord
100
AcDbLinetypeTableRecord
  2
ByBlock
 70
     0
  3

 72
    65
 73
     0
 40
0.0
  0
LTYPE
  5
15
330
5
100
AcDbSymbolTableRecord
100
AcDbLinetypeTableRecord
  2
ByLayer
 70
     0
  3

 72
    65
 73
     0
 40
0.0
  0
LTYPE
  5
16
330
5
100
AcDbSymbolTableRecord
100
AcDbLinetypeTableRecord
  2
Continuous
 70
     0
  3
Solid line
 72
    65
 73
     0
 40
0.0
  0
LTYPE
  5
9E
330
5
100
AcDbSymbolTableRecord
100
AcDbLinetypeTableRecord
  2
Dashed
 70
     0
  3

 72
    65
 73
     2
 40
2.0
 49
1.0
 74
     0
 49
-1.0
 74
     0
  0
LTYPE
  5
18E
330
5
100
AcDbSymbolTableRecord
100
AcDbLinetypeTableRecord
  2
Center
 70
     0
  3

 72
    65
 73
     4
 40
1.5
 49
0.45
 74
     0
 49
-0.5
 74
     0
 49
0.05
 74
     0
 49
-0.5
 74
     0
  0
ENDTAB
  0
TABLE
  2
LAYER
  5
2
330
0
100
AcDbSymbolTable
 70
     7
  0
LAYER
  5
10
330
2
100
AcDbSymbolTableRecord
100
AcDbLayerTableRecord
  2
0
 70
     0
 62
     7
  6
Continuous
370
    -3
390
F
347
46
348
0
  0
LAYER
  5
72
330
2
100
AcDbSymbolTableRecord
100
AcDbLayerTableRecord
  2
AM_6
 70
     0
 62
    -2
  6
Continuous
370
    35
390
F
347
46
348
0
  0
LAYER
  5
9F
330
2
100
AcDbSymbolTableRecord
100
AcDbLayerTableRecord
  2
AM_9
 70
     0
 62
     6
  6
Dashed
370
    25
390
F
347
46
348
0
  0
LAYER
  5
AB
330
2
100
AcDbSymbolTableRecord
100
AcDbLayerTableRecord
  2
AM_5
 70
     0
 62
     3
  6
Continuous
370
    25
390
F
347
46
348
0
  0
LAYER
  5
AE
330
2
100
AcDbSymbolTableRecord
100
AcDbLayerTableRecord
  2
AM_4
 70
     0
 62
     7
  6
Continuous
370
    50
390
F
347
46
348
0
  0
LAYER
  5
18F
330
2
100
AcDbSymbolTableRecord
100
AcDbLayerTableRecord
  2
AM_7
 70
     0
 62
     7
  6
Center
370
    25
390
F
347
46
348
0
  0
LAYER
  5
269
330
2
100
AcDbSymbolTableRecord
100
AcDbLayerTableRecord
  2
ConnectionPoints
 70
     0
 62
     7
  6
Continuous
370
    50
390
F
347
46
348
0
  0
ENDTAB
  0
TABLE
  2
STYLE
  5
3
330
0
100
AcDbSymbolTable
 70
     1
  0
STYLE
  5
11
330
3
100
AcDbSymbolTableRecord
100
AcDbTextStyleTableRecord
  2
Standard
 70
     0
 40
0.0
 41
1.0
 50
0.0
 71
     0
 42
0.2
  3
txt
  4

  0
ENDTAB
  0
TABLE
  2
VIEW
  5
6
330
0
100
AcDbSymbolTable
 70
     0
  0
ENDTAB
  0
TABLE
  2
UCS
  5
7
330
0
100
AcDbSymbolTable
 70
     0
  0
ENDTAB
  0
TABLE
  2
APPID
  5
9
330
0
100
AcDbSymbolTable
 70
     1
  0
APPID
  5
12
330
9
100
AcDbSymbolTableRecord
100
AcDbRegAppTableRecord
  2
ACAD
 70
     0
  0
ENDTAB
  0
TABLE
  2
DIMSTYLE
  5
A
330
0
100
AcDbSymbolTable
 70
     1
100
AcDbDimStyleTable
  0
DIMSTYLE
105
27
330
A
100
AcDbSymbolTableRecord
100
AcDbDimStyleTableRecord
  2
Standard
 70
     0
178
     0
340
11
  0
ENDTAB
  0
TABLE
  2
BLOCK_RECORD
  5
1
330
0
100
AcDbSymbolTable
 70
     8
  0
BLOCK_RECORD
  5
1F
330
1
100
AcDbSymbolTableRecord
100
AcDbBlockTableRecord
  2
*Model_Space
340
22
 70
     0
280
     1
281
     0
  0
BLOCK_RECORD
  5
1B
330
1
100
AcDbSymbolTableRecord
100
AcDbBlockTableRecord
  2
*Paper_Space
340
1E
 70
     0
280
     1
281
     0
  0
BLOCK_RECORD
  5
23
330
1
100
AcDbSymbolTableRecord
100
AcDbBlockTableRecord
  2
*Paper_Space0
340
26
 70
     0
280
     1
281
     0
  0
BLOCK_RECORD
  5
6E
330
1
100
AcDbSymbolTableRecord
100
AcDbBlockTableRecord
  2
1_071162_2
340
0
102
{BLKREFS
331
6F
102
}
 70
     0
280
     1
281
     0
  0
BLOCK_RECORD
  5
8E
330
1
100
AcDbSymbolTableRecord
100
AcDbBlockTableRecord
  2
2_ASME_B18_3_10_1_0_in_071162_2
340
0
102
{BLKREFS
331
8F
102
}
 70
     0
280
     1
281
     0
  0
BLOCK_RECORD
  5
B5
330
1
100
AcDbSymbolTableRecord
100
AcDbBlockTableRecord
  2
3_ASME_B18_3_10_2_0_in_071162_2
340
0
102
{BLKREFS
331
B6
102
}
 70
     0
280
     1
281
     0
  0
BLOCK_RECORD
  5
D9
330
1
100
AcDbSymbolTableRecord
100
AcDbBlockTableRecord
  2
4_070883LWE_0_in_071162_2
340
0
102
{BLKREFS
331
DA
102
}
 70
     0
280
     1
281
     0
  0
BLOCK_RECORD
  5
112
330
1
100
AcDbSymbolTableRecord
100
AcDbBlockTableRecord
  2
5_070883EL_0_in_071162_2
340
0
102
{BLKREFS
331
113
102
}
 70
     0
280
     1
281
     0
  0
BLOCK_RECORD
  5
1A0
330
1
100
AcDbSymbolTableRecord
100
AcDbBlockTableRecord
  2
6_405015E_Inch_0_in_071162_2
340
0
102
{BLKREFS
331
1A1
102
}
 70
     0
280
     1
281
     0
  0
BLOCK_RECORD
  5
200
330
1
100
AcDbSymbolTableRecord
100
AcDbBlockTableRecord
  2
7_071162Ho_0_in_071162_2
340
0
102
{BLKREFS
331
201
102
}
 70
     0
280
     1
281
     0
  0
ENDTAB
  0
ENDSEC
  0
SECTION
  2
BLOCKS
  0
BLOCK
  5
20
330
1F
100
AcDbEntity
  8
0
100
AcDbBlockBegin
  2
*Model_Space
 70
     0
 10
0.0
 20
0.0
 30
0.0
  3
*Model_Space
  1

  0
ENDBLK
  5
21
330
1F
100
AcDbEntity
  8
0
100
AcDbBlockEnd
  0
BLOCK
  5
1C
330
1B
100
AcDbEntity
 67
     1
  8
0
100
AcDbBlockBegin
  2
*Paper_Space
 70
     0
 10
0.0
 20
0.0
 30
0.0
  3
*Paper_Space
  1

  0
ENDBLK
  5
1D
330
1B
100
AcDbEntity
 67
     1
  8
0
100
AcDbBlockEnd
  0
BLOCK
  5
24
330
23
100
AcDbEntity
  8
0
100
AcDbBlockBegin
  2
*Paper_Space0
 70
     0
 10
0.0
 20
0.0
 30
0.0
  3
*Paper_Space0
  1

  0
ENDBLK
  5
25
330
23
100
AcDbEntity
  8
0
100
AcDbBlockEnd
  0
BLOCK
  5
70
330
6E
100
AcDbEntity
  8
0
100
AcDbBlockBegin
  2
1_071162_2
 70
     2
 10
0.0
 20
0.0
 30
0.0
  3
1_071162_2
  1

  0
ATTDEF
  5
73
330
6E
100
AcDbEntity
  8
AM_6
100
AcDbText
 10
6.1925
 20
2.173101190238487
 30
0.0
 40
0.5
  1
Imperial - IP Pillow Block with Type E Dimensions 1-3/8 thru 2-3/16 inch 2-Bolt Labyrinth Seal Expansion
100
AcDbAttributeDefinition
  3

  2
NN
 70
     8
280
     0
  0
ATTDEF
  5
74
330
6E
100
AcDbEntity
  8
AM_6
100
AcDbText
 10
6.1925
 20
1.673101190238487
 30
0.0
 40
0.5
  1
Imperial/E 2 Bolt Piliow Block Bearings
100
AcDbAttributeDefinition
  3

  2
NT
 70
     8
280
     0
  0
ATTDEF
  5
75
330
6E
100
AcDbEntity
  8
AM_6
100
AcDbText
 10
6.1925
 20
1.173101190238487
 30
0.0
 40
0.5
  1
071162
100
AcDbAttributeDefinition
  3

  2
NB
 70
     8
280
     0
  0
ATTDEF
  5
76
330
6E
100
AcDbEntity
  8
AM_6
100
AcDbText
 10
6.1925
 20
0.6731011902384871
 30
0.0
 40
0.5
  1
$PN.
100
AcDbAttributeDefinition
  3

  2
NBSYN
 70
     8
280
     0
  0
ATTDEF
  5
77
330
6E
100
AcDbEntity
  8
AM_6
100
AcDbText
 10
6.1925
 20
0.1731011902384871
 30
0.0
 40
0.5
  1
071162
100
AcDbAttributeDefinition
  3

  2
LINA
 70
     8
280
     0
  0
ATTDEF
  5
78
330
6E
100
AcDbEntity
  8
AM_6
100
AcDbText
 10
6.1925
 20
-0.3268988097615129
 30
0.0
 40
0.5
  1
1-3/8
100
AcDbAttributeDefinition
  3

  2
SS
 70
     8
280
     0
  0
ATTDEF
  5
79
330
6E
100
AcDbEntity
  8
AM_6
100
AcDbText
 10
6.1925
 20
-0.8268988097615129
 30
0.0
 40
0.5
  1
Non-Expansion
100
AcDbAttributeDefinition
  3

  2
TYPE
 70
     8
280
     0
  0
ATTDEF
  5
7A
330
6E
100
AcDbEntity
  8
AM_6
100
AcDbText
 10
6.1925
 20
-1.326898809761513
 30
0.0
 40
0.5
  1
071162
100
AcDbAttributeDefinition
  3

  2
PN
 70
     8
280
     0
  0
ATTDEF
  5
7B
330
6E
100
AcDbEntity
  8
AM_6
100
AcDbText
 10
6.1925
 20
-1.826898809761513
 30
0.0
 40
0.5
  1
EP2B-IP-106L
100
AcDbAttributeDefinition
  3

  2
DESCRIPTION
 70
     8
280
     0
  0
ATTDEF
  5
7C
330
6E
100
AcDbEntity
  8
AM_6
100
AcDbText
 10
6.1925
 20
-2.326898809761513
 30
0.0
 40
0.5
  1
Labyrinth Seal
100
AcDbAttributeDefinition
  3

  2
ST
 70
     8
280
     0
  0
ATTDEF
  5
7D
330
6E
100
AcDbEntity
  8
AM_6
100
AcDbText
 10
6.1925
 20
-2.826898809761513
 30
0.0
 40
0.5
  1
2.63
100
AcDbAttributeDefinition
  3

  2
A
 70
     8
280
     0
  0
ATTDEF
  5
7E
330
6E
100
AcDbEntity
  8
AM_6
100
AcDbText
 10
6.1925
 20
-3.326898809761513
 30
0.0
 40
0.5
  1
7.37
100
AcDbAttributeDefinition
  3

  2
B
 70
     8
280
     0
  0
ATTDEF
  5
7F
330
6E
100
AcDbEntity
  8
AM_6
100
AcDbText
 10
6.1925
 20
-3.826898809761513
 30
0.0
 40
0.5
  1
2.12
100
AcDbAttributeDefinition
  3

  2
C
 70
     8
280
     0
  0
ATTDEF
  5
80
330
6E
100
AcDbEntity
  8
AM_6
100
AcDbText
 10
6.1925
 20
-4.326898809761513
 30
0.0
 40
0.5
  1
5.63
100
AcDbAttributeDefinition
  3

  2
DMIN
 70
     8
280
     0
  0
ATTDEF
  5
81
330
6E
100
AcDbEntity
  8
AM_6
100
AcDbText
 10
6.1925
 20
-4.826898809761513
 30
0.0
 40
0.5
  1
5.88
100
AcDbAttributeDefinition
  3

  2
DMAX
 70
     8
280
     0
  0
ATTDEF
  5
82
330
6E
100
AcDbEntity
  8
AM_6
100
AcDbText
 10
6.1925
 20
-5.326898809761513
 30
0.0
 40
0.5
  1
1/2
100
AcDbAttributeDefinition
  3

  2
F
 70
     8
280
     0
  0
ATTDEF
  5
83
330
6E
100
AcDbEntity
  8
AM_6
100
AcDbText
 10
6.1925
 20
-5.826898809761513
 30
0.0
 40
0.5
  1
0.75
100
AcDbAttributeDefinition
  3

  2
G
 70
     8
280
     0
  0
ATTDEF
  5
84
330
6E
100
AcDbEntity
  8
AM_6
100
AcDbText
 10
6.1925
 20
-6.326898809761513
 30
0.0
 40
0.5
  1
1.13
100
AcDbAttributeDefinition
  3

  2
H
 70
     8
280
     0
  0
ATTDEF
  5
85
330
6E
100
AcDbEntity
  8
AM_6
100
AcDbText
 10
6.1925
 20
-6.826898809761513
 30
0.0
 40
0.5
  1
3.85
100
AcDbAttributeDefinition
  3

  2
J
 70
     8
280
     0
  0
ATTDEF
  5
86
330
6E
100
AcDbEntity
  8
AM_6
100
AcDbText
 10
6.1925
 20
-7.326898809761513
 30
0.0
 40
0.5
  1
2.72
100
AcDbAttributeDefinition
  3

  2
L
 70
     8
280
     0
  0
ATTDEF
  5
87
330
6E
100
AcDbEntity
  8
AM_6
100
AcDbText
 10
6.1925
 20
-7.826898809761513
 30
0.0
 40
0.5
  1
1.875
100
AcDbAttributeDefinition
  3

  2
M
 70
     8
280
     0
  0
ATTDEF
  5
88
330
6E
100
AcDbEntity
  8
AM_6
100
AcDbText
 10
6.1925
 20
-8.326898809761513
 30
0.0
 40
0.5
  1
1.04
100
AcDbAttributeDefinition
  3

  2
R
 70
     8
280
     0
  0
ATTDEF
  5
89
330
6E
100
AcDbEntity
  8
AM_6
100
AcDbText
 10
6.1925
 20
-8.826898809761513
 30
0.0
 40
0.5
  1
1.59
100
AcDbAttributeDefinition
  3

  2
S
 70
     8
280
     0
  0
ATTDEF
  5
8A
330
6E
100
AcDbEntity
  8
AM_6
100
AcDbText
 10
6.1925
 20
-9.326898809761513
 30
0.0
 40
0.5
  1
0.16
100
AcDbAttributeDefinition
  3

  2
X
 70
     8
280
     0
  0
ATTDEF
  5
8B
330
6E
100
AcDbEntity
  8
AM_6
100
AcDbText
 10
6.1925
 20
-9.826898809761513
 30
0.0
 40
0.5
  1
0.020
100
AcDbAttributeDefinition
  3

  2
Y
 70
     8
280
     0
  0
ATTDEF
  5
8C
330
6E
100
AcDbEntity
  8
AM_6
100
AcDbText
 10
6.1925
 20
-10.32689880976151
 30
0.0
 40
0.5
  1
1.8
100
AcDbAttributeDefinition
  3

  2
Z
 70
     8
280
     0
  0
ATTDEF
  5
8D
330
6E
100
AcDbEntity
  8
AM_6
100
AcDbText
 10
6.1925
 20
-10.82689880976151
 30
0.0
 40
0.5
  1
baldor
100
AcDbAttributeDefinition
  3

  2
COMPANY
 70
     8
280
     0
  0
INSERT
  5
8F
330
6E
100
AcDbEntity
  8
0
100
AcDbBlockReference
  2
2_ASME_B18_3_10_1_0_in_071162_2
 10
0.0
 20
0.0
 30
0.0
  0
INSERT
  5
B6
330
6E
100
AcDbEntity
  8
0
100
AcDbBlockReference
  2
3_ASME_B18_3_10_2_0_in_071162_2
 10
0.0
 20
0.0
 30
0.0
  0
INSERT
  5
DA
330
6E
100
AcDbEntity
  8
0
100
AcDbBlockReference
  2
4_070883LWE_0_in_071162_2
 10
0.0
 20
0.0
 30
0.0
  0
INSERT
  5
113
330
6E
100
AcDbEntity
  8
0
100
AcDbBlockReference
  2
5_070883EL_0_in_071162_2
 10
0.0
 20
0.0
 30
0.0
  0
INSERT
  5
1A1
330
6E
100
AcDbEntity
  8
0
100
AcDbBlockReference
  2
6_405015E_Inch_0_in_071162_2
 10
0.0
 20
0.0
 30
0.0
  0
INSERT
  5
201
330
6E
100
AcDbEntity
  8
0
100
AcDbBlockReference
  2
7_071162Ho_0_in_071162_2
 10
0.0
 20
0.0
 30
0.0
  0
ENDBLK
  5
71
330
6E
100
AcDbEntity
  8
0
100
AcDbBlockEnd
  0
BLOCK
  5
90
330
8E
100
AcDbEntity
  8
0
100
AcDbBlockBegin
  2
2_ASME_B18_3_10_1_0_in_071162_2
 70
     2
 10
0.0
 20
0.0
 30
0.0
  3
2_ASME_B18_3_10_1_0_in_071162_2
  1

  0
ATTDEF
  5
92
330
8E
100
AcDbEntity
  8
AM_6
100
AcDbText
 10
4.371666666666666
 20
-0.8811319444444445
 30
0.0
 40
0.5
  1
ANSI/ASME B18.3-1998
100
AcDbAttributeDefinition
  3

  2
NN
 70
     8
280
     0
  0
ATTDEF
  5
93
330
8E
100
AcDbEntity
  8
AM_6
100
AcDbText
 10
4.371666666666666
 20
-1.381131944444445
 30
0.0
 40
0.5
  1
Socket Button Head Cap Screws
100
AcDbAttributeDefinition
  3

  2
NT
 70
     8
280
     0
  0
ATTDEF
  5
94
330
8E
100
AcDbEntity
  8
AM_6
100
AcDbText
 10
4.371666666666666
 20
-1.881131944444445
 30
0.0
 40
0.5
  1
ASME B18.3-10
100
AcDbAttributeDefinition
  3

  2
NB
 70
     8
280
     0
  0
ATTDEF
  5
95
330
8E
100
AcDbEntity
  8
AM_6
100
AcDbText
 10
4.371666666666666
 20
-2.381131944444444
 30
0.0
 40
0.5
  1
ASME B18.3-$NS.
100
AcDbAttributeDefinition
  3

  2
NBSYN
 70
     8
280
     0
  0
ATTDEF
  5
96
330
8E
100
AcDbEntity
  8
AM_6
100
AcDbText
 10
4.371666666666666
 20
-2.881131944444444
 30
0.0
 40
0.5
  1
ASME B18.3-10
100
AcDbAttributeDefinition
  3

  2
LINA
 70
     8
280
     0
  0
ATTDEF
  5
97
330
8E
100
AcDbEntity
  8
AM_6
100
AcDbText
 10
4.371666666666666
 20
-3.381131944444444
 30
0.0
 40
0.5
  1
10
100
AcDbAttributeDefinition
  3

  2
NS
 70
     8
280
     0
  0
ATTDEF
  5
98
330
8E
100
AcDbEntity
  8
AM_6
100
AcDbText
 10
4.371666666666666
 20
-3.881131944444444
 30
0.0
 40
0.5
  1
0.361
100
AcDbAttributeDefinition
  3

  2
A
 70
     8
280
     0
  0
ATTDEF
  5
99
330
8E
100
AcDbEntity
  8
AM_6
100
AcDbText
 10
4.371666666666666
 20
-4.381131944444444
 30
0.0
 40
0.5
  1
0.101
100
AcDbAttributeDefinition
  3

  2
H
 70
     8
280
     0
  0
ATTDEF
  5
9A
330
8E
100
AcDbEntity
  8
AM_6
100
AcDbText
 10
4.371666666666666
 20
-4.881131944444444
 30
0.0
 40
0.5
  1
0.800
100
AcDbAttributeDefinition
  3

  2
L
 70
     8
280
     0
  0
ATTDEF
  5
9B
330
8E
100
AcDbEntity
  8
AM_6
100
AcDbText
 10
4.371666666666666
 20
-5.381131944444444
 30
0.0
 40
0.5
  1
0.020
100
AcDbAttributeDefinition
  3

  2
S
 70
     8
280
     0
  0
ATTDEF
  5
9C
330
8E
100
AcDbEntity
  8
AM_6
100
AcDbText
 10
4.371666666666666
 20
-5.881131944444444
 30
0.0
 40
0.5
  1
0.125000
100
AcDbAttributeDefinition
  3

  2
J
 70
     8
280
     0
  0
ATTDEF
  5
9D
330
8E
100
AcDbEntity
  8
AM_6
100
AcDbText
 10
4.371666666666666
 20
-6.381131944444444
 30
0.0
 40
0.5
  1
baldor
100
AcDbAttributeDefinition
  3

  2
COMPANY
 70
     8
280
     0
  0
LINE
  5
A0
330
8E
100
AcDbEntity
  8
AM_9
100
AcDbLine
 10
-1.468333333333333
 20
-0.9894631607957411
 30
0.0
 11
-1.529333333333333
 21
-0.9894631607957411
 31
0.0
  0
LINE
  5
A1
330
8E
100
AcDbEntity
  8
AM_9
100
AcDbLine
 10
-1.468333333333333
 20
-1.133800728093148
 30
0.0
 11
-1.529333333333333
 21
-1.133800728093148
 31
0.0
  0
LINE
  5
A2
330
8E
100
AcDbEntity
  8
AM_9
100
AcDbLine
 10
-1.468333333333333
 20
-0.9894631607957411
 30
0.0
 11
-1.468333333333333
 21
-1.133800728093148
 31
0.0
  0
LINE
  5
A3
330
8E
100
AcDbEntity
  8
AM_9
100
AcDbLine
 10
-1.468333333333333
 20
-1.025547552620093
 30
0.0
 11
-1.529333333333333
 21
-1.025547552620093
 31
0.0
  0
LINE
  5
A4
330
8E
100
AcDbEntity
  8
AM_9
100
AcDbLine
 10
-1.468333333333333
 20
-1.097716336268796
 30
0.0
 11
-1.529333333333333
 21
-1.097716336268796
 31
0.0
  0
LINE
  5
A5
330
8E
100
AcDbEntity
  8
AM_9
100
AcDbLine
 10
-0.6283333333333334
 20
-0.9852319444444444
 30
0.0
 11
-0.6283333333333334
 21
-1.138031944444444
 31
0.0
  0
LINE
  5
A6
330
8E
100
AcDbEntity
  8
AM_9
100
AcDbLine
 10
-0.6283333333333334
 20
-0.9852319444444444
 30
0.0
 11
-0.6469333333333334
 21
-0.9666319444444444
 31
0.0
  0
LINE
  5
A7
330
8E
100
AcDbEntity
  8
AM_9
100
AcDbLine
 10
-0.6469333333333334
 20
-1.156631944444444
 30
0.0
 11
-0.6283333333333334
 21
-1.138031944444444
 31
0.0
  0
LINE
  5
A8
330
8E
100
AcDbEntity
  8
AM_9
100
AcDbLine
 10
-0.6469333333333334
 20
-0.9666319444444444
 30
0.0
 11
-0.6469333333333334
 21
-1.156631944444444
 31
0.0
  0
LINE
  5
A9
330
8E
100
AcDbEntity
  8
AM_9
100
AcDbLine
 10
-1.428333333333333
 20
-1.156631944444444
 30
0.0
 11
-0.6469333333333334
 21
-1.156631944444444
 31
0.0
  0
LINE
  5
AA
330
8E
100
AcDbEntity
  8
AM_9
100
AcDbLine
 10
-0.6469333333333334
 20
-0.9666319444444444
 30
0.0
 11
-1.428333333333333
 21
-0.9666319444444444
 31
0.0
  0
LINE
  5
AC
330
8E
100
AcDbEntity
  8
AM_5
100
AcDbLine
 10
-1.348333333333333
 20
-0.9666319444444444
 30
0.0
 11
-1.348333333333333
 21
-1.156631944444438
 31
0.0
  0
LINE
  5
AD
330
8E
100
AcDbEntity
  8
AM_5
100
AcDbLine
 10
-1.348333333333333
 20
-0.9852319444444444
 30
0.0
 11
-1.380549478354114
 21
-0.9666319444444444
 31
0.0
  0
LINE
  5
AF
330
8E
100
AcDbEntity
  8
AM_4
100
AcDbLine
 10
-1.529333333333333
 20
-0.9621319444444444
 30
0.0
 11
-1.529333333333333
 21
-1.161131944444444
 31
0.0
  0
ARC
  5
B0
330
8E
100
AcDbEntity
  8
AM_4
100
AcDbCircle
 10
-1.448333333333334
 20
-1.161131944444445
 30
0.0
 40
0.0809999999999989
100
AcDbArc
 50
180.0
 51
270.0
  0
ARC
  5
B1
330
8E
100
AcDbEntity
  8
AM_4
100
AcDbCircle
 10
-1.448333333333334
 20
-0.9621319444444439
 30
0.0
 40
0.0809999999999994
100
AcDbArc
 50
90.0
 51
180.0
  0
LINE
  5
B2
330
8E
100
AcDbEntity
  8
AM_4
100
AcDbLine
 10
-1.448333333333333
 20
-0.8811319444444445
 30
0.0
 11
-1.448333333333333
 21
-1.242131944444444
 31
0.0
  0
LINE
  5
B3
330
8E
100
AcDbEntity
  8
AM_4
100
AcDbLine
 10
-1.448333333333333
 20
-1.242131944444444
 30
0.0
 11
-1.428333333333333
 21
-1.242131944444444
 31
0.0
  0
LINE
  5
B4
330
8E
100
AcDbEntity
  8
AM_4
100
AcDbLine
 10
-1.428333333333333
 20
-0.8811319444444445
 30
0.0
 11
-1.448333333333333
 21
-0.8811319444444445
 31
0.0
  0
ENDBLK
  5
91
330
8E
100
AcDbEntity
  8
0
100
AcDbBlockEnd
  0
BLOCK
  5
B7
330
B5
100
AcDbEntity
  8
0
100
AcDbBlockBegin
  2
3_ASME_B18_3_10_2_0_in_071162_2
 70
     2
 10
0.0
 20
0.0
 30
0.0
  3
3_ASME_B18_3_10_2_0_in_071162_2
  1

  0
ATTDEF
  5
B9
330
B5
100
AcDbEntity
  8
AM_6
100
AcDbText
 10
4.371666666666666
 20
1.242131944444444
 30
0.0
 40
0.5
  1
ANSI/ASME B18.3-1998
100
AcDbAttributeDefinition
  3

  2
NN
 70
     8
280
     0
  0
ATTDEF
  5
BA
330
B5
100
AcDbEntity
  8
AM_6
100
AcDbText
 10
4.371666666666666
 20
0.7421319444444443
 30
0.0
 40
0.5
  1
Socket Button Head Cap Screws
100
AcDbAttributeDefinition
  3

  2
NT
 70
     8
280
     0
  0
ATTDEF
  5
BB
330
B5
100
AcDbEntity
  8
AM_6
100
AcDbText
 10
4.371666666666666
 20
0.2421319444444443
 30
0.0
 40
0.5
  1
ASME B18.3-10
100
AcDbAttributeDefinition
  3

  2
NB
 70
     8
280
     0
  0
ATTDEF
  5
BC
330
B5
100
AcDbEntity
  8
AM_6
100
AcDbText
 10
4.371666666666666
 20
-0.2578680555555557
 30
0.0
 40
0.5
  1
ASME B18.3-$NS.
100
AcDbAttributeDefinition
  3

  2
NBSYN
 70
     8
280
     0
  0
ATTDEF
  5
BD
330
B5
100
AcDbEntity
  8
AM_6
100
AcDbText
 10
4.371666666666666
 20
-0.7578680555555557
 30
0.0
 40
0.5
  1
ASME B18.3-10
100
AcDbAttributeDefinition
  3

  2
LINA
 70
     8
280
     0
  0
ATTDEF
  5
BE
330
B5
100
AcDbEntity
  8
AM_6
100
AcDbText
 10
4.371666666666666
 20
-1.257868055555556
 30
0.0
 40
0.5
  1
10
100
AcDbAttributeDefinition
  3

  2
NS
 70
     8
280
     0
  0
ATTDEF
  5
BF
330
B5
100
AcDbEntity
  8
AM_6
100
AcDbText
 10
4.371666666666666
 20
-1.757868055555556
 30
0.0
 40
0.5
  1
0.361
100
AcDbAttributeDefinition
  3

  2
A
 70
     8
280
     0
  0
ATTDEF
  5
C0
330
B5
100
AcDbEntity
  8
AM_6
100
AcDbText
 10
4.371666666666666
 20
-2.257868055555556
 30
0.0
 40
0.5
  1
0.101
100
AcDbAttributeDefinition
  3

  2
H
 70
     8
280
     0
  0
ATTDEF
  5
C1
330
B5
100
AcDbEntity
  8
AM_6
100
AcDbText
 10
4.371666666666666
 20
-2.757868055555556
 30
0.0
 40
0.5
  1
0.800
100
AcDbAttributeDefinition
  3

  2
L
 70
     8
280
     0
  0
ATTDEF
  5
C2
330
B5
100
AcDbEntity
  8
AM_6
100
AcDbText
 10
4.371666666666666
 20
-3.257868055555556
 30
0.0
 40
0.5
  1
0.020
100
AcDbAttributeDefinition
  3

  2
S
 70
     8
280
     0
  0
ATTDEF
  5
C3
330
B5
100
AcDbEntity
  8
AM_6
100
AcDbText
 10
4.371666666666666
 20
-3.757868055555556
 30
0.0
 40
0.5
  1
0.125000
100
AcDbAttributeDefinition
  3

  2
J
 70
     8
280
     0
  0
ATTDEF
  5
C4
330
B5
100
AcDbEntity
  8
AM_6
100
AcDbText
 10
4.371666666666666
 20
-4.257868055555556
 30
0.0
 40
0.5
  1
baldor
100
AcDbAttributeDefinition
  3

  2
COMPANY
 70
     8
280
     0
  0
LINE
  5
C5
330
B5
100
AcDbEntity
  8
AM_9
100
AcDbLine
 10
-1.468333333333333
 20
1.133800728093148
 30
0.0
 11
-1.529333333333333
 21
1.133800728093148
 31
0.0
  0
LINE
  5
C6
330
B5
100
AcDbEntity
  8
AM_9
100
AcDbLine
 10
-1.468333333333333
 20
0.9894631607957411
 30
0.0
 11
-1.529333333333333
 21
0.9894631607957411
 31
0.0
  0
LINE
  5
C7
330
B5
100
AcDbEntity
  8
AM_9
100
AcDbLine
 10
-1.468333333333333
 20
1.133800728093148
 30
0.0
 11
-1.468333333333333
 21
0.9894631607957411
 31
0.0
  0
LINE
  5
C8
330
B5
100
AcDbEntity
  8
AM_9
100
AcDbLine
 10
-1.468333333333333
 20
1.097716336268796
 30
0.0
 11
-1.529333333333333
 21
1.097716336268796
 31
0.0
  0
LINE
  5
C9
330
B5
100
AcDbEntity
  8
AM_9
100
AcDbLine
 10
-1.468333333333333
 20
1.025547552620093
 30
0.0
 11
-1.529333333333333
 21
1.025547552620093
 31
0.0
  0
LINE
  5
CA
330
B5
100
AcDbEntity
  8
AM_9
100
AcDbLine
 10
-0.6283333333333334
 20
1.138031944444444
 30
0.0
 11
-0.6283333333333334
 21
0.9852319444444444
 31
0.0
  0
LINE
  5
CB
330
B5
100
AcDbEntity
  8
AM_9
100
AcDbLine
 10
-0.6283333333333334
 20
1.138031944444444
 30
0.0
 11
-0.6469333333333334
 21
1.156631944444444
 31
0.0
  0
LINE
  5
CC
330
B5
100
AcDbEntity
  8
AM_9
100
AcDbLine
 10
-0.6469333333333334
 20
0.9666319444444444
 30
0.0
 11
-0.6283333333333334
 21
0.9852319444444444
 31
0.0
  0
LINE
  5
CD
330
B5
100
AcDbEntity
  8
AM_9
100
AcDbLine
 10
-0.6469333333333334
 20
1.156631944444444
 30
0.0
 11
-0.6469333333333334
 21
0.9666319444444444
 31
0.0
  0
LINE
  5
CE
330
B5
100
AcDbEntity
  8
AM_9
100
AcDbLine
 10
-1.428333333333333
 20
0.9666319444444444
 30
0.0
 11
-0.6469333333333334
 21
0.9666319444444444
 31
0.0
  0
LINE
  5
CF
330
B5
100
AcDbEntity
  8
AM_9
100
AcDbLine
 10
-0.6469333333333334
 20
1.156631944444444
 30
0.0
 11
-1.428333333333333
 21
1.156631944444444
 31
0.0
  0
LINE
  5
D0
330
B5
100
AcDbEntity
  8
AM_5
100
AcDbLine
 10
-1.348333333333333
 20
0.9852319444444444
 30
0.0
 11
-1.380549478354115
 21
0.9666319444444443
 31
0.0
  0
LINE
  5
D1
330
B5
100
AcDbEntity
  8
AM_5
100
AcDbLine
 10
-1.348333333333333
 20
1.156631944444439
 30
0.0
 11
-1.348333333333333
 21
0.9666319444444443
 31
0.0
  0
LINE
  5
D2
330
B5
100
AcDbEntity
  8
AM_5
100
AcDbLine
 10
-1.348333333333333
 20
1.138031944444444
 30
0.0
 11
-1.380549478354114
 21
1.156631944444444
 31
0.0
  0
LINE
  5
D3
330
B5
100
AcDbEntity
  8
AM_4
100
AcDbLine
 10
-1.529333333333333
 20
1.161131944444444
 30
0.0
 11
-1.529333333333333
 21
0.9621319444444444
 31
0.0
  0
ARC
  5
D4
330
B5
100
AcDbEntity
  8
AM_4
100
AcDbCircle
 10
-1.448333333333334
 20
0.9621319444444439
 30
0.0
 40
0.0809999999999993
100
AcDbArc
 50
180.0
 51
270.0
  0
ARC
  5
D5
330
B5
100
AcDbEntity
  8
AM_4
100
AcDbCircle
 10
-1.448333333333334
 20
1.161131944444445
 30
0.0
 40
0.0809999999999995
100
AcDbArc
 50
90.0
 51
180.0
  0
LINE
  5
D6
330
B5
100
AcDbEntity
  8
AM_4
100
AcDbLine
 10
-1.448333333333333
 20
1.242131944444444
 30
0.0
 11
-1.448333333333333
 21
0.8811319444444445
 31
0.0
  0
LINE
  5
D7
330
B5
100
AcDbEntity
  8
AM_4
100
AcDbLine
 10
-1.448333333333333
 20
0.8811319444444445
 30
0.0
 11
-1.428333333333333
 21
0.8811319444444445
 31
0.0
  0
LINE
  5
D8
330
B5
100
AcDbEntity
  8
AM_4
100
AcDbLine
 10
-1.428333333333333
 20
1.242131944444444
 30
0.0
 11
-1.448333333333333
 21
1.242131944444444
 31
0.0
  0
ENDBLK
  5
B8
330
B5
100
AcDbEntity
  8
0
100
AcDbBlockEnd
  0
BLOCK
  5
DB
330
D9
100
AcDbEntity
  8
0
100
AcDbBlockBegin
  2
4_070883LWE_0_in_071162_2
 70
     2
 10
0.0
 20
0.0
 30
0.0
  3
4_070883LWE_0_in_071162_2
  1

  0
ATTDEF
  5
DD
330
D9
100
AcDbEntity
  8
AM_6
100
AcDbText
 10
4.011666666666667
 20
1.36
 30
0.0
 40
0.5
  1
Imperial/E Insert Lockwasher -Inch
100
AcDbAttributeDefinition
  3

  2
NN
 70
     8
280
     0
  0
ATTDEF
  5
DE
330
D9
100
AcDbEntity
  8
AM_6
100
AcDbText
 10
4.011666666666667
 20
0.8600000000000003
 30
0.0
 40
0.5
  1
Imperial/E Bearings
100
AcDbAttributeDefinition
  3

  2
NT
 70
     8
280
     0
  0
ATTDEF
  5
DF
330
D9
100
AcDbEntity
  8
AM_6
100
AcDbText
 10
4.011666666666667
 20
0.3600000000000003
 30
0.0
 40
0.5
  1
070883LWE
100
AcDbAttributeDefinition
  3

  2
NB
 70
     8
280
     0
  0
ATTDEF
  5
E0
330
D9
100
AcDbEntity
  8
AM_6
100
AcDbText
 10
4.011666666666667
 20
-0.1399999999999997
 30
0.0
 40
0.5
  1
$PN.LWE
100
AcDbAttributeDefinition
  3

  2
NBSYN
 70
     8
280
     0
  0
ATTDEF
  5
E1
330
D9
100
AcDbEntity
  8
AM_6
100
AcDbText
 10
4.011666666666667
 20
-0.6399999999999997
 30
0.0
 40
0.5
  1
070883
100
AcDbAttributeDefinition
  3

  2
LINA
 70
     8
280
     0
  0
ATTDEF
  5
E2
330
D9
100
AcDbEntity
  8
AM_6
100
AcDbText
 10
4.011666666666667
 20
-1.14
 30
0.0
 40
0.5
  1
1-3/8
100
AcDbAttributeDefinition
  3

  2
SS
 70
     8
280
     0
  0
ATTDEF
  5
E3
330
D9
100
AcDbEntity
  8
AM_6
100
AcDbText
 10
4.011666666666667
 20
-1.64
 30
0.0
 40
0.5
  1
2.720000
100
AcDbAttributeDefinition
  3

  2
E1
 70
     8
280
     0
  0
ATTDEF
  5
E4
330
D9
100
AcDbEntity
  8
AM_6
100
AcDbText
 10
4.011666666666667
 20
-2.14
 30
0.0
 40
0.5
  1
1.375000
100
AcDbAttributeDefinition
  3

  2
SS1
 70
     8
280
     0
  0
ATTDEF
  5
E5
330
D9
100
AcDbEntity
  8
AM_6
100
AcDbText
 10
4.011666666666667
 20
-2.64
 30
0.0
 40
0.5
  1
070883
100
AcDbAttributeDefinition
  3

  2
PN
 70
     8
280
     0
  0
ATTDEF
  5
E6
330
D9
100
AcDbEntity
  8
AM_6
100
AcDbText
 10
4.011666666666667
 20
-3.14
 30
0.0
 40
0.5
  1
INS-IP-106R
100
AcDbAttributeDefinition
  3

  2
DESCRIPTION
 70
     8
280
     0
  0
ATTDEF
  5
E7
330
D9
100
AcDbEntity
  8
AM_6
100
AcDbText
 10
4.011666666666667
 20
-3.64
 30
0.0
 40
0.5
  1
3.1496
100
AcDbAttributeDefinition
  3

  2
A
 70
     8
280
     0
  0
ATTDEF
  5
E8
330
D9
100
AcDbEntity
  8
AM_6
100
AcDbText
 10
4.011666666666667
 20
-4.14
 30
0.0
 40
0.5
  1
61/64
100
AcDbAttributeDefinition
  3

  2
B
 70
     8
280
     0
  0
ATTDEF
  5
E9
330
D9
100
AcDbEntity
  8
AM_6
100
AcDbText
 10
4.011666666666667
 20
-4.64
 30
0.0
 40
0.5
  1
0.953125
100
AcDbAttributeDefinition
  3

  2
B1
 70
     8
280
     0
  0
ATTDEF
  5
EA
330
D9
100
AcDbEntity
  8
AM_6
100
AcDbText
 10
4.011666666666667
 20
-5.14
 30
0.0
 40
0.5
  1
2-5/8
100
AcDbAttributeDefinition
  3

  2
C
 70
     8
280
     0
  0
ATTDEF
  5
EB
330
D9
100
AcDbEntity
  8
AM_6
100
AcDbText
 10
4.011666666666667
 20
-5.64
 30
0.0
 40
0.5
  1
2.625000
100
AcDbAttributeDefinition
  3

  2
C1
 70
     8
280
     0
  0
ATTDEF
  5
EC
330
D9
100
AcDbEntity
  8
AM_6
100
AcDbText
 10
4.011666666666667
 20
-6.14
 30
0.0
 40
0.5
  1
0.970
100
AcDbAttributeDefinition
  3

  2
D
 70
     8
280
     0
  0
ATTDEF
  5
ED
330
D9
100
AcDbEntity
  8
AM_6
100
AcDbText
 10
4.011666666666667
 20
-6.64
 30
0.0
 40
0.5
  1
2-23/32
100
AcDbAttributeDefinition
  3

  2
E
 70
     8
280
     0
  0
ATTDEF
  5
EE
330
D9
100
AcDbEntity
  8
AM_6
100
AcDbText
 10
4.011666666666667
 20
-7.14
 30
0.0
 40
0.5
  1
0.1900
100
AcDbAttributeDefinition
  3

  2
NDM
 70
     8
280
     0
  0
ATTDEF
  5
EF
330
D9
100
AcDbEntity
  8
AM_6
100
AcDbText
 10
4.011666666666667
 20
-7.64
 30
0.0
 40
0.5
  1
0.1450
100
AcDbAttributeDefinition
  3

  2
KDM
 70
     8
280
     0
  0
ATTDEF
  5
F0
330
D9
100
AcDbEntity
  8
AM_6
100
AcDbText
 10
4.011666666666667
 20
-8.14
 30
0.0
 40
0.5
  1
2.22
100
AcDbAttributeDefinition
  3

  2
AL
 70
     8
280
     0
  0
ATTDEF
  5
F1
330
D9
100
AcDbEntity
  8
AM_6
100
AcDbText
 10
4.011666666666667
 20
-8.64
 30
0.0
 40
0.5
  1
0.38
100
AcDbAttributeDefinition
  3

  2
BL
 70
     8
280
     0
  0
ATTDEF
  5
F2
330
D9
100
AcDbEntity
  8
AM_6
100
AcDbText
 10
4.011666666666667
 20
-9.14
 30
0.0
 40
0.5
  1
0.07
100
AcDbAttributeDefinition
  3

  2
CL
 70
     8
280
     0
  0
ATTDEF
  5
F3
330
D9
100
AcDbEntity
  8
AM_6
100
AcDbText
 10
4.011666666666667
 20
-9.64
 30
0.0
 40
0.5
  1
0.44
100
AcDbAttributeDefinition
  3

  2
DL
 70
     8
280
     0
  0
ATTDEF
  5
F4
330
D9
100
AcDbEntity
  8
AM_6
100
AcDbText
 10
4.011666666666667
 20
-10.14
 30
0.0
 40
0.5
  1
baldor
100
AcDbAttributeDefinition
  3

  2
COMPANY
 70
     8
280
     0
  0
LINE
  5
F5
330
D9
100
AcDbEntity
  8
AM_9
100
AcDbLine
 10
-1.358333333333333
 20
0.6446799862632481
 30
0.0
 11
-1.428333333333333
 21
0.6446799862632481
 31
0.0
  0
LINE
  5
F6
330
D9
100
AcDbEntity
  8
AM_9
100
AcDbLine
 10
-0.9883333333333335
 20
0.626456260702968
 30
0.0
 11
-1.358333333333333
 21
0.626456260702968
 31
0.0
  0
LINE
  5
F7
330
D9
100
AcDbEntity
  8
AM_9
100
AcDbLine
 10
-0.9883333333333335
 20
0.5927190166558176
 30
0.0
 11
-1.428333333333333
 21
0.5927190166558176
 31
0.0
  0
LINE
  5
F8
330
D9
100
AcDbEntity
  8
AM_9
100
AcDbLine
 10
-1.358333333333333
 20
0.6991661128523352
 30
0.0
 11
-0.9883333333333335
 21
0.6991661128523352
 31
0.0
  0
LINE
  5
F9
330
D9
100
AcDbEntity
  8
AM_9
100
AcDbLine
 10
-0.9883333333333335
 20
0.6654288688051848
 30
0.0
 11
-1.428333333333333
 21
0.6654288688051848
 31
0.0
  0
LINE
  5
FA
330
D9
100
AcDbEntity
  8
AM_9
100
AcDbLine
 10
-0.9883333333333335
 20
0.5927190166558176
 30
0.0
 11
-0.9883333333333335
 21
0.6991661128523352
 31
0.0
  0
LINE
  5
FB
330
D9
100
AcDbEntity
  8
AM_9
100
AcDbLine
 10
-1.358333333333333
 20
0.7173898384126149
 30
0.0
 11
-1.428333333333333
 21
0.7173898384126149
 31
0.0
  0
LINE
  5
FC
330
D9
100
AcDbEntity
  8
AM_9
100
AcDbLine
 10
-1.358333333333333
 20
-1.061944444444445
 30
0.0
 11
-1.428333333333333
 21
-1.061944444444444
 31
0.0
  0
LINE
  5
FD
330
D9
100
AcDbEntity
  8
AM_9
100
AcDbLine
 10
-1.428333333333333
 20
-1.152781995941879
 30
0.0
 11
-1.358333333333333
 21
-1.152781995941879
 31
0.0
  0
LINE
  5
FE
330
D9
100
AcDbEntity
  8
AM_9
100
AcDbLine
 10
-1.358333333333333
 20
1.061944444444444
 30
0.0
 11
-1.428333333333333
 21
1.061944444444444
 31
0.0
  0
LINE
  5
FF
330
D9
100
AcDbEntity
  8
AM_9
100
AcDbLine
 10
-1.358333333333333
 20
1.157039812369113
 30
0.0
 11
-1.428333333333333
 21
1.157039812369113
 31
0.0
  0
LINE
  5
100
330
D9
100
AcDbEntity
  8
AM_9
100
AcDbLine
 10
-1.358333333333333
 20
0.7371468772413914
 30
0.0
 11
-1.428333333333333
 21
0.7371468772413914
 31
0.0
  0
LINE
  5
101
330
D9
100
AcDbEntity
  8
AM_9
100
AcDbLine
 10
-1.358333333333333
 20
-0.7371468772413914
 30
0.0
 11
-1.428333333333333
 21
-0.7371468772413914
 31
0.0
  0
LINE
  5
102
330
D9
100
AcDbEntity
  8
AM_9
100
AcDbLine
 10
-1.358333333333333
 20
-0.588416699840597
 30
0.0
 11
-1.428333333333333
 21
-0.588416699840597
 31
0.0
  0
LINE
  5
103
330
D9
100
AcDbEntity
  8
AM_9
100
AcDbLine
 10
-1.358333333333333
 20
0.5884166998405972
 30
0.0
 11
-1.428333333333333
 21
0.5884166998405974
 31
0.0
  0
LINE
  5
104
330
D9
100
AcDbEntity
  8
AM_9
100
AcDbLine
 10
-1.358333333333333
 20
-0.4540664114151532
 30
0.0
 11
-1.428333333333333
 21
-0.4540664114151532
 31
0.0
  0
LINE
  5
105
330
D9
100
AcDbEntity
  8
AM_9
100
AcDbLine
 10
-1.358333333333333
 20
0.4540664114151531
 30
0.0
 11
-1.428333333333333
 21
0.4540664114151531
 31
0.0
  0
LINE
  5
106
330
D9
100
AcDbEntity
  8
AM_9
100
AcDbLine
 10
-1.358333333333333
 20
-0.6837329736973256
 30
0.0
 11
-1.428333333333333
 21
-0.6837329736973256
 31
0.0
  0
LINE
  5
107
330
D9
100
AcDbEntity
  8
AM_9
100
AcDbLine
 10
-1.358333333333333
 20
-0.8180832621227677
 30
0.0
 11
-1.428333333333333
 21
-0.8180832621227677
 31
0.0
  0
LINE
  5
108
330
D9
100
AcDbEntity
  8
AM_9
100
AcDbLine
 10
-1.428333333333333
 20
-0.8459755672226267
 30
0.0
 11
-1.358333333333333
 21
-0.8459755672226267
 31
0.0
  0
LINE
  5
109
330
D9
100
AcDbEntity
  8
AM_9
100
AcDbLine
 10
-1.358333333333333
 20
0.8180832621227695
 30
0.0
 11
-1.428333333333333
 21
0.8180832621227695
 31
0.0
  0
LINE
  5
10A
330
D9
100
AcDbEntity
  8
AM_9
100
AcDbLine
 10
-1.358333333333333
 20
0.6837329736973256
 30
0.0
 11
-1.428333333333333
 21
0.6837329736973256
 31
0.0
  0
LINE
  5
10B
330
D9
100
AcDbEntity
  8
AM_9
100
AcDbLine
 10
-1.358333333333333
 20
0.8459755672226266
 30
0.0
 11
-1.428333333333333
 21
0.8459755672226266
 31
0.0
  0
LINE
  5
10C
330
D9
100
AcDbEntity
  8
AM_9
100
AcDbLine
 10
-1.358333333333333
 20
0.095
 30
0.0
 11
-1.428333333333333
 21
0.095
 31
0.0
  0
LINE
  5
10D
330
D9
100
AcDbEntity
  8
AM_9
100
AcDbLine
 10
-1.358333333333333
 20
-0.0949999999999999
 30
0.0
 11
-1.428333333333333
 21
-0.0949999999999999
 31
0.0
  0
LINE
  5
10E
330
D9
100
AcDbEntity
  8
AM_4
100
AcDbLine
 10
-1.358333333333333
 20
1.36
 30
0.0
 11
-1.428333333333333
 21
1.36
 31
0.0
  0
LINE
  5
10F
330
D9
100
AcDbEntity
  8
AM_4
100
AcDbLine
 10
-1.428333333333333
 20
-1.36
 30
0.0
 11
-1.358333333333333
 21
-1.36
 31
0.0
  0
LINE
  5
110
330
D9
100
AcDbEntity
  8
AM_4
100
AcDbLine
 10
-1.428333333333333
 20
1.36
 30
0.0
 11
-1.428333333333333
 21
-1.36
 31
0.0
  0
LINE
  5
111
330
D9
100
AcDbEntity
  8
AM_4
100
AcDbLine
 10
-1.358333333333333
 20
1.36
 30
0.0
 11
-1.358333333333333
 21
-1.36
 31
0.0
  0
ENDBLK
  5
DC
330
D9
100
AcDbEntity
  8
0
100
AcDbBlockEnd
  0
BLOCK
  5
114
330
112
100
AcDbEntity
  8
0
100
AcDbBlockBegin
  2
5_070883EL_0_in_071162_2
 70
     2
 10
0.0
 20
0.0
 30
0.0
  3
5_070883EL_0_in_071162_2
  1

  0
ATTDEF
  5
116
330
112
100
AcDbEntity
  8
AM_6
100
AcDbText
 10
6.1925
 20
1.5748
 30
0.0
 40
0.5
  1
Imperial/E Insert -Inch
100
AcDbAttributeDefinition
  3

  2
NN
 70
     8
280
     0
  0
ATTDEF
  5
117
330
112
100
AcDbEntity
  8
AM_6
100
AcDbText
 10
6.1925
 20
1.0748
 30
0.0
 40
0.5
  1
Imperial Bearings
100
AcDbAttributeDefinition
  3

  2
NT
 70
     8
280
     0
  0
ATTDEF
  5
118
330
112
100
AcDbEntity
  8
AM_6
100
AcDbText
 10
6.1925
 20
0.5747999999999998
 30
0.0
 40
0.5
  1
070883EL
100
AcDbAttributeDefinition
  3

  2
NB
 70
     8
280
     0
  0
ATTDEF
  5
119
330
112
100
AcDbEntity
  8
AM_6
100
AcDbText
 10
6.1925
 20
0.0747999999999998
 30
0.0
 40
0.5
  1
$PN.
100
AcDbAttributeDefinition
  3

  2
NBSYN
 70
     8
280
     0
  0
ATTDEF
  5
11A
330
112
100
AcDbEntity
  8
AM_6
100
AcDbText
 10
6.1925
 20
-0.4252000000000002
 30
0.0
 40
0.5
  1
070883EL
100
AcDbAttributeDefinition
  3

  2
LINA
 70
     8
280
     0
  0
ATTDEF
  5
11B
330
112
100
AcDbEntity
  8
AM_6
100
AcDbText
 10
6.1925
 20
-0.9252000000000002
 30
0.0
 40
0.5
  1
1-3/8
100
AcDbAttributeDefinition
  3

  2
SS
 70
     8
280
     0
  0
ATTDEF
  5
11C
330
112
100
AcDbEntity
  8
AM_6
100
AcDbText
 10
6.1925
 20
-1.4252
 30
0.0
 40
0.5
  1
1.375000
100
AcDbAttributeDefinition
  3

  2
SS1
 70
     8
280
     0
  0
ATTDEF
  5
11D
330
112
100
AcDbEntity
  8
AM_6
100
AcDbText
 10
6.1925
 20
-1.9252
 30
0.0
 40
0.5
  1
070883EL
100
AcDbAttributeDefinition
  3

  2
PN
 70
     8
280
     0
  0
ATTDEF
  5
11E
330
112
100
AcDbEntity
  8
AM_6
100
AcDbText
 10
6.1925
 20
-2.4252
 30
0.0
 40
0.5
  1
INS-IP-106R
100
AcDbAttributeDefinition
  3

  2
DESCRIPTION
 70
     8
280
     0
  0
ATTDEF
  5
11F
330
112
100
AcDbEntity
  8
AM_6
100
AcDbText
 10
6.1925
 20
-2.9252
 30
0.0
 40
0.5
  1
Labyrinth Seal
100
AcDbAttributeDefinition
  3

  2
ST
 70
     8
280
     0
  0
ATTDEF
  5
120
330
112
100
AcDbEntity
  8
AM_6
100
AcDbText
 10
6.1925
 20
-3.4252
 30
0.0
 40
0.5
  1
1
100
AcDbAttributeDefinition
  3

  2
ST1
 70
     8
280
     0
  0
ATTDEF
  5
121
330
112
100
AcDbEntity
  8
AM_6
100
AcDbText
 10
6.1925
 20
-3.9252
 30
0.0
 40
0.5
  1
3.1496
100
AcDbAttributeDefinition
  3

  2
A
 70
     8
280
     0
  0
ATTDEF
  5
122
330
112
100
AcDbEntity
  8
AM_6
100
AcDbText
 10
6.1925
 20
-4.4252
 30
0.0
 40
0.5
  1
61/64
100
AcDbAttributeDefinition
  3

  2
B
 70
     8
280
     0
  0
ATTDEF
  5
123
330
112
100
AcDbEntity
  8
AM_6
100
AcDbText
 10
6.1925
 20
-4.9252
 30
0.0
 40
0.5
  1
0.953125
100
AcDbAttributeDefinition
  3

  2
B1
 70
     8
280
     0
  0
ATTDEF
  5
124
330
112
100
AcDbEntity
  8
AM_6
100
AcDbText
 10
6.1925
 20
-5.4252
 30
0.0
 40
0.5
  1
2-5/8
100
AcDbAttributeDefinition
  3

  2
C
 70
     8
280
     0
  0
ATTDEF
  5
125
330
112
100
AcDbEntity
  8
AM_6
100
AcDbText
 10
6.1925
 20
-5.9252
 30
0.0
 40
0.5
  1
2.630000
100
AcDbAttributeDefinition
  3

  2
C1
 70
     8
280
     0
  0
ATTDEF
  5
126
330
112
100
AcDbEntity
  8
AM_6
100
AcDbText
 10
6.1925
 20
-6.4252
 30
0.0
 40
0.5
  1
3.15000
100
AcDbAttributeDefinition
  3

  2
CR
 70
     8
280
     0
  0
ATTDEF
  5
127
330
112
100
AcDbEntity
  8
AM_6
100
AcDbText
 10
6.1925
 20
-6.9252
 30
0.0
 40
0.5
  1
0.970
100
AcDbAttributeDefinition
  3

  2
D
 70
     8
280
     0
  0
ATTDEF
  5
128
330
112
100
AcDbEntity
  8
AM_6
100
AcDbText
 10
6.1925
 20
-7.4252
 30
0.0
 40
0.5
  1
2-23/32
100
AcDbAttributeDefinition
  3

  2
E
 70
     8
280
     0
  0
ATTDEF
  5
129
330
112
100
AcDbEntity
  8
AM_6
100
AcDbText
 10
6.1925
 20
-7.9252
 30
0.0
 40
0.5
  1
2.718750
100
AcDbAttributeDefinition
  3

  2
E1
 70
     8
280
     0
  0
ATTDEF
  5
12A
330
112
100
AcDbEntity
  8
AM_6
100
AcDbText
 10
6.1925
 20
-8.4252
 30
0.0
 40
0.5
  1
0.1900
100
AcDbAttributeDefinition
  3

  2
NDM
 70
     8
280
     0
  0
ATTDEF
  5
12B
330
112
100
AcDbEntity
  8
AM_6
100
AcDbText
 10
6.1925
 20
-8.9252
 30
0.0
 40
0.5
  1
0.1450
100
AcDbAttributeDefinition
  3

  2
KDM
 70
     8
280
     0
  0
ATTDEF
  5
12C
330
112
100
AcDbEntity
  8
AM_6
100
AcDbText
 10
6.1925
 20
-9.4252
 30
0.0
 40
0.5
  1
2.22
100
AcDbAttributeDefinition
  3

  2
AL
 70
     8
280
     0
  0
ATTDEF
  5
12D
330
112
100
AcDbEntity
  8
AM_6
100
AcDbText
 10
6.1925
 20
-9.9252
 30
0.0
 40
0.5
  1
0.38
100
AcDbAttributeDefinition
  3

  2
BL
 70
     8
280
     0
  0
ATTDEF
  5
12E
330
112
100
AcDbEntity
  8
AM_6
100
AcDbText
 10
6.1925
 20
-10.4252
 30
0.0
 40
0.5
  1
0.07
100
AcDbAttributeDefinition
  3

  2
CL
 70
     8
280
     0
  0
ATTDEF
  5
12F
330
112
100
AcDbEntity
  8
AM_6
100
AcDbText
 10
6.1925
 20
-10.9252
 30
0.0
 40
0.5
  1
0.44
100
AcDbAttributeDefinition
  3

  2
DL
 70
     8
280
     0
  0
ATTDEF
  5
130
330
112
100
AcDbEntity
  8
AM_6
100
AcDbText
 10
6.1925
 20
-11.4252
 30
0.0
 40
0.5
  1
0.8000
100
AcDbAttributeDefinition
  3

  2
LL
 70
     8
280
     0
  0
ATTDEF
  5
131
330
112
100
AcDbEntity
  8
AM_6
100
AcDbText
 10
6.1925
 20
-11.9252
 30
0.0
 40
0.5
  1
0.020
100
AcDbAttributeDefinition
  3

  2
Y
 70
     8
280
     0
  0
ATTDEF
  5
132
330
112
100
AcDbEntity
  8
AM_6
100
AcDbText
 10
6.1925
 20
-12.4252
 30
0.0
 40
0.5
  1
0.020000
100
AcDbAttributeDefinition
  3

  2
Y1
 70
     8
280
     0
  0
ATTDEF
  5
133
330
112
100
AcDbEntity
  8
AM_6
100
AcDbText
 10
6.1925
 20
-12.9252
 30
0.0
 40
0.5
  1
1-51/64
100
AcDbAttributeDefinition
  3

  2
Z
 70
     8
280
     0
  0
ATTDEF
  5
134
330
112
100
AcDbEntity
  8
AM_6
100
AcDbText
 10
6.1925
 20
-13.4252
 30
0.0
 40
0.5
  1
1.796875
100
AcDbAttributeDefinition
  3

  2
Z1
 70
     8
280
     0
  0
ATTDEF
  5
135
330
112
100
AcDbEntity
  8
AM_6
100
AcDbText
 10
6.1925
 20
-13.9252
 30
0.0
 40
0.5
  1
0.53000
100
AcDbAttributeDefinition
  3

  2
P1
 70
     8
280
     0
  0
ATTDEF
  5
136
330
112
100
AcDbEntity
  8
AM_6
100
AcDbText
 10
6.1925
 20
-14.4252
 30
0.0
 40
0.5
  1
1.06000
100
AcDbAttributeDefinition
  3

  2
H1
 70
     8
280
     0
  0
ATTDEF
  5
137
330
112
100
AcDbEntity
  8
AM_6
100
AcDbText
 10
6.1925
 20
-14.9252
 30
0.0
 40
0.5
  1
0.66000
100
AcDbAttributeDefinition
  3

  2
G1
 70
     8
280
     0
  0
ATTDEF
  5
138
330
112
100
AcDbEntity
  8
AM_6
100
AcDbText
 10
6.1925
 20
-15.4252
 30
0.0
 40
0.5
  1
0.10100
100
AcDbAttributeDefinition
  3

  2
CW
 70
     8
280
     0
  0
ATTDEF
  5
139
330
112
100
AcDbEntity
  8
AM_6
100
AcDbText
 10
6.1925
 20
-15.9252
 30
0.0
 40
0.5
  1
2.72000
100
AcDbAttributeDefinition
  3

  2
L1
 70
     8
280
     0
  0
ATTDEF
  5
13A
330
112
100
AcDbEntity
  8
AM_6
100
AcDbText
 10
6.1925
 20
-16.4252
 30
0.0
 40
0.5
  1
baldor
100
AcDbAttributeDefinition
  3

  2
COMPANY
 70
     8
280
     0
  0
LINE
  5
13B
330
112
100
AcDbEntity
  8
AM_9
100
AcDbLine
 10
0.5465625000000003
 20
0.7009455793951057
 30
0.0
 11
-1.358333333333333
 21
0.7009455793951057
 31
0.0
  0
LINE
  5
13C
330
112
100
AcDbEntity
  8
AM_9
100
AcDbLine
 10
0.5465625000000003
 20
0.6282357272457387
 30
0.0
 11
-1.358333333333333
 21
0.6282357272457387
 31
0.0
  0
LINE
  5
13D
330
112
100
AcDbEntity
  8
AM_9
100
AcDbLine
 10
-0.5183333333333332
 20
1.061631944444444
 30
0.0
 11
-0.5601623603361215
 21
1.134081944444444
 31
0.0
  0
LINE
  5
13E
330
112
100
AcDbEntity
  8
AM_9
100
AcDbLine
 10
-0.5601623603361215
 20
0.9891819444444445
 30
0.0
 11
-0.5183333333333332
 21
1.061631944444444
 31
0.0
  0
LINE
  5
13F
330
112
100
AcDbEntity
  8
AM_9
100
AcDbLine
 10
-0.5183333333333293
 20
-1.061631944444444
 30
0.0
 11
-0.5601623603361232
 21
-0.9891819444444445
 31
0.0
  0
LINE
  5
140
330
112
100
AcDbEntity
  8
AM_9
100
AcDbLine
 10
-0.5601623603361232
 20
-1.134081944444444
 30
0.0
 11
-0.5183333333333293
 21
-1.061631944444444
 31
0.0
  0
LINE
  5
141
330
112
100
AcDbEntity
  8
AM_9
100
AcDbLine
 10
-0.5601623603361215
 20
0.9891819444444445
 30
0.0
 11
-0.5601623603361215
 21
1.134081944444444
 31
0.0
  0
LINE
  5
142
330
112
100
AcDbEntity
  8
AM_9
100
AcDbLine
 10
-0.5601623603361215
 20
1.134081944444444
 30
0.0
 11
-1.335783333333333
 21
1.134081944444444
 31
0.0
  0
LINE
  5
143
330
112
100
AcDbEntity
  8
AM_9
100
AcDbLine
 10
-1.335783333333333
 20
0.9891819444444445
 30
0.0
 11
-0.5601623603361215
 21
0.9891819444444445
 31
0.0
  0
LINE
  5
144
330
112
100
AcDbEntity
  8
AM_9
100
AcDbLine
 10
-1.335783333333331
 20
-1.134081944444444
 30
0.0
 11
-0.5601623603361232
 21
-1.134081944444444
 31
0.0
  0
LINE
  5
145
330
112
100
AcDbEntity
  8
AM_9
100
AcDbLine
 10
-0.5601623603361232
 20
-0.9891819444444445
 30
0.0
 11
-1.335783333333331
 21
-0.9891819444444445
 31
0.0
  0
LINE
  5
146
330
112
100
AcDbEntity
  8
AM_9
100
AcDbLine
 10
-0.5601623603361232
 20
-0.9891819444444445
 30
0.0
 11
-0.5601623603361232
 21
-1.134081944444444
 31
0.0
  0
LINE
  5
147
330
112
100
AcDbEntity
  8
AM_9
100
AcDbLine
 10
-1.335783333333333
 20
0.9891819444444445
 30
0.0
 11
-1.335783333333333
 21
1.134081944444444
 31
0.0
  0
LINE
  5
148
330
112
100
AcDbEntity
  8
AM_9
100
AcDbLine
 10
-1.335783333333333
 20
1.134081944444444
 30
0.0
 11
-1.358333333333333
 21
1.156631944444444
 31
0.0
  0
LINE
  5
149
330
112
100
AcDbEntity
  8
AM_9
100
AcDbLine
 10
-1.358333333333333
 20
0.9666319444444444
 30
0.0
 11
-1.335783333333333
 21
0.9891819444444445
 31
0.0
  0
LINE
  5
14A
330
112
100
AcDbEntity
  8
AM_9
100
AcDbLine
 10
-1.335783333333331
 20
-0.9891819444444445
 30
0.0
 11
-1.358333333333336
 21
-0.9666319444444444
 31
0.0
  0
LINE
  5
14B
330
112
100
AcDbEntity
  8
AM_9
100
AcDbLine
 10
-1.358333333333336
 20
-1.156631944444444
 30
0.0
 11
-1.335783333333331
 21
-1.134081944444444
 31
0.0
  0
LINE
  5
14C
330
112
100
AcDbEntity
  8
AM_9
100
AcDbLine
 10
-1.335783333333331
 20
-0.9891819444444445
 30
0.0
 11
-1.335783333333331
 21
-1.134081944444444
 31
0.0
  0
LINE
  5
14D
330
112
100
AcDbEntity
  8
AM_9
100
AcDbLine
 10
0.5465625000000003
 20
0.6654288688051848
 30
0.0
 11
-1.59
 21
0.6654288688051845
 31
0.0
  0
LINE
  5
14E
330
112
100
AcDbEntity
  8
AM_9
100
AcDbLine
 10
-1.59
 20
0.5927190166558175
 30
0.0
 11
0.5465625000000003
 21
0.5927190166558178
 31
0.0
  0
LINE
  5
14F
330
112
100
AcDbEntity
  8
AM_9
100
AcDbLine
 10
0.5465625
 20
0.6875000000000002
 30
0.0
 11
-1.59
 21
0.6875000000000002
 31
0.0
  0
LINE
  5
150
330
112
100
AcDbEntity
  8
AM_9
100
AcDbLine
 10
-1.59
 20
-0.6875000000000002
 30
0.0
 11
0.5465625
 21
-0.6875000000000002
 31
0.0
  0
LINE
  5
151
330
112
100
AcDbEntity
  8
AM_9
100
AcDbLine
 10
1.04
 20
0.7236842105263158
 30
0.0
 11
0.5465625
 21
0.7236842105263158
 31
0.0
  0
LINE
  5
152
330
112
100
AcDbEntity
  8
AM_9
100
AcDbLine
 10
0.5465625
 20
-0.7236842105263158
 30
0.0
 11
1.04
 21
-0.7236842105263158
 31
0.0
  0
LINE
  5
153
330
112
100
AcDbEntity
  8
AM_9
100
AcDbLine
 10
-1.59
 20
0.699166112852335
 30
0.0
 11
-1.358333333333333
 21
0.699166112852335
 31
0.0
  0
LINE
  5
154
330
112
100
AcDbEntity
  8
AM_9
100
AcDbLine
 10
-1.358333333333333
 20
0.6264562607029681
 30
0.0
 11
-1.59
 21
0.6264562607029681
 31
0.0
  0
LINE
  5
155
330
112
100
AcDbEntity
  8
AM_9
100
AcDbLine
 10
-1.358333333333333
 20
0.7236842105263158
 30
0.0
 11
-1.428333333333333
 21
0.7236842105263158
 31
0.0
  0
LINE
  5
156
330
112
100
AcDbEntity
  8
AM_9
100
AcDbLine
 10
-1.428333333333333
 20
-0.7236842105263158
 30
0.0
 11
-1.358333333333333
 21
-0.7236842105263158
 31
0.0
  0
LINE
  5
157
330
112
100
AcDbEntity
  8
AM_9
100
AcDbLine
 10
1.04
 20
-0.8984375
 30
0.0
 11
1.04
 21
0.8984375
 31
0.0
  0
LINE
  5
158
330
112
100
AcDbEntity
  8
AM_9
100
AcDbLine
 10
1.06
 20
0.8984375
 30
0.0
 11
1.04
 21
0.8984375
 31
0.0
  0
LINE
  5
159
330
112
100
AcDbEntity
  8
AM_9
100
AcDbLine
 10
1.04
 20
-0.8984375
 30
0.0
 11
1.06
 21
-0.8984375
 31
0.0
  0
LINE
  5
15A
330
112
100
AcDbEntity
  8
AM_9
100
AcDbLine
 10
-0.9183333333333334
 20
-0.6505382386916239
 30
0.0
 11
-1.358333333333333
 21
-0.6505382386916239
 31
0.0
  0
LINE
  5
15B
330
112
100
AcDbEntity
  8
AM_9
100
AcDbLine
 10
-0.9183333333333334
 20
-0.9192388155425117
 30
0.0
 11
-1.06
 21
-0.9192388155425117
 31
0.0
  0
LINE
  5
15C
330
112
100
AcDbEntity
  8
AM_9
100
AcDbLine
 10
-0.9183333333333334
 20
0.6505382386916234
 30
0.0
 11
-1.358333333333333
 21
0.6505382386916234
 31
0.0
  0
LINE
  5
15D
330
112
100
AcDbEntity
  8
AM_9
100
AcDbLine
 10
-0.9183333333333334
 20
0.9192388155425117
 30
0.0
 11
-0.954
 21
0.9192388155425117
 31
0.0
  0
LINE
  5
15E
330
112
100
AcDbEntity
  8
AM_9
100
AcDbLine
 10
-0.9183333333333334
 20
1.091622453997033
 30
0.0
 11
-0.9183333333333334
 21
0.6505382386916234
 31
0.0
  0
LINE
  5
15F
330
112
100
AcDbEntity
  8
AM_9
100
AcDbLine
 10
0.954
 20
1.197916666666667
 30
0.0
 11
0.7371874999999998
 21
1.197916666666667
 31
0.0
  0
LINE
  5
160
330
112
100
AcDbEntity
  8
AM_9
100
AcDbLine
 10
0.7371874999999998
 20
-1.197916666666667
 30
0.0
 11
1.06
 21
-1.197916666666667
 31
0.0
  0
LINE
  5
161
330
112
100
AcDbEntity
  8
AM_9
100
AcDbLine
 10
0.7371874999999998
 20
-1.207007578016766
 30
0.0
 11
0.7371874999999998
 21
1.207007578016766
 31
0.0
  0
ARC
  5
162
330
112
100
AcDbEntity
  8
AM_9
100
AcDbCircle
 10
0.6371875000000001
 20
1.207007578016765
 30
0.0
 40
0.0999999999999996
100
AcDbArc
 50
0.0
 51
60.00000000000014
  0
ARC
  5
163
330
112
100
AcDbEntity
  8
AM_9
100
AcDbCircle
 10
0.6371875000000001
 20
-1.207007578016765
 30
0.0
 40
0.0999999999999996
100
AcDbArc
 50
299.9999999999998
 51
0.0
  0
LINE
  5
164
330
112
100
AcDbEntity
  8
AM_9
100
AcDbLine
 10
0.6871874999999997
 20
1.293610118395209
 30
0.0
 11
0.5465625
 21
1.3748
 31
0.0
  0
LINE
  5
165
330
112
100
AcDbEntity
  8
AM_9
100
AcDbLine
 10
0.5465625
 20
-1.3748
 30
0.0
 11
0.6871874999999997
 21
-1.293610118395209
 31
0.0
  0
LINE
  5
166
330
112
100
AcDbEntity
  8
AM_9
100
AcDbLine
 10
0.6871874999999997
 20
-1.293610118395209
 30
0.0
 11
0.6871874999999997
 21
1.293610118395209
 31
0.0
  0
LINE
  5
167
330
112
100
AcDbEntity
  8
AM_9
100
AcDbLine
 10
-1.060000001663309
 20
-0.821156174639608
 30
0.0
 11
-0.9183333333333334
 21
-0.8229218771461457
 31
0.0
  0
LINE
  5
168
330
112
100
AcDbEntity
  8
AM_9
100
AcDbLine
 10
-0.9183333333333334
 20
-0.6505382386916239
 30
0.0
 11
-0.9183333333333334
 21
-1.091622453997034
 31
0.0
  0
LINE
  5
169
330
112
100
AcDbEntity
  8
AM_9
100
AcDbLine
 10
-0.9183333333333334
 20
-1.091622453997034
 30
0.0
 11
-1.060000001663309
 21
-1.089856751490496
 31
0.0
  0
LINE
  5
16A
330
112
100
AcDbEntity
  8
AM_9
100
AcDbLine
 10
-0.9540000005667532
 20
1.091177918362125
 30
0.0
 11
-0.9183333333333334
 21
1.091622453997033
 31
0.0
  0
LINE
  5
16B
330
112
100
AcDbEntity
  8
AM_9
100
AcDbLine
 10
-0.9183333333333334
 20
0.8229218771461452
 30
0.0
 11
-0.9540000005667532
 21
0.8224773415112366
 31
0.0
  0
LINE
  5
16C
330
112
100
AcDbEntity
  8
AM_9
100
AcDbLine
 10
-1.059999999999999
 20
-1.364582427703584
 30
0.0
 11
-0.4556898796781358
 21
-1.375130700090581
 31
0.0
  0
LINE
  5
16D
330
112
100
AcDbEntity
  8
AM_9
100
AcDbLine
 10
-0.4556898796781358
 20
1.375130700090581
 30
0.0
 11
-0.954
 21
1.366432664585975
 31
0.0
  0
ARC
  5
16E
330
112
100
AcDbEntity
  8
AM_9
100
AcDbCircle
 10
-0.4565625000000008
 20
1.425123084848402
 30
0.0
 40
0.0500000000000008
100
AcDbArc
 50
271.000000000001
 51
0.0
  0
ARC
  5
16F
330
112
100
AcDbEntity
  8
AM_9
100
AcDbCircle
 10
-0.4565625000000006
 20
-1.425123084848402
 30
0.0
 40
0.0500000000000007
100
AcDbArc
 50
0.0
 51
88.99999999999922
  0
LINE
  5
170
330
112
100
AcDbEntity
  8
AM_9
100
AcDbLine
 10
-0.4556898796781358
 20
-1.375130700090581
 30
0.0
 11
-0.4556898796781358
 21
1.375130700090581
 31
0.0
  0
LINE
  5
171
330
112
100
AcDbEntity
  8
AM_9
100
AcDbLine
 10
0.077514348766068
 20
1.52714375
 30
0.0
 11
0.0224856512339318
 21
1.52714375
 31
0.0
  0
LINE
  5
172
330
112
100
AcDbEntity
  8
AM_9
100
AcDbLine
 10
0.0224856512339318
 20
-1.52714375
 30
0.0
 11
0.077514348766068
 21
-1.52714375
 31
0.0
  0
LINE
  5
173
330
112
100
AcDbEntity
  8
AM_9
100
AcDbLine
 10
-0.4065625000000001
 20
-1.564799999999999
 30
0.0
 11
-0.4065625000000001
 21
1.564799999999999
 31
0.0
  0
ARC
  5
174
330
112
100
AcDbEntity
  8
AM_9
100
AcDbCircle
 10
-0.3965625000000013
 20
1.564800000000001
 30
0.0
 40
0.0099999999999989
100
AcDbArc
 50
90.0
 51
180.0
  0
ARC
  5
175
330
112
100
AcDbEntity
  8
AM_9
100
AcDbCircle
 10
-0.3965625000000013
 20
-1.564800000000001
 30
0.0
 40
0.0099999999999988
100
AcDbArc
 50
180.0
 51
270.0
  0
LINE
  5
176
330
112
100
AcDbEntity
  8
AM_9
100
AcDbLine
 10
0.0224856512339318
 20
1.52714375
 30
0.0
 11
-0.0050286975321364
 21
1.5748
 31
0.0
  0
LINE
  5
177
330
112
100
AcDbEntity
  8
AM_9
100
AcDbLine
 10
-0.0050286975321364
 20
-1.5748
 30
0.0
 11
0.0224856512339318
 21
-1.52714375
 31
0.0
  0
LINE
  5
178
330
112
100
AcDbEntity
  8
AM_9
100
AcDbLine
 10
0.0224856512339318
 20
-1.52714375
 30
0.0
 11
0.0224856512339318
 21
1.52714375
 31
0.0
  0
LINE
  5
179
330
112
100
AcDbEntity
  8
AM_9
100
AcDbLine
 10
0.5465624999999997
 20
-1.5248
 30
0.0
 11
0.5465624999999997
 21
1.5248
 31
0.0
  0
ARC
  5
17A
330
112
100
AcDbEntity
  8
AM_9
100
AcDbCircle
 10
0.4965624999999997
 20
1.5248
 30
0.0
 40
0.05
100
AcDbArc
 50
0.0
 51
90.0
  0
ARC
  5
17B
330
112
100
AcDbEntity
  8
AM_9
100
AcDbCircle
 10
0.4965624999999997
 20
-1.5248
 30
0.0
 40
0.05
100
AcDbArc
 50
270.0
 51
0.0
  0
LINE
  5
17C
330
112
100
AcDbEntity
  8
AM_9
100
AcDbLine
 10
-0.0050286975321364
 20
1.5748
 30
0.0
 11
-0.3965625000000007
 21
1.5748
 31
0.0
  0
LINE
  5
17D
330
112
100
AcDbEntity
  8
AM_9
100
AcDbLine
 10
-0.3965625000000007
 20
-1.5748
 30
0.0
 11
-0.0050286975321364
 21
-1.5748
 31
0.0
  0
LINE
  5
17E
330
112
100
AcDbEntity
  8
AM_9
100
AcDbLine
 10
-0.0050286975321364
 20
-1.5748
 30
0.0
 11
-0.0050286975321364
 21
1.5748
 31
0.0
  0
LINE
  5
17F
330
112
100
AcDbEntity
  8
AM_9
100
AcDbLine
 10
-0.3965625000000007
 20
-1.5748
 30
0.0
 11
-0.3965625000000007
 21
1.5748
 31
0.0
  0
LINE
  5
180
330
112
100
AcDbEntity
  8
AM_9
100
AcDbLine
 10
0.077514348766068
 20
-1.52714375
 30
0.0
 11
0.1050286975321359
 21
-1.5748
 31
0.0
  0
LINE
  5
181
330
112
100
AcDbEntity
  8
AM_9
100
AcDbLine
 10
0.1050286975321359
 20
1.5748
 30
0.0
 11
0.077514348766068
 21
1.52714375
 31
0.0
  0
LINE
  5
182
330
112
100
AcDbEntity
  8
AM_9
100
AcDbLine
 10
0.077514348766068
 20
-1.52714375
 30
0.0
 11
0.077514348766068
 21
1.52714375
 31
0.0
  0
LINE
  5
183
330
112
100
AcDbEntity
  8
AM_9
100
AcDbLine
 10
0.4965624999999997
 20
1.5748
 30
0.0
 11
0.1050286975321359
 21
1.5748
 31
0.0
  0
LINE
  5
184
330
112
100
AcDbEntity
  8
AM_9
100
AcDbLine
 10
0.1050286975321359
 20
-1.5748
 30
0.0
 11
0.4965624999999997
 21
-1.5748
 31
0.0
  0
LINE
  5
185
330
112
100
AcDbEntity
  8
AM_9
100
AcDbLine
 10
0.4965624999999997
 20
-1.5748
 30
0.0
 11
0.4965624999999997
 21
1.5748
 31
0.0
  0
LINE
  5
186
330
112
100
AcDbEntity
  8
AM_9
100
AcDbLine
 10
0.1050286975321359
 20
-1.5748
 30
0.0
 11
0.1050286975321359
 21
1.5748
 31
0.0
  0
LINE
  5
187
330
112
100
AcDbEntity
  8
AM_5
100
AcDbLine
 10
-1.358333333333333
 20
1.156631944444444
 30
0.0
 11
-0.6583333333333334
 21
1.156631944444444
 31
0.0
  0
LINE
  5
188
330
112
100
AcDbEntity
  8
AM_5
100
AcDbLine
 10
-0.6583333333333335
 20
1.156631944444444
 30
0.0
 11
-0.6313606437301905
 21
1.141059254841302
 31
0.0
  0
LINE
  5
189
330
112
100
AcDbEntity
  8
AM_5
100
AcDbLine
 10
-1.358333333333333
 20
0.9666319444444444
 30
0.0
 11
-0.6583333333333334
 21
0.9666319444444444
 31
0.0
  0
LINE
  5
18A
330
112
100
AcDbEntity
  8
AM_5
100
AcDbLine
 10
-0.6583333333333335
 20
0.9666319444444443
 30
0.0
 11
-0.6313606437301909
 21
0.982204634047587
 31
0.0
  0
LINE
  5
18B
330
112
100
AcDbEntity
  8
AM_5
100
AcDbLine
 10
-0.6583333333333304
 20
-1.156631944444445
 30
0.0
 11
-0.6313606437301955
 21
-1.141059254841306
 31
0.0
  0
LINE
  5
18C
330
112
100
AcDbEntity
  8
AM_5
100
AcDbLine
 10
-1.358333333333333
 20
-0.9666319444444444
 30
0.0
 11
-0.6583333333333303
 21
-0.9666319444444444
 31
0.0
  0
LINE
  5
18D
330
112
100
AcDbEntity
  8
AM_5
100
AcDbLine
 10
-0.6583333333333304
 20
-0.9666319444444443
 30
0.0
 11
-0.6313606437301955
 21
-0.9822046340475824
 31
0.0
  0
LINE
  5
190
330
112
100
AcDbEntity
  8
AM_7
100
AcDbLine
 10
1.1925
 20
0.0
 30
0.0
 11
-1.722500000000001
 21
0.0
 31
0.0
  0
LINE
  5
191
330
112
100
AcDbEntity
  8
AM_7
100
AcDbLine
 10
-0.4763333333333332
 20
1.061631944444444
 30
0.0
 11
-1.574383333333333
 21
1.061631944444444
 31
0.0
  0
LINE
  5
192
330
112
100
AcDbEntity
  8
AM_7
100
AcDbLine
 10
-0.4763333333333289
 20
-1.061631944444444
 30
0.0
 11
-1.574383333333333
 21
-1.061631944444444
 31
0.0
  0
LINE
  5
193
330
112
100
AcDbEntity
  8
AM_4
100
AcDbLine
 10
-1.428333333333333
 20
0.7236842105263158
 30
0.0
 11
-1.59
 21
0.7236842105263158
 31
0.0
  0
LINE
  5
194
330
112
100
AcDbEntity
  8
AM_4
100
AcDbLine
 10
-1.59
 20
-0.7236842105263158
 30
0.0
 11
-1.428333333333333
 21
-0.7236842105263158
 31
0.0
  0
LINE
  5
195
330
112
100
AcDbEntity
  8
AM_4
100
AcDbLine
 10
-1.59
 20
-0.7236842105263158
 30
0.0
 11
-1.59
 21
0.7236842105263158
 31
0.0
  0
LINE
  5
196
330
112
100
AcDbEntity
  8
AM_4
100
AcDbLine
 10
-1.06
 20
-0.9192388155425117
 30
0.0
 11
-1.358333333333333
 21
-0.9192388155425117
 31
0.0
  0
LINE
  5
197
330
112
100
AcDbEntity
  8
AM_4
100
AcDbLine
 10
-0.954
 20
0.9192388155425117
 30
0.0
 11
-1.358333333333333
 21
0.9192388155425117
 31
0.0
  0
LINE
  5
198
330
112
100
AcDbEntity
  8
AM_4
100
AcDbLine
 10
1.06
 20
-0.7450000000000001
 30
0.0
 11
1.06
 21
1.197916666666667
 31
0.0
  0
LINE
  5
199
330
112
100
AcDbEntity
  8
AM_4
100
AcDbLine
 10
1.06
 20
1.197916666666667
 30
0.0
 11
0.954
 21
1.197916666666667
 31
0.0
  0
LINE
  5
19A
330
112
100
AcDbEntity
  8
AM_4
100
AcDbLine
 10
-1.358333333333333
 20
-0.817437605652065
 30
0.0
 11
-1.060000001663309
 21
-0.821156174639608
 31
0.0
  0
LINE
  5
19B
330
112
100
AcDbEntity
  8
AM_4
100
AcDbLine
 10
-1.060000001663309
 20
-1.089856751490496
 30
0.0
 11
-1.358333333333333
 21
-1.086138182502953
 31
0.0
  0
LINE
  5
19C
330
112
100
AcDbEntity
  8
AM_4
100
AcDbLine
 10
-1.358333333333333
 20
1.086138182502953
 30
0.0
 11
-0.9540000005667532
 21
1.091177918362125
 31
0.0
  0
LINE
  5
19D
330
112
100
AcDbEntity
  8
AM_4
100
AcDbLine
 10
-0.9540000005667532
 20
0.8224773415112366
 30
0.0
 11
-1.358333333333333
 21
0.8174376056520642
 31
0.0
  0
LINE
  5
19E
330
112
100
AcDbEntity
  8
AM_4
100
AcDbLine
 10
-1.358333333333333
 20
-1.359375
 30
0.0
 11
-1.059999999999999
 21
-1.364582427703584
 31
0.0
  0
LINE
  5
19F
330
112
100
AcDbEntity
  8
AM_4
100
AcDbLine
 10
-0.954
 20
1.366432664585975
 30
0.0
 11
-1.358333333333333
 21
1.359375
 31
0.0
  0
ENDBLK
  5
115
330
112
100
AcDbEntity
  8
0
100
AcDbBlockEnd
  0
BLOCK
  5
1A2
330
1A0
100
AcDbEntity
  8
0
100
AcDbBlockBegin
  2
6_405015E_Inch_0_in_071162_2
 70
     2
 10
0.0
 20
0.0
 30
0.0
  3
6_405015E_Inch_0_in_071162_2
  1

  0
ATTDEF
  5
1A4
330
1A0
100
AcDbEntity
  8
AM_6
100
AcDbText
 10
5.252590742770462
 20
2.173101190238487
 30
0.0
 40
0.5
  1
405015E -Inch
100
AcDbAttributeDefinition
  3

  2
NN
 70
     8
280
     0
  0
ATTDEF
  5
1A5
330
1A0
100
AcDbEntity
  8
AM_6
100
AcDbText
 10
5.252590742770462
 20
1.673101190238487
 30
0.0
 40
0.5
  1
Grease Fitting
100
AcDbAttributeDefinition
  3

  2
NT
 70
     8
280
     0
  0
ATTDEF
  5
1A6
330
1A0
100
AcDbEntity
  8
AM_6
100
AcDbText
 10
5.252590742770462
 20
1.173101190238487
 30
0.0
 40
0.5
  1
405015E-Inch
100
AcDbAttributeDefinition
  3

  2
NB
 70
     8
280
     0
  0
ATTDEF
  5
1A7
330
1A0
100
AcDbEntity
  8
AM_6
100
AcDbText
 10
5.252590742770462
 20
0.6731011902384871
 30
0.0
 40
0.5
  1
$MN.-Inch
100
AcDbAttributeDefinition
  3

  2
NBSYN
 70
     8
280
     0
  0
ATTDEF
  5
1A8
330
1A0
100
AcDbEntity
  8
AM_6
100
AcDbText
 10
5.252590742770462
 20
0.1731011902384871
 30
0.0
 40
0.5
  1
405015E
100
AcDbAttributeDefinition
  3

  2
LINA
 70
     8
280
     0
  0
ATTDEF
  5
1A9
330
1A0
100
AcDbEntity
  8
AM_6
100
AcDbText
 10
5.252590742770462
 20
-0.3268988097615129
 30
0.0
 40
0.5
  1
405015E
100
AcDbAttributeDefinition
  3

  2
MN
 70
     8
280
     0
  0
ATTDEF
  5
1AA
330
1A0
100
AcDbEntity
  8
AM_6
100
AcDbText
 10
5.252590742770462
 20
-0.8268988097615129
 30
0.0
 40
0.5
  1
1/8 x 27PTF
100
AcDbAttributeDefinition
  3

  2
T
 70
     8
280
     0
  0
ATTDEF
  5
1AB
330
1A0
100
AcDbEntity
  8
AM_6
100
AcDbText
 10
5.252590742770462
 20
-1.326898809761513
 30
0.0
 40
0.5
  1
baldor
100
AcDbAttributeDefinition
  3

  2
COMPANY
 70
     8
280
     0
  0
LINE
  5
1AC
330
1A0
100
AcDbEntity
  8
AM_9
100
AcDbLine
 10
-0.1262953713852306
 20
1.985127481542538
 30
0.0
 11
-0.1262953713852306
 21
1.914230484541327
 31
0.0
  0
LINE
  5
1AD
330
1A0
100
AcDbEntity
  8
AM_9
100
AcDbLine
 10
0.1262953713852307
 20
1.985127481542538
 30
0.0
 11
0.1262953713852307
 21
1.914230484541327
 31
0.0
  0
LWPOLYLINE
  5
1AE
330
1A0
100
AcDbEntity
  8
AM_9
100
AcDbPolyline
 90
        4
 70
     0
 43
0.0
 10
-0.1262953713852306
 20
1.914230484541327
 10
-0.0967996321117977
 20
1.911125621367189
 10
-0.0485424412477543
 20
1.907612516332644
 10
0.0000000000000001
 20
1.90637771285271
  0
LWPOLYLINE
  5
1AF
330
1A0
100
AcDbEntity
  8
AM_9
100
AcDbPolyline
 90
        5
 70
     0
 43
0.0
 10
0.0000000000000001
 20
1.90637771285271
 10
0.0315738428463077
 20
1.906903748810788
 10
0.0631476856926154
 20
1.90845044141348
 10
0.0947562840569831
 20
1.910935445632978
 10
0.1262953713852307
 20
1.914230484541327
  0
LWPOLYLINE
  5
1B0
330
1A0
100
AcDbEntity
  8
AM_9
100
AcDbPolyline
 90
        4
 70
     0
 43
0.0
 10
0.1262953713852307
 20
1.914230484541327
 10
0.1577431973843551
 20
1.881232075790898
 10
0.1735630385535389
 20
1.865974938450645
 10
0.189443057077846
 20
1.85169021285271
  0
LWPOLYLINE
  5
1B1
330
1A0
100
AcDbEntity
  8
AM_9
100
AcDbPolyline
 90
        4
 70
     0
 43
0.0
 10
-0.1894430570778459
 20
1.85169021285271
 10
-0.173656135654692
 20
1.865888123810788
 10
-0.1578692142315382
 20
1.88110669141348
 10
-0.1262953713852306
 20
1.914230484541327
  0
LWPOLYLINE
  5
1B2
330
1A0
100
AcDbEntity
  8
AM_9
100
AcDbPolyline
 90
        5
 70
     0
 43
0.0
 10
0.1018533065751292
 20
1.987747522637782
 10
0.094925154415046
 20
1.988406932819422
 10
0.0634316146914368
 20
1.990889213286712
 10
0.0317600370486143
 20
1.992448027087837
 10
0.0000000000000001
 20
1.992980253231154
  0
LINE
  5
1B3
330
1A0
100
AcDbEntity
  8
AM_9
100
AcDbLine
 10
0.105010795642778
 20
1.987434331118755
 30
0.0
 11
0.1018533065751292
 21
1.987747522637782
 31
0.0
  0
LINE
  5
1B4
330
1A0
100
AcDbEntity
  8
AM_9
100
AcDbLine
 10
-0.1018522000083013
 20
1.987747631024663
 30
0.0
 11
-0.1050087569988761
 21
1.987434535845883
 31
0.0
  0
LWPOLYLINE
  5
1B5
330
1A0
100
AcDbEntity
  8
AM_9
100
AcDbPolyline
 90
        4
 70
     0
 43
0.0
 10
0.0000000000000001
 20
1.992980253231154
 10
-0.0483998160558989
 20
1.991752609638706
 10
-0.0967996321117978
 20
1.988232344716676
 10
-0.1018522000083013
 20
1.987747631024663
  0
LWPOLYLINE
  5
1B6
330
1A0
100
AcDbEntity
  8
AM_9
100
AcDbPolyline
 90
        4
 70
     0
 43
0.0
 10
0.189443057077846
 20
1.85169021285271
 10
0.2052299785009998
 20
1.838544373810788
 10
0.2210359031098993
 20
1.826405180915323
 10
0.2525907427704613
 20
1.804855484541327
  0
LWPOLYLINE
  5
1B7
330
1A0
100
AcDbEntity
  8
AM_9
100
AcDbPolyline
 90
        4
 70
     0
 43
0.0
 10
-0.2525907427704611
 20
1.804855484541327
 10
-0.229031912716827
 20
1.820628096193015
 10
-0.205323075602153
 20
1.838469939541409
 10
-0.1894430570778459
 20
1.85169021285271
  0
LINE
  5
1B8
330
1A0
100
AcDbEntity
  8
AM_9
100
AcDbLine
 10
0.1321931418159854
 20
1.520768647347615
 30
0.0
 11
0.1621706131788417
 21
1.541965920631116
 31
0.0
  0
LINE
  5
1B9
330
1A0
100
AcDbEntity
  8
AM_9
100
AcDbLine
 10
-0.1621706131788416
 20
1.541965920631116
 30
0.0
 11
-0.1321931418159853
 21
1.520768647347615
 31
0.0
  0
ELLIPSE
  5
1BA
330
1A0
100
AcDbEntity
  8
AM_9
100
AcDbEllipse
 10
0.0
 20
1.599301890775086
 30
0.0
 11
0.1986176267812155
 21
0.0
 31
0.0
210
0.0
220
0.0
230
1.0
 40
0.5000000000000031
 41
3.757072362260171
 42
9.442822037473821
  0
LINE
  5
1BB
330
1A0
100
AcDbEntity
  8
AM_9
100
AcDbLine
 10
0.1985852938306409
 20
1.597510052166266
 30
0.0
 11
0.2057184028850728
 21
1.795146512075081
 31
0.0
  0
LINE
  5
1BC
330
1A0
100
AcDbEntity
  8
AM_9
100
AcDbLine
 10
-0.2057184028850727
 20
1.795146512075081
 30
0.0
 11
-0.1985852938306407
 21
1.597510052166266
 31
0.0
  0
ELLIPSE
  5
1BD
330
1A0
100
AcDbEntity
  8
AM_9
100
AcDbEllipse
 10
-0.0000000000000014
 20
1.599301890775088
 30
0.0
 11
0.1986176267812139
 21
2.959633272606342E-9
 31
0.0
210
0.0
220
0.0
230
1.0
 40
0.5000000000000017
 41
3.159636700499211
 42
3.757072339908452
  0
LINE
  5
1BE
330
1A0
100
AcDbEntity
  8
AM_9
100
AcDbLine
 10
-0.10178102724221
 20
1.987438087016997
 30
0.0
 11
-0.1049999999999999
 21
1.98113569237747
 31
0.0
  0
LINE
  5
1BF
330
1A0
100
AcDbEntity
  8
AM_9
100
AcDbLine
 10
0.1050000000000001
 20
1.98113569237747
 30
0.0
 11
0.1017810272422101
 21
1.987438087016998
 31
0.0
  0
ELLIPSE
  5
1C0
330
1A0
100
AcDbEntity
  8
AM_9
100
AcDbEllipse
 10
0.0000000000000001
 20
1.974537920628521
 30
0.0
 11
0.1049999999999998
 21
1.564621925354001E-9
 31
0.0
210
0.0
220
0.0
230
1.0
 40
0.5000000000000008
 41
0.2500328646649521
 42
3.141592627780224
  0
ELLIPSE
  5
1C1
330
1A0
100
AcDbEntity
  8
AM_9
100
AcDbEllipse
 10
-0.0000000000000032
 20
1.946611304757443
 30
0.0
 11
0.118820090734901
 21
0.0
 31
0.0
210
0.0
220
0.0
230
1.0
 40
0.5000000000000444
 41
0.2500328930989975
 42
2.535447513394546
  0
ELLIPSE
  5
1C2
330
1A0
100
AcDbEntity
  8
AM_9
100
AcDbEllipse
 10
0.000000000000001
 20
1.974537920628502
 30
0.0
 11
0.1049999999999991
 21
0.0
 31
0.0
210
0.0
220
0.0
230
1.0
 40
0.5000000000000253
 41
0.0
 42
0.2500328930991272
  0
LINE
  5
1C3
330
1A0
100
AcDbEntity
  8
AM_9
100
AcDbLine
 10
0.1050000000000001
 20
1.99277614944098
 30
0.0
 11
0.1050000000000001
 21
2.000518682742054
 31
0.0
  0
LINE
  5
1C4
330
1A0
100
AcDbEntity
  8
AM_9
100
AcDbLine
 10
-0.1049999999999999
 20
2.000518682742054
 30
0.0
 11
-0.1049999999999999
 21
1.99277614944098
 31
0.0
  0
ELLIPSE
  5
1C5
330
1A0
100
AcDbEntity
  8
AM_9
100
AcDbEllipse
 10
-0.0000000000000018
 20
2.000518682742062
 30
0.0
 11
0.1049999999999982
 21
1.564621925353977E-9
 31
0.0
210
0.0
220
0.0
230
1.0
 40
0.5000000000000107
 41
3.141592627780224
 42
3.434435397378836
  0
LINE
  5
1C6
330
1A0
100
AcDbEntity
  8
AM_9
100
AcDbLine
 10
-0.0976523208201057
 20
1.980457420489902
 30
0.0
 11
-0.1098343496897825
 21
1.971670567363052
 31
0.0
  0
LINE
  5
1C7
330
1A0
100
AcDbEntity
  8
AM_9
100
AcDbLine
 10
0.1098343496897827
 20
1.971670567363052
 30
0.0
 11
0.0976523208201059
 21
1.980457420489902
 31
0.0
  0
ELLIPSE
  5
1C8
330
1A0
100
AcDbEntity
  8
AM_9
100
AcDbEllipse
 10
0.0000000000000018
 20
1.946611304757444
 30
0.0
 11
0.1188200907348993
 21
1.770557325108340E-9
 31
0.0
210
0.0
220
0.0
230
1.0
 40
0.5000000000000437
 41
2.535447490846783
 42
2.891559732056951
  0
ELLIPSE
  5
1C9
330
1A0
100
AcDbEntity
  8
AM_9
100
AcDbEllipse
 10
0.0000000000000001
 20
1.899469278519125
 30
0.0
 11
0.1725340532830154
 21
0.0
 31
0.0
210
0.0
220
0.0
230
1.0
 40
0.5000000000000017
 41
0.6061451401950846
 42
2.535447513394708
  0
ELLIPSE
  5
1CA
330
1A0
100
AcDbEntity
  8
AM_9
100
AcDbEllipse
 10
-0.0000000000000007
 20
1.883605253231156
 30
0.0
 11
0.2187500000000013
 21
0.0
 31
0.0
210
0.0
220
0.0
230
1.0
 40
0.4999999999999879
 41
1.070141614390306
 42
1.570796326794897
  0
ELLIPSE
  5
1CB
330
1A0
100
AcDbEntity
  8
AM_9
100
AcDbEllipse
 10
0.0000000000000008
 20
1.883605253231156
 30
0.0
 11
0.2187500000000013
 21
0.0
 31
0.0
210
0.0
220
0.0
230
1.0
 40
0.4999999999999879
 41
1.570796326794897
 42
2.071451039199487
  0
ELLIPSE
  5
1CC
330
1A0
100
AcDbEntity
  8
AM_9
100
AcDbEllipse
 10
-0.0000000000009955
 20
1.883605253231718
 30
0.0
 11
0.2137499999979887
 21
3.185123205154966E-9
 31
0.0
210
0.0
220
0.0
230
1.0
 40
0.5000000000012698
 41
-4.217356319091289
 42
-4.18456479087803
  0
ELLIPSE
  5
1CD
330
1A0
100
AcDbEntity
  8
AM_9
100
AcDbEllipse
 10
0.0
 20
1.883605253231154
 30
0.0
 11
0.2137499999999995
 21
3.185123205184930E-9
 31
0.0
210
0.0
220
0.0
230
1.0
 40
0.5000000000000044
 41
1.05729721651949
 42
2.06582898808883
  0
ELLIPSE
  5
1CE
330
1A0
100
AcDbEntity
  8
AM_9
100
AcDbEllipse
 10
0.0000000000006579
 20
1.883605253231422
 30
0.0
 11
0.2137499999986702
 21
3.185123205165122E-9
 31
0.0
210
0.0
220
0.0
230
1.0
 40
0.500000000001268
 41
1.042972111047252
 42
1.057297216519855
  0
ELLIPSE
  5
1CF
330
1A0
100
AcDbEntity
  8
AM_9
100
AcDbEllipse
 10
0.0000000000000001
 20
2.000518682742054
 30
0.0
 11
0.1049999999999999
 21
0.0
 31
0.0
210
0.0
220
0.0
230
1.0
 40
0.5000000000000024
 41
5.990342535451012
 42
9.42477796076938
  0
ELLIPSE
  5
1D0
330
1A0
100
AcDbEntity
  8
AM_9
100
AcDbEllipse
 10
0.0000000000000001
 20
2.05248020696912
 30
0.0
 11
0.135
 21
0.0
 31
0.0
210
0.0
220
0.0
230
1.0
 40
0.4999999999999959
 41
0.2354336045415613
 42
2.906159049048232
  0
ELLIPSE
  5
1D1
330
1A0
100
AcDbEntity
  8
AM_9
100
AcDbEllipse
 10
0.0000000000000001
 20
1.567505980849834
 30
0.0
 11
0.161902872472269
 21
0.0
 31
0.0
210
0.0
220
0.0
230
1.0
 40
0.5000000000000003
 41
0.0
 42
6.283185307179586
  0
ELLIPSE
  5
1D2
330
1A0
100
AcDbEntity
  8
AM_9
100
AcDbEllipse
 10
-0.0000000000009962
 20
1.797002712852366
 30
0.0
 11
0.2057518972240659
 21
0.0
 31
0.0
210
0.0
220
0.0
230
1.0
 40
0.5000000000000251
 41
0.0
 42
6.283185307179586
  0
ELLIPSE
  5
1D3
330
1A0
100
AcDbEntity
  8
AM_9
100
AcDbEllipse
 10
0.0
 20
1.797002712852711
 30
0.0
 11
0.21875
 21
0.0
 31
0.0
210
0.0
220
0.0
230
1.0
 40
0.5000000000000011
 41
0.0
 42
6.283185307179586
  0
LWPOLYLINE
  5
1D4
330
1A0
100
AcDbEntity
  8
AM_4
100
AcDbPolyline
 90
        4
 70
     0
 43
0.0
 10
0.189443057077846
 20
1.938292753231154
 10
0.1736561356546922
 20
1.951438592273077
 10
0.1578502110457927
 20
1.963577785168542
 10
0.1262953713852307
 20
1.985127481542538
  0
LINE
  5
1D5
330
1A0
100
AcDbEntity
  8
AM_4
100
AcDbLine
 10
0.1262953713852307
 20
1.985127481542538
 30
0.0
 11
0.105010795642778
 21
1.987434331118755
 31
0.0
  0
LWPOLYLINE
  5
1D6
330
1A0
100
AcDbEntity
  8
AM_4
100
AcDbPolyline
 90
        4
 70
     0
 43
0.0
 10
-0.1262953713852306
 20
1.985127481542538
 10
-0.157743197384355
 20
1.963656657874897
 10
-0.1735630385535387
 20
1.951513026542455
 10
-0.1894430570778459
 20
1.938292753231154
  0
LINE
  5
1D7
330
1A0
100
AcDbEntity
  8
AM_4
100
AcDbLine
 10
-0.1050087569988761
 20
1.987434535845883
 30
0.0
 11
-0.1262953713852306
 21
1.985127481542538
 31
0.0
  0
LWPOLYLINE
  5
1D8
330
1A0
100
AcDbEntity
  8
AM_4
100
AcDbPolyline
 90
        4
 70
     0
 43
0.0
 10
0.2525907427704613
 20
1.875752481542538
 10
0.2211429167713369
 20
1.908750890292966
 10
0.2053230756021532
 20
1.92400802763322
 10
0.189443057077846
 20
1.938292753231154
  0
LWPOLYLINE
  5
1D9
330
1A0
100
AcDbEntity
  8
AM_4
100
AcDbPolyline
 90
        4
 70
     0
 43
0.0
 10
-0.1894430570778459
 20
1.938292753231154
 10
-0.2052299785009997
 20
1.924094842273077
 10
-0.2210359031098992
 20
1.908857370685324
 10
-0.2525907427704611
 20
1.875752481542538
  0
LINE
  5
1DA
330
1A0
100
AcDbEntity
  8
AM_4
100
AcDbLine
 10
-0.1049999999999999
 20
1.98113569237747
 30
0.0
 11
-0.1151252948555657
 21
1.961311478622656
 31
0.0
  0
LINE
  5
1DB
330
1A0
100
AcDbEntity
  8
AM_4
100
AcDbLine
 10
0.1151252948555658
 20
1.961311478622656
 30
0.0
 11
0.1050000000000001
 21
1.98113569237747
 31
0.0
  0
ELLIPSE
  5
1DC
330
1A0
100
AcDbEntity
  8
AM_4
100
AcDbEllipse
 10
0.0000000000000001
 20
1.946611304757457
 30
0.0
 11
0.1188200907348976
 21
0.0
 31
0.0
210
0.0
220
0.0
230
1.0
 40
0.5000000000000024
 41
2.891559760490995
 42
6.283185307179586
  0
LINE
  5
1DD
330
1A0
100
AcDbEntity
  8
AM_4
100
AcDbLine
 10
0.1050000000000001
 20
1.97453792062852
 30
0.0
 11
0.1050000000000001
 21
1.99277614944098
 31
0.0
  0
LINE
  5
1DE
330
1A0
100
AcDbEntity
  8
AM_4
100
AcDbLine
 10
-0.1049999999999999
 20
1.99277614944098
 30
0.0
 11
-0.1049999999999999
 21
1.97453792062852
 31
0.0
  0
ELLIPSE
  5
1DF
330
1A0
100
AcDbEntity
  8
AM_4
100
AcDbEllipse
 10
0.0000000000000001
 20
1.97453792062852
 30
0.0
 11
0.105
 21
0.0
 31
0.0
210
0.0
220
0.0
230
1.0
 40
0.4999999999999979
 41
3.141592653589793
 42
6.283185307179586
  0
ELLIPSE
  5
1E0
330
1A0
100
AcDbEntity
  8
AM_4
100
AcDbEllipse
 10
0.0000000000000001
 20
1.946611304757455
 30
0.0
 11
0.1188200907348975
 21
0.0
 31
0.0
210
0.0
220
0.0
230
1.0
 40
0.5000000000000011
 41
0.0
 42
0.2500328930988257
  0
LINE
  5
1E1
330
1A0
100
AcDbEntity
  8
AM_4
100
AcDbLine
 10
-0.1098343496897825
 20
1.971670567363052
 30
0.0
 11
-0.1417971541629018
 21
1.948615912721196
 31
0.0
  0
LINE
  5
1E2
330
1A0
100
AcDbEntity
  8
AM_4
100
AcDbLine
 10
0.141797154162902
 20
1.948615912721196
 30
0.0
 11
0.1098343496897827
 21
1.971670567363052
 31
0.0
  0
ELLIPSE
  5
1E3
330
1A0
100
AcDbEntity
  8
AM_4
100
AcDbEllipse
 10
0.0000000000000001
 20
1.899469278519125
 30
0.0
 11
0.1725340532830152
 21
0.0
 31
0.0
210
0.0
220
0.0
230
1.0
 40
0.4999999999999995
 41
2.535447513394708
 42
6.283185307179586
  0
ELLIPSE
  5
1E4
330
1A0
100
AcDbEntity
  8
AM_4
100
AcDbEllipse
 10
0.0000000000000007
 20
1.883605253231154
 30
0.0
 11
0.2187499999999993
 21
0.0
 31
0.0
210
0.0
220
0.0
230
1.0
 40
0.4999999999999986
 41
5.759586531581288
 42
7.348429945430823
  0
ELLIPSE
  5
1E5
330
1A0
100
AcDbEntity
  8
AM_4
100
AcDbEllipse
 10
-0.0000000000000029
 20
1.883605253231154
 30
0.0
 11
0.2187499999999957
 21
0.0
 31
0.0
210
0.0
220
0.0
230
1.0
 40
0.5000000000000088
 41
2.076348015338553
 42
2.617993877991494
  0
LWPOLYLINE
  5
1E6
330
1A0
100
AcDbEntity
  8
AM_4
100
AcDbPolyline
 90
        4
 70
     0
 43
0.0
 10
-0.1262953713852306
 20
1.766377481542538
 10
-0.0967996321117977
 20
1.769482344716676
 10
-0.0485424412477543
 20
1.772995449751221
 10
0.0000000000000001
 20
1.774230253231154
  0
LWPOLYLINE
  5
1E7
330
1A0
100
AcDbEntity
  8
AM_4
100
AcDbPolyline
 90
        4
 70
     0
 43
0.0
 10
0.0000000000000001
 20
1.68762771285271
 10
-0.0483998160558988
 20
1.688855356445158
 10
-0.0967996321117977
 20
1.692375621367189
 10
-0.1262953713852306
 20
1.695480484541327
  0
LWPOLYLINE
  5
1E8
330
1A0
100
AcDbEntity
  8
AM_4
100
AcDbPolyline
 90
        5
 70
     0
 43
0.0
 10
0.1262953713852307
 20
1.695480484541327
 10
0.094925154415046
 20
1.692201033264443
 10
0.0634316146914368
 20
1.689718752797153
 10
0.0317600370486143
 20
1.688159938996027
 10
0.0000000000000001
 20
1.68762771285271
  0
LINE
  5
1E9
330
1A0
100
AcDbEntity
  8
AM_4
100
AcDbLine
 10
-0.1262953713852306
 20
1.766377481542538
 30
0.0
 11
-0.1262953713852306
 21
1.695480484541327
 31
0.0
  0
LWPOLYLINE
  5
1EA
330
1A0
100
AcDbEntity
  8
AM_4
100
AcDbPolyline
 90
        4
 70
     0
 43
0.0
 10
-0.1894430570778459
 20
1.828917753231154
 10
-0.1736561356546921
 20
1.814719842273077
 10
-0.1578502110457926
 20
1.799482370685324
 10
-0.1262953713852306
 20
1.766377481542538
  0
LWPOLYLINE
  5
1EB
330
1A0
100
AcDbEntity
  8
AM_4
100
AcDbPolyline
 90
        4
 70
     0
 43
0.0
 10
-0.2525907427704611
 20
1.875752481542538
 10
-0.2211429167713368
 20
1.854281657874897
 10
-0.205323075602153
 20
1.842138026542455
 10
-0.1894430570778459
 20
1.828917753231154
  0
LINE
  5
1EC
330
1A0
100
AcDbEntity
  8
AM_4
100
AcDbLine
 10
-0.2525907427704611
 20
1.875752481542538
 30
0.0
 11
-0.2525907427704611
 21
1.804855484541327
 31
0.0
  0
LWPOLYLINE
  5
1ED
330
1A0
100
AcDbEntity
  8
AM_4
100
AcDbPolyline
 90
        4
 70
     0
 43
0.0
 10
-0.1894430570778459
 20
1.742315212852711
 10
-0.2052299785009997
 20
1.756513123810788
 10
-0.2210359031098992
 20
1.77175059539854
 10
-0.2525907427704611
 20
1.804855484541327
  0
LWPOLYLINE
  5
1EE
330
1A0
100
AcDbEntity
  8
AM_4
100
AcDbPolyline
 90
        4
 70
     0
 43
0.0
 10
-0.1262953713852306
 20
1.695480484541327
 10
-0.157743197384355
 20
1.716951308208968
 10
-0.1735630385535387
 20
1.72909493954141
 10
-0.1894430570778459
 20
1.742315212852711
  0
ELLIPSE
  5
1EF
330
1A0
100
AcDbEntity
  8
AM_4
100
AcDbEllipse
 10
0.0000000000000004
 20
1.883605253231154
 30
0.0
 11
0.2187499999999995
 21
0.0
 31
0.0
210
0.0
220
0.0
230
1.0
 40
0.5000000000000002
 41
2.617993877991493
 42
5.759586531581293
  0
LWPOLYLINE
  5
1F0
330
1A0
100
AcDbEntity
  8
AM_4
100
AcDbPolyline
 90
        5
 70
     0
 43
0.0
 10
0.0000000000000001
 20
1.774230253231154
 10
0.0315738428463077
 20
1.773704217273077
 10
0.0631476856926154
 20
1.772157524670385
 10
0.0947562840569831
 20
1.769672520450887
 10
0.1262953713852307
 20
1.766377481542538
  0
LINE
  5
1F1
330
1A0
100
AcDbEntity
  8
AM_4
100
AcDbLine
 10
0.2525907427704613
 20
1.875752481542538
 30
0.0
 11
0.2525907427704613
 21
1.804855484541327
 31
0.0
  0
LWPOLYLINE
  5
1F2
330
1A0
100
AcDbEntity
  8
AM_4
100
AcDbPolyline
 90
        4
 70
     0
 43
0.0
 10
0.189443057077846
 20
1.828917753231154
 10
0.2052299785009998
 20
1.842063592273077
 10
0.2210359031098993
 20
1.854202785168542
 10
0.2525907427704613
 20
1.875752481542538
  0
LWPOLYLINE
  5
1F3
330
1A0
100
AcDbEntity
  8
AM_4
100
AcDbPolyline
 90
        4
 70
     0
 43
0.0
 10
0.1262953713852307
 20
1.766377481542538
 10
0.1577431973843551
 20
1.799375890292966
 10
0.1735630385535389
 20
1.81463302763322
 10
0.189443057077846
 20
1.828917753231154
  0
LINE
  5
1F4
330
1A0
100
AcDbEntity
  8
AM_4
100
AcDbLine
 10
0.1262953713852307
 20
1.766377481542538
 30
0.0
 11
0.1262953713852307
 21
1.695480484541327
 31
0.0
  0
LWPOLYLINE
  5
1F5
330
1A0
100
AcDbEntity
  8
AM_4
100
AcDbPolyline
 90
        4
 70
     0
 43
0.0
 10
0.189443057077846
 20
1.742315212852711
 10
0.1736561356546922
 20
1.729169373810788
 10
0.1578692142315384
 20
1.71704419141348
 10
0.1262953713852307
 20
1.695480484541327
  0
LWPOLYLINE
  5
1F6
330
1A0
100
AcDbEntity
  8
AM_4
100
AcDbPolyline
 90
        4
 70
     0
 43
0.0
 10
0.2525907427704613
 20
1.804855484541327
 10
0.2290319127168271
 20
1.77982300557324
 10
0.2053230756021531
 20
1.756599938450645
 10
0.189443057077846
 20
1.742315212852711
  0
ELLIPSE
  5
1F7
330
1A0
100
AcDbEntity
  8
AM_4
100
AcDbEllipse
 10
-0.0000000000000001
 20
1.899469278519126
 30
0.0
 11
0.1725340532830155
 21
0.0
 31
0.0
210
0.0
220
0.0
230
1.0
 40
0.4999999999999986
 41
0.0
 42
0.6061451401950779
  0
ELLIPSE
  5
1F8
330
1A0
100
AcDbEntity
  8
AM_4
100
AcDbEllipse
 10
0.0000000000000001
 20
1.883605253231154
 30
0.0
 11
0.2137499999999999
 21
3.185123205184936E-9
 31
0.0
210
0.0
220
0.0
230
1.0
 40
0.4999999999999994
 41
2.098620516301819
 42
7.326157418226545
  0
LINE
  5
1F9
330
1A0
100
AcDbEntity
  8
AM_4
100
AcDbLine
 10
0.1005298463144156
 20
1.985363238175826
 30
0.0
 11
0.1292526595471057
 21
2.03299463538397
 31
0.0
  0
LINE
  5
1FA
330
1A0
100
AcDbEntity
  8
AM_4
100
AcDbLine
 10
-0.1292526595471056
 20
2.03299463538397
 30
0.0
 11
-0.1005298463144154
 21
1.985363238175826
 31
0.0
  0
ELLIPSE
  5
1FB
330
1A0
100
AcDbEntity
  8
AM_4
100
AcDbEllipse
 10
0.0000000000000001
 20
2.000518682742054
 30
0.0
 11
0.105
 21
0.0
 31
0.0
210
0.0
220
0.0
230
1.0
 40
0.5000000000000021
 41
3.434435425318366
 42
5.990342535451012
  0
ELLIPSE
  5
1FC
330
1A0
100
AcDbEntity
  8
AM_4
100
AcDbEllipse
 10
0.0000000000000034
 20
2.052480206969114
 30
0.0
 11
0.1349999999999967
 21
0.0
 31
0.0
210
0.0
220
0.0
230
1.0
 40
0.4999999999999918
 41
2.906159049048151
 42
6.518618911721239
  0
LINE
  5
1FD
330
1A0
100
AcDbEntity
  8
AM_4
100
AcDbLine
 10
-0.0998453562378797
 20
2.133737801713073
 30
0.0
 11
-0.1312757938985218
 21
2.068225570860697
 31
0.0
  0
LINE
  5
1FE
330
1A0
100
AcDbEntity
  8
AM_4
100
AcDbLine
 10
0.131275793898522
 20
2.068225570860697
 30
0.0
 11
0.0998453562378798
 21
2.133737801713073
 31
0.0
  0
ELLIPSE
  5
1FF
330
1A0
100
AcDbEntity
  8
AM_4
100
AcDbEllipse
 10
0.0000000000000026
 20
2.121762239271898
 30
0.0
 11
0.102677901933185
 21
1.530019967752472E-9
 31
0.0
210
0.0
220
0.0
230
1.0
 40
0.4999999999999695
 41
0.0
 42
6.283185307179586
  0
ENDBLK
  5
1A3
330
1A0
100
AcDbEntity
  8
0
100
AcDbBlockEnd
  0
BLOCK
  5
202
330
200
100
AcDbEntity
  8
0
100
AcDbBlockBegin
  2
7_071162Ho_0_in_071162_2
 70
     2
 10
0.0
 20
0.0
 30
0.0
  3
7_071162Ho_0_in_071162_2
  1

  0
ATTDEF
  5
204
330
200
100
AcDbEntity
  8
AM_6
100
AcDbText
 10
6.06
 20
2.010400172474266
 30
0.0
 40
0.5
  1
EP2B-IP -(Labyrinth Seal)-Housing -Inch
100
AcDbAttributeDefinition
  3

  2
NN
 70
     8
280
     0
  0
ATTDEF
  5
205
330
200
100
AcDbEntity
  8
AM_6
100
AcDbText
 10
6.06
 20
1.510400172474266
 30
0.0
 40
0.5
  1
Imperial/E 2 Bolt Piliow Block Bearings
100
AcDbAttributeDefinition
  3

  2
NT
 70
     8
280
     0
  0
ATTDEF
  5
206
330
200
100
AcDbEntity
  8
AM_6
100
AcDbText
 10
6.06
 20
1.010400172474266
 30
0.0
 40
0.5
  1
071162Ho
100
AcDbAttributeDefinition
  3

  2
NB
 70
     8
280
     0
  0
ATTDEF
  5
207
330
200
100
AcDbEntity
  8
AM_6
100
AcDbText
 10
6.06
 20
0.5104001724742662
 30
0.0
 40
0.5
  1
$PN.Ho
100
AcDbAttributeDefinition
  3

  2
NBSYN
 70
     8
280
     0
  0
ATTDEF
  5
208
330
200
100
AcDbEntity
  8
AM_6
100
AcDbText
 10
6.06
 20
0.0104001724742662
 30
0.0
 40
0.5
  1
071162
100
AcDbAttributeDefinition
  3

  2
LINA
 70
     8
280
     0
  0
ATTDEF
  5
209
330
200
100
AcDbEntity
  8
AM_6
100
AcDbText
 10
6.06
 20
-0.4895998275257338
 30
0.0
 40
0.5
  1
1-3/8
100
AcDbAttributeDefinition
  3

  2
SS
 70
     8
280
     0
  0
ATTDEF
  5
20A
330
200
100
AcDbEntity
  8
AM_6
100
AcDbText
 10
6.06
 20
-0.9895998275257338
 30
0.0
 40
0.5
  1
1.375000
100
AcDbAttributeDefinition
  3

  2
SS1
 70
     8
280
     0
  0
ATTDEF
  5
20B
330
200
100
AcDbEntity
  8
AM_6
100
AcDbText
 10
6.06
 20
-1.489599827525734
 30
0.0
 40
0.5
  1
Non-Expansion
100
AcDbAttributeDefinition
  3

  2
TYPE
 70
     8
280
     0
  0
ATTDEF
  5
20C
330
200
100
AcDbEntity
  8
AM_6
100
AcDbText
 10
6.06
 20
-1.989599827525734
 30
0.0
 40
0.5
  1
071162
100
AcDbAttributeDefinition
  3

  2
PN1
 70
     8
280
     0
  0
ATTDEF
  5
20D
330
200
100
AcDbEntity
  8
AM_6
100
AcDbText
 10
6.06
 20
-2.489599827525734
 30
0.0
 40
0.5
  1
071183
100
AcDbAttributeDefinition
  3

  2
PN2
 70
     8
280
     0
  0
ATTDEF
  5
20E
330
200
100
AcDbEntity
  8
AM_6
100
AcDbText
 10
6.06
 20
-2.989599827525734
 30
0.0
 40
0.5
  1
EP2B-IP-106L
100
AcDbAttributeDefinition
  3

  2
DES1
 70
     8
280
     0
  0
ATTDEF
  5
20F
330
200
100
AcDbEntity
  8
AM_6
100
AcDbText
 10
6.06
 20
-3.489599827525734
 30
0.0
 40
0.5
  1
Non-Expansion Type
100
AcDbAttributeDefinition
  3

  2
EF
 70
     8
280
     0
  0
ATTDEF
  5
210
330
200
100
AcDbEntity
  8
AM_6
100
AcDbText
 10
6.06
 20
-3.989599827525734
 30
0.0
 40
0.5
  1
1
100
AcDbAttributeDefinition
  3

  2
EF1
 70
     8
280
     0
  0
ATTDEF
  5
211
330
200
100
AcDbEntity
  8
AM_6
100
AcDbText
 10
6.06
 20
-4.489599827525733
 30
0.0
 40
0.5
  1
Labyrinth Seal
100
AcDbAttributeDefinition
  3

  2
ST
 70
     8
280
     0
  0
ATTDEF
  5
212
330
200
100
AcDbEntity
  8
AM_6
100
AcDbText
 10
6.06
 20
-4.989599827525733
 30
0.0
 40
0.5
  1
1
100
AcDbAttributeDefinition
  3

  2
ST1
 70
     8
280
     0
  0
ATTDEF
  5
213
330
200
100
AcDbEntity
  8
AM_6
100
AcDbText
 10
6.06
 20
-5.489599827525733
 30
0.0
 40
0.5
  1
2.63
100
AcDbAttributeDefinition
  3

  2
A
 70
     8
280
     0
  0
ATTDEF
  5
214
330
200
100
AcDbEntity
  8
AM_6
100
AcDbText
 10
6.06
 20
-5.989599827525733
 30
0.0
 40
0.5
  1
2.6300000
100
AcDbAttributeDefinition
  3

  2
A1
 70
     8
280
     0
  0
ATTDEF
  5
215
330
200
100
AcDbEntity
  8
AM_6
100
AcDbText
 10
6.06
 20
-6.489599827525733
 30
0.0
 40
0.5
  1
7.37
100
AcDbAttributeDefinition
  3

  2
B
 70
     8
280
     0
  0
ATTDEF
  5
216
330
200
100
AcDbEntity
  8
AM_6
100
AcDbText
 10
6.06
 20
-6.989599827525733
 30
0.0
 40
0.5
  1
7.3700000
100
AcDbAttributeDefinition
  3

  2
B1
 70
     8
280
     0
  0
ATTDEF
  5
217
330
200
100
AcDbEntity
  8
AM_6
100
AcDbText
 10
6.06
 20
-7.489599827525733
 30
0.0
 40
0.5
  1
2.12
100
AcDbAttributeDefinition
  3

  2
C
 70
     8
280
     0
  0
ATTDEF
  5
218
330
200
100
AcDbEntity
  8
AM_6
100
AcDbText
 10
6.06
 20
-7.989599827525733
 30
0.0
 40
0.5
  1
2.1200000
100
AcDbAttributeDefinition
  3

  2
C1
 70
     8
280
     0
  0
ATTDEF
  5
219
330
200
100
AcDbEntity
  8
AM_6
100
AcDbText
 10
6.06
 20
-8.489599827525733
 30
0.0
 40
0.5
  1
5.63
100
AcDbAttributeDefinition
  3

  2
DMIN
 70
     8
280
     0
  0
ATTDEF
  5
21A
330
200
100
AcDbEntity
  8
AM_6
100
AcDbText
 10
6.06
 20
-8.989599827525733
 30
0.0
 40
0.5
  1
5.6300000
100
AcDbAttributeDefinition
  3

  2
DMIN1
 70
     8
280
     0
  0
ATTDEF
  5
21B
330
200
100
AcDbEntity
  8
AM_6
100
AcDbText
 10
6.06
 20
-9.489599827525733
 30
0.0
 40
0.5
  1
5.88
100
AcDbAttributeDefinition
  3

  2
DMAX
 70
     8
280
     0
  0
ATTDEF
  5
21C
330
200
100
AcDbEntity
  8
AM_6
100
AcDbText
 10
6.06
 20
-9.989599827525733
 30
0.0
 40
0.5
  1
5.8800000
100
AcDbAttributeDefinition
  3

  2
DMAX1
 70
     8
280
     0
  0
ATTDEF
  5
21D
330
200
100
AcDbEntity
  8
AM_6
100
AcDbText
 10
6.06
 20
-10.48959982752573
 30
0.0
 40
0.5
  1
1/2
100
AcDbAttributeDefinition
  3

  2
F
 70
     8
280
     0
  0
ATTDEF
  5
21E
330
200
100
AcDbEntity
  8
AM_6
100
AcDbText
 10
6.06
 20
-10.98959982752573
 30
0.0
 40
0.5
  1
0.5000000
100
AcDbAttributeDefinition
  3

  2
F1
 70
     8
280
     0
  0
ATTDEF
  5
21F
330
200
100
AcDbEntity
  8
AM_6
100
AcDbText
 10
6.06
 20
-11.48959982752573
 30
0.0
 40
0.5
  1
0.75
100
AcDbAttributeDefinition
  3

  2
G
 70
     8
280
     0
  0
ATTDEF
  5
220
330
200
100
AcDbEntity
  8
AM_6
100
AcDbText
 10
6.06
 20
-11.98959982752573
 30
0.0
 40
0.5
  1
0.750000
100
AcDbAttributeDefinition
  3

  2
G1
 70
     8
280
     0
  0
ATTDEF
  5
221
330
200
100
AcDbEntity
  8
AM_6
100
AcDbText
 10
6.06
 20
-12.48959982752573
 30
0.0
 40
0.5
  1
1.13
100
AcDbAttributeDefinition
  3

  2
H
 70
     8
280
     0
  0
ATTDEF
  5
222
330
200
100
AcDbEntity
  8
AM_6
100
AcDbText
 10
6.06
 20
-12.98959982752573
 30
0.0
 40
0.5
  1
1.1300000
100
AcDbAttributeDefinition
  3

  2
H1
 70
     8
280
     0
  0
ATTDEF
  5
223
330
200
100
AcDbEntity
  8
AM_6
100
AcDbText
 10
6.06
 20
-13.48959982752573
 30
0.0
 40
0.5
  1
3.85
100
AcDbAttributeDefinition
  3

  2
J
 70
     8
280
     0
  0
ATTDEF
  5
224
330
200
100
AcDbEntity
  8
AM_6
100
AcDbText
 10
6.06
 20
-13.98959982752573
 30
0.0
 40
0.5
  1
3.850000
100
AcDbAttributeDefinition
  3

  2
J1
 70
     8
280
     0
  0
ATTDEF
  5
225
330
200
100
AcDbEntity
  8
AM_6
100
AcDbText
 10
6.06
 20
-14.48959982752573
 30
0.0
 40
0.5
  1
2.72
100
AcDbAttributeDefinition
  3

  2
L
 70
     8
280
     0
  0
ATTDEF
  5
226
330
200
100
AcDbEntity
  8
AM_6
100
AcDbText
 10
6.06
 20
-14.98959982752573
 30
0.0
 40
0.5
  1
2.7200000
100
AcDbAttributeDefinition
  3

  2
L1
 70
     8
280
     0
  0
ATTDEF
  5
227
330
200
100
AcDbEntity
  8
AM_6
100
AcDbText
 10
6.06
 20
-15.48959982752573
 30
0.0
 40
0.5
  1
1.875
100
AcDbAttributeDefinition
  3

  2
M
 70
     8
280
     0
  0
ATTDEF
  5
228
330
200
100
AcDbEntity
  8
AM_6
100
AcDbText
 10
6.06
 20
-15.98959982752573
 30
0.0
 40
0.5
  1
1.875000
100
AcDbAttributeDefinition
  3

  2
M1
 70
     8
280
     0
  0
ATTDEF
  5
229
330
200
100
AcDbEntity
  8
AM_6
100
AcDbText
 10
6.06
 20
-16.48959982752573
 30
0.0
 40
0.5
  1
1.04
100
AcDbAttributeDefinition
  3

  2
R
 70
     8
280
     0
  0
ATTDEF
  5
22A
330
200
100
AcDbEntity
  8
AM_6
100
AcDbText
 10
6.06
 20
-16.98959982752573
 30
0.0
 40
0.5
  1
1.040000
100
AcDbAttributeDefinition
  3

  2
R1
 70
     8
280
     0
  0
ATTDEF
  5
22B
330
200
100
AcDbEntity
  8
AM_6
100
AcDbText
 10
6.06
 20
-17.48959982752573
 30
0.0
 40
0.5
  1
1.59
100
AcDbAttributeDefinition
  3

  2
S
 70
     8
280
     0
  0
ATTDEF
  5
22C
330
200
100
AcDbEntity
  8
AM_6
100
AcDbText
 10
6.06
 20
-17.98959982752573
 30
0.0
 40
0.5
  1
1.590000
100
AcDbAttributeDefinition
  3

  2
S1
 70
     8
280
     0
  0
ATTDEF
  5
22D
330
200
100
AcDbEntity
  8
AM_6
100
AcDbText
 10
6.06
 20
-18.48959982752573
 30
0.0
 40
0.5
  1
0.16
100
AcDbAttributeDefinition
  3

  2
X
 70
     8
280
     0
  0
ATTDEF
  5
22E
330
200
100
AcDbEntity
  8
AM_6
100
AcDbText
 10
6.06
 20
-18.98959982752573
 30
0.0
 40
0.5
  1
0.160000
100
AcDbAttributeDefinition
  3

  2
X1
 70
     8
280
     0
  0
ATTDEF
  5
22F
330
200
100
AcDbEntity
  8
AM_6
100
AcDbText
 10
6.06
 20
-19.48959982752573
 30
0.0
 40
0.5
  1
0.020
100
AcDbAttributeDefinition
  3

  2
Y
 70
     8
280
     0
  0
ATTDEF
  5
230
330
200
100
AcDbEntity
  8
AM_6
100
AcDbText
 10
6.06
 20
-19.98959982752573
 30
0.0
 40
0.5
  1
1.8
100
AcDbAttributeDefinition
  3

  2
Z
 70
     8
280
     0
  0
ATTDEF
  5
231
330
200
100
AcDbEntity
  8
AM_6
100
AcDbText
 10
6.06
 20
-20.48959982752573
 30
0.0
 40
0.5
  1
1.800000
100
AcDbAttributeDefinition
  3

  2
Z1
 70
     8
280
     0
  0
ATTDEF
  5
232
330
200
100
AcDbEntity
  8
AM_6
100
AcDbText
 10
6.06
 20
-20.98959982752573
 30
0.0
 40
0.5
  1
3.1496
100
AcDbAttributeDefinition
  3

  2
BORE
 70
     8
280
     0
  0
ATTDEF
  5
233
330
200
100
AcDbEntity
  8
AM_6
100
AcDbText
 10
6.06
 20
-21.48959982752573
 30
0.0
 40
0.5
  1
baldor
100
AcDbAttributeDefinition
  3

  2
COMPANY
 70
     8
280
     0
  0
LINE
  5
234
330
200
100
AcDbEntity
  8
AM_9
100
AcDbLine
 10
-0.2428188139442669
 20
1.975
 30
0.0
 11
0.2430443517691121
 21
1.975
 31
0.0
  0
LINE
  5
235
330
200
100
AcDbEntity
  8
AM_9
100
AcDbLine
 10
-0.0249125573544273
 20
1.907969161557333
 30
0.0
 11
-0.0511652564908323
 21
1.903961658110677
 31
0.0
  0
LWPOLYLINE
  5
236
330
200
100
AcDbEntity
  8
AM_9
100
AcDbPolyline
 90
        3
 70
     0
 43
0.0
 10
0.0259947642869931
 20
1.907858833926851
 10
-0.0176230916073783
 20
1.908589864172678
 10
-0.0249125573544272
 20
1.907969161557333
  0
LINE
  5
237
330
200
100
AcDbEntity
  8
AM_9
100
AcDbLine
 10
0.0511652564908324
 20
1.903961658110677
 30
0.0
 11
0.0259947642869931
 21
1.907858833926851
 31
0.0
  0
LINE
  5
238
330
200
100
AcDbEntity
  8
AM_9
100
AcDbLine
 10
-0.3676181219627115
 20
1.9185
 30
0.0
 11
0.3678296102576729
 21
1.9185
 31
0.0
  0
ELLIPSE
  5
239
330
200
100
AcDbEntity
  8
AM_9
100
AcDbEllipse
 10
0.0000000000031053
 20
1.710400172507344
 30
0.0
 11
0.5000000000031052
 21
0.0
 31
0.0
210
0.0
220
0.0
230
1.0
 40
0.5000000000000034
 41
3.134870885836564
 42
3.141592653589793
  0
ELLIPSE
  5
23A
330
200
100
AcDbEntity
  8
AM_9
100
AcDbEllipse
 10
0.0000000000000001
 20
1.710400172474267
 30
0.0
 11
0.4999999999999999
 21
0.0
 31
0.0
210
0.0
220
0.0
230
1.0
 40
0.4999999999999476
 41
0.0
 42
3.123788554856506
  0
ELLIPSE
  5
23B
330
200
100
AcDbEntity
  8
AM_9
100
AcDbEllipse
 10
-0.0000000000000007
 20
1.797002712852695
 30
0.0
 11
0.4000000000000078
 21
0.0
 31
0.0
210
0.0
220
0.0
230
1.0
 40
0.5000000000000295
 41
1.309208643565821
 42
1.570796326794897
  0
ELLIPSE
  5
23C
330
200
100
AcDbEntity
  8
AM_9
100
AcDbEllipse
 10
0.0000000000000007
 20
1.797002712852695
 30
0.0
 11
0.4000000000000067
 21
5.960464477539165E-9
 31
0.0
210
0.0
220
0.0
230
1.0
 40
0.5000000000000298
 41
1.570796326794897
 42
1.832384001078476
  0
LWPOLYLINE
  5
23D
330
200
100
AcDbEntity
  8
AM_9
100
AcDbPolyline
 90
        6
 70
     0
 43
0.0
 10
0.0
 20
2.010400172474266
 10
-0.0163666868927871
 20
2.01025131153628
 10
-0.0469329157813958
 20
2.009173386305179
 10
-0.0773412744781417
 20
2.007054236443945
 10
-0.1074915265521457
 20
2.003894996972568
 10
-0.1113980863540304
 20
2.00340654457083
  0
LWPOLYLINE
  5
23E
330
200
100
AcDbEntity
  8
AM_9
100
AcDbPolyline
 90
        6
 70
     0
 43
0.0
 10
0.1113861483873784
 20
2.003408065321653
 10
0.1017265505578074
 20
2.004582282003413
 10
0.0714795008636636
 20
2.007545069609597
 10
0.0410085583196739
 20
2.009464109235494
 10
0.0104112601205161
 20
2.010339946009314
 10
0.0
 20
2.010400172474266
  0
LINE
  5
23F
330
200
100
AcDbEntity
  8
AM_9
100
AcDbLine
 10
-0.9540000000000001
 20
-1.5748
 30
0.0
 11
0.9540000000000001
 21
-1.5748
 31
0.0
  0
LINE
  5
240
330
200
100
AcDbEntity
  8
AM_9
100
AcDbLine
 10
0.9540000000000001
 20
1.5748
 30
0.0
 11
-0.9540000000000001
 21
1.5748
 31
0.0
  0
LWPOLYLINE
  5
241
330
200
100
AcDbEntity
  8
AM_9
100
AcDbPolyline
 90
       14
 70
     0
 43
0.0
 10
-0.0511652564908327
 20
1.903961658110677
 10
-0.1075552883960513
 20
1.901446681672526
 10
-0.1624704729964941
 20
1.897085931068611
 10
-0.2132713528392563
 20
1.891064705812242
 10
-0.2615836848446199
 20
1.883162804055507
 10
-0.3065693485363529
 20
1.873339075839421
 10
-0.3486128026452484
 20
1.861188646819648
 10
-0.3864529437440286
 20
1.846792182401238
 10
-0.4194143979072709
 20
1.830176770257686
 10
-0.447483951055102
 20
1.810936792031318
 10
-0.4699384871837043
 20
1.78930733733933
 10
-0.4863137685444959
 20
1.765530434092712
 10
-0.4965508290582927
 20
1.738902186981863
 10
-0.4999986327373562
 20
1.710984522339672
  0
LINE
  5
242
330
200
100
AcDbEntity
  8
AM_9
100
AcDbLine
 10
-0.3889566298719038
 20
1.903961658110677
 30
0.0
 11
0.3891999295189773
 21
1.903961658110677
 31
0.0
  0
LWPOLYLINE
  5
243
330
200
100
AcDbEntity
  8
AM_9
100
AcDbPolyline
 90
       15
 70
     0
 43
0.0
 10
0.4999978875698695
 20
1.711126418638549
 10
0.4976318809798386
 20
1.734055646687564
 10
0.4906039258554968
 20
1.756529593760719
 10
0.4790307375311892
 20
1.777533880549223
 10
0.4605872134196924
 20
1.799319070839732
 10
0.4366820541025708
 20
1.81907545652357
 10
0.4077601277338488
 20
1.83662480068152
 10
0.3731359144329068
 20
1.852326581237987
 10
0.3338282828554874
 20
1.865844361740844
 10
0.2905278607898948
 20
1.877166508534876
 10
0.2426215595040273
 20
1.88655179707003
 10
0.1913692454669929
 20
1.893914658661844
 10
0.1377348762754732
 20
1.899302094772238
 10
0.0948404133815709
 20
1.90217913004764
 10
0.0511652564908328
 20
1.903961658110677
  0
LINE
  5
244
330
200
100
AcDbEntity
  8
AM_9
100
AcDbLine
 10
-0.954
 20
-0.6859176230264221
 30
0.0
 11
-0.954
 21
-1.875
 31
0.0
  0
LINE
  5
245
330
200
100
AcDbEntity
  8
AM_9
100
AcDbLine
 10
0.9540000000000003
 20
-0.6859176230264222
 30
0.0
 11
0.9540000000000003
 21
-1.875
 31
0.0
  0
LINE
  5
246
330
200
100
AcDbEntity
  8
AM_9
100
AcDbLine
 10
-0.2499999999999998
 20
-0.7450000000000001
 30
0.0
 11
-0.2499999999999998
 21
-1.875
 31
0.0
  0
LINE
  5
247
330
200
100
AcDbEntity
  8
AM_9
100
AcDbLine
 10
0.2500000000000001
 20
-0.7450000000000002
 30
0.0
 11
0.2500000000000001
 21
-1.875
 31
0.0
  0
LINE
  5
248
330
200
100
AcDbEntity
  8
AM_4
100
AcDbLine
 10
0.2430443517691121
 20
1.975
 30
0.0
 11
0.9540000000000001
 21
1.975
 31
0.0
  0
LINE
  5
249
330
200
100
AcDbEntity
  8
AM_4
100
AcDbLine
 10
-0.9540000000000001
 20
1.975
 30
0.0
 11
-0.2428188139442669
 21
1.975
 31
0.0
  0
LINE
  5
24A
330
200
100
AcDbEntity
  8
AM_4
100
AcDbLine
 10
0.3678296102576729
 20
1.9185
 30
0.0
 11
0.9540000000000001
 21
1.9185
 31
0.0
  0
LINE
  5
24B
330
200
100
AcDbEntity
  8
AM_4
100
AcDbLine
 10
-0.9540000000000001
 20
1.9185
 30
0.0
 11
-0.3676181219627115
 21
1.9185
 31
0.0
  0
ELLIPSE
  5
24C
330
200
100
AcDbEntity
  8
AM_4
100
AcDbEllipse
 10
0.0000000000000001
 20
1.710400172474266
 30
0.0
 11
0.5
 21
0.0
 31
0.0
210
0.0
220
0.0
230
1.0
 40
0.4999999999999987
 41
3.141592653589793
 42
6.283185307179586
  0
ELLIPSE
  5
24D
330
200
100
AcDbEntity
  8
AM_4
100
AcDbEllipse
 10
0.0000000000001143
 20
1.797002712852741
 30
0.0
 11
0.3999999999996227
 21
0.0
 31
0.0
210
0.0
220
0.0
230
1.0
 40
0.5000000000003562
 41
1.253669420700149
 42
1.305184177224748
  0
ELLIPSE
  5
24E
330
200
100
AcDbEntity
  8
AM_4
100
AcDbEllipse
 10
-0.0000000000041606
 20
1.797002712851136
 30
0.0
 11
0.4000000000131123
 21
0.0
 31
0.0
210
0.0
220
0.0
230
1.0
 40
0.4999999999889891
 41
1.245562364618475
 42
1.253669420699232
  0
ELLIPSE
  5
24F
330
200
100
AcDbEntity
  8
AM_4
100
AcDbEllipse
 10
-0.0000000000000002
 20
1.79700271285271
 30
0.0
 11
0.4000000000000001
 21
0.0
 31
0.0
210
0.0
220
0.0
230
1.0
 40
0.4999999999999997
 41
1.879441415600525
 42
7.528747671798734
  0
ELLIPSE
  5
250
330
200
100
AcDbEntity
  8
AM_4
100
AcDbEllipse
 10
-0.0000000000001107
 20
1.797002712852359
 30
0.0
 11
0.3999999999996271
 21
0.0
 31
0.0
210
0.0
220
0.0
230
1.0
 40
0.5000000000012704
 41
-4.446776830814572
 42
-4.403743891579124
  0
LWPOLYLINE
  5
251
330
200
100
AcDbEntity
  8
AM_4
100
AcDbPolyline
 90
       23
 70
     0
 43
0.0
 10
-0.1113980863540304
 20
2.00340654457083
 10
-0.1372888617695651
 20
1.999696229542901
 10
-0.1666403665295698
 20
1.994457495667725
 10
-0.1954552084280569
 20
1.988176697959011
 10
-0.2236445044243044
 20
1.980849290723357
 10
-0.2511206896067881
 20
1.972467440261737
 10
-0.2777961286880748
 20
1.963019312150983
 10
-0.3035806307896207
 20
1.952488838062877
 10
-0.328377493350729
 20
1.940856601766549
 10
-0.3520778561856375
 20
1.928102878676624
 10
-0.3745537896396738
 20
1.914214206166184
 10
-0.3956345626490198
 20
1.899208024410317
 10
-0.4151243178611029
 20
1.883142034127254
 10
-0.4328315107839021
 20
1.866112496002692
 10
-0.4485848887825705
 20
1.848257602782117
 10
-0.462261581297724
 20
1.829738857296058
 10
-0.473799761744072
 20
1.81071674596352
 10
-0.483190792864079
 20
1.791334597417758
 10
-0.4904603579763611
 20
1.771715622916341
 10
-0.4956508794045274
 20
1.751967997734301
 10
-0.4988107205486954
 20
1.732190743167429
 10
-0.499989221167594
 20
1.712476578106287
 10
-0.4999999982540697
 20
1.710373745743993
  0
LWPOLYLINE
  5
252
330
200
100
AcDbEntity
  8
AM_4
100
AcDbPolyline
 90
       23
 70
     0
 43
0.0
 10
0.4999999997191303
 20
1.710410771904909
 10
0.4991233758787954
 20
1.729112997706346
 10
0.4963659238326947
 20
1.748418721185259
 10
0.4917742306673893
 20
1.767394969618145
 10
0.4853851857761773
 20
1.78599513305984
 10
0.47722033907789
 20
1.804185511625171
 10
0.4672834859008881
 20
1.821941712555927
 10
0.4555614872397613
 20
1.839242239305952
 10
0.4420304086339231
 20
1.856059736117915
 10
0.4266684413422103
 20
1.872351488219746
 10
0.4094746910445181
 20
1.888052377320754
 10
0.3904885448836195
 20
1.903074555741829
 10
0.3698004545824847
 20
1.917316551000174
 10
0.3475468085736229
 20
1.930679379702636
 10
0.3238907237292082
 20
1.94308205582602
 10
0.2990169731431652
 20
1.954461797614084
 10
0.273084138856422
 20
1.964789498731266
 10
0.2462216772233288
 20
1.974057613701227
 10
0.2185446498311851
 20
1.982266546585493
 10
0.1901582757503401
 20
1.989419847027425
 10
0.1611620630086074
 20
1.995521532113306
 10
0.1316528184881335
 20
2.000574910435224
 10
0.1113861483873784
 20
2.003408065321653
  0
LINE
  5
253
330
200
100
AcDbEntity
  8
AM_4
100
AcDbLine
 10
-0.9540000000000001
 20
1.903961658110677
 30
0.0
 11
-0.3889566298719038
 21
1.903961658110677
 31
0.0
  0
LINE
  5
254
330
200
100
AcDbEntity
  8
AM_4
100
AcDbLine
 10
0.7571428571428572
 20
0.2979248898631996
 30
0.0
 11
-0.7571428571428571
 21
0.2979248898631996
 31
0.0
  0
LINE
  5
255
330
200
100
AcDbEntity
  8
AM_4
100
AcDbLine
 10
0.3891999295189773
 20
1.903961658110677
 30
0.0
 11
0.9540000000000001
 21
1.903961658110677
 31
0.0
  0
LWPOLYLINE
  5
256
330
200
100
AcDbEntity
  8
AM_4
100
AcDbPolyline
 90
       30
 70
     0
 43
0.0
 10
-0.4999999999999999
 20
1.710400172474267
 10
-0.4974628858936199
 20
1.684692321121039
 10
-0.4889964503249958
 20
1.655937244902545
 10
-0.4747250079897992
 20
1.626564930928922
 10
-0.4549336852908237
 20
1.597213829456162
 10
-0.429496444918378
 20
1.568006273628559
 10
-0.3988868651059475
 20
1.539643438449456
 10
-0.3636526551856158
 20
1.512805999394842
 10
-0.3228788361538582
 20
1.487285764400467
 10
-0.2778904365811753
 20
1.464287138858889
 10
-0.2294915206765538
 20
1.444462629318816
 10
-0.1777945369777358
 20
1.428208184702443
 10
-0.1235541605818967
 20
1.415928875424446
 10
-0.0678277498683895
 20
1.408034149205635
 10
-0.0127017054309886
 20
1.404837765782508
 10
0.042768857229786
 20
1.406051316585193
 10
0.0975064704409854
 20
1.411633977614661
 10
0.1500761245087711
 20
1.421335784047858
 10
0.2009581885126938
 20
1.43492055355805
 10
0.2492587779689178
 20
1.451982050959723
 10
0.2954180440181243
 20
1.472670776899425
 10
0.3380925383764572
 20
1.496231295840739
 10
0.3765499536637273
 20
1.522032025525744
 10
0.4112186249416993
 20
1.550389008756286
 10
0.4407873490242258
 20
1.580170862819019
 10
0.4646813330739364
 20
1.610621761756492
 10
0.4824512776400102
 20
1.641040923413576
 10
0.4941816313170589
 20
1.67124131888877
 10
0.4996170543791073
 20
1.700533618347035
 10
0.5000000000000001
 20
1.710400172474267
  0
LINE
  5
257
330
200
100
AcDbEntity
  8
AM_4
100
AcDbLine
 10
-0.7571428571428571
 20
-0.6885
 30
0.0
 11
0.7571428571428573
 21
-0.6885
 31
0.0
  0
LINE
  5
258
330
200
100
AcDbEntity
  8
AM_4
100
AcDbLine
 10
0.7571428571428572
 20
0.2537037832932379
 30
0.0
 11
0.9540000000000003
 21
0.2537037832932379
 31
0.0
  0
LINE
  5
259
330
200
100
AcDbEntity
  8
AM_4
100
AcDbLine
 10
-0.954
 20
0.2537037832932379
 30
0.0
 11
-0.7571428571428571
 21
0.2537037832932379
 31
0.0
  0
LWPOLYLINE
  5
25A
330
200
100
AcDbEntity
  8
AM_4
100
AcDbPolyline
 90
       14
 70
     0
 43
0.0
 10
-1.05330704872858
 20
-0.7450000000000001
 10
-1.043458449798095
 20
-0.7445700008843673
 10
-1.033684804652217
 20
-0.7432832760903795
 10
-1.024060496631995
 20
-0.7411496183706647
 10
-1.014658772532779
 20
-0.7381852661488078
 10
-1.005551185151881
 20
-0.7344127799351414
 10
-0.9968070487285802
 20
-0.7298608706276416
 10
-0.9884929114209119
 20
-0.7245641810046561
 10
-0.9806720488340012
 20
-0.7185630220724445
 10
-0.9734039824545003
 20
-0.7119030662740798
 10
-0.9667440266561357
 20
-0.7046349998945789
 10
-0.960742867723924
 20
-0.6968141373076681
 10
-0.9554461781009386
 20
-0.6884999999999999
 10
-0.954
 20
-0.6859176230264222
  0
LINE
  5
25B
330
200
100
AcDbEntity
  8
AM_4
100
AcDbLine
 10
-0.7571428571428571
 20
0.2979248898631996
 30
0.0
 11
-0.7571428571428571
 21
-0.7450000000000001
 31
0.0
  0
LINE
  5
25C
330
200
100
AcDbEntity
  8
AM_4
100
AcDbLine
 10
-0.954
 20
-0.6465157101327272
 30
0.0
 11
-0.7571428571428571
 21
-0.6465157101327272
 31
0.0
  0
LINE
  5
25D
330
200
100
AcDbEntity
  8
AM_4
100
AcDbLine
 10
-0.954
 20
-0.6859176230264221
 30
0.0
 11
-0.9540000000000001
 21
1.975
 31
0.0
  0
LWPOLYLINE
  5
25E
330
200
100
AcDbEntity
  8
AM_4
100
AcDbPolyline
 90
       14
 70
     0
 43
0.0
 10
0.9540000000000001
 20
-0.6859176230264228
 10
0.9590771237840863
 20
-0.6943676297846493
 10
0.9648713941945842
 20
-0.7023429812216099
 10
0.9713387133349941
 20
-0.7097829800972205
 10
0.9784298610015834
 20
-0.716631003527644
 10
0.9860908692788571
 20
-0.7228349339196251
 10
0.994263433267982
 20
-0.728347555616845
 10
1.002885354822272
 20
-0.7331269142395761
 10
1.01189101591264
 20
-0.7371366359828438
 10
1.021211878020422
 20
-0.7403462044430454
 10
1.030777003756886
 20
-0.7427311928662086
 10
1.040513596739599
 20
-0.7442734500503376
 10
1.050347555616845
 20
-0.744961238487021
 10
1.053307048728579
 20
-0.7450000000000001
  0
LINE
  5
25F
330
200
100
AcDbEntity
  8
AM_4
100
AcDbLine
 10
0.7571428571428572
 20
0.2979248898631996
 30
0.0
 11
0.7571428571428572
 21
-0.7450000000000001
 31
0.0
  0
LINE
  5
260
330
200
100
AcDbEntity
  8
AM_4
100
AcDbLine
 10
0.9540000000000001
 20
1.975
 30
0.0
 11
0.9540000000000003
 21
-0.6859176230264222
 31
0.0
  0
LINE
  5
261
330
200
100
AcDbEntity
  8
AM_4
100
AcDbLine
 10
0.7571428571428572
 20
-0.6465157101327272
 30
0.0
 11
0.9540000000000003
 21
-0.6465157101327272
 31
0.0
  0
LINE
  5
262
330
200
100
AcDbEntity
  8
AM_4
100
AcDbLine
 10
-1.06
 20
-0.7450000000000001
 30
0.0
 11
1.06
 21
-0.7450000000000001
 31
0.0
  0
LINE
  5
263
330
200
100
AcDbEntity
  8
AM_4
100
AcDbLine
 10
-1.06
 20
-1.875
 30
0.0
 11
-1.06
 21
-0.7450000000000001
 31
0.0
  0
LINE
  5
264
330
200
100
AcDbEntity
  8
AM_4
100
AcDbLine
 10
1.06
 20
-1.875
 30
0.0
 11
1.06
 21
-0.7450000000000001
 31
0.0
  0
LINE
  5
265
330
200
100
AcDbEntity
  8
AM_4
100
AcDbLine
 10
-1.06
 20
-1.31
 30
0.0
 11
1.06
 21
-1.31
 31
0.0
  0
LINE
  5
266
330
200
100
AcDbEntity
  8
AM_4
100
AcDbLine
 10
-1.06
 20
-1.875
 30
0.0
 11
1.06
 21
-1.875
 31
0.0
  0
LINE
  5
267
330
200
100
AcDbEntity
  8
AM_4
100
AcDbLine
 10
-0.8479999999999993
 20
-1.31
 30
0.0
 11
-0.8479999999999998
 21
-1.875
 31
0.0
  0
LINE
  5
268
330
200
100
AcDbEntity
  8
AM_4
100
AcDbLine
 10
0.848
 20
-1.31
 30
0.0
 11
0.8480000000000003
 21
-1.875
 31
0.0
  0
ENDBLK
  5
203
330
200
100
AcDbEntity
  8
0
100
AcDbBlockEnd
  0
ENDSEC
  0
SECTION
  2
ENTITIES
  0
INSERT
  5
6F
330
1F
100
AcDbEntity
  8
0
100
AcDbBlockReference
  2
1_071162_2
 10
0.0
 20
0.0
 30
0.0
  0
POINT
  5
26A
330
1F
100
AcDbEntity
  8
ConnectionPoints
100
AcDbPoint
 10
-1.428333333333333
 20
1.061631944444444
 30
0.0000000000000001
  0
POINT
  5
26B
330
1F
100
AcDbEntity
  8
ConnectionPoints
100
AcDbPoint
 10
-1.358333333333333
 20
0.0
 30
0.0000000000000001
  0
POINT
  5
26C
330
1F
100
AcDbEntity
  8
ConnectionPoints
100
AcDbPoint
 10
-1.59
 20
0.0
 30
0.0000000000000001
  0
POINT
  5
26D
330
1F
100
AcDbEntity
  8
ConnectionPoints
100
AcDbPoint
 10
-1.557333333333333
 20
0.0
 30
0.0000000000000001
  0
POINT
  5
26E
330
1F
100
AcDbEntity
  8
ConnectionPoints
100
AcDbPoint
 10
-1.358333333333333
 20
1.061631944444444
 30
0.0000000000000001
  0
POINT
  5
26F
330
1F
100
AcDbEntity
  8
ConnectionPoints
100
AcDbPoint
 10
-1.358333333333333
 20
-1.061631944444444
 30
0.0000000000000001
  0
POINT
  5
270
330
1F
100
AcDbEntity
  8
ConnectionPoints
100
AcDbPoint
 10
-1.358333333333333
 20
0.0
 30
0.0000000000000001
  0
POINT
  5
271
330
1F
100
AcDbEntity
  8
ConnectionPoints
100
AcDbPoint
 10
0.0000000000000001
 20
1.79700271285271
 30
1.0375
  0
POINT
  5
272
330
1F
100
AcDbEntity
  8
ConnectionPoints
100
AcDbPoint
 10
0.0000000000000001
 20
1.79700271285271
 30
1.0375
  0
POINT
  5
273
330
1F
100
AcDbEntity
  8
ConnectionPoints
100
AcDbPoint
 10
-1.43
 20
0.0
 30
0.0000000000000001
  0
POINT
  5
274
330
1F
100
AcDbEntity
  8
ConnectionPoints
100
AcDbPoint
 10
-1.59
 20
0.0
 30
0.0000000000000001
  0
ENDSEC
  0
SECTION
  2
OBJECTS
  0
DICTIONARY
  5
C
330
0
100
AcDbDictionary
281
     1
  3
ACAD_DETAILVIEWSTYLE
350
27C
  3
ACAD_GROUP
350
D
  3
ACAD_LAYOUT
350
1A
  3
ACAD_MATERIAL
350
43
  3
ACAD_MLEADERSTYLE
350
6B
  3
ACAD_MLINESTYLE
350
17
  3
ACAD_PLOTSETTINGS
350
19
  3
ACAD_PLOTSTYLENAME
350
E
  3
ACAD_SCALELIST
350
47
  3
ACAD_SECTIONVIEWSTYLE
350
27D
  3
ACAD_TABLESTYLE
350
69
  3
ACAD_VISUALSTYLE
350
2A
  3
ACDB_RECOMPOSE_DATA
350
279
  3
AcDbVariableDictionary
350
275
  0
SUN
  5
6D
330
29
100
AcDbSun
 90
        1
290
     0
 63
     7
421
 16777215
 40
1.0
291
     1
 91
  2455826
 92
 54000000
292
     0
 70
     2
 71
   256
280
     1
  0
DICTIONARY
  5
27C
102
{ACAD_REACTORS
330
C
102
}
330
C
100
AcDbDictionary
281
     1
  0
DICTIONARY
  5
D
102
{ACAD_REACTORS
330
C
102
}
330
C
100
AcDbDictionary
281
     1
  0
DICTIONARY
  5
1A
102
{ACAD_REACTORS
330
C
102
}
330
C
100
AcDbDictionary
281
     1
  3
Layout1
350
1E
  3
Layout2
350
26
  3
Model
350
22
  0
DICTIONARY
  5
43
102
{ACAD_REACTORS
330
C
102
}
330
C
100
AcDbDictionary
281
     1
  3
ByBlock
350
45
  3
ByLayer
350
44
  3
Global
350
46
  0
DICTIONARY
  5
6B
102
{ACAD_REACTORS
330
C
102
}
330
C
100
AcDbDictionary
281
     1
  3
Standard
350
6C
  0
DICTIONARY
  5
17
102
{ACAD_REACTORS
330
C
102
}
330
C
100
AcDbDictionary
281
     1
  3
Standard
350
18
  0
DICTIONARY
  5
19
102
{ACAD_REACTORS
330
C
102
}
330
C
100
AcDbDictionary
281
     1
  0
ACDBDICTIONARYWDFLT
  5
E
102
{ACAD_REACTORS
330
C
102
}
330
C
100
AcDbDictionary
281
     1
  3
Normal
350
F
100
AcDbDictionaryWithDefault
340
F
  0
DICTIONARY
  5
47
102
{ACAD_REACTORS
330
C
102
}
330
C
100
AcDbDictionary
281
     1
  3
A0
350
48
  3
A1
350
49
  3
A2
350
4A
  3
A3
350
4B
  3
A4
350
4C
  3
A5
350
4D
  3
A6
350
4E
  3
A7
350
4F
  3
A8
350
50
  3
A9
350
51
  3
B0
350
52
  3
B1
350
53
  3
B2
350
54
  3
B3
350
55
  3
B4
350
56
  3
B5
350
57
  3
B6
350
58
  3
B7
350
59
  3
B8
350
5A
  3
B9
350
5B
  3
C0
350
5C
  3
C1
350
5D
  3
C2
350
5E
  3
C3
350
5F
  3
C4
350
60
  3
C5
350
61
  3
C6
350
62
  3
C7
350
63
  3
C8
350
64
  3
C9
350
65
  3
D0
350
66
  3
D1
350
67
  3
D2
350
68
  0
DICTIONARY
  5
27D
102
{ACAD_REACTORS
330
C
102
}
330
C
100
AcDbDictionary
281
     1
  0
DICTIONARY
  5
69
102
{ACAD_REACTORS
330
C
102
}
330
C
100
AcDbDictionary
281
     1
  3
Standard
350
6A
  0
DICTIONARY
  5
2A
102
{ACAD_REACTORS
330
C
102
}
330
C
100
AcDbDictionary
281
     1
  3
2dWireframe
350
2F
  3
Basic
350
32
  3
Brighten
350
36
  3
ColorChange
350
3A
  3
Conceptual
350
34
  3
Dim
350
35
  3
EdgeColorOff
350
3D
  3
Facepattern
350
39
  3
Flat
350
2B
  3
FlatWithEdges
350
2C
  3
Gouraud
350
2D
  3
GouraudWithEdges
350
2E
  3
Hidden
350
31
  3
JitterOff
350
3B
  3
Linepattern
350
38
  3
OverhangOff
350
3C
  3
Realistic
350
33
  3
Shaded
350
42
  3
Shaded with edges
350
41
  3
Shades of Gray
350
3E
  3
Sketchy
350
3F
  3
Thicken
350
37
  3
Wireframe
350
30
  3
X-Ray
350
40
  0
XRECORD
  5
279
102
{ACAD_REACTORS
330
C
102
}
330
C
100
AcDbXrecord
280
     1
 90
        1
330
6A
  0
DICTIONARY
  5
275
102
{ACAD_REACTORS
330
C
102
}
330
C
100
AcDbDictionary
281
     1
  3
CANNOSCALE
350
276
  3
CMLEADERSTYLE
350
27B
  3
CTABLESTYLE
350
27A
  0
LAYOUT
  5
1E
102
{ACAD_REACTORS
330
1A
102
}
330
1A
100
AcDbPlotSettings
  1

  2
none_device
  4

  6

 40
0.0
 41
0.0
 42
0.0
 43
0.0
 44
0.0
 45
0.0
 46
0.0
 47
0.0
 48
0.0
 49
0.0
140
0.0
141
0.0
142
1.0
143
1.0
 70
   688
 72
     0
 73
     0
 74
     5
  7

 75
    16
 76
     0
 77
     2
 78
   300
147
1.0
148
0.0
149
0.0
100
AcDbLayout
  1
Layout1
 70
     1
 71
     1
 10
0.0
 20
0.0
 11
12.0
 21
9.0
 12
0.0
 22
0.0
 32
0.0
 14
1.000000000000000E+20
 24
1.000000000000000E+20
 34
1.000000000000000E+20
 15
-1.000000000000000E+20
 25
-1.000000000000000E+20
 35
-1.000000000000000E+20
146
0.0
 13
0.0
 23
0.0
 33
0.0
 16
1.0
 26
0.0
 36
0.0
 17
0.0
 27
1.0
 37
0.0
 76
     0
330
1B
  0
LAYOUT
  5
26
102
{ACAD_REACTORS
330
1A
102
}
330
1A
100
AcDbPlotSettings
  1

  2
none_device
  4

  6

 40
0.0
 41
0.0
 42
0.0
 43
0.0
 44
0.0
 45
0.0
 46
0.0
 47
0.0
 48
0.0
 49
0.0
140
0.0
141
0.0
142
1.0
143
1.0
 70
   688
 72
     0
 73
     0
 74
     5
  7

 75
    16
 76
     0
 77
     2
 78
   300
147
1.0
148
0.0
149
0.0
100
AcDbLayout
  1
Layout2
 70
     1
 71
     2
 10
0.0
 20
0.0
 11
0.0
 21
0.0
 12
0.0
 22
0.0
 32
0.0
 14
0.0
 24
0.0
 34
0.0
 15
0.0
 25
0.0
 35
0.0
146
0.0
 13
0.0
 23
0.0
 33
0.0
 16
1.0
 26
0.0
 36
0.0
 17
0.0
 27
1.0
 37
0.0
 76
     0
330
23
  0
LAYOUT
  5
22
102
{ACAD_REACTORS
330
1A
102
}
330
1A
100
AcDbPlotSettings
  1

  2
none_device
  4
Letter_(8.50_x_11.00_Inches)
  6

 40
6.35
 41
6.35
 42
6.35000508
 43
6.35000508
 44
215.9
 45
279.4
 46
0.0
 47
0.0
 48
0.0
 49
0.0
140
0.0
141
0.0
142
1.0
143
1.0
 70
  1712
 72
     0
 73
     0
 74
     0
  7

 75
     0
 76
     0
 77
     2
 78
   300
147
1.0
148
0.0
149
0.0
100
AcDbLayout
  1
Model
 70
     1
 71
     0
 10
0.0
 20
0.0
 11
12.0
 21
9.0
 12
0.0
 22
0.0
 32
0.0
 14
1.000000000000000E+20
 24
1.000000000000000E+20
 34
1.000000000000000E+20
 15
-1.000000000000000E+20
 25
-1.000000000000000E+20
 35
-1.000000000000000E+20
146
0.0
 13
0.0
 23
0.0
 33
0.0
 16
1.0
 26
0.0
 36
0.0
 17
0.0
 27
1.0
 37
0.0
 76
     0
330
1F
331
29
  0
MATERIAL
  5
45
102
{ACAD_REACTORS
330
43
102
}
330
43
100
AcDbMaterial
  1
ByBlock
 72
     1
 94
      127
  0
MATERIAL
  5
44
102
{ACAD_REACTORS
330
43
102
}
330
43
100
AcDbMaterial
  1
ByLayer
 72
     1
 94
      127
  0
MATERIAL
  5
46
102
{ACAD_REACTORS
330
43
102
}
330
43
100
AcDbMaterial
  1
Global
 72
     1
 94
      127
  0
MLEADERSTYLE
  5
6C
102
{ACAD_REACTORS
330
6B
102
}
330
6B
100
AcDbMLeaderStyle
179
     2
170
     2
171
     1
172
     0
 90
        2
 40
0.0
 41
0.0
173
     1
 91
-1056964608
340
14
 92
       -2
290
     1
 42
0.09
291
     1
 43
0.36
  3
Standard
341
0
 44
0.18
300

342
11
174
     1
178
     6
175
     1
176
     0
 93
-1056964608
 45
0.18
292
     0
297
     0
 46
0.18
343
0
 94
-1056964608
 47
1.0
 49
1.0
140
1.0
293
     1
141
0.0
294
     1
177
     0
142
1.0
295
     0
296
     0
143
0.125
271
     0
272
     9
273
     9
298
     0
  0
MLINESTYLE
  5
18
102
{ACAD_REACTORS
330
17
102
}
330
17
100
AcDbMlineStyle
  2
Standard
 70
     0
  3

 62
   256
 51
90.0
 52
90.0
 71
     2
 49
0.5
 62
   256
  6
BYLAYER
 49
-0.5
 62
   256
  6
BYLAYER
  0
ACDBPLACEHOLDER
  5
F
102
{ACAD_REACTORS
330
E
102
}
330
E
  0
SCALE
  5
48
102
{ACAD_REACTORS
330
47
102
}
330
47
100
AcDbScale
 70
     0
300
1:1
140
1.0
141
1.0
290
     1
  0
SCALE
  5
49
102
{ACAD_REACTORS
330
47
102
}
330
47
100
AcDbScale
 70
     0
300
1:2
140
1.0
141
2.0
290
     0
  0
SCALE
  5
4A
102
{ACAD_REACTORS
330
47
102
}
330
47
100
AcDbScale
 70
     0
300
1:4
140
1.0
141
4.0
290
     0
  0
SCALE
  5
4B
102
{ACAD_REACTORS
330
47
102
}
330
47
100
AcDbScale
 70
     0
300
1:5
140
1.0
141
5.0
290
     0
  0
SCALE
  5
4C
102
{ACAD_REACTORS
330
47
102
}
330
47
100
AcDbScale
 70
     0
300
1:8
140
1.0
141
8.0
290
     0
  0
SCALE
  5
4D
102
{ACAD_REACTORS
330
47
102
}
330
47
100
AcDbScale
 70
     0
300
1:10
140
1.0
141
10.0
290
     0
  0
SCALE
  5
4E
102
{ACAD_REACTORS
330
47
102
}
330
47
100
AcDbScale
 70
     0
300
1:16
140
1.0
141
16.0
290
     0
  0
SCALE
  5
4F
102
{ACAD_REACTORS
330
47
102
}
330
47
100
AcDbScale
 70
     0
300
1:20
140
1.0
141
20.0
290
     0
  0
SCALE
  5
50
102
{ACAD_REACTORS
330
47
102
}
330
47
100
AcDbScale
 70
     0
300
1:30
140
1.0
141
30.0
290
     0
  0
SCALE
  5
51
102
{ACAD_REACTORS
330
47
102
}
330
47
100
AcDbScale
 70
     0
300
1:40
140
1.0
141
40.0
290
     0
  0
SCALE
  5
52
102
{ACAD_REACTORS
330
47
102
}
330
47
100
AcDbScale
 70
     0
300
1:50
140
1.0
141
50.0
290
     0
  0
SCALE
  5
53
102
{ACAD_REACTORS
330
47
102
}
330
47
100
AcDbScale
 70
     0
300
1:100
140
1.0
141
100.0
290
     0
  0
SCALE
  5
54
102
{ACAD_REACTORS
330
47
102
}
330
47
100
AcDbScale
 70
     0
300
2:1
140
2.0
141
1.0
290
     0
  0
SCALE
  5
55
102
{ACAD_REACTORS
330
47
102
}
330
47
100
AcDbScale
 70
     0
300
4:1
140
4.0
141
1.0
290
     0
  0
SCALE
  5
56
102
{ACAD_REACTORS
330
47
102
}
330
47
100
AcDbScale
 70
     0
300
8:1
140
8.0
141
1.0
290
     0
  0
SCALE
  5
57
102
{ACAD_REACTORS
330
47
102
}
330
47
100
AcDbScale
 70
     0
300
10:1
140
10.0
141
1.0
290
     0
  0
SCALE
  5
58
102
{ACAD_REACTORS
330
47
102
}
330
47
100
AcDbScale
 70
     0
300
100:1
140
100.0
141
1.0
290
     0
  0
SCALE
  5
59
102
{ACAD_REACTORS
330
47
102
}
330
47
100
AcDbScale
 70
     0
300
1/128" = 1'-0"
140
0.0078125
141
12.0
290
     0
  0
SCALE
  5
5A
102
{ACAD_REACTORS
330
47
102
}
330
47
100
AcDbScale
 70
     0
300
1/64" = 1'-0"
140
0.015625
141
12.0
290
     0
  0
SCALE
  5
5B
102
{ACAD_REACTORS
330
47
102
}
330
47
100
AcDbScale
 70
     0
300
1/32" = 1'-0"
140
0.03125
141
12.0
290
     0
  0
SCALE
  5
5C
102
{ACAD_REACTORS
330
47
102
}
330
47
100
AcDbScale
 70
     0
300
1/16" = 1'-0"
140
0.0625
141
12.0
290
     0
  0
SCALE
  5
5D
102
{ACAD_REACTORS
330
47
102
}
330
47
100
AcDbScale
 70
     0
300
3/32" = 1'-0"
140
0.09375
141
12.0
290
     0
  0
SCALE
  5
5E
102
{ACAD_REACTORS
330
47
102
}
330
47
100
AcDbScale
 70
     0
300
1/8" = 1'-0"
140
0.125
141
12.0
290
     0
  0
SCALE
  5
5F
102
{ACAD_REACTORS
330
47
102
}
330
47
100
AcDbScale
 70
     0
300
3/16" = 1'-0"
140
0.1875
141
12.0
290
     0
  0
SCALE
  5
60
102
{ACAD_REACTORS
330
47
102
}
330
47
100
AcDbScale
 70
     0
300
1/4" = 1'-0"
140
0.25
141
12.0
290
     0
  0
SCALE
  5
61
102
{ACAD_REACTORS
330
47
102
}
330
47
100
AcDbScale
 70
     0
300
3/8" = 1'-0"
140
0.375
141
12.0
290
     0
  0
SCALE
  5
62
102
{ACAD_REACTORS
330
47
102
}
330
47
100
AcDbScale
 70
     0
300
1/2" = 1'-0"
140
0.5
141
12.0
290
     0
  0
SCALE
  5
63
102
{ACAD_REACTORS
330
47
102
}
330
47
100
AcDbScale
 70
     0
300
3/4" = 1'-0"
140
0.75
141
12.0
290
     0
  0
SCALE
  5
64
102
{ACAD_REACTORS
330
47
102
}
330
47
100
AcDbScale
 70
     0
300
1" = 1'-0"
140
1.0
141
12.0
290
     0
  0
SCALE
  5
65
102
{ACAD_REACTORS
330
47
102
}
330
47
100
AcDbScale
 70
     0
300
1-1/2" = 1'-0"
140
1.5
141
12.0
290
     0
  0
SCALE
  5
66
102
{ACAD_REACTORS
330
47
102
}
330
47
100
AcDbScale
 70
     0
300
3" = 1'-0"
140
3.0
141
12.0
290
     0
  0
SCALE
  5
67
102
{ACAD_REACTORS
330
47
102
}
330
47
100
AcDbScale
 70
     0
300
6" = 1'-0"
140
6.0
141
12.0
290
     0
  0
SCALE
  5
68
102
{ACAD_REACTORS
330
47
102
}
330
47
100
AcDbScale
 70
     0
300
1'-0" = 1'-0"
140
12.0
141
12.0
290
     0
  0
TABLESTYLE
  5
6A
102
{ACAD_REACTORS
330
69
102
}
102
{ACAD_XDICTIONARY
360
277
102
}
330
69
100
AcDbTableStyle
  3
Standard
 70
     0
 71
     0
 40
0.06
 41
0.06
280
     0
281
     0
  7
Standard
140
0.18
170
     2
 62
     0
 63
   257
283
     0
 90
        4
 91
        0
  1

274
    -2
284
     1
 64
     0
275
    -2
285
     1
 65
     0
276
    -2
286
     1
 66
     0
277
    -2
287
     1
 67
     0
278
    -2
288
     1
 68
     0
279
    -2
289
     1
 69
     0
  7
Standard
140
0.25
170
     5
 62
     0
 63
   257
283
     0
 90
        4
 91
        0
  1

274
    -2
284
     1
 64
     0
275
    -2
285
     1
 65
     0
276
    -2
286
     1
 66
     0
277
    -2
287
     1
 67
     0
278
    -2
288
     1
 68
     0
279
    -2
289
     1
 69
     0
  7
Standard
140
0.18
170
     5
 62
     0
 63
   257
283
     0
 90
        4
 91
        0
  1

274
    -2
284
     1
 64
     0
275
    -2
285
     1
 65
     0
276
    -2
286
     1
 66
     0
277
    -2
287
     1
 67
     0
278
    -2
288
     1
 68
     0
279
    -2
289
     1
 69
     0
  0
VISUALSTYLE
  5
2F
102
{ACAD_REACTORS
330
2A
102
}
330
2A
100
AcDbVisualStyle
  2
2dWireframe
 70
     4
177
     3
291
     0
 70
    58
 90
        0
176
     1
 90
        2
176
     1
 90
        0
176
     1
 90
        0
176
     1
 40
0.6
176
     1
 40
30.0
176
     1
 62
     7
420
 16777215
176
     1
 90
        1
176
     1
 90
        4
176
     1
 62
     7
176
     1
 62
   257
176
     1
 90
        1
176
     1
 90
        1
176
     1
 40
1.0
176
     1
 90
        0
176
     1
 62
   257
176
     1
 40
1.0
176
     1
 90
        1
176
     1
 90
        6
176
     1
 90
        2
176
     1
 62
     7
176
     1
 90
        5
176
     1
 90
        0
176
     1
 90
        0
176
     1
290
     0
176
     1
 90
        1
176
     1
 40
0.0
176
     1
 90
        0
176
     1
290
     1
176
     1
290
     1
176
     1
290
     0
176
     1
290
     0
176
     1
290
     0
176
     1
290
     0
176
     1
290
     0
176
     1
290
     0
176
     1
290
     0
176
     1
 90
       50
176
     1
 40
0.0
176
     1
 40
1.0
176
     1
 90
        0
176
     1
 62
    18
420
        0
176
     1
 90
       50
176
     1
 90
        3
176
     1
 62
     5
420
      255
176
     1
290
     0
176
     1
 90
       50
176
     1
 90
       50
176
     1
 90
       50
176
     1
290
     0
176
     1
 90
       50
176
     1
 62
   256
176
     0
 40
1.0
176
     0
 90
        2
176
     1
  1
strokes_ogs.tif
176
     1
290
     0
176
     1
 40
1.0
176
     1
 40
1.0
176
     1
  0
VISUALSTYLE
  5
32
102
{ACAD_REACTORS
330
2A
102
}
330
2A
100
AcDbVisualStyle
  2
Basic
 70
     7
177
     3
291
     1
 70
    58
 90
        1
176
     1
 90
        0
176
     1
 90
        1
176
     1
 90
        0
176
     1
 40
0.6
176
     1
 40
30.0
176
     1
 62
     7
420
 16777215
176
     1
 90
        0
176
     1
 90
        4
176
     1
 62
     7
176
     1
 62
   257
176
     1
 90
        1
176
     1
 90
        1
176
     1
 40
1.0
176
     1
 90
        8
176
     1
 62
     7
176
     1
 40
1.0
176
     1
 90
        1
176
     1
 90
        6
176
     1
 90
        2
176
     1
 62
     7
176
     1
 90
        5
176
     1
 90
        0
176
     1
 90
        0
176
     1
290
     0
176
     1
 90
        1
176
     1
 40
0.0
176
     1
 90
        0
176
     1
290
     0
176
     1
290
     1
176
     1
290
     1
176
     1
290
     0
176
     1
290
     0
176
     1
290
     0
176
     1
290
     0
176
     1
290
     0
176
     1
290
     0
176
     1
 90
       50
176
     1
 40
0.0
176
     1
 40
1.0
176
     1
 90
        0
176
     1
 62
    18
420
        0
176
     1
 90
       50
176
     1
 90
        3
176
     1
 62
     5
420
      255
176
     1
290
     0
176
     1
 90
       50
176
     1
 90
       50
176
     1
 90
       50
176
     1
290
     0
176
     1
 90
       50
176
     1
 62
   256
176
     0
 40
1.0
176
     0
 90
        2
176
     1
  1
strokes_ogs.tif
176
     1
290
     0
176
     1
 40
1.0
176
     1
 40
1.0
176
     1
  0
VISUALSTYLE
  5
36
102
{ACAD_REACTORS
330
2A
102
}
330
2A
100
AcDbVisualStyle
  2
Brighten
 70
    12
177
     3
291
     1
 70
    58
 90
        2
176
     1
 90
        2
176
     1
 90
        0
176
     1
 90
        0
176
     1
 40
0.6
176
     1
 40
30.0
176
     1
 62
     7
420
 16777215
176
     1
 90
        1
176
     1
 90
        4
176
     1
 62
     7
176
     1
 62
   257
176
     1
 90
        1
176
     1
 90
        1
176
     1
 40
1.0
176
     1
 90
        8
176
     1
 62
     7
176
     1
 40
1.0
176
     1
 90
        1
176
     1
 90
        6
176
     1
 90
        2
176
     1
 62
     7
176
     1
 90
        5
176
     1
 90
        0
176
     1
 90
        0
176
     1
290
     0
176
     1
 90
        1
176
     1
 40
50.0
176
     1
 90
        0
176
     1
290
     0
176
     1
290
     1
176
     1
290
     1
176
     1
290
     0
176
     1
290
     0
176
     1
290
     0
176
     1
290
     0
176
     1
290
     0
176
     1
290
     0
176
     1
 90
       50
176
     1
 40
0.0
176
     1
 40
1.0
176
     1
 90
        0
176
     1
 62
    18
420
        0
176
     1
 90
       50
176
     1
 90
        3
176
     1
 62
     5
420
      255
176
     1
290
     0
176
     1
 90
       50
176
     1
 90
       50
176
     1
 90
       50
176
     1
290
     0
176
     1
 90
       50
176
     1
 62
   256
176
     0
 40
1.0
176
     0
 90
        2
176
     1
  1
strokes_ogs.tif
176
     1
290
     0
176
     1
 40
1.0
176
     1
 40
1.0
176
     1
  0
VISUALSTYLE
  5
3A
102
{ACAD_REACTORS
330
2A
102
}
330
2A
100
AcDbVisualStyle
  2
ColorChange
 70
    16
177
     3
291
     1
 70
    58
 90
        2
176
     1
 90
        2
176
     1
 90
        3
176
     1
 90
        0
176
     1
 40
0.6
176
     1
 40
30.0
176
     1
 62
     8
420
  8421504
176
     1
 90
        1
176
     1
 90
        4
176
     1
 62
     7
176
     1
 62
   257
176
     1
 90
        1
176
     1
 90
        1
176
     1
 40
1.0
176
     1
 90
        8
176
     1
 62
     8
420
  8421504
176
     1
 40
1.0
176
     1
 90
        1
176
     1
 90
        6
176
     1
 90
        2
176
     1
 62
     7
176
     1
 90
        5
176
     1
 90
        0
176
     1
 90
        0
176
     1
290
     0
176
     1
 90
        1
176
     1
 40
0.0
176
     1
 90
        0
176
     1
290
     0
176
     1
290
     1
176
     1
290
     1
176
     1
290
     0
176
     1
290
     0
176
     1
290
     0
176
     1
290
     0
176
     1
290
     0
176
     1
290
     0
176
     1
 90
       50
176
     1
 40
0.0
176
     1
 40
1.0
176
     1
 90
        0
176
     1
 62
    18
420
        0
176
     1
 90
       50
176
     1
 90
        3
176
     1
 62
     5
420
      255
176
     1
290
     0
176
     1
 90
       50
176
     1
 90
       50
176
     1
 90
       50
176
     1
290
     0
176
     1
 90
       50
176
     1
 62
   256
176
     0
 40
1.0
176
     0
 90
        2
176
     1
  1
strokes_ogs.tif
176
     1
290
     0
176
     1
 40
1.0
176
     1
 40
1.0
176
     1
  0
VISUALSTYLE
  5
34
102
{ACAD_REACTORS
330
2A
102
}
330
2A
100
AcDbVisualStyle
  2
Conceptual
 70
     9
177
     3
291
     0
 70
    58
 90
        3
176
     1
 90
        2
176
     1
 90
        0
176
     1
 90
        0
176
     1
 40
0.6
176
     1
 40
30.0
176
     1
 62
     7
420
 16777215
176
     1
 90
        2
176
     1
 90
        2
176
     1
 62
     7
176
     1
 62
   257
176
     1
 90
        1
176
     1
 90
        1
176
     1
 40
179.0
176
     1
 90
        8
176
     1
 62
     7
176
     1
 40
1.0
176
     1
 90
        1
176
     1
 90
        6
176
     1
 90
        2
176
     1
 62
     7
176
     1
 90
        3
176
     1
 90
        0
176
     1
 90
        0
176
     1
290
     0
176
     1
 90
        1
176
     1
 40
0.0
176
     1
 90
        0
176
     1
290
     0
176
     1
290
     1
176
     1
290
     1
176
     1
290
     0
176
     1
290
     0
176
     1
290
     0
176
     1
290
     0
176
     1
290
     0
176
     1
290
     0
176
     1
 90
       50
176
     1
 40
0.0
176
     1
 40
1.0
176
     1
 90
        0
176
     1
 62
    18
420
        0
176
     1
 90
       50
176
     1
 90
        3
176
     1
 62
     5
420
      255
176
     1
290
     0
176
     1
 90
       50
176
     1
 90
       50
176
     1
 90
       50
176
     1
290
     0
176
     1
 90
       50
176
     1
 62
   256
176
     0
 40
1.0
176
     0
 90
        2
176
     1
  1
strokes_ogs.tif
176
     1
290
     0
176
     1
 40
1.0
176
     1
 40
1.0
176
     1
  0
VISUALSTYLE
  5
35
102
{ACAD_REACTORS
330
2A
102
}
330
2A
100
AcDbVisualStyle
  2
Dim
 70
    11
177
     3
291
     1
 70
    58
 90
        2
176
     1
 90
        2
176
     1
 90
        0
176
     1
 90
        0
176
     1
 40
0.6
176
     1
 40
30.0
176
     1
 62
     7
420
 16777215
176
     1
 90
        1
176
     1
 90
        4
176
     1
 62
     7
176
     1
 62
   257
176
     1
 90
        1
176
     1
 90
        1
176
     1
 40
1.0
176
     1
 90
        8
176
     1
 62
     7
176
     1
 40
1.0
176
     1
 90
        1
176
     1
 90
        6
176
     1
 90
        2
176
     1
 62
     7
176
     1
 90
        5
176
     1
 90
        0
176
     1
 90
        0
176
     1
290
     0
176
     1
 90
        1
176
     1
 40
-50.0
176
     1
 90
        0
176
     1
290
     0
176
     1
290
     1
176
     1
290
     1
176
     1
290
     0
176
     1
290
     0
176
     1
290
     0
176
     1
290
     0
176
     1
290
     0
176
     1
290
     0
176
     1
 90
       50
176
     1
 40
0.0
176
     1
 40
1.0
176
     1
 90
        0
176
     1
 62
    18
420
        0
176
     1
 90
       50
176
     1
 90
        3
176
     1
 62
     5
420
      255
176
     1
290
     0
176
     1
 90
       50
176
     1
 90
       50
176
     1
 90
       50
176
     1
290
     0
176
     1
 90
       50
176
     1
 62
   256
176
     0
 40
1.0
176
     0
 90
        2
176
     1
  1
strokes_ogs.tif
176
     1
290
     0
176
     1
 40
1.0
176
     1
 40
1.0
176
     1
  0
VISUALSTYLE
  5
3D
102
{ACAD_REACTORS
330
2A
102
}
330
2A
100
AcDbVisualStyle
  2
EdgeColorOff
 70
    22
177
     3
291
     1
 70
    58
 90
        2
176
     0
 90
        2
176
     0
 90
        0
176
     0
 90
        0
176
     0
 40
0.6
176
     0
 40
30.0
176
     0
 62
     7
420
 16777215
176
     0
 90
        1
176
     0
 90
        4
176
     0
 62
     7
176
     0
 62
   257
176
     0
 90
        1
176
     0
 90
        1
176
     0
 40
1.0
176
     0
 90
        8
176
     2
 62
     7
176
     0
 40
1.0
176
     0
 90
        1
176
     0
 90
        6
176
     0
 90
        2
176
     0
 62
     7
176
     0
 90
        5
176
     0
 90
        0
176
     0
 90
        0
176
     0
290
     0
176
     0
 90
        1
176
     0
 40
0.0
176
     0
 90
        0
176
     0
290
     0
176
     0
290
     1
176
     0
290
     1
176
     0
290
     0
176
     0
290
     0
176
     0
290
     0
176
     0
290
     0
176
     0
290
     0
176
     0
290
     0
176
     0
 90
       50
176
     0
 40
0.0
176
     0
 40
1.0
176
     0
 90
        0
176
     0
 62
    18
420
        0
176
     0
 90
       50
176
     0
 90
        3
176
     0
 62
     5
420
      255
176
     0
290
     0
176
     0
 90
       50
176
     0
 90
       50
176
     0
 90
       50
176
     0
290
     0
176
     0
 90
       50
176
     0
 62
   256
176
     0
 40
1.0
176
     0
 90
        2
176
     0
  1
strokes_ogs.tif
176
     0
290
     0
176
     0
 40
1.0
176
     0
 40
1.0
176
     0
  0
VISUALSTYLE
  5
39
102
{ACAD_REACTORS
330
2A
102
}
330
2A
100
AcDbVisualStyle
  2
Facepattern
 70
    15
177
     3
291
     1
 70
    58
 90
        2
176
     1
 90
        2
176
     1
 90
        0
176
     1
 90
        0
176
     1
 40
0.6
176
     1
 40
30.0
176
     1
 62
     7
420
 16777215
176
     1
 90
        1
176
     1
 90
        4
176
     1
 62
     7
176
     1
 62
   257
176
     1
 90
        1
176
     1
 90
        1
176
     1
 40
1.0
176
     1
 90
        8
176
     1
 62
     7
176
     1
 40
1.0
176
     1
 90
        1
176
     1
 90
        6
176
     1
 90
        2
176
     1
 62
     7
176
     1
 90
        5
176
     1
 90
        0
176
     1
 90
        0
176
     1
290
     0
176
     1
 90
        1
176
     1
 40
0.0
176
     1
 90
        0
176
     1
290
     0
176
     1
290
     1
176
     1
290
     1
176
     1
290
     0
176
     1
290
     0
176
     1
290
     0
176
     1
290
     0
176
     1
290
     0
176
     1
290
     0
176
     1
 90
       50
176
     1
 40
0.0
176
     1
 40
1.0
176
     1
 90
        0
176
     1
 62
    18
420
        0
176
     1
 90
       50
176
     1
 90
        3
176
     1
 62
     5
420
      255
176
     1
290
     0
176
     1
 90
       50
176
     1
 90
       50
176
     1
 90
       50
176
     1
290
     0
176
     1
 90
       50
176
     1
 62
   256
176
     0
 40
1.0
176
     0
 90
        2
176
     1
  1
strokes_ogs.tif
176
     1
290
     0
176
     1
 40
1.0
176
     1
 40
1.0
176
     1
  0
VISUALSTYLE
  5
2B
102
{ACAD_REACTORS
330
2A
102
}
330
2A
100
AcDbVisualStyle
  2
Flat
 70
     0
177
     3
291
     1
 70
    58
 90
        2
176
     1
 90
        1
176
     1
 90
        1
176
     1
 90
        2
176
     1
 40
0.6
176
     1
 40
30.0
176
     1
 62
     7
420
 16777215
176
     1
 90
        0
176
     1
 90
        0
176
     1
 62
     7
176
     1
 62
   257
176
     1
 90
        1
176
     1
 90
        1
176
     1
 40
1.0
176
     1
 90
        8
176
     1
 62
     7
176
     1
 40
1.0
176
     1
 90
        1
176
     1
 90
        6
176
     1
 90
        2
176
     1
 62
     7
176
     1
 90
        5
176
     1
 90
        0
176
     1
 90
        0
176
     1
290
     0
176
     1
 90
       13
176
     1
 40
0.0
176
     1
 90
        0
176
     1
290
     0
176
     1
290
     1
176
     1
290
     1
176
     1
290
     0
176
     1
290
     0
176
     1
290
     0
176
     1
290
     0
176
     1
290
     0
176
     1
290
     0
176
     1
 90
       50
176
     1
 40
0.0
176
     1
 40
1.0
176
     1
 90
        0
176
     1
 62
    18
420
        0
176
     1
 90
       50
176
     1
 90
        3
176
     1
 62
     5
420
      255
176
     1
290
     0
176
     1
 90
       50
176
     1
 90
       50
176
     1
 90
       50
176
     1
290
     0
176
     1
 90
       50
176
     1
 62
   256
176
     0
 40
1.0
176
     0
 90
        2
176
     1
  1
strokes_ogs.tif
176
     1
290
     0
176
     1
 40
1.0
176
     1
 40
1.0
176
     1
  0
VISUALSTYLE
  5
2C
102
{ACAD_REACTORS
330
2A
102
}
330
2A
100
AcDbVisualStyle
  2
FlatWithEdges
 70
     1
177
     3
291
     1
 70
    58
 90
        2
176
     1
 90
        1
176
     1
 90
        1
176
     1
 90
        2
176
     1
 40
0.6
176
     1
 40
30.0
176
     1
 62
     7
420
 16777215
176
     1
 90
        1
176
     1
 90
        0
176
     1
 62
     7
176
     1
 62
   257
176
     1
 90
        1
176
     1
 90
        1
176
     1
 40
1.0
176
     1
 90
        0
176
     1
 62
   257
176
     1
 40
1.0
176
     1
 90
        1
176
     1
 90
        6
176
     1
 90
        2
176
     1
 62
     7
176
     1
 90
        5
176
     1
 90
        0
176
     1
 90
        0
176
     1
290
     0
176
     1
 90
       13
176
     1
 40
0.0
176
     1
 90
        0
176
     1
290
     0
176
     1
290
     1
176
     1
290
     1
176
     1
290
     0
176
     1
290
     0
176
     1
290
     0
176
     1
290
     0
176
     1
290
     0
176
     1
290
     0
176
     1
 90
       50
176
     1
 40
0.0
176
     1
 40
1.0
176
     1
 90
        0
176
     1
 62
    18
420
        0
176
     1
 90
       50
176
     1
 90
        3
176
     1
 62
     5
420
      255
176
     1
290
     0
176
     1
 90
       50
176
     1
 90
       50
176
     1
 90
       50
176
     1
290
     0
176
     1
 90
       50
176
     1
 62
   256
176
     0
 40
1.0
176
     0
 90
        2
176
     1
  1
strokes_ogs.tif
176
     1
290
     0
176
     1
 40
1.0
176
     1
 40
1.0
176
     1
  0
VISUALSTYLE
  5
2D
102
{ACAD_REACTORS
330
2A
102
}
330
2A
100
AcDbVisualStyle
  2
Gouraud
 70
     2
177
     3
291
     1
 70
    58
 90
        2
176
     1
 90
        2
176
     1
 90
        1
176
     1
 90
        2
176
     1
 40
0.6
176
     1
 40
30.0
176
     1
 62
     7
420
 16777215
176
     1
 90
        0
176
     1
 90
        0
176
     1
 62
     7
176
     1
 62
   257
176
     1
 90
        1
176
     1
 90
        1
176
     1
 40
1.0
176
     1
 90
        0
176
     1
 62
     7
176
     1
 40
1.0
176
     1
 90
        1
176
     1
 90
        6
176
     1
 90
        2
176
     1
 62
     7
176
     1
 90
        5
176
     1
 90
        0
176
     1
 90
        0
176
     1
290
     0
176
     1
 90
       13
176
     1
 40
0.0
176
     1
 90
        0
176
     1
290
     0
176
     1
290
     1
176
     1
290
     1
176
     1
290
     0
176
     1
290
     0
176
     1
290
     0
176
     1
290
     0
176
     1
290
     0
176
     1
290
     0
176
     1
 90
       50
176
     1
 40
0.0
176
     1
 40
1.0
176
     1
 90
        0
176
     1
 62
    18
420
        0
176
     1
 90
       50
176
     1
 90
        3
176
     1
 62
     5
420
      255
176
     1
290
     0
176
     1
 90
       50
176
     1
 90
       50
176
     1
 90
       50
176
     1
290
     0
176
     1
 90
       50
176
     1
 62
   256
176
     0
 40
1.0
176
     0
 90
        2
176
     1
  1
strokes_ogs.tif
176
     1
290
     0
176
     1
 40
1.0
176
     1
 40
1.0
176
     1
  0
VISUALSTYLE
  5
2E
102
{ACAD_REACTORS
330
2A
102
}
330
2A
100
AcDbVisualStyle
  2
GouraudWithEdges
 70
     3
177
     3
291
     1
 70
    58
 90
        2
176
     1
 90
        2
176
     1
 90
        1
176
     1
 90
        2
176
     1
 40
0.6
176
     1
 40
30.0
176
     1
 62
     7
420
 16777215
176
     1
 90
        1
176
     1
 90
        0
176
     1
 62
     7
176
     1
 62
   257
176
     1
 90
        1
176
     1
 90
        1
176
     1
 40
1.0
176
     1
 90
        0
176
     1
 62
   257
176
     1
 40
1.0
176
     1
 90
        1
176
     1
 90
        6
176
     1
 90
        2
176
     1
 62
     7
176
     1
 90
        5
176
     1
 90
        0
176
     1
 90
        0
176
     1
290
     0
176
     1
 90
       13
176
     1
 40
0.0
176
     1
 90
        0
176
     1
290
     0
176
     1
290
     1
176
     1
290
     1
176
     1
290
     0
176
     1
290
     0
176
     1
290
     0
176
     1
290
     0
176
     1
290
     0
176
     1
290
     0
176
     1
 90
       50
176
     1
 40
0.0
176
     1
 40
1.0
176
     1
 90
        0
176
     1
 62
    18
420
        0
176
     1
 90
       50
176
     1
 90
        3
176
     1
 62
     5
420
      255
176
     1
290
     0
176
     1
 90
       50
176
     1
 90
       50
176
     1
 90
       50
176
     1
290
     0
176
     1
 90
       50
176
     1
 62
   256
176
     0
 40
1.0
176
     0
 90
        2
176
     1
  1
strokes_ogs.tif
176
     1
290
     0
176
     1
 40
1.0
176
     1
 40
1.0
176
     1
  0
VISUALSTYLE
  5
31
102
{ACAD_REACTORS
330
2A
102
}
330
2A
100
AcDbVisualStyle
  2
Hidden
 70
     6
177
     3
291
     0
 70
    58
 90
        1
176
     1
 90
        2
176
     1
 90
        2
176
     1
 90
        0
176
     1
 40
0.6
176
     1
 40
30.0
176
     1
 62
     7
420
 16777215
176
     1
 90
        2
176
     1
 90
        2
176
     1
 62
     7
176
     1
 62
   257
176
     1
 90
        2
176
     1
 90
        1
176
     1
 40
40.0
176
     1
 90
        0
176
     1
 62
   257
176
     1
 40
1.0
176
     1
 90
        1
176
     1
 90
        6
176
     1
 90
        2
176
     1
 62
     7
176
     1
 90
        3
176
     1
 90
        0
176
     1
 90
        0
176
     1
290
     0
176
     1
 90
        1
176
     1
 40
0.0
176
     1
 90
        0
176
     1
290
     0
176
     1
290
     1
176
     1
290
     1
176
     1
290
     0
176
     1
290
     0
176
     1
290
     0
176
     1
290
     0
176
     1
290
     0
176
     1
290
     0
176
     1
 90
       50
176
     1
 40
0.0
176
     1
 40
1.0
176
     1
 90
        0
176
     1
 62
    18
420
        0
176
     1
 90
       50
176
     1
 90
        3
176
     1
 62
     5
420
      255
176
     1
290
     0
176
     1
 90
       50
176
     1
 90
       50
176
     1
 90
       50
176
     1
290
     0
176
     1
 90
       50
176
     1
 62
   256
176
     0
 40
1.0
176
     0
 90
        2
176
     1
  1
strokes_ogs.tif
176
     1
290
     0
176
     1
 40
1.0
176
     1
 40
1.0
176
     1
  0
VISUALSTYLE
  5
3B
102
{ACAD_REACTORS
330
2A
102
}
330
2A
100
AcDbVisualStyle
  2
JitterOff
 70
    20
177
     3
291
     1
 70
    58
 90
        2
176
     0
 90
        2
176
     0
 90
        0
176
     0
 90
        0
176
     0
 40
0.6
176
     0
 40
30.0
176
     0
 62
     7
420
 16777215
176
     0
 90
        1
176
     0
 90
        4
176
     0
 62
     7
176
     0
 62
   257
176
     0
 90
        1
176
     0
 90
        1
176
     0
 40
1.0
176
     0
 90
       10
176
     2
 62
     7
176
     0
 40
1.0
176
     0
 90
        1
176
     0
 90
        6
176
     0
 90
        2
176
     0
 62
     7
176
     0
 90
        5
176
     0
 90
        0
176
     0
 90
        0
176
     0
290
     0
176
     0
 90
        1
176
     0
 40
0.0
176
     0
 90
        0
176
     0
290
     0
176
     0
290
     1
176
     0
290
     1
176
     0
290
     0
176
     0
290
     0
176
     0
290
     0
176
     0
290
     0
176
     0
290
     0
176
     0
290
     0
176
     0
 90
       50
176
     0
 40
0.0
176
     0
 40
1.0
176
     0
 90
        0
176
     0
 62
    18
420
        0
176
     0
 90
       50
176
     0
 90
        3
176
     0
 62
     5
420
      255
176
     0
290
     0
176
     0
 90
       50
176
     0
 90
       50
176
     0
 90
       50
176
     0
290
     0
176
     0
 90
       50
176
     0
 62
   256
176
     0
 40
1.0
176
     0
 90
        2
176
     0
  1
strokes_ogs.tif
176
     0
290
     0
176
     0
 40
1.0
176
     0
 40
1.0
176
     0
  0
VISUALSTYLE
  5
38
102
{ACAD_REACTORS
330
2A
102
}
330
2A
100
AcDbVisualStyle
  2
Linepattern
 70
    14
177
     3
291
     1
 70
    58
 90
        2
176
     1
 90
        2
176
     1
 90
        0
176
     1
 90
        0
176
     1
 40
0.6
176
     1
 40
30.0
176
     1
 62
     7
420
 16777215
176
     1
 90
        1
176
     1
 90
        4
176
     1
 62
     7
176
     1
 62
   257
176
     1
 90
        7
176
     1
 90
        7
176
     1
 40
1.0
176
     1
 90
        8
176
     1
 62
     7
176
     1
 40
1.0
176
     1
 90
        1
176
     1
 90
        6
176
     1
 90
        2
176
     1
 62
     7
176
     1
 90
        5
176
     1
 90
        0
176
     1
 90
        0
176
     1
290
     0
176
     1
 90
        1
176
     1
 40
0.0
176
     1
 90
        0
176
     1
290
     0
176
     1
290
     1
176
     1
290
     1
176
     1
290
     0
176
     1
290
     0
176
     1
290
     0
176
     1
290
     0
176
     1
290
     0
176
     1
290
     0
176
     1
 90
       50
176
     1
 40
0.0
176
     1
 40
1.0
176
     1
 90
        0
176
     1
 62
    18
420
        0
176
     1
 90
       50
176
     1
 90
        3
176
     1
 62
     5
420
      255
176
     1
290
     0
176
     1
 90
       50
176
     1
 90
       50
176
     1
 90
       50
176
     1
290
     0
176
     1
 90
       50
176
     1
 62
   256
176
     0
 40
1.0
176
     0
 90
        2
176
     1
  1
strokes_ogs.tif
176
     1
290
     0
176
     1
 40
1.0
176
     1
 40
1.0
176
     1
  0
VISUALSTYLE
  5
3C
102
{ACAD_REACTORS
330
2A
102
}
330
2A
100
AcDbVisualStyle
  2
OverhangOff
 70
    21
177
     3
291
     1
 70
    58
 90
        2
176
     0
 90
        2
176
     0
 90
        0
176
     0
 90
        0
176
     0
 40
0.6
176
     0
 40
30.0
176
     0
 62
     7
420
 16777215
176
     0
 90
        1
176
     0
 90
        4
176
     0
 62
     7
176
     0
 62
   257
176
     0
 90
        1
176
     0
 90
        1
176
     0
 40
1.0
176
     0
 90
        9
176
     2
 62
     7
176
     0
 40
1.0
176
     0
 90
        1
176
     0
 90
        6
176
     0
 90
        2
176
     0
 62
     7
176
     0
 90
        5
176
     0
 90
        0
176
     0
 90
        0
176
     0
290
     0
176
     0
 90
        1
176
     0
 40
0.0
176
     0
 90
        0
176
     0
290
     0
176
     0
290
     1
176
     0
290
     1
176
     0
290
     0
176
     0
290
     0
176
     0
290
     0
176
     0
290
     0
176
     0
290
     0
176
     0
290
     0
176
     0
 90
       50
176
     0
 40
0.0
176
     0
 40
1.0
176
     0
 90
        0
176
     0
 62
    18
420
        0
176
     0
 90
       50
176
     0
 90
        3
176
     0
 62
     5
420
      255
176
     0
290
     0
176
     0
 90
       50
176
     0
 90
       50
176
     0
 90
       50
176
     0
290
     0
176
     0
 90
       50
176
     0
 62
   256
176
     0
 40
1.0
176
     0
 90
        2
176
     0
  1
strokes_ogs.tif
176
     0
290
     0
176
     0
 40
1.0
176
     0
 40
1.0
176
     0
  0
VISUALSTYLE
  5
33
102
{ACAD_REACTORS
330
2A
102
}
330
2A
100
AcDbVisualStyle
  2
Realistic
 70
     8
177
     3
291
     0
 70
    58
 90
        2
176
     1
 90
        3
176
     1
 90
        0
176
     1
 90
        2
176
     1
 40
0.6
176
     1
 40
30.0
176
     1
 62
     7
420
 16777215
176
     1
 90
        0
176
     1
 90
        0
176
     1
 62
     7
176
     1
 62
   257
176
     1
 90
        1
176
     1
 90
        1
176
     1
 40
1.0
176
     1
 90
        8
176
     1
 62
   257
176
     1
 40
1.0
176
     1
 90
        1
176
     1
 90
        6
176
     1
 90
        2
176
     1
 62
     7
176
     1
 90
        3
176
     1
 90
        0
176
     1
 90
        0
176
     1
290
     0
176
     1
 90
       13
176
     1
 40
0.0
176
     1
 90
        0
176
     1
290
     0
176
     1
290
     1
176
     1
290
     1
176
     1
290
     0
176
     1
290
     0
176
     1
290
     0
176
     1
290
     0
176
     1
290
     0
176
     1
290
     0
176
     1
 90
       50
176
     1
 40
0.0
176
     1
 40
1.0
176
     1
 90
        0
176
     1
 62
    18
420
        0
176
     1
 90
       50
176
     1
 90
        3
176
     1
 62
     5
420
      255
176
     1
290
     0
176
     1
 90
       50
176
     1
 90
       50
176
     1
 90
       50
176
     1
290
     0
176
     1
 90
       50
176
     1
 62
   256
176
     0
 40
1.0
176
     0
 90
        2
176
     1
  1
strokes_ogs.tif
176
     1
290
     0
176
     1
 40
1.0
176
     1
 40
1.0
176
     1
  0
VISUALSTYLE
  5
42
102
{ACAD_REACTORS
330
2A
102
}
330
2A
100
AcDbVisualStyle
  2
Shaded
 70
    27
177
     3
291
     0
 70
    58
 90
        2
176
     1
 90
        2
176
     1
 90
        1
176
     1
 90
        2
176
     1
 40
0.6
176
     1
 40
30.0
176
     1
 62
     7
420
 16777215
176
     1
 90
        0
176
     1
 90
        4
176
     1
 62
     7
176
     1
 62
   257
176
     1
 90
        1
176
     1
 90
        1
176
     1
 40
1.0
176
     1
 90
        8
176
     1
 62
   257
176
     1
 40
1.0
176
     1
 90
        1
176
     1
 90
        6
176
     1
 90
        2
176
     1
 62
     8
420
  7895160
176
     1
 90
        3
176
     1
 90
        0
176
     1
 90
        0
176
     1
290
     0
176
     1
 90
        5
176
     1
 40
0.0
176
     1
 90
        0
176
     1
290
     0
176
     1
290
     1
176
     1
290
     1
176
     1
290
     0
176
     1
290
     0
176
     1
290
     0
176
     1
290
     0
176
     1
290
     0
176
     1
290
     0
176
     1
 90
       50
176
     1
 40
0.0
176
     1
 40
1.0
176
     1
 90
        0
176
     1
 62
    18
420
        0
176
     1
 90
       50
176
     1
 90
        3
176
     1
 62
     5
420
      255
176
     1
290
     0
176
     1
 90
       50
176
     1
 90
       50
176
     1
 90
       50
176
     1
290
     0
176
     1
 90
       50
176
     1
 62
   256
176
     0
 40
1.0
176
     0
 90
        2
176
     1
  1
strokes_ogs.tif
176
     1
290
     0
176
     1
 40
1.0
176
     1
 40
1.0
176
     1
  0
VISUALSTYLE
  5
41
102
{ACAD_REACTORS
330
2A
102
}
330
2A
100
AcDbVisualStyle
  2
Shaded with edges
 70
    26
177
     3
291
     0
 70
    58
 90
        2
176
     1
 90
        2
176
     1
 90
        1
176
     1
 90
        2
176
     1
 40
0.6
176
     1
 40
30.0
176
     1
 62
     7
420
 16777215
176
     1
 90
        1
176
     1
 90
       10
176
     1
 62
     7
176
     1
 62
   257
176
     1
 90
        2
176
     1
 90
        1
176
     1
 40
1.0
176
     1
 90
        8
176
     1
 62
   257
176
     1
 40
1.0
176
     1
 90
        1
176
     1
 90
        6
176
     1
 90
        2
176
     1
 62
     7
176
     1
 90
        3
176
     1
 90
        0
176
     1
 90
        0
176
     1
290
     0
176
     1
 90
        5
176
     1
 40
0.0
176
     1
 90
        0
176
     1
290
     0
176
     1
290
     1
176
     1
290
     1
176
     1
290
     0
176
     1
290
     0
176
     1
290
     0
176
     1
290
     0
176
     1
290
     0
176
     1
290
     0
176
     1
 90
       50
176
     1
 40
0.0
176
     1
 40
1.0
176
     1
 90
        0
176
     1
 62
    18
420
        0
176
     1
 90
       50
176
     1
 90
        3
176
     1
 62
     5
420
      255
176
     1
290
     0
176
     1
 90
       50
176
     1
 90
       50
176
     1
 90
       50
176
     1
290
     0
176
     1
 90
       50
176
     1
 62
   256
176
     0
 40
1.0
176
     0
 90
        2
176
     1
  1
strokes_ogs.tif
176
     1
290
     0
176
     1
 40
1.0
176
     1
 40
1.0
176
     1
  0
VISUALSTYLE
  5
3E
102
{ACAD_REACTORS
330
2A
102
}
330
2A
100
AcDbVisualStyle
  2
Shades of Gray
 70
    23
177
     3
291
     0
 70
    58
 90
        2
176
     1
 90
        2
176
     1
 90
        3
176
     1
 90
        0
176
     1
 40
0.6
176
     1
 40
30.0
176
     1
 62
     7
420
 16777215
176
     1
 90
        2
176
     1
 90
        2
176
     1
 62
     7
176
     1
 62
     7
176
     1
 90
        1
176
     1
 90
        1
176
     1
 40
40.0
176
     1
 90
        8
176
     1
 62
     7
176
     1
 40
1.0
176
     1
 90
        1
176
     1
 90
        6
176
     1
 90
        2
176
     1
 62
     7
176
     1
 90
        3
176
     1
 90
        0
176
     1
 90
        0
176
     1
290
     0
176
     1
 90
        1
176
     1
 40
0.0
176
     1
 90
        0
176
     1
290
     0
176
     1
290
     1
176
     1
290
     1
176
     1
290
     0
176
     1
290
     0
176
     1
290
     0
176
     1
290
     0
176
     1
290
     0
176
     1
290
     0
176
     1
 90
       50
176
     1
 40
0.0
176
     1
 40
1.0
176
     1
 90
        0
176
     1
 62
    18
420
        0
176
     1
 90
       50
176
     1
 90
        3
176
     1
 62
     5
420
      255
176
     1
290
     0
176
     1
 90
       50
176
     1
 90
       50
176
     1
 90
       50
176
     1
290
     0
176
     1
 90
       50
176
     1
 62
   256
176
     0
 40
1.0
176
     0
 90
        2
176
     1
  1
strokes_ogs.tif
176
     1
290
     0
176
     1
 40
1.0
176
     1
 40
1.0
176
     1
  0
VISUALSTYLE
  5
3F
102
{ACAD_REACTORS
330
2A
102
}
330
2A
100
AcDbVisualStyle
  2
Sketchy
 70
    24
177
     3
291
     0
 70
    58
 90
        1
176
     1
 90
        2
176
     1
 90
        2
176
     1
 90
        0
176
     1
 40
0.6
176
     1
 40
30.0
176
     1
 62
     7
420
 16777215
176
     1
 90
        2
176
     1
 90
        2
176
     1
 62
     7
176
     1
 62
     7
176
     1
 90
        1
176
     1
 90
        1
176
     1
 40
40.0
176
     1
 90
       11
176
     1
 62
     7
176
     1
 40
1.0
176
     1
 90
        1
176
     1
 90
        6
176
     1
 90
        2
176
     1
 62
     7
176
     1
 90
        6
176
     1
 90
        0
176
     1
 90
        0
176
     1
290
     0
176
     1
 90
        1
176
     1
 40
0.0
176
     1
 90
        0
176
     1
290
     0
176
     1
290
     1
176
     1
290
     1
176
     1
290
     0
176
     1
290
     0
176
     1
290
     0
176
     1
290
     0
176
     1
290
     0
176
     1
290
     0
176
     1
 90
       50
176
     1
 40
0.0
176
     1
 40
1.0
176
     1
 90
        0
176
     1
 62
    18
420
        0
176
     1
 90
       50
176
     1
 90
        3
176
     1
 62
     5
420
      255
176
     1
290
     0
176
     1
 90
       50
176
     1
 90
       50
176
     1
 90
       50
176
     1
290
     0
176
     1
 90
       50
176
     1
 62
   256
176
     0
 40
1.0
176
     0
 90
        2
176
     1
  1
strokes_ogs.tif
176
     1
290
     0
176
     1
 40
1.0
176
     1
 40
1.0
176
     1
  0
VISUALSTYLE
  5
37
102
{ACAD_REACTORS
330
2A
102
}
330
2A
100
AcDbVisualStyle
  2
Thicken
 70
    13
177
     3
291
     1
 70
    58
 90
        2
176
     1
 90
        2
176
     1
 90
        0
176
     1
 90
        0
176
     1
 40
0.6
176
     1
 40
30.0
176
     1
 62
     7
420
 16777215
176
     1
 90
        1
176
     1
 90
        4
176
     1
 62
     7
176
     1
 62
   257
176
     1
 90
        1
176
     1
 90
        1
176
     1
 40
1.0
176
     1
 90
       12
176
     1
 62
     7
176
     1
 40
1.0
176
     1
 90
        1
176
     1
 90
        6
176
     1
 90
        2
176
     1
 62
     7
176
     1
 90
        5
176
     1
 90
        0
176
     1
 90
        0
176
     1
290
     0
176
     1
 90
        1
176
     1
 40
0.0
176
     1
 90
        0
176
     1
290
     0
176
     1
290
     1
176
     1
290
     1
176
     1
290
     0
176
     1
290
     0
176
     1
290
     0
176
     1
290
     0
176
     1
290
     0
176
     1
290
     0
176
     1
 90
       50
176
     1
 40
0.0
176
     1
 40
1.0
176
     1
 90
        0
176
     1
 62
    18
420
        0
176
     1
 90
       50
176
     1
 90
        3
176
     1
 62
     5
420
      255
176
     1
290
     0
176
     1
 90
       50
176
     1
 90
       50
176
     1
 90
       50
176
     1
290
     0
176
     1
 90
       50
176
     1
 62
   256
176
     0
 40
1.0
176
     0
 90
        2
176
     1
  1
strokes_ogs.tif
176
     1
290
     0
176
     1
 40
1.0
176
     1
 40
1.0
176
     1
  0
VISUALSTYLE
  5
30
102
{ACAD_REACTORS
330
2A
102
}
330
2A
100
AcDbVisualStyle
  2
Wireframe
 70
     5
177
     3
291
     0
 70
    58
 90
        0
176
     1
 90
        2
176
     1
 90
        0
176
     1
 90
        0
176
     1
 40
0.6
176
     1
 40
30.0
176
     1
 62
     7
420
 16777215
176
     1
 90
        1
176
     1
 90
        4
176
     1
 62
     7
176
     1
 62
   257
176
     1
 90
        1
176
     1
 90
        1
176
     1
 40
1.0
176
     1
 90
        0
176
     1
 62
   257
176
     1
 40
1.0
176
     1
 90
        1
176
     1
 90
        6
176
     1
 90
        2
176
     1
 62
     7
176
     1
 90
        3
176
     1
 90
        0
176
     1
 90
        0
176
     1
290
     0
176
     1
 90
        1
176
     1
 40
0.0
176
     1
 90
        0
176
     1
290
     0
176
     1
290
     1
176
     1
290
     1
176
     1
290
     0
176
     1
290
     0
176
     1
290
     0
176
     1
290
     0
176
     1
290
     0
176
     1
290
     0
176
     1
 90
       50
176
     1
 40
0.0
176
     1
 40
1.0
176
     1
 90
        0
176
     1
 62
    18
420
        0
176
     1
 90
       50
176
     1
 90
        3
176
     1
 62
     5
420
      255
176
     1
290
     0
176
     1
 90
       50
176
     1
 90
       50
176
     1
 90
       50
176
     1
290
     0
176
     1
 90
       50
176
     1
 62
   256
176
     0
 40
1.0
176
     0
 90
        2
176
     1
  1
strokes_ogs.tif
176
     1
290
     0
176
     1
 40
1.0
176
     1
 40
1.0
176
     1
  0
VISUALSTYLE
  5
40
102
{ACAD_REACTORS
330
2A
102
}
330
2A
100
AcDbVisualStyle
  2
X-Ray
 70
    25
177
     3
291
     0
 70
    58
 90
        2
176
     1
 90
        2
176
     1
 90
        1
176
     1
 90
        1
176
     1
 40
0.5
176
     1
 40
30.0
176
     1
 62
     7
420
 16777215
176
     1
 90
        1
176
     1
 90
        0
176
     1
 62
     7
176
     1
 62
   257
176
     1
 90
        1
176
     1
 90
        1
176
     1
 40
1.0
176
     1
 90
        8
176
     1
 62
     7
176
     1
 40
1.0
176
     1
 90
        1
176
     1
 90
        6
176
     1
 90
        2
176
     1
 62
     7
176
     1
 90
        3
176
     1
 90
        0
176
     1
 90
        0
176
     1
290
     0
176
     1
 90
       13
176
     1
 40
0.0
176
     1
 90
        0
176
     1
290
     0
176
     1
290
     1
176
     1
290
     1
176
     1
290
     0
176
     1
290
     0
176
     1
290
     0
176
     1
290
     0
176
     1
290
     0
176
     1
290
     0
176
     1
 90
       50
176
     1
 40
0.0
176
     1
 40
1.0
176
     1
 90
        0
176
     1
 62
    18
420
        0
176
     1
 90
       50
176
     1
 90
        3
176
     1
 62
     5
420
      255
176
     1
290
     0
176
     1
 90
       50
176
     1
 90
       50
176
     1
 90
       50
176
     1
290
     0
176
     1
 90
       50
176
     1
 62
   256
176
     0
 40
1.0
176
     0
 90
        2
176
     1
  1
strokes_ogs.tif
176
     1
290
     0
176
     1
 40
1.0
176
     1
 40
1.0
176
     1
  0
DICTIONARYVAR
  5
276
102
{ACAD_REACTORS
330
275
102
}
330
275
100
DictionaryVariables
280
     0
  1
1:1
  0
DICTIONARYVAR
  5
27B
102
{ACAD_REACTORS
330
275
102
}
330
275
100
DictionaryVariables
280
     0
  1
Standard
  0
DICTIONARYVAR
  5
27A
102
{ACAD_REACTORS
330
275
102
}
330
275
100
DictionaryVariables
280
     0
  1
Standard
  0
DICTIONARY
  5
277
330
6A
100
AcDbDictionary
280
     1
281
     1
  3
ACAD_ROUNDTRIP_2008_TABLESTYLE_CELLSTYLEMAP
360
278
  0
CELLSTYLEMAP
  5
278
102
{ACAD_REACTORS
330
277
102
}
330
277
100
AcDbCellStyleMap
 90
        3
300
CELLSTYLE
  1
TABLEFORMAT_BEGIN
 90
        5
170
     1
 91
        0
 92
    32768
 62
   257
 93
        1
300
CONTENTFORMAT
  1
CONTENTFORMAT_BEGIN
 90
        0
 91
        0
 92
        4
 93
        0
300

 40
0.0
140
1.0
 94
        5
 62
     0
340
11
144
0.25
309
CONTENTFORMAT_END
171
     1
301
MARGIN
  1
CELLMARGIN_BEGIN
 40
0.06
 40
0.06
 40
0.06
 40
0.06
 40
0.06
 40
0.06
309
CELLMARGIN_END
 94
        6
 95
        1
302
GRIDFORMAT
  1
GRIDFORMAT_BEGIN
 90
        0
 91
        1
 62
     0
 92
       -2
340
14
 93
        0
 40
0.045
309
GRIDFORMAT_END
 95
        2
302
GRIDFORMAT
  1
GRIDFORMAT_BEGIN
 90
        0
 91
        1
 62
     0
 92
       -2
340
14
 93
        0
 40
0.045
309
GRIDFORMAT_END
 95
        4
302
GRIDFORMAT
  1
GRIDFORMAT_BEGIN
 90
        0
 91
        1
 62
     0
 92
       -2
340
14
 93
        0
 40
0.045
309
GRIDFORMAT_END
 95
        8
302
GRIDFORMAT
  1
GRIDFORMAT_BEGIN
 90
        0
 91
        1
 62
     0
 92
       -2
340
14
 93
        0
 40
0.045
309
GRIDFORMAT_END
 95
       16
302
GRIDFORMAT
  1
GRIDFORMAT_BEGIN
 90
        0
 91
        1
 62
     0
 92
       -2
340
14
 93
        0
 40
0.045
309
GRIDFORMAT_END
 95
       32
302
GRIDFORMAT
  1
GRIDFORMAT_BEGIN
 90
        0
 91
        1
 62
     0
 92
       -2
340
14
 93
        0
 40
0.045
309
GRIDFORMAT_END
309
TABLEFORMAT_END
  1
CELLSTYLE_BEGIN
 90
        1
 91
        1
300
_TITLE
309
CELLSTYLE_END
300
CELLSTYLE
  1
TABLEFORMAT_BEGIN
 90
        5
170
     1
 91
        0
 92
        0
 62
   257
 93
        1
300
CONTENTFORMAT
  1
CONTENTFORMAT_BEGIN
 90
        0
 91
        0
 92
        4
 93
        0
300

 40
0.0
140
1.0
 94
        5
 62
     0
340
11
144
0.18
309
CONTENTFORMAT_END
171
     1
301
MARGIN
  1
CELLMARGIN_BEGIN
 40
0.06
 40
0.06
 40
0.06
 40
0.06
 40
0.06
 40
0.06
309
CELLMARGIN_END
 94
        6
 95
        1
302
GRIDFORMAT
  1
GRIDFORMAT_BEGIN
 90
        0
 91
        1
 62
     0
 92
       -2
340
14
 93
        0
 40
0.045
309
GRIDFORMAT_END
 95
        2
302
GRIDFORMAT
  1
GRIDFORMAT_BEGIN
 90
        0
 91
        1
 62
     0
 92
       -2
340
14
 93
        0
 40
0.045
309
GRIDFORMAT_END
 95
        4
302
GRIDFORMAT
  1
GRIDFORMAT_BEGIN
 90
        0
 91
        1
 62
     0
 92
       -2
340
14
 93
        0
 40
0.045
309
GRIDFORMAT_END
 95
        8
302
GRIDFORMAT
  1
GRIDFORMAT_BEGIN
 90
        0
 91
        1
 62
     0
 92
       -2
340
14
 93
        0
 40
0.045
309
GRIDFORMAT_END
 95
       16
302
GRIDFORMAT
  1
GRIDFORMAT_BEGIN
 90
        0
 91
        1
 62
     0
 92
       -2
340
14
 93
        0
 40
0.045
309
GRIDFORMAT_END
 95
       32
302
GRIDFORMAT
  1
GRIDFORMAT_BEGIN
 90
        0
 91
        1
 62
     0
 92
       -2
340
14
 93
        0
 40
0.045
309
GRIDFORMAT_END
309
TABLEFORMAT_END
  1
CELLSTYLE_BEGIN
 90
        2
 91
        1
300
_HEADER
309
CELLSTYLE_END
300
CELLSTYLE
  1
TABLEFORMAT_BEGIN
 90
        5
170
     1
 91
        0
 92
        0
 62
   257
 93
        1
300
CONTENTFORMAT
  1
CONTENTFORMAT_BEGIN
 90
        0
 91
        0
 92
        4
 93
        0
300

 40
0.0
140
1.0
 94
        2
 62
     0
340
11
144
0.18
309
CONTENTFORMAT_END
171
     1
301
MARGIN
  1
CELLMARGIN_BEGIN
 40
0.06
 40
0.06
 40
0.06
 40
0.06
 40
0.06
 40
0.06
309
CELLMARGIN_END
 94
        6
 95
        1
302
GRIDFORMAT
  1
GRIDFORMAT_BEGIN
 90
        0
 91
        1
 62
     0
 92
       -2
340
14
 93
        0
 40
0.045
309
GRIDFORMAT_END
 95
        2
302
GRIDFORMAT
  1
GRIDFORMAT_BEGIN
 90
        0
 91
        1
 62
     0
 92
       -2
340
14
 93
        0
 40
0.045
309
GRIDFORMAT_END
 95
        4
302
GRIDFORMAT
  1
GRIDFORMAT_BEGIN
 90
        0
 91
        1
 62
     0
 92
       -2
340
14
 93
        0
 40
0.045
309
GRIDFORMAT_END
 95
        8
302
GRIDFORMAT
  1
GRIDFORMAT_BEGIN
 90
        0
 91
        1
 62
     0
 92
       -2
340
14
 93
        0
 40
0.045
309
GRIDFORMAT_END
 95
       16
302
GRIDFORMAT
  1
GRIDFORMAT_BEGIN
 90
        0
 91
        1
 62
     0
 92
       -2
340
14
 93
        0
 40
0.045
309
GRIDFORMAT_END
 95
       32
302
GRIDFORMAT
  1
GRIDFORMAT_BEGIN
 90
        0
 91
        1
 62
     0
 92
       -2
340
14
 93
        0
 40
0.045
309
GRIDFORMAT_END
309
TABLEFORMAT_END
  1
CELLSTYLE_BEGIN
 90
        3
 91
        2
300
_DATA
309
CELLSTYLE_END
  0
ENDSEC
  0
EOF