0
SECTION
  2
HEADER
  9
$ACADVER
  1
AC1027
  9
$ACADMAINTVER
 70
     8
  9
$DWGCODEPAGE
  3
ANSI_1252
  9
$REQUIREDVERSIONS
160
                 0
  9
$COMMENTS
  1
File was created by Cadenas
  9
$CUSTOMPROPERTYTAG
  1
NN
  9
$CUSTOMPROPERTY
  1
Imperial - IP Pillow Block with Type E Dimensions 1-3/8 thru 2-3/16 inch 2-Bolt Trident Seal Expansion
  9
$CUSTOMPROPERTYTAG
  1
NT
  9
$CUSTOMPROPERTY
  1
Imperial/E 2 Bolt Piliow Block Bearings
  9
$CUSTOMPROPERTYTAG
  1
NB
  9
$CUSTOMPROPERTY
  1
071153
  9
$CUSTOMPROPERTYTAG
  1
NBSYN
  9
$CUSTOMPROPERTY
  1
$PN.
  9
$CUSTOMPROPERTYTAG
  1
LINA
  9
$CUSTOMPROPERTY
  1
071153
  9
$CUSTOMPROPERTYTAG
  1
SS
  9
$CUSTOMPROPERTY
  1
2-1/2
  9
$CUSTOMPROPERTYTAG
  1
TYPE
  9
$CUSTOMPROPERTY
  1
Expansion
  9
$CUSTOMPROPERTYTAG
  1
PN
  9
$CUSTOMPROPERTY
  1
071153
  9
$CUSTOMPROPERTYTAG
  1
DESCRIPTION
  9
$CUSTOMPROPERTY
  1
EP2B-IP-208RE
  9
$CUSTOMPROPERTYTAG
  1
ST
  9
$CUSTOMPROPERTY
  1
Contact Seal
  9
$CUSTOMPROPERTYTAG
  1
A
  9
$CUSTOMPROPERTY
  1
3.42
  9
$CUSTOMPROPERTYTAG
  1
B
  9
$CUSTOMPROPERTY
  1
10.5
  9
$CUSTOMPROPERTYTAG
  1
C
  9
$CUSTOMPROPERTY
  1
2.87
  9
$CUSTOMPROPERTYTAG
  1
DMIN
  9
$CUSTOMPROPERTY
  1
8.38
  9
$CUSTOMPROPERTYTAG
  1
DMAX
  9
$CUSTOMPROPERTY
  1
8.62
  9
$CUSTOMPROPERTYTAG
  1
F
  9
$CUSTOMPROPERTY
  1
5/8
  9
$CUSTOMPROPERTYTAG
  1
G
  9
$CUSTOMPROPERTY
  1
0.88
  9
$CUSTOMPROPERTYTAG
  1
H
  9
$CUSTOMPROPERTY
  1
1.63
  9
$CUSTOMPROPERTYTAG
  1
J
  9
$CUSTOMPROPERTY
  1
5.71
  9
$CUSTOMPROPERTYTAG
  1
L
  9
$CUSTOMPROPERTY
  1
3.88
  9
$CUSTOMPROPERTYTAG
  1
M
  9
$CUSTOMPROPERTY
  1
2.75
  9
$CUSTOMPROPERTYTAG
  1
R
  9
$CUSTOMPROPERTY
  1
1.20
  9
$CUSTOMPROPERTYTAG
  1
S
  9
$CUSTOMPROPERTY
  1
2.22
  9
$CUSTOMPROPERTYTAG
  1
X
  9
$CUSTOMPROPERTY
  1
0.25
  9
$CUSTOMPROPERTYTAG
  1
Y
  9
$CUSTOMPROPERTY
  1
0.025
  9
$CUSTOMPROPERTYTAG
  1
Z
  9
$CUSTOMPROPERTY
  1
2.95
  9
$CUSTOMPROPERTYTAG
  1
COMPANY
  9
$CUSTOMPROPERTY
  1
baldor
  9
$INSBASE
 10
0.0
 20
0.0
 30
0.0
  9
$EXTMIN
 10
1.000000000000000E+20
 20
1.000000000000000E+20
 30
1.000000000000000E+20
  9
$EXTMAX
 10
-1.000000000000000E+20
 20
-1.000000000000000E+20
 30
-1.000000000000000E+20
  9
$LIMMIN
 10
0.0
 20
0.0
  9
$LIMMAX
 10
12.0
 20
9.0
  9
$ORTHOMODE
 70
     0
  9
$REGENMODE
 70
     1
  9
$FILLMODE
 70
     1
  9
$QTEXTMODE
 70
     0
  9
$MIRRTEXT
 70
     1
  9
$LTSCALE
 40
1.0
  9
$ATTMODE
 70
     1
  9
$TEXTSIZE
 40
0.2
  9
$TRACEWID
 40
0.05
  9
$TEXTSTYLE
  7
Standard
  9
$CLAYER
  8
0
  9
$CELTYPE
  6
ByLayer
  9
$CECOLOR
 62
   256
  9
$CELTSCALE
 40
1.0
  9
$DISPSILH
 70
     0
  9
$DIMSCALE
 40
1.0
  9
$DIMASZ
 40
0.18
  9
$DIMEXO
 40
0.0625
  9
$DIMDLI
 40
0.38
  9
$DIMRND
 40
0.0
  9
$DIMDLE
 40
0.0
  9
$DIMEXE
 40
0.18
  9
$DIMTP
 40
0.0
  9
$DIMTM
 40
0.0
  9
$DIMTXT
 40
0.18
  9
$DIMCEN
 40
0.09
  9
$DIMTSZ
 40
0.0
  9
$DIMTOL
 70
     0
  9
$DIMLIM
 70
     0
  9
$DIMTIH
 70
     1
  9
$DIMTOH
 70
     1
  9
$DIMSE1
 70
     0
  9
$DIMSE2
 70
     0
  9
$DIMTAD
 70
     0
  9
$DIMZIN
 70
     0
  9
$DIMBLK
  1

  9
$DIMASO
 70
     1
  9
$DIMSHO
 70
     1
  9
$DIMPOST
  1

  9
$DIMAPOST
  1

  9
$DIMALT
 70
     0
  9
$DIMALTD
 70
     2
  9
$DIMALTF
 40
25.4
  9
$DIMLFAC
 40
1.0
  9
$DIMTOFL
 70
     0
  9
$DIMTVP
 40
0.0
  9
$DIMTIX
 70
     0
  9
$DIMSOXD
 70
     0
  9
$DIMSAH
 70
     0
  9
$DIMBLK1
  1

  9
$DIMBLK2
  1

  9
$DIMSTYLE
  2
Standard
  9
$DIMCLRD
 70
     0
  9
$DIMCLRE
 70
     0
  9
$DIMCLRT
 70
     0
  9
$DIMTFAC
 40
1.0
  9
$DIMGAP
 40
0.09
  9
$DIMJUST
 70
     0
  9
$DIMSD1
 70
     0
  9
$DIMSD2
 70
     0
  9
$DIMTOLJ
 70
     1
  9
$DIMTZIN
 70
     0
  9
$DIMALTZ
 70
     0
  9
$DIMALTTZ
 70
     0
  9
$DIMUPT
 70
     0
  9
$DIMDEC
 70
     4
  9
$DIMTDEC
 70
     4
  9
$DIMALTU
 70
     2
  9
$DIMALTTD
 70
     2
  9
$DIMTXSTY
  7
Standard
  9
$DIMAUNIT
 70
     0
  9
$DIMADEC
 70
     0
  9
$DIMALTRND
 40
0.0
  9
$DIMAZIN
 70
     0
  9
$DIMDSEP
 70
    46
  9
$DIMATFIT
 70
     3
  9
$DIMFRAC
 70
     0
  9
$DIMLDRBLK
  1

  9
$DIMLUNIT
 70
     2
  9
$DIMLWD
 70
    -2
  9
$DIMLWE
 70
    -2
  9
$DIMTMOVE
 70
     0
  9
$DIMFXL
 40
1.0
  9
$DIMFXLON
 70
     0
  9
$DIMJOGANG
 40
0.7853981633974483
  9
$DIMTFILL
 70
     0
  9
$DIMTFILLCLR
 70
     0
  9
$DIMARCSYM
 70
     0
  9
$DIMLTYPE
  6

  9
$DIMLTEX1
  6

  9
$DIMLTEX2
  6

  9
$DIMTXTDIRECTION
 70
     0
  9
$LUNITS
 70
     2
  9
$LUPREC
 70
     4
  9
$SKETCHINC
 40
0.1
  9
$FILLETRAD
 40
0.5
  9
$AUNITS
 70
     0
  9
$AUPREC
 70
     0
  9
$MENU
  1
.
  9
$ELEVATION
 40
0.0
  9
$PELEVATION
 40
0.0
  9
$THICKNESS
 40
0.0
  9
$LIMCHECK
 70
     0
  9
$CHAMFERA
 40
0.0
  9
$CHAMFERB
 40
0.0
  9
$CHAMFERC
 40
0.0
  9
$CHAMFERD
 40
0.0
  9
$SKPOLY
 70
     0
  9
$TDCREATE
 40
2458168.983139421
  9
$TDUCREATE
 40
2458168.941472755
  9
$TDUPDATE
 40
2458168.983139607
  9
$TDUUPDATE
 40
2458168.94147294
  9
$TDINDWG
 40
0.0000000116
  9
$TDUSRTIMER
 40
0.0000000116
  9
$USRTIMER
 70
     1
  9
$ANGBASE
 50
0.0
  9
$ANGDIR
 70
     0
  9
$PDMODE
 70
     0
  9
$PDSIZE
 40
0.0
  9
$PLINEWID
 40
0.0
  9
$SPLFRAME
 70
     0
  9
$SPLINETYPE
 70
     6
  9
$SPLINESEGS
 70
     8
  9
$HANDSEED
  5
239
  9
$SURFTAB1
 70
     6
  9
$SURFTAB2
 70
     6
  9
$SURFTYPE
 70
     6
  9
$SURFU
 70
     6
  9
$SURFV
 70
     6
  9
$UCSBASE
  2

  9
$UCSNAME
  2

  9
$UCSORG
 10
0.0
 20
0.0
 30
0.0
  9
$UCSXDIR
 10
1.0
 20
0.0
 30
0.0
  9
$UCSYDIR
 10
0.0
 20
1.0
 30
0.0
  9
$UCSORTHOREF
  2

  9
$UCSORTHOVIEW
 70
     0
  9
$UCSORGTOP
 10
0.0
 20
0.0
 30
0.0
  9
$UCSORGBOTTOM
 10
0.0
 20
0.0
 30
0.0
  9
$UCSORGLEFT
 10
0.0
 20
0.0
 30
0.0
  9
$UCSORGRIGHT
 10
0.0
 20
0.0
 30
0.0
  9
$UCSORGFRONT
 10
0.0
 20
0.0
 30
0.0
  9
$UCSORGBACK
 10
0.0
 20
0.0
 30
0.0
  9
$PUCSBASE
  2

  9
$PUCSNAME
  2

  9
$PUCSORG
 10
0.0
 20
0.0
 30
0.0
  9
$PUCSXDIR
 10
1.0
 20
0.0
 30
0.0
  9
$PUCSYDIR
 10
0.0
 20
1.0
 30
0.0
  9
$PUCSORTHOREF
  2

  9
$PUCSORTHOVIEW
 70
     0
  9
$PUCSORGTOP
 10
0.0
 20
0.0
 30
0.0
  9
$PUCSORGBOTTOM
 10
0.0
 20
0.0
 30
0.0
  9
$PUCSORGLEFT
 10
0.0
 20
0.0
 30
0.0
  9
$PUCSORGRIGHT
 10
0.0
 20
0.0
 30
0.0
  9
$PUCSORGFRONT
 10
0.0
 20
0.0
 30
0.0
  9
$PUCSORGBACK
 10
0.0
 20
0.0
 30
0.0
  9
$USERI1
 70
     0
  9
$USERI2
 70
     0
  9
$USERI3
 70
     0
  9
$USERI4
 70
     0
  9
$USERI5
 70
     0
  9
$USERR1
 40
0.0
  9
$USERR2
 40
0.0
  9
$USERR3
 40
0.0
  9
$USERR4
 40
0.0
  9
$USERR5
 40
0.0
  9
$WORLDVIEW
 70
     1
  9
$SHADEDGE
 70
     3
  9
$SHADEDIF
 70
    70
  9
$TILEMODE
 70
     1
  9
$MAXACTVP
 70
    64
  9
$PINSBASE
 10
0.0
 20
0.0
 30
0.0
  9
$PLIMCHECK
 70
     0
  9
$PEXTMIN
 10
1.000000000000000E+20
 20
1.000000000000000E+20
 30
1.000000000000000E+20
  9
$PEXTMAX
 10
-1.000000000000000E+20
 20
-1.000000000000000E+20
 30
-1.000000000000000E+20
  9
$PLIMMIN
 10
0.0
 20
0.0
  9
$PLIMMAX
 10
12.0
 20
9.0
  9
$UNITMODE
 70
     0
  9
$VISRETAIN
 70
     1
  9
$PLINEGEN
 70
     0
  9
$PSLTSCALE
 70
     1
  9
$TREEDEPTH
 70
  3020
  9
$CMLSTYLE
  2
Standard
  9
$CMLJUST
 70
     0
  9
$CMLSCALE
 40
1.0
  9
$PROXYGRAPHICS
 70
     1
  9
$MEASUREMENT
 70
     0
  9
$CELWEIGHT
370
    -1
  9
$ENDCAPS
280
     0
  9
$JOINSTYLE
280
     0
  9
$LWDISPLAY
290
     0
  9
$INSUNITS
 70
     1
  9
$HYPERLINKBASE
  1

  9
$STYLESHEET
  1

  9
$XEDIT
290
     1
  9
$CEPSNTYPE
380
     0
  9
$PSTYLEMODE
290
     1
  9
$FINGERPRINTGUID
  2
{3E889240-8883-4715-AFE8-57FFDA57C01C}
  9
$VERSIONGUID
  2
{FAEB1C32-E019-11D5-929B-00C0DF256EC4}
  9
$EXTNAMES
290
     1
  9
$PSVPSCALE
 40
0.0
  9
$OLESTARTUP
290
     0
  9
$SORTENTS
280
   127
  9
$INDEXCTL
280
     0
  9
$HIDETEXT
280
     1
  9
$XCLIPFRAME
280
     2
  9
$HALOGAP
280
     0
  9
$OBSCOLOR
 70
   257
  9
$OBSLTYPE
280
     0
  9
$INTERSECTIONDISPLAY
280
     0
  9
$INTERSECTIONCOLOR
 70
   257
  9
$DIMASSOC
280
     2
  9
$PROJECTNAME
  1

  9
$CAMERADISPLAY
290
     0
  9
$LENSLENGTH
 40
50.0
  9
$CAMERAHEIGHT
 40
0.0
  9
$STEPSPERSEC
 40
2.0
  9
$STEPSIZE
 40
6.0
  9
$3DDWFPREC
 40
2.0
  9
$PSOLWIDTH
 40
0.25
  9
$PSOLHEIGHT
 40
4.0
  9
$LOFTANG1
 40
1.570796326794897
  9
$LOFTANG2
 40
1.570796326794897
  9
$LOFTMAG1
 40
0.0
  9
$LOFTMAG2
 40
0.0
  9
$LOFTPARAM
 70
     7
  9
$LOFTNORMALS
280
     1
  9
$LATITUDE
 40
37.795
  9
$LONGITUDE
 40
-122.394
  9
$NORTHDIRECTION
 40
0.0
  9
$TIMEZONE
 70
 -8000
  9
$LIGHTGLYPHDISPLAY
280
     1
  9
$TILEMODELIGHTSYNCH
280
     1
  9
$CMATERIAL
347
44
  9
$SOLIDHIST
280
     0
  9
$SHOWHIST
280
     1
  9
$DWFFRAME
280
     2
  9
$DGNFRAME
280
     2
  9
$REALWORLDSCALE
290
     1
  9
$INTERFERECOLOR
 62
   256
  9
$CSHADOW
280
     0
  9
$SHADOWPLANELOCATION
 40
0.0
  0
ENDSEC
  0
SECTION
  2
CLASSES
  0
CLASS
  1
ACDBDICTIONARYWDFLT
  2
AcDbDictionaryWithDefault
  3
ObjectDBX Classes
 90
        0
 91
        4
280
     0
281
     0
  0
CLASS
  1
VISUALSTYLE
  2
AcDbVisualStyle
  3
ObjectDBX Classes
 90
     4095
 91
        4
280
     0
281
     0
  0
CLASS
  1
MATERIAL
  2
AcDbMaterial
  3
ObjectDBX Classes
 90
     1153
 91
        4
280
     0
281
     0
  0
CLASS
  1
SCALE
  2
AcDbScale
  3
ObjectDBX Classes
 90
     1153
 91
        4
280
     0
281
     0
  0
CLASS
  1
TABLESTYLE
  2
AcDbTableStyle
  3
ObjectDBX Classes
 90
     4095
 91
        4
280
     0
281
     0
  0
CLASS
  1
MLEADERSTYLE
  2
AcDbMLeaderStyle
  3
ACDB_MLEADERSTYLE_CLASS
 90
     4095
 91
        4
280
     0
281
     0
  0
CLASS
  1
SUN
  2
AcDbSun
  3
SCENEOE
 90
     1153
 91
        4
280
     0
281
     0
  0
CLASS
  1
DICTIONARYVAR
  2
AcDbDictionaryVar
  3
ObjectDBX Classes
 90
        0
 91
        4
280
     0
281
     0
  0
CLASS
  1
CELLSTYLEMAP
  2
AcDbCellStyleMap
  3
ObjectDBX Classes
 90
     1152
 91
        4
280
     0
281
     0
  0
ENDSEC
  0
SECTION
  2
TABLES
  0
TABLE
  2
VPORT
  5
8
330
0
100
AcDbSymbolTable
 70
     1
  0
VPORT
  5
29
330
8
100
AcDbSymbolTableRecord
100
AcDbViewportTableRecord
  2
*Active
 70
     0
 10
0.0
 20
0.0
 11
1.0
 21
1.0
 12
0.0
 22
0.13806810648307
 13
0.0
 23
0.0
 14
0.5
 24
0.5
 15
0.5
 25
0.5
 16
0.0
 26
0.0
 36
1.0
 17
0.0
 27
0.0
 37
0.0
 40
5.891658937225463
 41
1.817824167032252
 42
50.0
 43
0.0
 44
0.0
 50
0.0
 51
0.0
 71
     0
 72
   100
 73
     1
 74
     3
 75
     0
 76
     0
 77
     0
 78
     0
281
     0
 65
     1
110
0.0
120
0.0
130
0.0
111
1.0
121
0.0
131
0.0
112
0.0
122
1.0
132
0.0
 79
     0
146
0.0
348
2F
 60
     3
 61
     5
292
     1
282
     1
141
0.0
142
0.0
 63
   250
361
6D
  0
ENDTAB
  0
TABLE
  2
LTYPE
  5
5
330
0
100
AcDbSymbolTable
 70
     3
  0
LTYPE
  5
14
330
5
100
AcDbSymbolTableRecord
100
AcDbLinetypeTableRecord
  2
ByBlock
 70
     0
  3

 72
    65
 73
     0
 40
0.0
  0
LTYPE
  5
15
330
5
100
AcDbSymbolTableRecord
100
AcDbLinetypeTableRecord
  2
ByLayer
 70
     0
  3

 72
    65
 73
     0
 40
0.0
  0
LTYPE
  5
16
330
5
100
AcDbSymbolTableRecord
100
AcDbLinetypeTableRecord
  2
Continuous
 70
     0
  3
Solid line
 72
    65
 73
     0
 40
0.0
  0
LTYPE
  5
A0
330
5
100
AcDbSymbolTableRecord
100
AcDbLinetypeTableRecord
  2
Center
 70
     0
  3

 72
    65
 73
     4
 40
1.5
 49
0.45
 74
     0
 49
-0.5
 74
     0
 49
0.05
 74
     0
 49
-0.5
 74
     0
  0
LTYPE
  5
E8
330
5
100
AcDbSymbolTableRecord
100
AcDbLinetypeTableRecord
  2
Dashed
 70
     0
  3

 72
    65
 73
     2
 40
2.0
 49
1.0
 74
     0
 49
-1.0
 74
     0
  0
ENDTAB
  0
TABLE
  2
LAYER
  5
2
330
0
100
AcDbSymbolTable
 70
     7
  0
LAYER
  5
10
330
2
100
AcDbSymbolTableRecord
100
AcDbLayerTableRecord
  2
0
 70
     0
 62
     7
  6
Continuous
370
    -3
390
F
347
46
348
0
  0
LAYER
  5
72
330
2
100
AcDbSymbolTableRecord
100
AcDbLayerTableRecord
  2
AM_6
 70
     0
 62
    -2
  6
Continuous
370
    35
390
F
347
46
348
0
  0
LAYER
  5
9E
330
2
100
AcDbSymbolTableRecord
100
AcDbLayerTableRecord
  2
AM_5
 70
     0
 62
     3
  6
Continuous
370
    25
390
F
347
46
348
0
  0
LAYER
  5
A1
330
2
100
AcDbSymbolTableRecord
100
AcDbLayerTableRecord
  2
AM_7
 70
     0
 62
     7
  6
Center
370
    25
390
F
347
46
348
0
  0
LAYER
  5
A3
330
2
100
AcDbSymbolTableRecord
100
AcDbLayerTableRecord
  2
AM_4
 70
     0
 62
     3
  6
Continuous
370
    25
390
F
347
46
348
0
  0
LAYER
  5
E9
330
2
100
AcDbSymbolTableRecord
100
AcDbLayerTableRecord
  2
AM_9
 70
     0
 62
     6
  6
Dashed
370
    25
390
F
347
46
348
0
  0
LAYER
  5
224
330
2
100
AcDbSymbolTableRecord
100
AcDbLayerTableRecord
  2
ConnectionPoints
 70
     0
 62
     7
  6
Continuous
370
    50
390
F
347
46
348
0
  0
ENDTAB
  0
TABLE
  2
STYLE
  5
3
330
0
100
AcDbSymbolTable
 70
     1
  0
STYLE
  5
11
330
3
100
AcDbSymbolTableRecord
100
AcDbTextStyleTableRecord
  2
Standard
 70
     0
 40
0.0
 41
1.0
 50
0.0
 71
     0
 42
0.2
  3
txt
  4

  0
ENDTAB
  0
TABLE
  2
VIEW
  5
6
330
0
100
AcDbSymbolTable
 70
     0
  0
ENDTAB
  0
TABLE
  2
UCS
  5
7
330
0
100
AcDbSymbolTable
 70
     0
  0
ENDTAB
  0
TABLE
  2
APPID
  5
9
330
0
100
AcDbSymbolTable
 70
     1
  0
APPID
  5
12
330
9
100
AcDbSymbolTableRecord
100
AcDbRegAppTableRecord
  2
ACAD
 70
     0
  0
ENDTAB
  0
TABLE
  2
DIMSTYLE
  5
A
330
0
100
AcDbSymbolTable
 70
     1
100
AcDbDimStyleTable
  0
DIMSTYLE
105
27
330
A
100
AcDbSymbolTableRecord
100
AcDbDimStyleTableRecord
  2
Standard
 70
     0
178
     0
340
11
  0
ENDTAB
  0
TABLE
  2
BLOCK_RECORD
  5
1
330
0
100
AcDbSymbolTable
 70
     8
  0
BLOCK_RECORD
  5
1F
330
1
100
AcDbSymbolTableRecord
100
AcDbBlockTableRecord
  2
*Model_Space
340
22
 70
     0
280
     1
281
     0
  0
BLOCK_RECORD
  5
1B
330
1
100
AcDbSymbolTableRecord
100
AcDbBlockTableRecord
  2
*Paper_Space
340
1E
 70
     0
280
     1
281
     0
  0
BLOCK_RECORD
  5
23
330
1
100
AcDbSymbolTableRecord
100
AcDbBlockTableRecord
  2
*Paper_Space0
340
26
 70
     0
280
     1
281
     0
  0
BLOCK_RECORD
  5
6E
330
1
100
AcDbSymbolTableRecord
100
AcDbBlockTableRecord
  2
1_071153_0
340
0
102
{BLKREFS
331
6F
102
}
 70
     0
280
     1
281
     0
  0
BLOCK_RECORD
  5
8E
330
1
100
AcDbSymbolTableRecord
100
AcDbBlockTableRecord
  2
2_ASME_B18_3_10_1_0_in_071153_0
340
0
102
{BLKREFS
331
8F
102
}
 70
     0
280
     1
281
     0
  0
BLOCK_RECORD
  5
AF
330
1
100
AcDbSymbolTableRecord
100
AcDbBlockTableRecord
  2
3_ASME_B18_3_10_2_0_in_071153_0
340
0
102
{BLKREFS
331
B0
102
}
 70
     0
280
     1
281
     0
  0
BLOCK_RECORD
  5
CC
330
1
100
AcDbSymbolTableRecord
100
AcDbBlockTableRecord
  2
4_070896LWE_0_in_071153_0
340
0
102
{BLKREFS
331
CD
102
}
 70
     0
280
     1
281
     0
  0
BLOCK_RECORD
  5
120
330
1
100
AcDbSymbolTableRecord
100
AcDbBlockTableRecord
  2
5_070896E_0_in_071153_0
340
0
102
{BLKREFS
331
121
102
}
 70
     0
280
     1
281
     0
  0
BLOCK_RECORD
  5
183
330
1
100
AcDbSymbolTableRecord
100
AcDbBlockTableRecord
  2
6_405015E_Inch_0_in_071153_0
340
0
102
{BLKREFS
331
184
102
}
 70
     0
280
     1
281
     0
  0
BLOCK_RECORD
  5
1B8
330
1
100
AcDbSymbolTableRecord
100
AcDbBlockTableRecord
  2
7_071153H_0_in_071153_0
340
0
102
{BLKREFS
331
1B9
102
}
 70
     0
280
     1
281
     0
  0
ENDTAB
  0
ENDSEC
  0
SECTION
  2
BLOCKS
  0
BLOCK
  5
20
330
1F
100
AcDbEntity
  8
0
100
AcDbBlockBegin
  2
*Model_Space
 70
     0
 10
0.0
 20
0.0
 30
0.0
  3
*Model_Space
  1

  0
ENDBLK
  5
21
330
1F
100
AcDbEntity
  8
0
100
AcDbBlockEnd
  0
BLOCK
  5
1C
330
1B
100
AcDbEntity
 67
     1
  8
0
100
AcDbBlockBegin
  2
*Paper_Space
 70
     0
 10
0.0
 20
0.0
 30
0.0
  3
*Paper_Space
  1

  0
ENDBLK
  5
1D
330
1B
100
AcDbEntity
 67
     1
  8
0
100
AcDbBlockEnd
  0
BLOCK
  5
24
330
23
100
AcDbEntity
  8
0
100
AcDbBlockBegin
  2
*Paper_Space0
 70
     0
 10
0.0
 20
0.0
 30
0.0
  3
*Paper_Space0
  1

  0
ENDBLK
  5
25
330
23
100
AcDbEntity
  8
0
100
AcDbBlockEnd
  0
BLOCK
  5
70
330
6E
100
AcDbEntity
  8
0
100
AcDbBlockBegin
  2
1_071153_0
 70
     2
 10
0.0
 20
0.0
 30
0.0
  3
1_071153_0
  1

  0
ATTDEF
  5
73
330
6E
100
AcDbEntity
  8
AM_6
100
AcDbText
 10
10.25
 20
3.026136212966141
 30
0.0
 40
0.5
  1
Imperial - IP Pillow Block with Type E Dimensions 1-3/8 thru 2-3/16 inch 2-Bolt Trident Seal Expansion
100
AcDbAttributeDefinition
  3

  2
NN
 70
     8
280
     0
  0
ATTDEF
  5
74
330
6E
100
AcDbEntity
  8
AM_6
100
AcDbText
 10
10.25
 20
2.526136212966141
 30
0.0
 40
0.5
  1
Imperial/E 2 Bolt Piliow Block Bearings
100
AcDbAttributeDefinition
  3

  2
NT
 70
     8
280
     0
  0
ATTDEF
  5
75
330
6E
100
AcDbEntity
  8
AM_6
100
AcDbText
 10
10.25
 20
2.026136212966141
 30
0.0
 40
0.5
  1
071153
100
AcDbAttributeDefinition
  3

  2
NB
 70
     8
280
     0
  0
ATTDEF
  5
76
330
6E
100
AcDbEntity
  8
AM_6
100
AcDbText
 10
10.25
 20
1.526136212966141
 30
0.0
 40
0.5
  1
$PN.
100
AcDbAttributeDefinition
  3

  2
NBSYN
 70
     8
280
     0
  0
ATTDEF
  5
77
330
6E
100
AcDbEntity
  8
AM_6
100
AcDbText
 10
10.25
 20
1.026136212966141
 30
0.0
 40
0.5
  1
071153
100
AcDbAttributeDefinition
  3

  2
LINA
 70
     8
280
     0
  0
ATTDEF
  5
78
330
6E
100
AcDbEntity
  8
AM_6
100
AcDbText
 10
10.25
 20
0.5261362129661409
 30
0.0
 40
0.5
  1
2-1/2
100
AcDbAttributeDefinition
  3

  2
SS
 70
     8
280
     0
  0
ATTDEF
  5
79
330
6E
100
AcDbEntity
  8
AM_6
100
AcDbText
 10
10.25
 20
0.0261362129661409
 30
0.0
 40
0.5
  1
Expansion
100
AcDbAttributeDefinition
  3

  2
TYPE
 70
     8
280
     0
  0
ATTDEF
  5
7A
330
6E
100
AcDbEntity
  8
AM_6
100
AcDbText
 10
10.25
 20
-0.4738637870338591
 30
0.0
 40
0.5
  1
071153
100
AcDbAttributeDefinition
  3

  2
PN
 70
     8
280
     0
  0
ATTDEF
  5
7B
330
6E
100
AcDbEntity
  8
AM_6
100
AcDbText
 10
10.25
 20
-0.9738637870338591
 30
0.0
 40
0.5
  1
EP2B-IP-208RE
100
AcDbAttributeDefinition
  3

  2
DESCRIPTION
 70
     8
280
     0
  0
ATTDEF
  5
7C
330
6E
100
AcDbEntity
  8
AM_6
100
AcDbText
 10
10.25
 20
-1.473863787033859
 30
0.0
 40
0.5
  1
Contact Seal
100
AcDbAttributeDefinition
  3

  2
ST
 70
     8
280
     0
  0
ATTDEF
  5
7D
330
6E
100
AcDbEntity
  8
AM_6
100
AcDbText
 10
10.25
 20
-1.973863787033859
 30
0.0
 40
0.5
  1
3.42
100
AcDbAttributeDefinition
  3

  2
A
 70
     8
280
     0
  0
ATTDEF
  5
7E
330
6E
100
AcDbEntity
  8
AM_6
100
AcDbText
 10
10.25
 20
-2.473863787033859
 30
0.0
 40
0.5
  1
10.5
100
AcDbAttributeDefinition
  3

  2
B
 70
     8
280
     0
  0
ATTDEF
  5
7F
330
6E
100
AcDbEntity
  8
AM_6
100
AcDbText
 10
10.25
 20
-2.973863787033859
 30
0.0
 40
0.5
  1
2.87
100
AcDbAttributeDefinition
  3

  2
C
 70
     8
280
     0
  0
ATTDEF
  5
80
330
6E
100
AcDbEntity
  8
AM_6
100
AcDbText
 10
10.25
 20
-3.473863787033859
 30
0.0
 40
0.5
  1
8.38
100
AcDbAttributeDefinition
  3

  2
DMIN
 70
     8
280
     0
  0
ATTDEF
  5
81
330
6E
100
AcDbEntity
  8
AM_6
100
AcDbText
 10
10.25
 20
-3.973863787033859
 30
0.0
 40
0.5
  1
8.62
100
AcDbAttributeDefinition
  3

  2
DMAX
 70
     8
280
     0
  0
ATTDEF
  5
82
330
6E
100
AcDbEntity
  8
AM_6
100
AcDbText
 10
10.25
 20
-4.473863787033859
 30
0.0
 40
0.5
  1
5/8
100
AcDbAttributeDefinition
  3

  2
F
 70
     8
280
     0
  0
ATTDEF
  5
83
330
6E
100
AcDbEntity
  8
AM_6
100
AcDbText
 10
10.25
 20
-4.973863787033859
 30
0.0
 40
0.5
  1
0.88
100
AcDbAttributeDefinition
  3

  2
G
 70
     8
280
     0
  0
ATTDEF
  5
84
330
6E
100
AcDbEntity
  8
AM_6
100
AcDbText
 10
10.25
 20
-5.473863787033859
 30
0.0
 40
0.5
  1
1.63
100
AcDbAttributeDefinition
  3

  2
H
 70
     8
280
     0
  0
ATTDEF
  5
85
330
6E
100
AcDbEntity
  8
AM_6
100
AcDbText
 10
10.25
 20
-5.973863787033859
 30
0.0
 40
0.5
  1
5.71
100
AcDbAttributeDefinition
  3

  2
J
 70
     8
280
     0
  0
ATTDEF
  5
86
330
6E
100
AcDbEntity
  8
AM_6
100
AcDbText
 10
10.25
 20
-6.473863787033859
 30
0.0
 40
0.5
  1
3.88
100
AcDbAttributeDefinition
  3

  2
L
 70
     8
280
     0
  0
ATTDEF
  5
87
330
6E
100
AcDbEntity
  8
AM_6
100
AcDbText
 10
10.25
 20
-6.973863787033859
 30
0.0
 40
0.5
  1
2.75
100
AcDbAttributeDefinition
  3

  2
M
 70
     8
280
     0
  0
ATTDEF
  5
88
330
6E
100
AcDbEntity
  8
AM_6
100
AcDbText
 10
10.25
 20
-7.473863787033859
 30
0.0
 40
0.5
  1
1.20
100
AcDbAttributeDefinition
  3

  2
R
 70
     8
280
     0
  0
ATTDEF
  5
89
330
6E
100
AcDbEntity
  8
AM_6
100
AcDbText
 10
10.25
 20
-7.973863787033859
 30
0.0
 40
0.5
  1
2.22
100
AcDbAttributeDefinition
  3

  2
S
 70
     8
280
     0
  0
ATTDEF
  5
8A
330
6E
100
AcDbEntity
  8
AM_6
100
AcDbText
 10
10.25
 20
-8.47386378703386
 30
0.0
 40
0.5
  1
0.25
100
AcDbAttributeDefinition
  3

  2
X
 70
     8
280
     0
  0
ATTDEF
  5
8B
330
6E
100
AcDbEntity
  8
AM_6
100
AcDbText
 10
10.25
 20
-8.97386378703386
 30
0.0
 40
0.5
  1
0.025
100
AcDbAttributeDefinition
  3

  2
Y
 70
     8
280
     0
  0
ATTDEF
  5
8C
330
6E
100
AcDbEntity
  8
AM_6
100
AcDbText
 10
10.25
 20
-9.47386378703386
 30
0.0
 40
0.5
  1
2.95
100
AcDbAttributeDefinition
  3

  2
Z
 70
     8
280
     0
  0
ATTDEF
  5
8D
330
6E
100
AcDbEntity
  8
AM_6
100
AcDbText
 10
10.25
 20
-9.97386378703386
 30
0.0
 40
0.5
  1
baldor
100
AcDbAttributeDefinition
  3

  2
COMPANY
 70
     8
280
     0
  0
INSERT
  5
8F
330
6E
100
AcDbEntity
  8
0
100
AcDbBlockReference
  2
2_ASME_B18_3_10_1_0_in_071153_0
 10
0.0
 20
0.0
 30
0.0
  0
INSERT
  5
B0
330
6E
100
AcDbEntity
  8
0
100
AcDbBlockReference
  2
3_ASME_B18_3_10_2_0_in_071153_0
 10
0.0
 20
0.0
 30
0.0
  0
INSERT
  5
CD
330
6E
100
AcDbEntity
  8
0
100
AcDbBlockReference
  2
4_070896LWE_0_in_071153_0
 10
0.0
 20
0.0
 30
0.0
  0
INSERT
  5
121
330
6E
100
AcDbEntity
  8
0
100
AcDbBlockReference
  2
5_070896E_0_in_071153_0
 10
0.0
 20
0.0
 30
0.0
  0
INSERT
  5
184
330
6E
100
AcDbEntity
  8
0
100
AcDbBlockReference
  2
6_405015E_Inch_0_in_071153_0
 10
0.0
 20
0.0
 30
0.0
  0
INSERT
  5
1B9
330
6E
100
AcDbEntity
  8
0
100
AcDbBlockReference
  2
7_071153H_0_in_071153_0
 10
0.0
 20
0.0
 30
0.0
  0
ENDBLK
  5
71
330
6E
100
AcDbEntity
  8
0
100
AcDbBlockEnd
  0
BLOCK
  5
90
330
8E
100
AcDbEntity
  8
0
100
AcDbBlockBegin
  2
2_ASME_B18_3_10_1_0_in_071153_0
 70
     2
 10
0.0
 20
0.0
 30
0.0
  3
2_ASME_B18_3_10_1_0_in_071153_0
  1

  0
ATTDEF
  5
92
330
8E
100
AcDbEntity
  8
AM_6
100
AcDbText
 10
5.189525
 20
-1.482694444444445
 30
0.0
 40
0.5
  1
ANSI/ASME B18.3-1998
100
AcDbAttributeDefinition
  3

  2
NN
 70
     8
280
     0
  0
ATTDEF
  5
93
330
8E
100
AcDbEntity
  8
AM_6
100
AcDbText
 10
5.189525
 20
-1.982694444444445
 30
0.0
 40
0.5
  1
Socket Button Head Cap Screws
100
AcDbAttributeDefinition
  3

  2
NT
 70
     8
280
     0
  0
ATTDEF
  5
94
330
8E
100
AcDbEntity
  8
AM_6
100
AcDbText
 10
5.189525
 20
-2.482694444444444
 30
0.0
 40
0.5
  1
ASME B18.3-10
100
AcDbAttributeDefinition
  3

  2
NB
 70
     8
280
     0
  0
ATTDEF
  5
95
330
8E
100
AcDbEntity
  8
AM_6
100
AcDbText
 10
5.189525
 20
-2.982694444444444
 30
0.0
 40
0.5
  1
ASME B18.3-$NS.
100
AcDbAttributeDefinition
  3

  2
NBSYN
 70
     8
280
     0
  0
ATTDEF
  5
96
330
8E
100
AcDbEntity
  8
AM_6
100
AcDbText
 10
5.189525
 20
-3.482694444444444
 30
0.0
 40
0.5
  1
ASME B18.3-10
100
AcDbAttributeDefinition
  3

  2
LINA
 70
     8
280
     0
  0
ATTDEF
  5
97
330
8E
100
AcDbEntity
  8
AM_6
100
AcDbText
 10
5.189525
 20
-3.982694444444444
 30
0.0
 40
0.5
  1
10
100
AcDbAttributeDefinition
  3

  2
NS
 70
     8
280
     0
  0
ATTDEF
  5
98
330
8E
100
AcDbEntity
  8
AM_6
100
AcDbText
 10
5.189525
 20
-4.482694444444444
 30
0.0
 40
0.5
  1
0.361
100
AcDbAttributeDefinition
  3

  2
A
 70
     8
280
     0
  0
ATTDEF
  5
99
330
8E
100
AcDbEntity
  8
AM_6
100
AcDbText
 10
5.189525
 20
-4.982694444444444
 30
0.0
 40
0.5
  1
0.101
100
AcDbAttributeDefinition
  3

  2
H
 70
     8
280
     0
  0
ATTDEF
  5
9A
330
8E
100
AcDbEntity
  8
AM_6
100
AcDbText
 10
5.189525
 20
-5.482694444444444
 30
0.0
 40
0.5
  1
0.800
100
AcDbAttributeDefinition
  3

  2
L
 70
     8
280
     0
  0
ATTDEF
  5
9B
330
8E
100
AcDbEntity
  8
AM_6
100
AcDbText
 10
5.189525
 20
-5.982694444444444
 30
0.0
 40
0.5
  1
0.020
100
AcDbAttributeDefinition
  3

  2
S
 70
     8
280
     0
  0
ATTDEF
  5
9C
330
8E
100
AcDbEntity
  8
AM_6
100
AcDbText
 10
5.189525
 20
-6.482694444444444
 30
0.0
 40
0.5
  1
0.125000
100
AcDbAttributeDefinition
  3

  2
J
 70
     8
280
     0
  0
ATTDEF
  5
9D
330
8E
100
AcDbEntity
  8
AM_6
100
AcDbText
 10
5.189525
 20
-6.982694444444444
 30
0.0
 40
0.5
  1
baldor
100
AcDbAttributeDefinition
  3

  2
COMPANY
 70
     8
280
     0
  0
ARC
  5
9F
330
8E
100
AcDbEntity
  8
AM_5
100
AcDbCircle
 10
0.0000000000000002
 20
-1.663194444444444
 30
0.0
 40
0.0701999999999997
100
AcDbArc
 50
74.99999999999986
 51
14.99999999999985
  0
LINE
  5
A2
330
8E
100
AcDbEntity
  8
AM_7
100
AcDbLine
 10
-0.1895249999999999
 20
-1.663194444444444
 30
0.0
 11
0.1895249999999999
 21
-1.663194444444444
 31
0.0
  0
CIRCLE
  5
A4
330
8E
100
AcDbEntity
  8
AM_4
100
AcDbCircle
 10
0.0
 20
-1.663194444444444
 30
0.0
 40
0.0995
  0
LINE
  5
A5
330
8E
100
AcDbEntity
  8
AM_4
100
AcDbLine
 10
-0.0625
 20
-1.699278836268796
 30
0.0
 11
-0.0625
 21
-1.627110052620093
 31
0.0
  0
LINE
  5
A6
330
8E
100
AcDbEntity
  8
AM_4
100
AcDbLine
 10
-0.0625
 20
-1.627110052620093
 30
0.0
 11
0.0
 21
-1.591025660795741
 31
0.0
  0
LINE
  5
A7
330
8E
100
AcDbEntity
  8
AM_4
100
AcDbLine
 10
0.0
 20
-1.591025660795741
 30
0.0
 11
0.0625
 21
-1.627110052620093
 31
0.0
  0
LINE
  5
A8
330
8E
100
AcDbEntity
  8
AM_4
100
AcDbLine
 10
0.0625
 20
-1.627110052620093
 30
0.0
 11
0.0625
 21
-1.699278836268796
 31
0.0
  0
LINE
  5
A9
330
8E
100
AcDbEntity
  8
AM_4
100
AcDbLine
 10
0.0625
 20
-1.699278836268796
 30
0.0
 11
0.0
 21
-1.735363228093148
 31
0.0
  0
LINE
  5
AA
330
8E
100
AcDbEntity
  8
AM_4
100
AcDbLine
 10
0.0
 20
-1.735363228093148
 30
0.0
 11
-0.0625
 21
-1.699278836268796
 31
0.0
  0
ARC
  5
AB
330
8E
100
AcDbEntity
  8
AM_5
100
AcDbCircle
 10
0.0000000000000001
 20
-1.663194444444444
 30
0.0
 40
0.0763999999999999
100
AcDbArc
 50
75.00000000000006
 51
14.99999999999994
  0
ARC
  5
AC
330
8E
100
AcDbEntity
  8
AM_5
100
AcDbCircle
 10
-0.0000000000000001
 20
-1.663194444444444
 30
0.0
 40
0.0764
100
AcDbArc
 50
14.9999999999999
 51
195.0000000000002
  0
ARC
  5
AD
330
8E
100
AcDbEntity
  8
AM_5
100
AcDbCircle
 10
-0.0000000000000002
 20
-1.663194444444444
 30
0.0
 40
0.0702000000000002
100
AcDbArc
 50
345.0000000000001
 51
285.0000000000002
  0
CIRCLE
  5
AE
330
8E
100
AcDbEntity
  8
AM_4
100
AcDbCircle
 10
0.0
 20
-1.663194444444444
 30
0.0
 40
0.1804999999999999
  0
ENDBLK
  5
91
330
8E
100
AcDbEntity
  8
0
100
AcDbBlockEnd
  0
BLOCK
  5
B1
330
AF
100
AcDbEntity
  8
0
100
AcDbBlockBegin
  2
3_ASME_B18_3_10_2_0_in_071153_0
 70
     2
 10
0.0
 20
0.0
 30
0.0
  3
3_ASME_B18_3_10_2_0_in_071153_0
  1

  0
ATTDEF
  5
B3
330
AF
100
AcDbEntity
  8
AM_6
100
AcDbText
 10
5.189525
 20
1.843694444444444
 30
0.0
 40
0.5
  1
ANSI/ASME B18.3-1998
100
AcDbAttributeDefinition
  3

  2
NN
 70
     8
280
     0
  0
ATTDEF
  5
B4
330
AF
100
AcDbEntity
  8
AM_6
100
AcDbText
 10
5.189525
 20
1.343694444444444
 30
0.0
 40
0.5
  1
Socket Button Head Cap Screws
100
AcDbAttributeDefinition
  3

  2
NT
 70
     8
280
     0
  0
ATTDEF
  5
B5
330
AF
100
AcDbEntity
  8
AM_6
100
AcDbText
 10
5.189525
 20
0.8436944444444443
 30
0.0
 40
0.5
  1
ASME B18.3-10
100
AcDbAttributeDefinition
  3

  2
NB
 70
     8
280
     0
  0
ATTDEF
  5
B6
330
AF
100
AcDbEntity
  8
AM_6
100
AcDbText
 10
5.189525
 20
0.3436944444444443
 30
0.0
 40
0.5
  1
ASME B18.3-$NS.
100
AcDbAttributeDefinition
  3

  2
NBSYN
 70
     8
280
     0
  0
ATTDEF
  5
B7
330
AF
100
AcDbEntity
  8
AM_6
100
AcDbText
 10
5.189525
 20
-0.1563055555555557
 30
0.0
 40
0.5
  1
ASME B18.3-10
100
AcDbAttributeDefinition
  3

  2
LINA
 70
     8
280
     0
  0
ATTDEF
  5
B8
330
AF
100
AcDbEntity
  8
AM_6
100
AcDbText
 10
5.189525
 20
-0.6563055555555557
 30
0.0
 40
0.5
  1
10
100
AcDbAttributeDefinition
  3

  2
NS
 70
     8
280
     0
  0
ATTDEF
  5
B9
330
AF
100
AcDbEntity
  8
AM_6
100
AcDbText
 10
5.189525
 20
-1.156305555555556
 30
0.0
 40
0.5
  1
0.361
100
AcDbAttributeDefinition
  3

  2
A
 70
     8
280
     0
  0
ATTDEF
  5
BA
330
AF
100
AcDbEntity
  8
AM_6
100
AcDbText
 10
5.189525
 20
-1.656305555555556
 30
0.0
 40
0.5
  1
0.101
100
AcDbAttributeDefinition
  3

  2
H
 70
     8
280
     0
  0
ATTDEF
  5
BB
330
AF
100
AcDbEntity
  8
AM_6
100
AcDbText
 10
5.189525
 20
-2.156305555555556
 30
0.0
 40
0.5
  1
0.800
100
AcDbAttributeDefinition
  3

  2
L
 70
     8
280
     0
  0
ATTDEF
  5
BC
330
AF
100
AcDbEntity
  8
AM_6
100
AcDbText
 10
5.189525
 20
-2.656305555555556
 30
0.0
 40
0.5
  1
0.020
100
AcDbAttributeDefinition
  3

  2
S
 70
     8
280
     0
  0
ATTDEF
  5
BD
330
AF
100
AcDbEntity
  8
AM_6
100
AcDbText
 10
5.189525
 20
-3.156305555555556
 30
0.0
 40
0.5
  1
0.125000
100
AcDbAttributeDefinition
  3

  2
J
 70
     8
280
     0
  0
ATTDEF
  5
BE
330
AF
100
AcDbEntity
  8
AM_6
100
AcDbText
 10
5.189525
 20
-3.656305555555556
 30
0.0
 40
0.5
  1
baldor
100
AcDbAttributeDefinition
  3

  2
COMPANY
 70
     8
280
     0
  0
ARC
  5
BF
330
AF
100
AcDbEntity
  8
AM_5
100
AcDbCircle
 10
-0.0000000000000001
 20
1.663194444444445
 30
0.0
 40
0.0701999999999997
100
AcDbArc
 50
74.99999999999986
 51
14.99999999999985
  0
LINE
  5
C0
330
AF
100
AcDbEntity
  8
AM_7
100
AcDbLine
 10
-0.1895249999999999
 20
1.663194444444444
 30
0.0
 11
0.1895249999999999
 21
1.663194444444444
 31
0.0
  0
LINE
  5
C1
330
AF
100
AcDbEntity
  8
AM_4
100
AcDbLine
 10
0.0625
 20
1.627110052620093
 30
0.0
 11
0.0
 21
1.591025660795741
 31
0.0
  0
CIRCLE
  5
C2
330
AF
100
AcDbEntity
  8
AM_4
100
AcDbCircle
 10
0.0
 20
1.663194444444444
 30
0.0
 40
0.0995
  0
LINE
  5
C3
330
AF
100
AcDbEntity
  8
AM_4
100
AcDbLine
 10
-0.0625
 20
1.627110052620093
 30
0.0
 11
-0.0625
 21
1.699278836268796
 31
0.0
  0
LINE
  5
C4
330
AF
100
AcDbEntity
  8
AM_4
100
AcDbLine
 10
-0.0625
 20
1.699278836268796
 30
0.0
 11
0.0
 21
1.735363228093148
 31
0.0
  0
LINE
  5
C5
330
AF
100
AcDbEntity
  8
AM_4
100
AcDbLine
 10
0.0
 20
1.735363228093148
 30
0.0
 11
0.0625
 21
1.699278836268796
 31
0.0
  0
LINE
  5
C6
330
AF
100
AcDbEntity
  8
AM_4
100
AcDbLine
 10
0.0625
 20
1.699278836268796
 30
0.0
 11
0.0625
 21
1.627110052620093
 31
0.0
  0
LINE
  5
C7
330
AF
100
AcDbEntity
  8
AM_4
100
AcDbLine
 10
0.0
 20
1.591025660795741
 30
0.0
 11
-0.0625
 21
1.627110052620093
 31
0.0
  0
ARC
  5
C8
330
AF
100
AcDbEntity
  8
AM_5
100
AcDbCircle
 10
0.0000000000000001
 20
1.663194444444445
 30
0.0
 40
0.0763999999999999
100
AcDbArc
 50
75.00000000000006
 51
14.9999999999999
  0
ARC
  5
C9
330
AF
100
AcDbEntity
  8
AM_5
100
AcDbCircle
 10
-0.0000000000000001
 20
1.663194444444445
 30
0.0
 40
0.0764
100
AcDbArc
 50
14.9999999999999
 51
195.0000000000002
  0
ARC
  5
CA
330
AF
100
AcDbEntity
  8
AM_5
100
AcDbCircle
 10
-0.0000000000000002
 20
1.663194444444444
 30
0.0
 40
0.0702000000000002
100
AcDbArc
 50
345.0000000000001
 51
285.0000000000002
  0
CIRCLE
  5
CB
330
AF
100
AcDbEntity
  8
AM_4
100
AcDbCircle
 10
0.0
 20
1.663194444444444
 30
0.0
 40
0.1804999999999999
  0
ENDBLK
  5
B2
330
AF
100
AcDbEntity
  8
0
100
AcDbBlockEnd
  0
BLOCK
  5
CE
330
CC
100
AcDbEntity
  8
0
100
AcDbBlockBegin
  2
4_070896LWE_0_in_071153_0
 70
     2
 10
0.0
 20
0.0
 30
0.0
  3
4_070896LWE_0_in_071153_0
  1

  0
ATTDEF
  5
D0
330
CC
100
AcDbEntity
  8
AM_6
100
AcDbText
 10
6.94
 20
1.94
 30
0.0
 40
0.5
  1
Imperial/E Insert Lockwasher -Inch
100
AcDbAttributeDefinition
  3

  2
NN
 70
     8
280
     0
  0
ATTDEF
  5
D1
330
CC
100
AcDbEntity
  8
AM_6
100
AcDbText
 10
6.94
 20
1.44
 30
0.0
 40
0.5
  1
Imperial/E Bearings
100
AcDbAttributeDefinition
  3

  2
NT
 70
     8
280
     0
  0
ATTDEF
  5
D2
330
CC
100
AcDbEntity
  8
AM_6
100
AcDbText
 10
6.94
 20
0.9399999999999997
 30
0.0
 40
0.5
  1
070896LWE
100
AcDbAttributeDefinition
  3

  2
NB
 70
     8
280
     0
  0
ATTDEF
  5
D3
330
CC
100
AcDbEntity
  8
AM_6
100
AcDbText
 10
6.94
 20
0.4399999999999997
 30
0.0
 40
0.5
  1
$PN.LWE
100
AcDbAttributeDefinition
  3

  2
NBSYN
 70
     8
280
     0
  0
ATTDEF
  5
D4
330
CC
100
AcDbEntity
  8
AM_6
100
AcDbText
 10
6.94
 20
-0.0600000000000003
 30
0.0
 40
0.5
  1
070896
100
AcDbAttributeDefinition
  3

  2
LINA
 70
     8
280
     0
  0
ATTDEF
  5
D5
330
CC
100
AcDbEntity
  8
AM_6
100
AcDbText
 10
6.94
 20
-0.5600000000000003
 30
0.0
 40
0.5
  1
2-1/2
100
AcDbAttributeDefinition
  3

  2
SS
 70
     8
280
     0
  0
ATTDEF
  5
D6
330
CC
100
AcDbEntity
  8
AM_6
100
AcDbText
 10
6.94
 20
-1.06
 30
0.0
 40
0.5
  1
3.880000
100
AcDbAttributeDefinition
  3

  2
E1
 70
     8
280
     0
  0
ATTDEF
  5
D7
330
CC
100
AcDbEntity
  8
AM_6
100
AcDbText
 10
6.94
 20
-1.56
 30
0.0
 40
0.5
  1
2.500000
100
AcDbAttributeDefinition
  3

  2
SS1
 70
     8
280
     0
  0
ATTDEF
  5
D8
330
CC
100
AcDbEntity
  8
AM_6
100
AcDbText
 10
6.94
 20
-2.06
 30
0.0
 40
0.5
  1
070896
100
AcDbAttributeDefinition
  3

  2
PN
 70
     8
280
     0
  0
ATTDEF
  5
D9
330
CC
100
AcDbEntity
  8
AM_6
100
AcDbText
 10
6.94
 20
-2.56
 30
0.0
 40
0.5
  1
INS-IP-208R
100
AcDbAttributeDefinition
  3

  2
DESCRIPTION
 70
     8
280
     0
  0
ATTDEF
  5
DA
330
CC
100
AcDbEntity
  8
AM_6
100
AcDbText
 10
6.94
 20
-3.06
 30
0.0
 40
0.5
  1
4.7241
100
AcDbAttributeDefinition
  3

  2
A
 70
     8
280
     0
  0
ATTDEF
  5
DB
330
CC
100
AcDbEntity
  8
AM_6
100
AcDbText
 10
6.94
 20
-3.56
 30
0.0
 40
0.5
  1
1-9/32
100
AcDbAttributeDefinition
  3

  2
B
 70
     8
280
     0
  0
ATTDEF
  5
DC
330
CC
100
AcDbEntity
  8
AM_6
100
AcDbText
 10
6.94
 20
-4.06
 30
0.0
 40
0.5
  1
1.281250
100
AcDbAttributeDefinition
  3

  2
B1
 70
     8
280
     0
  0
ATTDEF
  5
DD
330
CC
100
AcDbEntity
  8
AM_6
100
AcDbText
 10
6.94
 20
-4.56
 30
0.0
 40
0.5
  1
3-27/64
100
AcDbAttributeDefinition
  3

  2
C
 70
     8
280
     0
  0
ATTDEF
  5
DE
330
CC
100
AcDbEntity
  8
AM_6
100
AcDbText
 10
6.94
 20
-5.06
 30
0.0
 40
0.5
  1
3.421875
100
AcDbAttributeDefinition
  3

  2
C1
 70
     8
280
     0
  0
ATTDEF
  5
DF
330
CC
100
AcDbEntity
  8
AM_6
100
AcDbText
 10
6.94
 20
-5.56
 30
0.0
 40
0.5
  1
1.208
100
AcDbAttributeDefinition
  3

  2
D
 70
     8
280
     0
  0
ATTDEF
  5
E0
330
CC
100
AcDbEntity
  8
AM_6
100
AcDbText
 10
6.94
 20
-6.06
 30
0.0
 40
0.5
  1
3-7/8
100
AcDbAttributeDefinition
  3

  2
E
 70
     8
280
     0
  0
ATTDEF
  5
E1
330
CC
100
AcDbEntity
  8
AM_6
100
AcDbText
 10
6.94
 20
-6.56
 30
0.0
 40
0.5
  1
0.1900
100
AcDbAttributeDefinition
  3

  2
NDM
 70
     8
280
     0
  0
ATTDEF
  5
E2
330
CC
100
AcDbEntity
  8
AM_6
100
AcDbText
 10
6.94
 20
-7.06
 30
0.0
 40
0.5
  1
0.1450
100
AcDbAttributeDefinition
  3

  2
KDM
 70
     8
280
     0
  0
ATTDEF
  5
E3
330
CC
100
AcDbEntity
  8
AM_6
100
AcDbText
 10
6.94
 20
-7.56
 30
0.0
 40
0.5
  1
3.35
100
AcDbAttributeDefinition
  3

  2
AL
 70
     8
280
     0
  0
ATTDEF
  5
E4
330
CC
100
AcDbEntity
  8
AM_6
100
AcDbText
 10
6.94
 20
-8.06
 30
0.0
 40
0.5
  1
0.50
100
AcDbAttributeDefinition
  3

  2
BL
 70
     8
280
     0
  0
ATTDEF
  5
E5
330
CC
100
AcDbEntity
  8
AM_6
100
AcDbText
 10
6.94
 20
-8.56
 30
0.0
 40
0.5
  1
0.07
100
AcDbAttributeDefinition
  3

  2
CL
 70
     8
280
     0
  0
ATTDEF
  5
E6
330
CC
100
AcDbEntity
  8
AM_6
100
AcDbText
 10
6.94
 20
-9.06
 30
0.0
 40
0.5
  1
0.44
100
AcDbAttributeDefinition
  3

  2
DL
 70
     8
280
     0
  0
ATTDEF
  5
E7
330
CC
100
AcDbEntity
  8
AM_6
100
AcDbText
 10
6.94
 20
-9.56
 30
0.0
 40
0.5
  1
baldor
100
AcDbAttributeDefinition
  3

  2
COMPANY
 70
     8
280
     0
  0
ARC
  5
EA
330
CC
100
AcDbEntity
  8
AM_9
100
AcDbCircle
 10
0.0000000000000098
 20
-0.0000000000000246
 30
0.0
 40
1.315789473684237
100
AcDbArc
 50
107.0486801875823
 51
117.9513198124177
  0
LINE
  5
EB
330
CC
100
AcDbEntity
  8
AM_9
100
AcDbLine
 10
-0.0949999999999993
 20
-1.664444444444445
 30
0.0
 11
-0.0949999999999996
 21
-1.509717247441111
 31
0.0
  0
ARC
  5
EC
330
CC
100
AcDbEntity
  8
AM_9
100
AcDbCircle
 10
0.0000000000000005
 20
-1.664483176756102
 30
0.0
 40
0.0950000078957467
100
AcDbArc
 50
179.976640022453
 51
0.0233599775470008
  0
LINE
  5
ED
330
CC
100
AcDbEntity
  8
AM_9
100
AcDbLine
 10
0.0950000000000004
 20
-1.509717247441112
 30
0.0
 11
0.0950000000000003
 21
-1.664444444444445
 31
0.0
  0
LINE
  5
EE
330
CC
100
AcDbEntity
  8
AM_9
100
AcDbLine
 10
-0.0949999999999997
 20
1.509717247441111
 30
0.0
 11
-0.0949999999999998
 21
1.664444444444445
 31
0.0
  0
ARC
  5
EF
330
CC
100
AcDbEntity
  8
AM_9
100
AcDbCircle
 10
0.0000000000000002
 20
1.664483176756102
 30
0.0
 40
0.095000007895747
100
AcDbArc
 50
359.9766400224685
 51
180.0233599775626
  0
LINE
  5
F0
330
CC
100
AcDbEntity
  8
AM_9
100
AcDbLine
 10
0.0950000000000003
 20
1.664444444444445
 30
0.0
 11
0.0950000000000002
 21
1.509717247441111
 31
0.0
  0
LINE
  5
F1
330
CC
100
AcDbEntity
  8
AM_7
100
AcDbLine
 10
1.077217333164633
 20
1.176967341455167
 30
0.0
 11
1.276717349745701
 21
1.176967341455167
 31
0.0
  0
LINE
  5
F2
330
CC
100
AcDbEntity
  8
AM_7
100
AcDbLine
 10
1.176967341455167
 20
1.077217333164633
 30
0.0
 11
1.176967341455167
 21
1.276717349745701
 31
0.0
  0
LINE
  5
F3
330
CC
100
AcDbEntity
  8
AM_7
100
AcDbLine
 10
-1.664483176756102
 20
-0.0997500082905346
 30
0.0
 11
-1.664483176756102
 21
0.0997500082905333
 31
0.0
  0
LINE
  5
F4
330
CC
100
AcDbEntity
  8
AM_7
100
AcDbLine
 10
1.664483176756102
 20
-0.0997500082905338
 30
0.0
 11
1.664483176756102
 21
0.0997500082905341
 31
0.0
  0
LINE
  5
F5
330
CC
100
AcDbEntity
  8
AM_7
100
AcDbLine
 10
1.077217333164633
 20
-1.176967341455166
 30
0.0
 11
1.276717349745701
 21
-1.176967341455166
 31
0.0
  0
LINE
  5
F6
330
CC
100
AcDbEntity
  8
AM_7
100
AcDbLine
 10
1.176967341455167
 20
-1.276717349745701
 30
0.0
 11
1.176967341455167
 21
-1.077217333164632
 31
0.0
  0
LINE
  5
F7
330
CC
100
AcDbEntity
  8
AM_7
100
AcDbLine
 10
-0.0997500082905339
 20
1.664483176756102
 30
0.0
 11
0.0997500082905345
 21
1.664483176756102
 31
0.0
  0
LINE
  5
F8
330
CC
100
AcDbEntity
  8
AM_7
100
AcDbLine
 10
-1.2767173497457
 20
-1.176967341455167
 30
0.0
 11
-1.077217333164632
 21
-1.176967341455167
 31
0.0
  0
LINE
  5
F9
330
CC
100
AcDbEntity
  8
AM_7
100
AcDbLine
 10
-1.176967341455166
 20
-1.276717349745701
 30
0.0
 11
-1.176967341455166
 21
-1.077217333164633
 31
0.0
  0
LINE
  5
FA
330
CC
100
AcDbEntity
  8
AM_7
100
AcDbLine
 10
-1.276717349745701
 20
1.176967341455167
 30
0.0
 11
-1.077217333164632
 21
1.176967341455167
 31
0.0
  0
LINE
  5
FB
330
CC
100
AcDbEntity
  8
AM_7
100
AcDbLine
 10
-1.176967341455167
 20
1.077217333164633
 30
0.0
 11
-1.176967341455167
 21
1.276717349745701
 31
0.0
  0
LINE
  5
FC
330
CC
100
AcDbEntity
  8
AM_7
100
AcDbLine
 10
-0.0997500082905334
 20
-1.664483176756102
 30
0.0
 11
0.0997500082905345
 21
-1.664483176756102
 31
0.0
  0
LINE
  5
FD
330
CC
100
AcDbEntity
  8
AM_4
100
AcDbLine
 10
-0.0949999999999996
 20
-1.509717247441111
 30
0.0
 11
-0.0949999999999998
 21
-1.348007965406408
 31
0.0
  0
ARC
  5
FE
330
CC
100
AcDbEntity
  8
AM_4
100
AcDbCircle
 10
0.0000000000000053
 20
0.0000000000000122
 30
0.0
 40
1.351351351351364
100
AcDbArc
 50
229.0312184017861
 51
265.9687815982139
  0
ARC
  5
FF
330
CC
100
AcDbEntity
  8
AM_4
100
AcDbCircle
 10
1.176967341455167
 20
1.176967341455167
 30
0.0
 40
0.0950000078957466
100
AcDbArc
 50
314.9766400224649
 51
135.023359977535
  0
LINE
  5
100
330
CC
100
AcDbEntity
  8
AM_4
100
AcDbLine
 10
0.095000000000001
 20
-1.348007965406408
 30
0.0
 11
0.0950000000000004
 21
-1.509717247441112
 31
0.0
  0
ARC
  5
101
330
CC
100
AcDbEntity
  8
AM_4
100
AcDbCircle
 10
-1.176967341455166
 20
1.176967341455167
 30
0.0
 40
0.0950000078957467
100
AcDbArc
 50
44.97664002245298
 51
225.023359977535
  0
LINE
  5
102
330
CC
100
AcDbEntity
  8
AM_4
100
AcDbLine
 10
-0.3857685577379691
 20
1.257968425247208
 30
0.0
 11
-0.3994376905167101
 21
1.290968630987523
 31
0.0
  0
CIRCLE
  5
103
330
CC
100
AcDbEntity
  8
AM_4
100
AcDbCircle
 10
0.0
 20
0.0
 30
0.0
 40
1.94
  0
LINE
  5
104
330
CC
100
AcDbEntity
  8
AM_4
100
AcDbLine
 10
-0.8860104292196306
 20
-1.020360717645074
 30
0.0
 11
-1.10976480936222
 21
-1.244115097787665
 31
0.0
  0
LINE
  5
105
330
CC
100
AcDbEntity
  8
AM_4
100
AcDbLine
 10
-1.109764809362206
 20
1.244115097787651
 30
0.0
 11
-0.8860104292196299
 21
1.020360717645074
 31
0.0
  0
ARC
  5
106
330
CC
100
AcDbEntity
  8
AM_4
100
AcDbCircle
 10
-0.0000000000000014
 20
0.0000000000000009
 30
0.0
 40
1.351351351351353
100
AcDbArc
 50
274.031218401786
 51
310.9687815982141
  0
LINE
  5
107
330
CC
100
AcDbEntity
  8
AM_4
100
AcDbLine
 10
1.109764809362207
 20
-1.24411509778765
 30
0.0
 11
0.8860104292196298
 21
-1.020360717645074
 31
0.0
  0
ARC
  5
108
330
CC
100
AcDbEntity
  8
AM_4
100
AcDbCircle
 10
0.000000000000012
 20
0.0000000000000049
 30
0.0
 40
1.351351351351339
100
AcDbArc
 50
4.03121840178588
 51
40.96878159821427
  0
LINE
  5
109
330
CC
100
AcDbEntity
  8
AM_4
100
AcDbLine
 10
1.244115097787664
 20
1.10976480936222
 30
0.0
 11
1.020360717645074
 21
0.88601042921963
 31
0.0
  0
ARC
  5
10A
330
CC
100
AcDbEntity
  8
AM_4
100
AcDbCircle
 10
0.0000000000000159
 20
-0.0000000000000226
 30
0.0
 40
1.351351351351379
100
AcDbArc
 50
117.8074466746305
 51
130.968781598214
  0
ARC
  5
10B
330
CC
100
AcDbEntity
  8
AM_4
100
AcDbCircle
 10
-0.000000000000004
 20
0.0000000000000026
 30
0.0
 40
1.351351351351356
100
AcDbArc
 50
319.031218401786
 51
355.9687815982139
  0
ARC
  5
10C
330
CC
100
AcDbEntity
  8
AM_4
100
AcDbCircle
 10
0.0000000000000058
 20
0.0000000000000025
 30
0.0
 40
1.351351351351357
100
AcDbArc
 50
184.031218401786
 51
220.968781598214
  0
LINE
  5
10D
330
CC
100
AcDbEntity
  8
AM_4
100
AcDbLine
 10
1.348007965406408
 20
0.0949999999999999
 30
0.0
 11
1.664444444444445
 21
0.0950000000000001
 31
0.0
  0
ARC
  5
10E
330
CC
100
AcDbEntity
  8
AM_4
100
AcDbCircle
 10
-0.0000000000000222
 20
0.0000000000000511
 30
0.0
 40
1.249999999999945
100
AcDbArc
 50
106.7608295227329
 51
118.239170477267
  0
ARC
  5
10F
330
CC
100
AcDbEntity
  8
AM_4
100
AcDbCircle
 10
1.176967341455167
 20
-1.176967341455166
 30
0.0
 40
0.0950000078957468
100
AcDbArc
 50
224.9766400224533
 51
45.02335997753481
  0
LINE
  5
110
330
CC
100
AcDbEntity
  8
AM_4
100
AcDbLine
 10
1.020360717645074
 20
-0.8860104292196298
 30
0.0
 11
1.244115097787665
 21
-1.10976480936222
 31
0.0
  0
LINE
  5
111
330
CC
100
AcDbEntity
  8
AM_4
100
AcDbLine
 10
0.8860104292196321
 20
1.020360717645073
 30
0.0
 11
1.109764809362221
 21
1.244115097787664
 31
0.0
  0
LINE
  5
112
330
CC
100
AcDbEntity
  8
AM_4
100
AcDbLine
 10
-1.020360717645074
 20
0.88601042921963
 30
0.0
 11
-1.244115097787664
 21
1.109764809362221
 31
0.0
  0
ARC
  5
113
330
CC
100
AcDbEntity
  8
AM_4
100
AcDbCircle
 10
-1.176967341455166
 20
-1.176967341455167
 30
0.0
 40
0.0950000078957469
100
AcDbArc
 50
134.9766400224653
 51
315.0233599775348
  0
LINE
  5
114
330
CC
100
AcDbEntity
  8
AM_4
100
AcDbLine
 10
-0.0949999999999997
 20
1.348007965406408
 30
0.0
 11
-0.0949999999999997
 21
1.509717247441111
 31
0.0
  0
ARC
  5
115
330
CC
100
AcDbEntity
  8
AM_4
100
AcDbCircle
 10
0.000000000000012
 20
-0.000000000000056
 30
0.0
 40
1.351351351351408
100
AcDbArc
 50
94.03121840178625
 51
107.1925533253695
  0
ARC
  5
116
330
CC
100
AcDbEntity
  8
AM_4
100
AcDbCircle
 10
1.664483176756102
 20
0.0000000000000001
 30
0.0
 40
0.0950000078957468
100
AcDbArc
 50
269.9766400224653
 51
90.02335997753474
  0
LINE
  5
117
330
CC
100
AcDbEntity
  8
AM_4
100
AcDbLine
 10
1.664444444444445
 20
-0.0949999999999998
 30
0.0
 11
1.348007965406408
 21
-0.0949999999999999
 31
0.0
  0
LINE
  5
118
330
CC
100
AcDbEntity
  8
AM_4
100
AcDbLine
 10
-1.244115097787664
 20
-1.109764809362221
 30
0.0
 11
-1.020360717645074
 21
-0.8860104292196298
 31
0.0
  0
LINE
  5
119
330
CC
100
AcDbEntity
  8
AM_4
100
AcDbLine
 10
-1.348007965406408
 20
-0.0950000000000005
 30
0.0
 11
-1.664444444444444
 21
-0.0950000000000005
 31
0.0
  0
ARC
  5
11A
330
CC
100
AcDbEntity
  8
AM_4
100
AcDbCircle
 10
-1.664483176756102
 20
-0.0000000000000007
 30
0.0
 40
0.0950000078957468
100
AcDbArc
 50
89.97664002246515
 51
270.023359977535
  0
LINE
  5
11B
330
CC
100
AcDbEntity
  8
AM_4
100
AcDbLine
 10
-1.664444444444445
 20
0.0949999999999993
 30
0.0
 11
-1.348007965406408
 21
0.0949999999999997
 31
0.0
  0
ARC
  5
11C
330
CC
100
AcDbEntity
  8
AM_4
100
AcDbCircle
 10
0.0000000000000058
 20
-0.000000000000003
 30
0.0
 40
1.351351351351358
100
AcDbArc
 50
139.031218401786
 51
175.968781598214
  0
LINE
  5
11D
330
CC
100
AcDbEntity
  8
AM_4
100
AcDbLine
 10
-0.6304075736445323
 20
1.195297772896251
 30
0.0
 11
-0.6167384408657904
 21
1.162297567155935
 31
0.0
  0
LINE
  5
11E
330
CC
100
AcDbEntity
  8
AM_4
100
AcDbLine
 10
0.0950000000000002
 20
1.509717247441111
 30
0.0
 11
0.0949999999999999
 21
1.348007965406408
 31
0.0
  0
ARC
  5
11F
330
CC
100
AcDbEntity
  8
AM_4
100
AcDbCircle
 10
-0.0000000000000042
 20
-0.0000000000000127
 30
0.0
 40
1.351351351351364
100
AcDbArc
 50
49.03121840178603
 51
85.96878159821395
  0
ENDBLK
  5
CF
330
CC
100
AcDbEntity
  8
0
100
AcDbBlockEnd
  0
BLOCK
  5
122
330
120
100
AcDbEntity
  8
0
100
AcDbBlockBegin
  2
5_070896E_0_in_071153_0
 70
     2
 10
0.0
 20
0.0
 30
0.0
  3
5_070896E_0_in_071153_0
  1

  0
ATTDEF
  5
124
330
120
100
AcDbEntity
  8
AM_6
100
AcDbText
 10
7.35205
 20
2.35205
 30
0.0
 40
0.5
  1
Imperial/E Insert -Inch
100
AcDbAttributeDefinition
  3

  2
NN
 70
     8
280
     0
  0
ATTDEF
  5
125
330
120
100
AcDbEntity
  8
AM_6
100
AcDbText
 10
7.35205
 20
1.85205
 30
0.0
 40
0.5
  1
Imperial Bearings
100
AcDbAttributeDefinition
  3

  2
NT
 70
     8
280
     0
  0
ATTDEF
  5
126
330
120
100
AcDbEntity
  8
AM_6
100
AcDbText
 10
7.35205
 20
1.35205
 30
0.0
 40
0.5
  1
070896E
100
AcDbAttributeDefinition
  3

  2
NB
 70
     8
280
     0
  0
ATTDEF
  5
127
330
120
100
AcDbEntity
  8
AM_6
100
AcDbText
 10
7.35205
 20
0.8520500000000002
 30
0.0
 40
0.5
  1
$PN.
100
AcDbAttributeDefinition
  3

  2
NBSYN
 70
     8
280
     0
  0
ATTDEF
  5
128
330
120
100
AcDbEntity
  8
AM_6
100
AcDbText
 10
7.35205
 20
0.3520500000000002
 30
0.0
 40
0.5
  1
070896E
100
AcDbAttributeDefinition
  3

  2
LINA
 70
     8
280
     0
  0
ATTDEF
  5
129
330
120
100
AcDbEntity
  8
AM_6
100
AcDbText
 10
7.35205
 20
-0.1479499999999998
 30
0.0
 40
0.5
  1
2-1/2
100
AcDbAttributeDefinition
  3

  2
SS
 70
     8
280
     0
  0
ATTDEF
  5
12A
330
120
100
AcDbEntity
  8
AM_6
100
AcDbText
 10
7.35205
 20
-0.6479499999999998
 30
0.0
 40
0.5
  1
2.500000
100
AcDbAttributeDefinition
  3

  2
SS1
 70
     8
280
     0
  0
ATTDEF
  5
12B
330
120
100
AcDbEntity
  8
AM_6
100
AcDbText
 10
7.35205
 20
-1.14795
 30
0.0
 40
0.5
  1
070896E
100
AcDbAttributeDefinition
  3

  2
PN
 70
     8
280
     0
  0
ATTDEF
  5
12C
330
120
100
AcDbEntity
  8
AM_6
100
AcDbText
 10
7.35205
 20
-1.64795
 30
0.0
 40
0.5
  1
INS-IP-208R
100
AcDbAttributeDefinition
  3

  2
DESCRIPTION
 70
     8
280
     0
  0
ATTDEF
  5
12D
330
120
100
AcDbEntity
  8
AM_6
100
AcDbText
 10
7.35205
 20
-2.14795
 30
0.0
 40
0.5
  1
Contact Seal
100
AcDbAttributeDefinition
  3

  2
ST
 70
     8
280
     0
  0
ATTDEF
  5
12E
330
120
100
AcDbEntity
  8
AM_6
100
AcDbText
 10
7.35205
 20
-2.64795
 30
0.0
 40
0.5
  1
1
100
AcDbAttributeDefinition
  3

  2
ST1
 70
     8
280
     0
  0
ATTDEF
  5
12F
330
120
100
AcDbEntity
  8
AM_6
100
AcDbText
 10
7.35205
 20
-3.14795
 30
0.0
 40
0.5
  1
4.7241
100
AcDbAttributeDefinition
  3

  2
A
 70
     8
280
     0
  0
ATTDEF
  5
130
330
120
100
AcDbEntity
  8
AM_6
100
AcDbText
 10
7.35205
 20
-3.64795
 30
0.0
 40
0.5
  1
1-9/32
100
AcDbAttributeDefinition
  3

  2
B
 70
     8
280
     0
  0
ATTDEF
  5
131
330
120
100
AcDbEntity
  8
AM_6
100
AcDbText
 10
7.35205
 20
-4.14795
 30
0.0
 40
0.5
  1
1.281250
100
AcDbAttributeDefinition
  3

  2
B1
 70
     8
280
     0
  0
ATTDEF
  5
132
330
120
100
AcDbEntity
  8
AM_6
100
AcDbText
 10
7.35205
 20
-4.64795
 30
0.0
 40
0.5
  1
3-27/64
100
AcDbAttributeDefinition
  3

  2
C
 70
     8
280
     0
  0
ATTDEF
  5
133
330
120
100
AcDbEntity
  8
AM_6
100
AcDbText
 10
7.35205
 20
-5.14795
 30
0.0
 40
0.5
  1
3.420000
100
AcDbAttributeDefinition
  3

  2
C1
 70
     8
280
     0
  0
ATTDEF
  5
134
330
120
100
AcDbEntity
  8
AM_6
100
AcDbText
 10
7.35205
 20
-5.64795
 30
0.0
 40
0.5
  1
4.41000
100
AcDbAttributeDefinition
  3

  2
CR
 70
     8
280
     0
  0
ATTDEF
  5
135
330
120
100
AcDbEntity
  8
AM_6
100
AcDbText
 10
7.35205
 20
-6.14795
 30
0.0
 40
0.5
  1
1.208
100
AcDbAttributeDefinition
  3

  2
D
 70
     8
280
     0
  0
ATTDEF
  5
136
330
120
100
AcDbEntity
  8
AM_6
100
AcDbText
 10
7.35205
 20
-6.64795
 30
0.0
 40
0.5
  1
3-7/8
100
AcDbAttributeDefinition
  3

  2
E
 70
     8
280
     0
  0
ATTDEF
  5
137
330
120
100
AcDbEntity
  8
AM_6
100
AcDbText
 10
7.35205
 20
-7.14795
 30
0.0
 40
0.5
  1
3.875000
100
AcDbAttributeDefinition
  3

  2
E1
 70
     8
280
     0
  0
ATTDEF
  5
138
330
120
100
AcDbEntity
  8
AM_6
100
AcDbText
 10
7.35205
 20
-7.64795
 30
0.0
 40
0.5
  1
0.1900
100
AcDbAttributeDefinition
  3

  2
NDM
 70
     8
280
     0
  0
ATTDEF
  5
139
330
120
100
AcDbEntity
  8
AM_6
100
AcDbText
 10
7.35205
 20
-8.14795
 30
0.0
 40
0.5
  1
0.1450
100
AcDbAttributeDefinition
  3

  2
KDM
 70
     8
280
     0
  0
ATTDEF
  5
13A
330
120
100
AcDbEntity
  8
AM_6
100
AcDbText
 10
7.35205
 20
-8.64795
 30
0.0
 40
0.5
  1
3.35
100
AcDbAttributeDefinition
  3

  2
AL
 70
     8
280
     0
  0
ATTDEF
  5
13B
330
120
100
AcDbEntity
  8
AM_6
100
AcDbText
 10
7.35205
 20
-9.14795
 30
0.0
 40
0.5
  1
0.50
100
AcDbAttributeDefinition
  3

  2
BL
 70
     8
280
     0
  0
ATTDEF
  5
13C
330
120
100
AcDbEntity
  8
AM_6
100
AcDbText
 10
7.35205
 20
-9.64795
 30
0.0
 40
0.5
  1
0.07
100
AcDbAttributeDefinition
  3

  2
CL
 70
     8
280
     0
  0
ATTDEF
  5
13D
330
120
100
AcDbEntity
  8
AM_6
100
AcDbText
 10
7.35205
 20
-10.14795
 30
0.0
 40
0.5
  1
0.44
100
AcDbAttributeDefinition
  3

  2
DL
 70
     8
280
     0
  0
ATTDEF
  5
13E
330
120
100
AcDbEntity
  8
AM_6
100
AcDbText
 10
7.35205
 20
-10.64795
 30
0.0
 40
0.5
  1
0.8000
100
AcDbAttributeDefinition
  3

  2
LL
 70
     8
280
     0
  0
ATTDEF
  5
13F
330
120
100
AcDbEntity
  8
AM_6
100
AcDbText
 10
7.35205
 20
-11.14795
 30
0.0
 40
0.5
  1
0.025
100
AcDbAttributeDefinition
  3

  2
Y
 70
     8
280
     0
  0
ATTDEF
  5
140
330
120
100
AcDbEntity
  8
AM_6
100
AcDbText
 10
7.35205
 20
-11.64795
 30
0.0
 40
0.5
  1
0.025000
100
AcDbAttributeDefinition
  3

  2
Y1
 70
     8
280
     0
  0
ATTDEF
  5
141
330
120
100
AcDbEntity
  8
AM_6
100
AcDbText
 10
7.35205
 20
-12.14795
 30
0.0
 40
0.5
  1
2-15/16
100
AcDbAttributeDefinition
  3

  2
Z
 70
     8
280
     0
  0
ATTDEF
  5
142
330
120
100
AcDbEntity
  8
AM_6
100
AcDbText
 10
7.35205
 20
-12.64795
 30
0.0
 40
0.5
  1
2.937500
100
AcDbAttributeDefinition
  3

  2
Z1
 70
     8
280
     0
  0
ATTDEF
  5
143
330
120
100
AcDbEntity
  8
AM_6
100
AcDbText
 10
7.35205
 20
-13.14795
 30
0.0
 40
0.5
  1
0.99000
100
AcDbAttributeDefinition
  3

  2
P1
 70
     8
280
     0
  0
ATTDEF
  5
144
330
120
100
AcDbEntity
  8
AM_6
100
AcDbText
 10
7.35205
 20
-13.64795
 30
0.0
 40
0.5
  1
1.50000
100
AcDbAttributeDefinition
  3

  2
H1
 70
     8
280
     0
  0
ATTDEF
  5
145
330
120
100
AcDbEntity
  8
AM_6
100
AcDbText
 10
7.35205
 20
-14.14795
 30
0.0
 40
0.5
  1
1.04000
100
AcDbAttributeDefinition
  3

  2
G1
 70
     8
280
     0
  0
ATTDEF
  5
146
330
120
100
AcDbEntity
  8
AM_6
100
AcDbText
 10
7.35205
 20
-14.64795
 30
0.0
 40
0.5
  1
0.10100
100
AcDbAttributeDefinition
  3

  2
CW
 70
     8
280
     0
  0
ATTDEF
  5
147
330
120
100
AcDbEntity
  8
AM_6
100
AcDbText
 10
7.35205
 20
-15.14795
 30
0.0
 40
0.5
  1
3.88000
100
AcDbAttributeDefinition
  3

  2
L1
 70
     8
280
     0
  0
ATTDEF
  5
148
330
120
100
AcDbEntity
  8
AM_6
100
AcDbText
 10
7.35205
 20
-15.64795
 30
0.0
 40
0.5
  1
baldor
100
AcDbAttributeDefinition
  3

  2
COMPANY
 70
     8
280
     0
  0
CIRCLE
  5
149
330
120
100
AcDbEntity
  8
AM_9
100
AcDbCircle
 10
0.0
 20
0.0
 30
0.0
 40
1.46875
  0
CIRCLE
  5
14A
330
120
100
AcDbEntity
  8
AM_9
100
AcDbCircle
 10
0.0
 20
0.0
 30
0.0
 40
1.956368966601195
  0
CIRCLE
  5
14B
330
120
100
AcDbEntity
  8
AM_9
100
AcDbCircle
 10
0.0
 20
0.0
 30
0.0
 40
1.958333333333333
  0
CIRCLE
  5
14C
330
120
100
AcDbEntity
  8
AM_9
100
AcDbCircle
 10
0.0
 20
0.0
 30
0.0
 40
2.042971506979639
  0
CIRCLE
  5
14D
330
120
100
AcDbEntity
  8
AM_9
100
AcDbCircle
 10
0.0
 20
0.0
 30
0.0
 40
2.16205
  0
CIRCLE
  5
14E
330
120
100
AcDbEntity
  8
AM_9
100
AcDbCircle
 10
0.0
 20
0.0
 30
0.0
 40
2.31205
  0
CIRCLE
  5
14F
330
120
100
AcDbEntity
  8
AM_9
100
AcDbCircle
 10
0.0
 20
0.0
 30
0.0
 40
2.2979875
  0
CIRCLE
  5
150
330
120
100
AcDbEntity
  8
AM_9
100
AcDbCircle
 10
0.0
 20
-1.663194444444444
 30
0.0
 40
0.0724499999999999
  0
LINE
  5
151
330
120
100
AcDbEntity
  8
AM_9
100
AcDbLine
 10
1.251166115523343
 20
-1.117641601451591
 30
0.0
 11
1.361180553784104
 21
-1.00762716319083
 31
0.0
  0
LINE
  5
152
330
120
100
AcDbEntity
  8
AM_9
100
AcDbLine
 10
1.00762716319083
 20
-1.361180553784104
 30
0.0
 11
1.117641601451592
 21
-1.251166115523342
 31
0.0
  0
LINE
  5
153
330
120
100
AcDbEntity
  8
AM_9
100
AcDbLine
 10
1.117641601451592
 20
1.251166115523342
 30
0.0
 11
1.00762716319083
 21
1.361180553784104
 31
0.0
  0
LINE
  5
154
330
120
100
AcDbEntity
  8
AM_9
100
AcDbLine
 10
1.361180553784104
 20
1.00762716319083
 30
0.0
 11
1.251166115523342
 21
1.117641601451592
 31
0.0
  0
LINE
  5
155
330
120
100
AcDbEntity
  8
AM_9
100
AcDbLine
 10
1.00762716319083
 20
1.361180553784104
 30
0.0
 11
1.181789874658622
 21
1.535343265251897
 31
0.0
  0
LINE
  5
156
330
120
100
AcDbEntity
  8
AM_9
100
AcDbLine
 10
1.181789874658622
 20
-1.535343265251896
 30
0.0
 11
1.00762716319083
 21
-1.361180553784104
 31
0.0
  0
LINE
  5
157
330
120
100
AcDbEntity
  8
AM_9
100
AcDbLine
 10
1.361180553784104
 20
-1.00762716319083
 30
0.0
 11
1.535343265251896
 21
-1.181789874658622
 31
0.0
  0
ARC
  5
158
330
120
100
AcDbEntity
  8
AM_9
100
AcDbCircle
 10
0.0000000000000002
 20
-0.0000000000000013
 30
0.0
 40
1.9375
100
AcDbArc
 50
52.4136738015258
 51
127.5863261984742
  0
LINE
  5
159
330
120
100
AcDbEntity
  8
AM_9
100
AcDbLine
 10
-1.181789874658622
 20
1.535343265251896
 30
0.0
 11
-1.00762716319083
 21
1.361180553784104
 31
0.0
  0
LINE
  5
15A
330
120
100
AcDbEntity
  8
AM_9
100
AcDbLine
 10
-1.251166115523342
 20
1.117641601451592
 30
0.0
 11
-1.361180553784104
 21
1.00762716319083
 31
0.0
  0
LINE
  5
15B
330
120
100
AcDbEntity
  8
AM_9
100
AcDbLine
 10
-1.00762716319083
 20
1.361180553784104
 30
0.0
 11
-1.117641601451592
 21
1.251166115523343
 31
0.0
  0
LINE
  5
15C
330
120
100
AcDbEntity
  8
AM_9
100
AcDbLine
 10
-1.361180553784104
 20
1.00762716319083
 30
0.0
 11
-1.535343265251896
 21
1.181789874658622
 31
0.0
  0
ARC
  5
15D
330
120
100
AcDbEntity
  8
AM_9
100
AcDbCircle
 10
0.0000000000000002
 20
-0.0000000000000003
 30
0.0
 40
1.937499999999999
100
AcDbArc
 50
142.4136738015258
 51
217.5863261984742
  0
LINE
  5
15E
330
120
100
AcDbEntity
  8
AM_9
100
AcDbLine
 10
-1.535343265251897
 20
-1.181789874658622
 30
0.0
 11
-1.361180553784104
 21
-1.00762716319083
 31
0.0
  0
LINE
  5
15F
330
120
100
AcDbEntity
  8
AM_9
100
AcDbLine
 10
-1.117641601451591
 20
-1.251166115523343
 30
0.0
 11
-1.00762716319083
 21
-1.361180553784104
 31
0.0
  0
LINE
  5
160
330
120
100
AcDbEntity
  8
AM_9
100
AcDbLine
 10
-1.361180553784104
 20
-1.00762716319083
 30
0.0
 11
-1.251166115523342
 21
-1.117641601451592
 31
0.0
  0
LINE
  5
161
330
120
100
AcDbEntity
  8
AM_9
100
AcDbLine
 10
-1.00762716319083
 20
-1.361180553784104
 30
0.0
 11
-1.181789874658623
 21
-1.535343265251896
 31
0.0
  0
ARC
  5
162
330
120
100
AcDbEntity
  8
AM_9
100
AcDbCircle
 10
0.0000000000000001
 20
0.0000000000000009
 30
0.0
 40
1.9375
100
AcDbArc
 50
232.4136738015257
 51
307.5863261984742
  0
ARC
  5
163
330
120
100
AcDbEntity
  8
AM_9
100
AcDbCircle
 10
-0.0000000000000002
 20
0.0000000000000003
 30
0.0
 40
1.937499999999999
100
AcDbArc
 50
322.4136738015258
 51
37.58632619847423
  0
LINE
  5
164
330
120
100
AcDbEntity
  8
AM_9
100
AcDbLine
 10
1.535343265251896
 20
1.181789874658622
 30
0.0
 11
1.361180553784104
 21
1.00762716319083
 31
0.0
  0
ARC
  5
165
330
120
100
AcDbEntity
  8
AM_9
100
AcDbCircle
 10
-0.000000000000023
 20
0.0000000000000577
 30
0.0
 40
1.319261213720255
100
AcDbArc
 50
107.0630690378181
 51
117.936930962182
  0
CIRCLE
  5
166
330
120
100
AcDbEntity
  8
AM_9
100
AcDbCircle
 10
0.0
 20
1.663194444444444
 30
0.0
 40
0.0724499999999999
  0
ARC
  5
167
330
120
100
AcDbEntity
  8
AM_5
100
AcDbCircle
 10
0.0000000000000002
 20
-1.663194444444444
 30
0.0
 40
0.095
100
AcDbArc
 50
75.00000000000006
 51
14.99999999999994
  0
CIRCLE
  5
168
330
120
100
AcDbEntity
  8
AM_4
100
AcDbCircle
 10
0.0
 20
0.0
 30
0.0
 40
2.35205
  0
CIRCLE
  5
169
330
120
100
AcDbEntity
  8
AM_4
100
AcDbCircle
 10
0.0
 20
0.0
 30
0.0
 40
2.009327174856839
  0
LINE
  5
16A
330
120
100
AcDbEntity
  8
AM_4
100
AcDbLine
 10
1.181789874658622
 20
1.535343265251897
 30
0.0
 11
1.187266214881315
 21
1.540819605474589
 31
0.0
  0
LINE
  5
16B
330
120
100
AcDbEntity
  8
AM_4
100
AcDbLine
 10
1.187266214881315
 20
-1.540819605474589
 30
0.0
 11
1.181789874658622
 21
-1.535343265251896
 31
0.0
  0
LINE
  5
16C
330
120
100
AcDbEntity
  8
AM_4
100
AcDbLine
 10
1.535343265251896
 20
-1.181789874658622
 30
0.0
 11
1.540819605474588
 21
-1.187266214881315
 31
0.0
  0
LINE
  5
16D
330
120
100
AcDbEntity
  8
AM_4
100
AcDbLine
 10
1.540819605474589
 20
1.187266214881315
 30
0.0
 11
1.535343265251896
 21
1.181789874658622
 31
0.0
  0
CIRCLE
  5
16E
330
120
100
AcDbEntity
  8
AM_4
100
AcDbCircle
 10
0.0
 20
0.0
 30
0.0
 40
1.959334790099019
  0
ARC
  5
16F
330
120
100
AcDbEntity
  8
AM_4
100
AcDbCircle
 10
-0.0000000000000155
 20
0.0000000000000144
 30
0.0
 40
1.945180228568436
100
AcDbArc
 50
307.6157613666506
 51
322.3842386333495
  0
LINE
  5
170
330
120
100
AcDbEntity
  8
AM_4
100
AcDbLine
 10
-1.181789874658623
 20
-1.535343265251896
 30
0.0
 11
-1.187266214881315
 21
-1.540819605474588
 31
0.0
  0
ARC
  5
171
330
120
100
AcDbEntity
  8
AM_4
100
AcDbCircle
 10
-0.0000000000000013
 20
-0.000000000000002
 30
0.0
 40
1.945180228568413
100
AcDbArc
 50
217.6157613666504
 51
232.3842386333495
  0
LINE
  5
172
330
120
100
AcDbEntity
  8
AM_4
100
AcDbLine
 10
-1.540819605474589
 20
-1.187266214881314
 30
0.0
 11
-1.535343265251897
 21
-1.181789874658622
 31
0.0
  0
LINE
  5
173
330
120
100
AcDbEntity
  8
AM_4
100
AcDbLine
 10
-1.535343265251896
 20
1.181789874658622
 30
0.0
 11
-1.540819605474588
 21
1.187266214881315
 31
0.0
  0
ARC
  5
174
330
120
100
AcDbEntity
  8
AM_4
100
AcDbCircle
 10
0.000000000000014
 20
-0.0000000000000129
 30
0.0
 40
1.945180228568434
100
AcDbArc
 50
127.6157613666506
 51
142.3842386333495
  0
LINE
  5
175
330
120
100
AcDbEntity
  8
AM_4
100
AcDbLine
 10
-1.187266214881315
 20
1.540819605474589
 30
0.0
 11
-1.181789874658622
 21
1.535343265251896
 31
0.0
  0
ARC
  5
176
330
120
100
AcDbEntity
  8
AM_4
100
AcDbCircle
 10
-0.0000000000000444
 20
-0.0000000000000435
 30
0.0
 40
1.945180228568477
100
AcDbArc
 50
37.6157613666507
 51
52.38423863334928
  0
LINE
  5
177
330
120
100
AcDbEntity
  8
AM_4
100
AcDbLine
 10
1.117641601451592
 20
-1.251166115523342
 30
0.0
 11
1.251166115523343
 21
-1.117641601451591
 31
0.0
  0
LINE
  5
178
330
120
100
AcDbEntity
  8
AM_4
100
AcDbLine
 10
1.251166115523342
 20
1.117641601451592
 30
0.0
 11
1.117641601451592
 21
1.251166115523342
 31
0.0
  0
LINE
  5
179
330
120
100
AcDbEntity
  8
AM_4
100
AcDbLine
 10
-1.117641601451592
 20
1.251166115523343
 30
0.0
 11
-1.251166115523342
 21
1.117641601451592
 31
0.0
  0
LINE
  5
17A
330
120
100
AcDbEntity
  8
AM_4
100
AcDbLine
 10
-1.251166115523342
 20
-1.117641601451592
 30
0.0
 11
-1.117641601451591
 21
-1.251166115523343
 31
0.0
  0
LINE
  5
17B
330
120
100
AcDbEntity
  8
AM_4
100
AcDbLine
 10
-0.3604715679262205
 20
1.19689608935647
 30
0.0
 11
-0.3857685577379689
 21
1.257968425247207
 31
0.0
  0
ARC
  5
17C
330
120
100
AcDbEntity
  8
AM_4
100
AcDbCircle
 10
-0.0000000000000003
 20
-0.0000000000000004
 30
0.0
 40
1.25
100
AcDbArc
 50
118.2391704772668
 51
106.7608295227332
  0
LINE
  5
17D
330
120
100
AcDbEntity
  8
AM_4
100
AcDbLine
 10
-0.6167384408657909
 20
1.162297567155935
 30
0.0
 11
-0.5914414510540424
 21
1.101225231265198
 31
0.0
  0
ARC
  5
17E
330
120
100
AcDbEntity
  8
AM_4
100
AcDbCircle
 10
-0.0000000000000004
 20
-0.0000000000000003
 30
0.0
 40
1.315789473684211
100
AcDbArc
 50
117.9513198124178
 51
107.0486801875822
  0
ARC
  5
17F
330
120
100
AcDbEntity
  8
AM_5
100
AcDbCircle
 10
0.0
 20
1.663194444444444
 30
0.0
 40
0.095
100
AcDbArc
 50
165.0000000000001
 51
105.0
  0
ARC
  5
180
330
120
100
AcDbEntity
  8
AM_5
100
AcDbCircle
 10
0.0
 20
-1.663194444444444
 30
0.0
 40
0.095
100
AcDbArc
 50
165.0000000000001
 51
105.0
  0
ARC
  5
181
330
120
100
AcDbEntity
  8
AM_5
100
AcDbCircle
 10
0.0000000000000001
 20
1.663194444444445
 30
0.0
 40
0.0949999999999999
100
AcDbArc
 50
105.0000000000001
 51
14.99999999999985
  0
ARC
  5
182
330
120
100
AcDbEntity
  8
AM_5
100
AcDbCircle
 10
0.0000000000000001
 20
-1.663194444444444
 30
0.0
 40
0.0949999999999999
100
AcDbArc
 50
105.0000000000001
 51
14.99999999999985
  0
ENDBLK
  5
123
330
120
100
AcDbEntity
  8
0
100
AcDbBlockEnd
  0
BLOCK
  5
185
330
183
100
AcDbEntity
  8
0
100
AcDbBlockBegin
  2
6_405015E_Inch_0_in_071153_0
 70
     2
 10
0.0
 20
0.0
 30
0.0
  3
6_405015E_Inch_0_in_071153_0
  1

  0
ATTDEF
  5
187
330
183
100
AcDbEntity
  8
AM_6
100
AcDbText
 10
6.806421671481427
 20
3.026136212966141
 30
0.0
 40
0.5
  1
405015E -Inch
100
AcDbAttributeDefinition
  3

  2
NN
 70
     8
280
     0
  0
ATTDEF
  5
188
330
183
100
AcDbEntity
  8
AM_6
100
AcDbText
 10
6.806421671481427
 20
2.526136212966141
 30
0.0
 40
0.5
  1
Grease Fitting
100
AcDbAttributeDefinition
  3

  2
NT
 70
     8
280
     0
  0
ATTDEF
  5
189
330
183
100
AcDbEntity
  8
AM_6
100
AcDbText
 10
6.806421671481427
 20
2.026136212966141
 30
0.0
 40
0.5
  1
405015E-Inch
100
AcDbAttributeDefinition
  3

  2
NB
 70
     8
280
     0
  0
ATTDEF
  5
18A
330
183
100
AcDbEntity
  8
AM_6
100
AcDbText
 10
6.806421671481427
 20
1.526136212966141
 30
0.0
 40
0.5
  1
$MN.-Inch
100
AcDbAttributeDefinition
  3

  2
NBSYN
 70
     8
280
     0
  0
ATTDEF
  5
18B
330
183
100
AcDbEntity
  8
AM_6
100
AcDbText
 10
6.806421671481427
 20
1.026136212966141
 30
0.0
 40
0.5
  1
405015E
100
AcDbAttributeDefinition
  3

  2
LINA
 70
     8
280
     0
  0
ATTDEF
  5
18C
330
183
100
AcDbEntity
  8
AM_6
100
AcDbText
 10
6.806421671481427
 20
0.5261362129661409
 30
0.0
 40
0.5
  1
405015E
100
AcDbAttributeDefinition
  3

  2
MN
 70
     8
280
     0
  0
ATTDEF
  5
18D
330
183
100
AcDbEntity
  8
AM_6
100
AcDbText
 10
6.806421671481427
 20
0.0261362129661409
 30
0.0
 40
0.5
  1
1/8 x 27PTF
100
AcDbAttributeDefinition
  3

  2
T
 70
     8
280
     0
  0
ATTDEF
  5
18E
330
183
100
AcDbEntity
  8
AM_6
100
AcDbText
 10
6.806421671481427
 20
-0.4738637870338591
 30
0.0
 40
0.5
  1
baldor
100
AcDbAttributeDefinition
  3

  2
COMPANY
 70
     8
280
     0
  0
LINE
  5
18F
330
183
100
AcDbEntity
  8
AM_9
100
AcDbLine
 10
1.537712000506657
 20
2.339589567341372
 30
0.0
 11
1.587865287586382
 21
2.353028100112151
 31
0.0
  0
LINE
  5
190
330
183
100
AcDbEntity
  8
AM_9
100
AcDbLine
 10
1.243849466722564
 20
2.551645726893366
 30
0.0
 11
1.257287999493343
 21
2.501492439813641
 31
0.0
  0
LINE
  5
191
330
183
100
AcDbEntity
  8
AM_9
100
AcDbLine
 10
1.257287999493343
 20
2.501492439813641
 30
0.0
 11
1.537712000506657
 21
2.339589567341372
 31
0.0
  0
LINE
  5
192
330
183
100
AcDbEntity
  8
AM_9
100
AcDbLine
 10
1.587865287586382
 20
2.353028100112151
 30
0.0
 11
1.708186369872023
 21
2.547161786968847
 31
0.0
  0
LINE
  5
193
330
183
100
AcDbEntity
  8
AM_9
100
AcDbLine
 10
1.351813630127977
 20
2.752913684191918
 30
0.0
 11
1.243849466722564
 21
2.551645726893366
 31
0.0
  0
LINE
  5
194
330
183
100
AcDbEntity
  8
AM_9
100
AcDbLine
 10
1.243849466722564
 20
2.551645726893366
 30
0.0
 11
1.587865287586382
 21
2.353028100112151
 31
0.0
  0
LINE
  5
195
330
183
100
AcDbEntity
  8
AM_5
100
AcDbLine
 10
1.643056457620486
 20
2.509559014598127
 30
0.0
 11
1.537712000506657
 21
2.339589567341372
 31
0.0
  0
LINE
  5
196
330
183
100
AcDbEntity
  8
AM_5
100
AcDbLine
 10
1.708186369872023
 20
2.547161786968847
 30
0.0
 11
1.643056457620486
 21
2.509559014598127
 31
0.0
  0
LINE
  5
197
330
183
100
AcDbEntity
  8
AM_5
100
AcDbLine
 10
1.321011392043693
 20
2.695491819900079
 30
0.0
 11
1.67385869570477
 21
2.491775334148522
 31
0.0
  0
LINE
  5
198
330
183
100
AcDbEntity
  8
AM_5
100
AcDbLine
 10
1.351813630127977
 20
2.677708139450474
 30
0.0
 11
1.257287999493342
 21
2.501492439813641
 31
0.0
  0
LINE
  5
199
330
183
100
AcDbEntity
  8
AM_5
100
AcDbLine
 10
1.351813630127977
 20
2.752913684191917
 30
0.0
 11
1.351813630127977
 21
2.677708139450474
 31
0.0
  0
LINE
  5
19A
330
183
100
AcDbEntity
  8
AM_4
100
AcDbLine
 10
1.723432667397366
 20
2.775072943356192
 30
0.0
 11
1.738432667397366
 21
2.801053705469726
 31
0.0
  0
LINE
  5
19B
330
183
100
AcDbEntity
  8
AM_4
100
AcDbLine
 10
1.556567332602634
 20
2.906053705469726
 30
0.0
 11
1.541567332602634
 21
2.880072943356193
 31
0.0
  0
LINE
  5
19C
330
183
100
AcDbEntity
  8
AM_4
100
AcDbLine
 10
1.541567332602634
 20
2.880072943356193
 30
0.0
 11
1.513475343752893
 21
2.859056372852578
 31
0.0
  0
LINE
  5
19D
330
183
100
AcDbEntity
  8
AM_4
100
AcDbLine
 10
1.719277777865679
 20
2.74023628211768
 30
0.0
 11
1.723432667397366
 21
2.775072943356192
 31
0.0
  0
LINE
  5
19E
330
183
100
AcDbEntity
  8
AM_4
100
AcDbLine
 10
1.541567332602634
 20
2.880072943356193
 30
0.0
 11
1.723432667397366
 21
2.775072943356192
 31
0.0
  0
LINE
  5
19F
330
183
100
AcDbEntity
  8
AM_4
100
AcDbLine
 10
1.628578328518572
 20
3.026136212966141
 30
0.0
 11
1.560586570489101
 21
2.973015229696792
 31
0.0
  0
LINE
  5
1A0
330
183
100
AcDbEntity
  8
AM_4
100
AcDbLine
 10
1.794413429510899
 20
2.838015229696792
 30
0.0
 11
1.806421671481428
 21
2.923458311032953
 31
0.0
  0
LINE
  5
1A1
330
183
100
AcDbEntity
  8
AM_4
100
AcDbLine
 10
1.628578328518572
 20
3.026136212966141
 30
0.0
 11
1.806421671481428
 21
2.923458311032953
 31
0.0
  0
LINE
  5
1A2
330
183
100
AcDbEntity
  8
AM_4
100
AcDbLine
 10
1.738432667397366
 20
2.801053705469726
 30
0.0
 11
1.794413429510899
 21
2.838015229696792
 31
0.0
  0
LINE
  5
1A3
330
183
100
AcDbEntity
  8
AM_4
100
AcDbLine
 10
1.560586570489101
 20
2.973015229696792
 30
0.0
 11
1.556567332602634
 21
2.906053705469726
 31
0.0
  0
LINE
  5
1A4
330
183
100
AcDbEntity
  8
AM_4
100
AcDbLine
 10
1.560586570489101
 20
2.973015229696792
 30
0.0
 11
1.794413429510899
 21
2.838015229696792
 31
0.0
  0
LINE
  5
1A5
330
183
100
AcDbEntity
  8
AM_4
100
AcDbLine
 10
1.556567332602634
 20
2.906053705469726
 30
0.0
 11
1.738432667397366
 21
2.801053705469726
 31
0.0
  0
LINE
  5
1A6
330
183
100
AcDbEntity
  8
AM_4
100
AcDbLine
 10
1.513475343752893
 20
2.859056372852578
 30
0.0
 11
1.439740226109452
 21
2.838771327888305
 31
0.0
  0
LINE
  5
1A7
330
183
100
AcDbEntity
  8
AM_4
100
AcDbLine
 10
1.73857797243143
 20
2.666237274605289
 30
0.0
 11
1.719277777865679
 21
2.74023628211768
 31
0.0
  0
LINE
  5
1A8
330
183
100
AcDbEntity
  8
AM_4
100
AcDbLine
 10
1.513475343752893
 20
2.859056372852578
 30
0.0
 11
1.719277777865679
 21
2.74023628211768
 31
0.0
  0
LINE
  5
1A9
330
183
100
AcDbEntity
  8
AM_4
100
AcDbLine
 10
1.390556942922154
 20
2.846015275958826
 30
0.0
 11
1.769443057077846
 21
2.627265275958826
 31
0.0
  0
LINE
  5
1AA
330
183
100
AcDbEntity
  8
AM_4
100
AcDbLine
 10
1.719443057077846
 20
2.540662735580383
 30
0.0
 11
1.769443057077846
 21
2.627265275958826
 31
0.0
  0
LINE
  5
1AB
330
183
100
AcDbEntity
  8
AM_4
100
AcDbLine
 10
1.390556942922154
 20
2.846015275958826
 30
0.0
 11
1.340556942922154
 21
2.759412735580383
 31
0.0
  0
LINE
  5
1AC
330
183
100
AcDbEntity
  8
AM_4
100
AcDbLine
 10
1.439740226109452
 20
2.838771327888305
 30
0.0
 11
1.394887069941076
 21
2.843515275958827
 31
0.0
  0
LINE
  5
1AD
330
183
100
AcDbEntity
  8
AM_4
100
AcDbLine
 10
1.765112930058924
 20
2.629765275958826
 30
0.0
 11
1.73857797243143
 21
2.666237274605289
 31
0.0
  0
LINE
  5
1AE
330
183
100
AcDbEntity
  8
AM_4
100
AcDbLine
 10
1.439740226109452
 20
2.838771327888305
 30
0.0
 11
1.73857797243143
 21
2.666237274605289
 31
0.0
  0
LWPOLYLINE
  5
1AF
330
183
100
AcDbEntity
  8
AM_4
100
AcDbPolyline
 90
        3
 70
     0
 43
0.0
 10
1.674721528538923
 20
2.681952775958826
 10
1.720885602415867
 20
2.652536297398057
 10
1.764909257229538
 20
2.61941250427021
  0
LWPOLYLINE
  5
1B0
330
183
100
AcDbEntity
  8
AM_4
100
AcDbPolyline
 90
        3
 70
     0
 43
0.0
 10
1.723976856926153
 20
2.548515507268999
 10
1.67350250203231
 20
2.5699745806619
 10
1.624721528538923
 20
2.595350235580383
  0
LWPOLYLINE
  5
1B1
330
183
100
AcDbEntity
  8
AM_4
100
AcDbPolyline
 90
        3
 70
     0
 43
0.0
 10
1.575466200151693
 20
2.72878750427021
 10
1.625940555045535
 20
2.707328430877309
 10
1.674721528538923
 20
2.681952775958826
  0
LWPOLYLINE
  5
1B2
330
183
100
AcDbEntity
  8
AM_4
100
AcDbPolyline
 90
        3
 70
     0
 43
0.0
 10
1.624721528538923
 20
2.595350235580383
 10
1.578557454661978
 20
2.624766714141152
 10
1.534533799848307
 20
2.657890507268998
  0
LINE
  5
1B3
330
183
100
AcDbEntity
  8
AM_4
100
AcDbLine
 10
1.575466200151693
 20
2.72878750427021
 30
0.0
 11
1.534533799848307
 21
2.657890507268998
 31
0.0
  0
LWPOLYLINE
  5
1B4
330
183
100
AcDbEntity
  8
AM_4
100
AcDbPolyline
 90
        3
 70
     0
 43
0.0
 10
1.485278471461077
 20
2.791327775958826
 10
1.531442545338021
 20
2.761911297398057
 10
1.575466200151693
 20
2.72878750427021
  0
LWPOLYLINE
  5
1B5
330
183
100
AcDbEntity
  8
AM_4
100
AcDbPolyline
 90
        3
 70
     0
 43
0.0
 10
1.386023143073847
 20
2.838162504270211
 10
1.436497497967689
 20
2.81670343087731
 10
1.485278471461077
 20
2.791327775958826
  0
LWPOLYLINE
  5
1B6
330
183
100
AcDbEntity
  8
AM_4
100
AcDbPolyline
 90
        3
 70
     0
 43
0.0
 10
1.435278471461077
 20
2.704725235580383
 10
1.389114397584133
 20
2.734141714141152
 10
1.345090742770461
 20
2.767265507268999
  0
LWPOLYLINE
  5
1B7
330
183
100
AcDbEntity
  8
AM_4
100
AcDbPolyline
 90
        3
 70
     0
 43
0.0
 10
1.534533799848307
 20
2.657890507268998
 10
1.484059444954464
 20
2.6793495806619
 10
1.435278471461077
 20
2.704725235580383
  0
ENDBLK
  5
186
330
183
100
AcDbEntity
  8
0
100
AcDbBlockEnd
  0
BLOCK
  5
1BA
330
1B8
100
AcDbEntity
  8
0
100
AcDbBlockBegin
  2
7_071153H_0_in_071153_0
 70
     2
 10
0.0
 20
0.0
 30
0.0
  3
7_071153H_0_in_071153_0
  1

  0
ATTDEF
  5
1BC
330
1B8
100
AcDbEntity
  8
AM_6
100
AcDbText
 10
10.25
 20
3.002510074920649
 30
0.0
 40
0.5
  1
EP2B-IP -(Contact Seal)-Housing -Inch
100
AcDbAttributeDefinition
  3

  2
NN
 70
     8
280
     0
  0
ATTDEF
  5
1BD
330
1B8
100
AcDbEntity
  8
AM_6
100
AcDbText
 10
10.25
 20
2.502510074920649
 30
0.0
 40
0.5
  1
Imperial 2 Bolt Piliow Block Bearings
100
AcDbAttributeDefinition
  3

  2
NT
 70
     8
280
     0
  0
ATTDEF
  5
1BE
330
1B8
100
AcDbEntity
  8
AM_6
100
AcDbText
 10
10.25
 20
2.002510074920649
 30
0.0
 40
0.5
  1
071153H
100
AcDbAttributeDefinition
  3

  2
NB
 70
     8
280
     0
  0
ATTDEF
  5
1BF
330
1B8
100
AcDbEntity
  8
AM_6
100
AcDbText
 10
10.25
 20
1.502510074920649
 30
0.0
 40
0.5
  1
$PN.H
100
AcDbAttributeDefinition
  3

  2
NBSYN
 70
     8
280
     0
  0
ATTDEF
  5
1C0
330
1B8
100
AcDbEntity
  8
AM_6
100
AcDbText
 10
10.25
 20
1.002510074920649
 30
0.0
 40
0.5
  1
071153
100
AcDbAttributeDefinition
  3

  2
LINA
 70
     8
280
     0
  0
ATTDEF
  5
1C1
330
1B8
100
AcDbEntity
  8
AM_6
100
AcDbText
 10
10.25
 20
0.5025100749206493
 30
0.0
 40
0.5
  1
2-1/2
100
AcDbAttributeDefinition
  3

  2
SS
 70
     8
280
     0
  0
ATTDEF
  5
1C2
330
1B8
100
AcDbEntity
  8
AM_6
100
AcDbText
 10
10.25
 20
0.0025100749206493
 30
0.0
 40
0.5
  1
2.500000
100
AcDbAttributeDefinition
  3

  2
SS1
 70
     8
280
     0
  0
ATTDEF
  5
1C3
330
1B8
100
AcDbEntity
  8
AM_6
100
AcDbText
 10
10.25
 20
-0.4974899250793507
 30
0.0
 40
0.5
  1
Expansion
100
AcDbAttributeDefinition
  3

  2
TYPE
 70
     8
280
     0
  0
ATTDEF
  5
1C4
330
1B8
100
AcDbEntity
  8
AM_6
100
AcDbText
 10
10.25
 20
-0.9974899250793507
 30
0.0
 40
0.5
  1
071132
100
AcDbAttributeDefinition
  3

  2
PN1
 70
     8
280
     0
  0
ATTDEF
  5
1C5
330
1B8
100
AcDbEntity
  8
AM_6
100
AcDbText
 10
10.25
 20
-1.497489925079351
 30
0.0
 40
0.5
  1
071153
100
AcDbAttributeDefinition
  3

  2
PN2
 70
     8
280
     0
  0
ATTDEF
  5
1C6
330
1B8
100
AcDbEntity
  8
AM_6
100
AcDbText
 10
10.25
 20
-1.997489925079351
 30
0.0
 40
0.5
  1
EP2B-IP-208R
100
AcDbAttributeDefinition
  3

  2
DES1
 70
     8
280
     0
  0
ATTDEF
  5
1C7
330
1B8
100
AcDbEntity
  8
AM_6
100
AcDbText
 10
10.25
 20
-2.497489925079351
 30
0.0
 40
0.5
  1
Non-Expansion Type
100
AcDbAttributeDefinition
  3

  2
EF
 70
     8
280
     0
  0
ATTDEF
  5
1C8
330
1B8
100
AcDbEntity
  8
AM_6
100
AcDbText
 10
10.25
 20
-2.997489925079351
 30
0.0
 40
0.5
  1
1
100
AcDbAttributeDefinition
  3

  2
EF1
 70
     8
280
     0
  0
ATTDEF
  5
1C9
330
1B8
100
AcDbEntity
  8
AM_6
100
AcDbText
 10
10.25
 20
-3.497489925079351
 30
0.0
 40
0.5
  1
Contact Seal
100
AcDbAttributeDefinition
  3

  2
ST
 70
     8
280
     0
  0
ATTDEF
  5
1CA
330
1B8
100
AcDbEntity
  8
AM_6
100
AcDbText
 10
10.25
 20
-3.997489925079351
 30
0.0
 40
0.5
  1
1
100
AcDbAttributeDefinition
  3

  2
ST1
 70
     8
280
     0
  0
ATTDEF
  5
1CB
330
1B8
100
AcDbEntity
  8
AM_6
100
AcDbText
 10
10.25
 20
-4.497489925079351
 30
0.0
 40
0.5
  1
3.42
100
AcDbAttributeDefinition
  3

  2
A
 70
     8
280
     0
  0
ATTDEF
  5
1CC
330
1B8
100
AcDbEntity
  8
AM_6
100
AcDbText
 10
10.25
 20
-4.997489925079351
 30
0.0
 40
0.5
  1
3.4200000
100
AcDbAttributeDefinition
  3

  2
A1
 70
     8
280
     0
  0
ATTDEF
  5
1CD
330
1B8
100
AcDbEntity
  8
AM_6
100
AcDbText
 10
10.25
 20
-5.497489925079351
 30
0.0
 40
0.5
  1
10.5
100
AcDbAttributeDefinition
  3

  2
B
 70
     8
280
     0
  0
ATTDEF
  5
1CE
330
1B8
100
AcDbEntity
  8
AM_6
100
AcDbText
 10
10.25
 20
-5.997489925079351
 30
0.0
 40
0.5
  1
10.5000000
100
AcDbAttributeDefinition
  3

  2
B1
 70
     8
280
     0
  0
ATTDEF
  5
1CF
330
1B8
100
AcDbEntity
  8
AM_6
100
AcDbText
 10
10.25
 20
-6.497489925079351
 30
0.0
 40
0.5
  1
2.87
100
AcDbAttributeDefinition
  3

  2
C
 70
     8
280
     0
  0
ATTDEF
  5
1D0
330
1B8
100
AcDbEntity
  8
AM_6
100
AcDbText
 10
10.25
 20
-6.997489925079351
 30
0.0
 40
0.5
  1
2.8700000
100
AcDbAttributeDefinition
  3

  2
C1
 70
     8
280
     0
  0
ATTDEF
  5
1D1
330
1B8
100
AcDbEntity
  8
AM_6
100
AcDbText
 10
10.25
 20
-7.497489925079351
 30
0.0
 40
0.5
  1
8.38
100
AcDbAttributeDefinition
  3

  2
DMIN
 70
     8
280
     0
  0
ATTDEF
  5
1D2
330
1B8
100
AcDbEntity
  8
AM_6
100
AcDbText
 10
10.25
 20
-7.997489925079351
 30
0.0
 40
0.5
  1
8.3800000
100
AcDbAttributeDefinition
  3

  2
DMIN1
 70
     8
280
     0
  0
ATTDEF
  5
1D3
330
1B8
100
AcDbEntity
  8
AM_6
100
AcDbText
 10
10.25
 20
-8.49748992507935
 30
0.0
 40
0.5
  1
8.62
100
AcDbAttributeDefinition
  3

  2
DMAX
 70
     8
280
     0
  0
ATTDEF
  5
1D4
330
1B8
100
AcDbEntity
  8
AM_6
100
AcDbText
 10
10.25
 20
-8.99748992507935
 30
0.0
 40
0.5
  1
8.6200000
100
AcDbAttributeDefinition
  3

  2
DMAX1
 70
     8
280
     0
  0
ATTDEF
  5
1D5
330
1B8
100
AcDbEntity
  8
AM_6
100
AcDbText
 10
10.25
 20
-9.49748992507935
 30
0.0
 40
0.5
  1
5/8
100
AcDbAttributeDefinition
  3

  2
F
 70
     8
280
     0
  0
ATTDEF
  5
1D6
330
1B8
100
AcDbEntity
  8
AM_6
100
AcDbText
 10
10.25
 20
-9.99748992507935
 30
0.0
 40
0.5
  1
0.6250000
100
AcDbAttributeDefinition
  3

  2
F1
 70
     8
280
     0
  0
ATTDEF
  5
1D7
330
1B8
100
AcDbEntity
  8
AM_6
100
AcDbText
 10
10.25
 20
-10.49748992507935
 30
0.0
 40
0.5
  1
0.88
100
AcDbAttributeDefinition
  3

  2
G
 70
     8
280
     0
  0
ATTDEF
  5
1D8
330
1B8
100
AcDbEntity
  8
AM_6
100
AcDbText
 10
10.25
 20
-10.99748992507935
 30
0.0
 40
0.5
  1
0.880000
100
AcDbAttributeDefinition
  3

  2
G1
 70
     8
280
     0
  0
ATTDEF
  5
1D9
330
1B8
100
AcDbEntity
  8
AM_6
100
AcDbText
 10
10.25
 20
-11.49748992507935
 30
0.0
 40
0.5
  1
1.63
100
AcDbAttributeDefinition
  3

  2
H
 70
     8
280
     0
  0
ATTDEF
  5
1DA
330
1B8
100
AcDbEntity
  8
AM_6
100
AcDbText
 10
10.25
 20
-11.99748992507935
 30
0.0
 40
0.5
  1
1.6300000
100
AcDbAttributeDefinition
  3

  2
H1
 70
     8
280
     0
  0
ATTDEF
  5
1DB
330
1B8
100
AcDbEntity
  8
AM_6
100
AcDbText
 10
10.25
 20
-12.49748992507935
 30
0.0
 40
0.5
  1
5.71
100
AcDbAttributeDefinition
  3

  2
J
 70
     8
280
     0
  0
ATTDEF
  5
1DC
330
1B8
100
AcDbEntity
  8
AM_6
100
AcDbText
 10
10.25
 20
-12.99748992507935
 30
0.0
 40
0.5
  1
5.710000
100
AcDbAttributeDefinition
  3

  2
J1
 70
     8
280
     0
  0
ATTDEF
  5
1DD
330
1B8
100
AcDbEntity
  8
AM_6
100
AcDbText
 10
10.25
 20
-13.49748992507935
 30
0.0
 40
0.5
  1
3.88
100
AcDbAttributeDefinition
  3

  2
L
 70
     8
280
     0
  0
ATTDEF
  5
1DE
330
1B8
100
AcDbEntity
  8
AM_6
100
AcDbText
 10
10.25
 20
-13.99748992507935
 30
0.0
 40
0.5
  1
3.8750000
100
AcDbAttributeDefinition
  3

  2
L1
 70
     8
280
     0
  0
ATTDEF
  5
1DF
330
1B8
100
AcDbEntity
  8
AM_6
100
AcDbText
 10
10.25
 20
-14.49748992507935
 30
0.0
 40
0.5
  1
2.75
100
AcDbAttributeDefinition
  3

  2
M
 70
     8
280
     0
  0
ATTDEF
  5
1E0
330
1B8
100
AcDbEntity
  8
AM_6
100
AcDbText
 10
10.25
 20
-14.99748992507935
 30
0.0
 40
0.5
  1
2.750000
100
AcDbAttributeDefinition
  3

  2
M1
 70
     8
280
     0
  0
ATTDEF
  5
1E1
330
1B8
100
AcDbEntity
  8
AM_6
100
AcDbText
 10
10.25
 20
-15.49748992507935
 30
0.0
 40
0.5
  1
1.20
100
AcDbAttributeDefinition
  3

  2
R
 70
     8
280
     0
  0
ATTDEF
  5
1E2
330
1B8
100
AcDbEntity
  8
AM_6
100
AcDbText
 10
10.25
 20
-15.99748992507935
 30
0.0
 40
0.5
  1
1.200000
100
AcDbAttributeDefinition
  3

  2
R1
 70
     8
280
     0
  0
ATTDEF
  5
1E3
330
1B8
100
AcDbEntity
  8
AM_6
100
AcDbText
 10
10.25
 20
-16.49748992507935
 30
0.0
 40
0.5
  1
2.22
100
AcDbAttributeDefinition
  3

  2
S
 70
     8
280
     0
  0
ATTDEF
  5
1E4
330
1B8
100
AcDbEntity
  8
AM_6
100
AcDbText
 10
10.25
 20
-16.99748992507935
 30
0.0
 40
0.5
  1
2.220000
100
AcDbAttributeDefinition
  3

  2
S1
 70
     8
280
     0
  0
ATTDEF
  5
1E5
330
1B8
100
AcDbEntity
  8
AM_6
100
AcDbText
 10
10.25
 20
-17.49748992507935
 30
0.0
 40
0.5
  1
0.25
100
AcDbAttributeDefinition
  3

  2
X
 70
     8
280
     0
  0
ATTDEF
  5
1E6
330
1B8
100
AcDbEntity
  8
AM_6
100
AcDbText
 10
10.25
 20
-17.99748992507935
 30
0.0
 40
0.5
  1
0.250000
100
AcDbAttributeDefinition
  3

  2
X1
 70
     8
280
     0
  0
ATTDEF
  5
1E7
330
1B8
100
AcDbEntity
  8
AM_6
100
AcDbText
 10
10.25
 20
-18.49748992507935
 30
0.0
 40
0.5
  1
0.025
100
AcDbAttributeDefinition
  3

  2
Y
 70
     8
280
     0
  0
ATTDEF
  5
1E8
330
1B8
100
AcDbEntity
  8
AM_6
100
AcDbText
 10
10.25
 20
-18.99748992507935
 30
0.0
 40
0.5
  1
2.95
100
AcDbAttributeDefinition
  3

  2
Z
 70
     8
280
     0
  0
ATTDEF
  5
1E9
330
1B8
100
AcDbEntity
  8
AM_6
100
AcDbText
 10
10.25
 20
-19.49748992507935
 30
0.0
 40
0.5
  1
2.950000
100
AcDbAttributeDefinition
  3

  2
Z1
 70
     8
280
     0
  0
ATTDEF
  5
1EA
330
1B8
100
AcDbEntity
  8
AM_6
100
AcDbText
 10
10.25
 20
-19.99748992507935
 30
0.0
 40
0.5
  1
4.7241
100
AcDbAttributeDefinition
  3

  2
BORE
 70
     8
280
     0
  0
ATTDEF
  5
1EB
330
1B8
100
AcDbEntity
  8
AM_6
100
AcDbText
 10
10.25
 20
-20.49748992507935
 30
0.0
 40
0.5
  1
baldor
100
AcDbAttributeDefinition
  3

  2
COMPANY
 70
     8
280
     0
  0
LINE
  5
1EC
330
1B8
100
AcDbEntity
  8
AM_9
100
AcDbLine
 10
-4.19
 20
-1.12
 30
0.0
 11
-4.19
 21
-2.75
 31
0.0
  0
LINE
  5
1ED
330
1B8
100
AcDbEntity
  8
AM_9
100
AcDbLine
 10
-3.8775
 20
-2.75
 30
0.0
 11
-3.8775
 21
-1.12
 31
0.0
  0
LINE
  5
1EE
330
1B8
100
AcDbEntity
  8
AM_9
100
AcDbLine
 10
-4.31
 20
-1.12
 30
0.0
 11
-4.31
 21
-2.75
 31
0.0
  0
LINE
  5
1EF
330
1B8
100
AcDbEntity
  8
AM_9
100
AcDbLine
 10
-4.6225
 20
-1.12
 30
0.0
 11
-4.6225
 21
-2.75
 31
0.0
  0
LINE
  5
1F0
330
1B8
100
AcDbEntity
  8
AM_9
100
AcDbLine
 10
4.19
 20
-1.12
 30
0.0
 11
4.19
 21
-2.75
 31
0.0
  0
LINE
  5
1F1
330
1B8
100
AcDbEntity
  8
AM_9
100
AcDbLine
 10
3.8775
 20
-1.12
 30
0.0
 11
3.8775
 21
-2.75
 31
0.0
  0
LINE
  5
1F2
330
1B8
100
AcDbEntity
  8
AM_9
100
AcDbLine
 10
4.31
 20
-1.12
 30
0.0
 11
4.31
 21
-2.75
 31
0.0
  0
LINE
  5
1F3
330
1B8
100
AcDbEntity
  8
AM_9
100
AcDbLine
 10
4.6225
 20
-2.75
 30
0.0
 11
4.6225
 21
-1.12
 31
0.0
  0
ARC
  5
1F4
330
1B8
100
AcDbEntity
  8
AM_9
100
AcDbCircle
 10
-3.0089
 20
-1.038500000000002
 30
0.0
 40
0.0814999999999995
100
AcDbArc
 50
270.0
 51
0.0
  0
ARC
  5
1F5
330
1B8
100
AcDbEntity
  8
AM_9
100
AcDbCircle
 10
3.0089
 20
-1.0385
 30
0.0
 40
0.0815000000000001
100
AcDbArc
 50
180.0
 51
270.0
  0
LINE
  5
1F6
330
1B8
100
AcDbEntity
  8
AM_9
100
AcDbLine
 10
2.9274
 20
0.4380972951297486
 30
0.0
 11
2.9274
 21
-1.0385
 31
0.0
  0
LINE
  5
1F7
330
1B8
100
AcDbEntity
  8
AM_9
100
AcDbLine
 10
-3.26689689736015
 20
-1.120000000000002
 30
0.0
 11
-3.008900000000001
 21
-1.120000000000002
 31
0.0
  0
LINE
  5
1F8
330
1B8
100
AcDbEntity
  8
AM_9
100
AcDbLine
 10
-2.9274
 20
-1.038500000000002
 30
0.0
 11
-2.9274
 21
0.4380972951297447
 31
0.0
  0
LINE
  5
1F9
330
1B8
100
AcDbEntity
  8
AM_9
100
AcDbLine
 10
3.0089
 20
-1.12
 30
0.0
 11
3.266896897360151
 21
-1.12
 31
0.0
  0
LINE
  5
1FA
330
1B8
100
AcDbEntity
  8
AM_7
100
AcDbLine
 10
-2.4801525
 20
0.0
 30
0.0
 11
2.4801525
 21
0.0
 31
0.0
  0
LINE
  5
1FB
330
1B8
100
AcDbEntity
  8
AM_7
100
AcDbLine
 10
0.0
 20
-2.4801525
 30
0.0
 11
0.0
 21
2.4801525
 31
0.0
  0
LINE
  5
1FC
330
1B8
100
AcDbEntity
  8
AM_7
100
AcDbLine
 10
1.201713975224909
 20
2.08142966125511
 30
0.0
 11
1.7335
 21
3.002510074920649
 31
0.0
  0
LINE
  5
1FD
330
1B8
100
AcDbEntity
  8
AM_4
100
AcDbLine
 10
1.891874059265708
 20
2.276821992169781
 30
0.0
 11
1.913012701892219
 21
2.313435195201938
 31
0.0
  0
LINE
  5
1FE
330
1B8
100
AcDbEntity
  8
AM_4
100
AcDbLine
 10
1.046987298107781
 20
2.813435195201939
 30
0.0
 11
1.913012701892219
 21
2.313435195201939
 31
0.0
  0
LINE
  5
1FF
330
1B8
100
AcDbEntity
  8
AM_4
100
AcDbLine
 10
1.183589838486224
 20
2.850037735580383
 30
0.0
 11
1.876410161477265
 21
2.450037735601462
 31
0.0
  0
ARC
  5
200
330
1B8
100
AcDbEntity
  8
AM_4
100
AcDbCircle
 10
1.826410161513773
 20
2.363435195201939
 30
0.0
 40
0.1000000000000022
100
AcDbArc
 50
330.0000000000009
 51
59.99999999999935
  0
ARC
  5
201
330
1B8
100
AcDbEntity
  8
AM_4
100
AcDbCircle
 10
1.133589838486226
 20
2.763435195201935
 30
0.0
 40
0.1000000000000029
100
AcDbArc
 50
60.00000000000121
 51
149.9999999999984
  0
LINE
  5
202
330
1B8
100
AcDbEntity
  8
AM_4
100
AcDbLine
 10
1.046987298107781
 20
2.813435195201939
 30
0.0
 11
1.025719624478866
 21
2.776598503917867
 31
0.0
  0
ARC
  5
203
330
1B8
100
AcDbEntity
  8
AM_4
100
AcDbCircle
 10
3.266896897360171
 20
-0.9569999999999959
 30
0.0
 40
0.1630000000000198
100
AcDbArc
 50
187.1236746825805
 51
208.0176352017493
  0
ARC
  5
204
330
1B8
100
AcDbEntity
  8
AM_4
100
AcDbCircle
 10
-3.266896897360126
 20
-0.9570000000000072
 30
0.0
 40
0.1629999999999747
100
AcDbArc
 50
331.9823647982495
 51
352.8763253174216
  0
CIRCLE
  5
205
330
1B8
100
AcDbEntity
  8
AM_4
100
AcDbCircle
 10
0.0
 20
0.0
 30
0.0
 40
2.36205
  0
ARC
  5
206
330
1B8
100
AcDbEntity
  8
AM_4
100
AcDbCircle
 10
-0.0000000000000004
 20
0.0
 30
0.0
 40
2.960000000000001
100
AcDbArc
 50
7.123674682579919
 51
74.57381937828572
  0
LINE
  5
207
330
1B8
100
AcDbEntity
  8
AM_4
100
AcDbLine
 10
-0.7058499999999998
 20
2.96
 30
0.0
 11
0.7058500000000003
 21
2.96
 31
0.0
  0
ARC
  5
208
330
1B8
100
AcDbEntity
  8
AM_4
100
AcDbCircle
 10
0.7058500000000009
 20
2.878500000000001
 30
0.0
 40
0.0814999999999991
100
AcDbArc
 50
0.0
 51
90.0
  0
LINE
  5
209
330
1B8
100
AcDbEntity
  8
AM_4
100
AcDbLine
 10
-3.105155130073396
 20
-0.9772138743183337
 30
0.0
 11
-2.937151111464987
 21
0.3670740367010308
 31
0.0
  0
LINE
  5
20A
330
1B8
100
AcDbEntity
  8
AM_4
100
AcDbLine
 10
2.937151111464988
 20
0.3670740367010317
 30
0.0
 11
3.105155130073397
 21
-0.977213874318334
 31
0.0
  0
LINE
  5
20B
330
1B8
100
AcDbEntity
  8
AM_4
100
AcDbLine
 10
0.78735
 20
2.8785
 30
0.0
 11
0.78735
 21
2.853362924252715
 31
0.0
  0
ARC
  5
20C
330
1B8
100
AcDbEntity
  8
AM_4
100
AcDbCircle
 10
-0.7058500000000001
 20
2.8785
 30
0.0
 40
0.0815000000000001
100
AcDbArc
 50
90.0
 51
180.0
  0
LINE
  5
20D
330
1B8
100
AcDbEntity
  8
AM_4
100
AcDbLine
 10
-0.78735
 20
2.853362924252713
 30
0.0
 11
-0.78735
 21
2.8785
 31
0.0
  0
ARC
  5
20E
330
1B8
100
AcDbEntity
  8
AM_4
100
AcDbCircle
 10
-0.0000000000000016
 20
0.0000000000000013
 30
0.0
 40
2.959999999999997
100
AcDbArc
 50
105.4261806217143
 51
172.8763253174202
  0
LWPOLYLINE
  5
20F
330
1B8
100
AcDbEntity
  8
AM_4
100
AcDbPolyline
 90
       14
 70
     0
 43
0.0
 10
3.2665
 20
-1.119999516786049
 10
3.252295166361284
 20
-1.11934466252956
 10
3.238201460712236
 20
-1.117454267364834
 10
3.224326144662857
 20
-1.114342718340525
 10
3.210774817746428
 20
-1.110033696223515
 10
3.197650613743297
 20
-1.104559995273971
 10
3.185053415770541
 20
-1.097963273661231
 10
3.173079096111126
 20
-1.090293736419978
 10
3.161818786567953
 20
-1.081609753359609
 10
3.151358184895807
 20
-1.071977414834748
 10
3.141776902589697
 20
-1.061470028757733
 10
3.133147858993308
 20
-1.050167562681144
 10
3.125536726338769
 20
-1.038156035196439
 10
3.123000000000002
 20
-1.033568158722297
  0
LINE
  5
210
330
1B8
100
AcDbEntity
  8
AM_4
100
AcDbLine
 10
3.123000000000002
 20
-1.033568158722297
 30
0.0
 11
3.123000000000002
 21
-2.75
 31
0.0
  0
LINE
  5
211
330
1B8
100
AcDbEntity
  8
AM_4
100
AcDbLine
 10
4.1865
 20
-1.935
 30
0.0
 11
5.25
 21
-1.935
 31
0.0
  0
LINE
  5
212
330
1B8
100
AcDbEntity
  8
AM_4
100
AcDbLine
 10
5.086999999999997
 20
-1.12
 30
0.0
 11
3.266896897360152
 21
-1.12
 31
0.0
  0
LINE
  5
213
330
1B8
100
AcDbEntity
  8
AM_4
100
AcDbLine
 10
3.2665
 20
-2.75
 30
0.0
 11
3.2665
 21
-1.119999516786049
 31
0.0
  0
LINE
  5
214
330
1B8
100
AcDbEntity
  8
AM_4
100
AcDbLine
 10
-5.25
 20
-2.75
 30
0.0
 11
5.25
 21
-2.75
 31
0.0
  0
LINE
  5
215
330
1B8
100
AcDbEntity
  8
AM_4
100
AcDbLine
 10
4.962999999999999
 20
-1.935
 30
0.0
 11
4.962999999999999
 21
-2.75
 31
0.0
  0
LINE
  5
216
330
1B8
100
AcDbEntity
  8
AM_4
100
AcDbLine
 10
5.25
 20
-1.935
 30
0.0
 11
5.25
 21
-2.75
 31
0.0
  0
LINE
  5
217
330
1B8
100
AcDbEntity
  8
AM_4
100
AcDbLine
 10
-5.25
 20
-1.935
 30
0.0
 11
-4.186499999999989
 21
-1.935
 31
0.0
  0
LINE
  5
218
330
1B8
100
AcDbEntity
  8
AM_4
100
AcDbLine
 10
-3.266896897360149
 20
-1.12
 30
0.0
 11
-5.087
 21
-1.12
 31
0.0
  0
LINE
  5
219
330
1B8
100
AcDbEntity
  8
AM_4
100
AcDbLine
 10
-5.25
 20
-1.935
 30
0.0
 11
-5.25
 21
-2.75
 31
0.0
  0
LINE
  5
21A
330
1B8
100
AcDbEntity
  8
AM_4
100
AcDbLine
 10
-4.962999999999999
 20
-2.75
 30
0.0
 11
-4.962999999999995
 21
-1.935
 31
0.0
  0
LWPOLYLINE
  5
21B
330
1B8
100
AcDbEntity
  8
AM_4
100
AcDbPolyline
 90
       14
 70
     0
 43
0.0
 10
-3.122999999999999
 20
-1.033568158722291
 10
-3.130220925882377
 20
-1.045818234730301
 10
-3.138482038434909
 20
-1.057392350342097
 10
-3.147720465602874
 20
-1.068202419549231
 10
-3.157865897377209
 20
-1.078166171197739
 10
-3.168841120896132
 20
-1.087207775121298
 10
-3.180562608081642
 20
-1.095258419254579
 10
-3.192941151338631
 20
-1.102256833334617
 10
-3.205882542478545
 20
-1.108149755204504
 10
-3.219288289700581
 20
-1.112892336170568
 10
-3.233056367173771
 20
-1.116448482328007
 10
-3.24708199151515
 20
-1.118791129257304
 10
-3.261258419254576
 20
-1.119902448000799
 10
-3.2665
 20
-1.119999516786049
  0
LINE
  5
21C
330
1B8
100
AcDbEntity
  8
AM_4
100
AcDbLine
 10
-3.2665
 20
-1.119999516786049
 30
0.0
 11
-3.2665
 21
-2.75
 31
0.0
  0
LINE
  5
21D
330
1B8
100
AcDbEntity
  8
AM_4
100
AcDbLine
 10
-3.122999999999999
 20
-1.03356815872229
 30
0.0
 11
-3.122999999999999
 21
-2.75
 31
0.0
  0
LINE
  5
21E
330
1B8
100
AcDbEntity
  8
AM_4
100
AcDbLine
 10
4.1865
 20
-1.12
 30
0.0
 11
4.1865
 21
-1.935
 31
0.0
  0
LWPOLYLINE
  5
21F
330
1B8
100
AcDbEntity
  8
AM_4
100
AcDbPolyline
 90
        5
 70
     0
 43
0.0
 10
5.086999999999997
 20
-1.12
 10
5.107969201119553
 20
-1.121343244847495
 10
5.124750418898306
 20
-1.124431699659098
 10
5.145733944219415
 20
-1.130949601130315
 10
5.149999999971053
 20
-1.132667036204141
  0
LINE
  5
220
330
1B8
100
AcDbEntity
  8
AM_4
100
AcDbLine
 10
5.150000000000001
 20
-1.935
 30
0.0
 11
5.150000000000001
 21
-1.132474261234967
 31
0.0
  0
LINE
  5
221
330
1B8
100
AcDbEntity
  8
AM_4
100
AcDbLine
 10
-4.186499999999989
 20
-1.12
 30
0.0
 11
-4.186499999999989
 21
-1.935
 31
0.0
  0
LINE
  5
222
330
1B8
100
AcDbEntity
  8
AM_4
100
AcDbLine
 10
-5.15
 20
-1.132474261234967
 30
0.0
 11
-5.15
 21
-1.935
 31
0.0
  0
LWPOLYLINE
  5
223
330
1B8
100
AcDbEntity
  8
AM_4
100
AcDbPolyline
 90
        6
 70
     0
 43
0.0
 10
-5.149999999971052
 20
-1.13266703620414
 10
-5.149974070936936
 20
-1.132568452991197
 10
-5.144615086068017
 20
-1.130522126662998
 10
-5.129117711177576
 20
-1.125479788965328
 10
-5.103621219911057
 20
-1.120849652949282
 10
-5.087
 20
-1.12
  0
ENDBLK
  5
1BB
330
1B8
100
AcDbEntity
  8
0
100
AcDbBlockEnd
  0
ENDSEC
  0
SECTION
  2
ENTITIES
  0
INSERT
  5
6F
330
1F
100
AcDbEntity
  8
0
100
AcDbBlockReference
  2
1_071153_0
 10
0.0
 20
0.0
 30
0.0
  0
POINT
  5
225
330
1F
100
AcDbEntity
  8
ConnectionPoints
100
AcDbPoint
 10
0.0
 20
1.663194444444444
 30
1.768666666666667
  0
POINT
  5
226
330
1F
100
AcDbEntity
  8
ConnectionPoints
100
AcDbPoint
 10
0.0
 20
0.0
 30
1.698666666666667
  0
POINT
  5
227
330
1F
100
AcDbEntity
  8
ConnectionPoints
100
AcDbPoint
 10
0.0
 20
0.0
 30
1.97
  0
POINT
  5
228
330
1F
100
AcDbEntity
  8
ConnectionPoints
100
AcDbPoint
 10
0.0
 20
0.0
 30
1.897666666666667
  0
POINT
  5
229
330
1F
100
AcDbEntity
  8
ConnectionPoints
100
AcDbPoint
 10
0.0
 20
1.663194444444444
 30
1.698666666666667
  0
POINT
  5
22A
330
1F
100
AcDbEntity
  8
ConnectionPoints
100
AcDbPoint
 10
0.0
 20
-1.663194444444444
 30
1.698666666666667
  0
POINT
  5
22B
330
1F
100
AcDbEntity
  8
ConnectionPoints
100
AcDbPoint
 10
0.0
 20
0.0
 30
1.698666666666667
  0
POINT
  5
22C
330
1F
100
AcDbEntity
  8
ConnectionPoints
100
AcDbPoint
 10
1.53
 20
2.650037735580383
 30
0.0
  0
POINT
  5
22D
330
1F
100
AcDbEntity
  8
ConnectionPoints
100
AcDbPoint
 10
1.53
 20
2.650037735580383
 30
0.0
  0
POINT
  5
22E
330
1F
100
AcDbEntity
  8
ConnectionPoints
100
AcDbPoint
 10
0.0
 20
0.0
 30
1.97
  0
POINT
  5
22F
330
1F
100
AcDbEntity
  8
ConnectionPoints
100
AcDbPoint
 10
0.0
 20
0.0
 30
2.22
  0
ENDSEC
  0
SECTION
  2
OBJECTS
  0
DICTIONARY
  5
C
330
0
100
AcDbDictionary
281
     1
  3
ACAD_DETAILVIEWSTYLE
350
237
  3
ACAD_GROUP
350
D
  3
ACAD_LAYOUT
350
1A
  3
ACAD_MATERIAL
350
43
  3
ACAD_MLEADERSTYLE
350
6B
  3
ACAD_MLINESTYLE
350
17
  3
ACAD_PLOTSETTINGS
350
19
  3
ACAD_PLOTSTYLENAME
350
E
  3
ACAD_SCALELIST
350
47
  3
ACAD_SECTIONVIEWSTYLE
350
238
  3
ACAD_TABLESTYLE
350
69
  3
ACAD_VISUALSTYLE
350
2A
  3
ACDB_RECOMPOSE_DATA
350
234
  3
AcDbVariableDictionary
350
230
  0
SUN
  5
6D
330
29
100
AcDbSun
 90
        1
290
     0
 63
     7
421
 16777215
 40
1.0
291
     1
 91
  2455826
 92
 54000000
292
     0
 70
     2
 71
   256
280
     1
  0
DICTIONARY
  5
237
102
{ACAD_REACTORS
330
C
102
}
330
C
100
AcDbDictionary
281
     1
  0
DICTIONARY
  5
D
102
{ACAD_REACTORS
330
C
102
}
330
C
100
AcDbDictionary
281
     1
  0
DICTIONARY
  5
1A
102
{ACAD_REACTORS
330
C
102
}
330
C
100
AcDbDictionary
281
     1
  3
Layout1
350
1E
  3
Layout2
350
26
  3
Model
350
22
  0
DICTIONARY
  5
43
102
{ACAD_REACTORS
330
C
102
}
330
C
100
AcDbDictionary
281
     1
  3
ByBlock
350
45
  3
ByLayer
350
44
  3
Global
350
46
  0
DICTIONARY
  5
6B
102
{ACAD_REACTORS
330
C
102
}
330
C
100
AcDbDictionary
281
     1
  3
Standard
350
6C
  0
DICTIONARY
  5
17
102
{ACAD_REACTORS
330
C
102
}
330
C
100
AcDbDictionary
281
     1
  3
Standard
350
18
  0
DICTIONARY
  5
19
102
{ACAD_REACTORS
330
C
102
}
330
C
100
AcDbDictionary
281
     1
  0
ACDBDICTIONARYWDFLT
  5
E
102
{ACAD_REACTORS
330
C
102
}
330
C
100
AcDbDictionary
281
     1
  3
Normal
350
F
100
AcDbDictionaryWithDefault
340
F
  0
DICTIONARY
  5
47
102
{ACAD_REACTORS
330
C
102
}
330
C
100
AcDbDictionary
281
     1
  3
A0
350
48
  3
A1
350
49
  3
A2
350
4A
  3
A3
350
4B
  3
A4
350
4C
  3
A5
350
4D
  3
A6
350
4E
  3
A7
350
4F
  3
A8
350
50
  3
A9
350
51
  3
B0
350
52
  3
B1
350
53
  3
B2
350
54
  3
B3
350
55
  3
B4
350
56
  3
B5
350
57
  3
B6
350
58
  3
B7
350
59
  3
B8
350
5A
  3
B9
350
5B
  3
C0
350
5C
  3
C1
350
5D
  3
C2
350
5E
  3
C3
350
5F
  3
C4
350
60
  3
C5
350
61
  3
C6
350
62
  3
C7
350
63
  3
C8
350
64
  3
C9
350
65
  3
D0
350
66
  3
D1
350
67
  3
D2
350
68
  0
DICTIONARY
  5
238
102
{ACAD_REACTORS
330
C
102
}
330
C
100
AcDbDictionary
281
     1
  0
DICTIONARY
  5
69
102
{ACAD_REACTORS
330
C
102
}
330
C
100
AcDbDictionary
281
     1
  3
Standard
350
6A
  0
DICTIONARY
  5
2A
102
{ACAD_REACTORS
330
C
102
}
330
C
100
AcDbDictionary
281
     1
  3
2dWireframe
350
2F
  3
Basic
350
32
  3
Brighten
350
36
  3
ColorChange
350
3A
  3
Conceptual
350
34
  3
Dim
350
35
  3
EdgeColorOff
350
3D
  3
Facepattern
350
39
  3
Flat
350
2B
  3
FlatWithEdges
350
2C
  3
Gouraud
350
2D
  3
GouraudWithEdges
350
2E
  3
Hidden
350
31
  3
JitterOff
350
3B
  3
Linepattern
350
38
  3
OverhangOff
350
3C
  3
Realistic
350
33
  3
Shaded
350
42
  3
Shaded with edges
350
41
  3
Shades of Gray
350
3E
  3
Sketchy
350
3F
  3
Thicken
350
37
  3
Wireframe
350
30
  3
X-Ray
350
40
  0
XRECORD
  5
234
102
{ACAD_REACTORS
330
C
102
}
330
C
100
AcDbXrecord
280
     1
 90
        1
330
6A
  0
DICTIONARY
  5
230
102
{ACAD_REACTORS
330
C
102
}
330
C
100
AcDbDictionary
281
     1
  3
CANNOSCALE
350
231
  3
CMLEADERSTYLE
350
236
  3
CTABLESTYLE
350
235
  0
LAYOUT
  5
1E
102
{ACAD_REACTORS
330
1A
102
}
330
1A
100
AcDbPlotSettings
  1

  2
none_device
  4

  6

 40
0.0
 41
0.0
 42
0.0
 43
0.0
 44
0.0
 45
0.0
 46
0.0
 47
0.0
 48
0.0
 49
0.0
140
0.0
141
0.0
142
1.0
143
1.0
 70
   688
 72
     0
 73
     0
 74
     5
  7

 75
    16
 76
     0
 77
     2
 78
   300
147
1.0
148
0.0
149
0.0
100
AcDbLayout
  1
Layout1
 70
     1
 71
     1
 10
0.0
 20
0.0
 11
12.0
 21
9.0
 12
0.0
 22
0.0
 32
0.0
 14
1.000000000000000E+20
 24
1.000000000000000E+20
 34
1.000000000000000E+20
 15
-1.000000000000000E+20
 25
-1.000000000000000E+20
 35
-1.000000000000000E+20
146
0.0
 13
0.0
 23
0.0
 33
0.0
 16
1.0
 26
0.0
 36
0.0
 17
0.0
 27
1.0
 37
0.0
 76
     0
330
1B
  0
LAYOUT
  5
26
102
{ACAD_REACTORS
330
1A
102
}
330
1A
100
AcDbPlotSettings
  1

  2
none_device
  4

  6

 40
0.0
 41
0.0
 42
0.0
 43
0.0
 44
0.0
 45
0.0
 46
0.0
 47
0.0
 48
0.0
 49
0.0
140
0.0
141
0.0
142
1.0
143
1.0
 70
   688
 72
     0
 73
     0
 74
     5
  7

 75
    16
 76
     0
 77
     2
 78
   300
147
1.0
148
0.0
149
0.0
100
AcDbLayout
  1
Layout2
 70
     1
 71
     2
 10
0.0
 20
0.0
 11
0.0
 21
0.0
 12
0.0
 22
0.0
 32
0.0
 14
0.0
 24
0.0
 34
0.0
 15
0.0
 25
0.0
 35
0.0
146
0.0
 13
0.0
 23
0.0
 33
0.0
 16
1.0
 26
0.0
 36
0.0
 17
0.0
 27
1.0
 37
0.0
 76
     0
330
23
  0
LAYOUT
  5
22
102
{ACAD_REACTORS
330
1A
102
}
330
1A
100
AcDbPlotSettings
  1

  2
none_device
  4
Letter_(8.50_x_11.00_Inches)
  6

 40
6.35
 41
6.35
 42
6.35000508
 43
6.35000508
 44
215.9
 45
279.4
 46
0.0
 47
0.0
 48
0.0
 49
0.0
140
0.0
141
0.0
142
1.0
143
1.0
 70
  1712
 72
     0
 73
     0
 74
     0
  7

 75
     0
 76
     0
 77
     2
 78
   300
147
1.0
148
0.0
149
0.0
100
AcDbLayout
  1
Model
 70
     1
 71
     0
 10
0.0
 20
0.0
 11
12.0
 21
9.0
 12
0.0
 22
0.0
 32
0.0
 14
1.000000000000000E+20
 24
1.000000000000000E+20
 34
1.000000000000000E+20
 15
-1.000000000000000E+20
 25
-1.000000000000000E+20
 35
-1.000000000000000E+20
146
0.0
 13
0.0
 23
0.0
 33
0.0
 16
1.0
 26
0.0
 36
0.0
 17
0.0
 27
1.0
 37
0.0
 76
     0
330
1F
331
29
  0
MATERIAL
  5
45
102
{ACAD_REACTORS
330
43
102
}
330
43
100
AcDbMaterial
  1
ByBlock
 72
     1
 94
      127
  0
MATERIAL
  5
44
102
{ACAD_REACTORS
330
43
102
}
330
43
100
AcDbMaterial
  1
ByLayer
 72
     1
 94
      127
  0
MATERIAL
  5
46
102
{ACAD_REACTORS
330
43
102
}
330
43
100
AcDbMaterial
  1
Global
 72
     1
 94
      127
  0
MLEADERSTYLE
  5
6C
102
{ACAD_REACTORS
330
6B
102
}
330
6B
100
AcDbMLeaderStyle
179
     2
170
     2
171
     1
172
     0
 90
        2
 40
0.0
 41
0.0
173
     1
 91
-1056964608
340
14
 92
       -2
290
     1
 42
0.09
291
     1
 43
0.36
  3
Standard
341
0
 44
0.18
300

342
11
174
     1
178
     6
175
     1
176
     0
 93
-1056964608
 45
0.18
292
     0
297
     0
 46
0.18
343
0
 94
-1056964608
 47
1.0
 49
1.0
140
1.0
293
     1
141
0.0
294
     1
177
     0
142
1.0
295
     0
296
     0
143
0.125
271
     0
272
     9
273
     9
298
     0
  0
MLINESTYLE
  5
18
102
{ACAD_REACTORS
330
17
102
}
330
17
100
AcDbMlineStyle
  2
Standard
 70
     0
  3

 62
   256
 51
90.0
 52
90.0
 71
     2
 49
0.5
 62
   256
  6
BYLAYER
 49
-0.5
 62
   256
  6
BYLAYER
  0
ACDBPLACEHOLDER
  5
F
102
{ACAD_REACTORS
330
E
102
}
330
E
  0
SCALE
  5
48
102
{ACAD_REACTORS
330
47
102
}
330
47
100
AcDbScale
 70
     0
300
1:1
140
1.0
141
1.0
290
     1
  0
SCALE
  5
49
102
{ACAD_REACTORS
330
47
102
}
330
47
100
AcDbScale
 70
     0
300
1:2
140
1.0
141
2.0
290
     0
  0
SCALE
  5
4A
102
{ACAD_REACTORS
330
47
102
}
330
47
100
AcDbScale
 70
     0
300
1:4
140
1.0
141
4.0
290
     0
  0
SCALE
  5
4B
102
{ACAD_REACTORS
330
47
102
}
330
47
100
AcDbScale
 70
     0
300
1:5
140
1.0
141
5.0
290
     0
  0
SCALE
  5
4C
102
{ACAD_REACTORS
330
47
102
}
330
47
100
AcDbScale
 70
     0
300
1:8
140
1.0
141
8.0
290
     0
  0
SCALE
  5
4D
102
{ACAD_REACTORS
330
47
102
}
330
47
100
AcDbScale
 70
     0
300
1:10
140
1.0
141
10.0
290
     0
  0
SCALE
  5
4E
102
{ACAD_REACTORS
330
47
102
}
330
47
100
AcDbScale
 70
     0
300
1:16
140
1.0
141
16.0
290
     0
  0
SCALE
  5
4F
102
{ACAD_REACTORS
330
47
102
}
330
47
100
AcDbScale
 70
     0
300
1:20
140
1.0
141
20.0
290
     0
  0
SCALE
  5
50
102
{ACAD_REACTORS
330
47
102
}
330
47
100
AcDbScale
 70
     0
300
1:30
140
1.0
141
30.0
290
     0
  0
SCALE
  5
51
102
{ACAD_REACTORS
330
47
102
}
330
47
100
AcDbScale
 70
     0
300
1:40
140
1.0
141
40.0
290
     0
  0
SCALE
  5
52
102
{ACAD_REACTORS
330
47
102
}
330
47
100
AcDbScale
 70
     0
300
1:50
140
1.0
141
50.0
290
     0
  0
SCALE
  5
53
102
{ACAD_REACTORS
330
47
102
}
330
47
100
AcDbScale
 70
     0
300
1:100
140
1.0
141
100.0
290
     0
  0
SCALE
  5
54
102
{ACAD_REACTORS
330
47
102
}
330
47
100
AcDbScale
 70
     0
300
2:1
140
2.0
141
1.0
290
     0
  0
SCALE
  5
55
102
{ACAD_REACTORS
330
47
102
}
330
47
100
AcDbScale
 70
     0
300
4:1
140
4.0
141
1.0
290
     0
  0
SCALE
  5
56
102
{ACAD_REACTORS
330
47
102
}
330
47
100
AcDbScale
 70
     0
300
8:1
140
8.0
141
1.0
290
     0
  0
SCALE
  5
57
102
{ACAD_REACTORS
330
47
102
}
330
47
100
AcDbScale
 70
     0
300
10:1
140
10.0
141
1.0
290
     0
  0
SCALE
  5
58
102
{ACAD_REACTORS
330
47
102
}
330
47
100
AcDbScale
 70
     0
300
100:1
140
100.0
141
1.0
290
     0
  0
SCALE
  5
59
102
{ACAD_REACTORS
330
47
102
}
330
47
100
AcDbScale
 70
     0
300
1/128" = 1'-0"
140
0.0078125
141
12.0
290
     0
  0
SCALE
  5
5A
102
{ACAD_REACTORS
330
47
102
}
330
47
100
AcDbScale
 70
     0
300
1/64" = 1'-0"
140
0.015625
141
12.0
290
     0
  0
SCALE
  5
5B
102
{ACAD_REACTORS
330
47
102
}
330
47
100
AcDbScale
 70
     0
300
1/32" = 1'-0"
140
0.03125
141
12.0
290
     0
  0
SCALE
  5
5C
102
{ACAD_REACTORS
330
47
102
}
330
47
100
AcDbScale
 70
     0
300
1/16" = 1'-0"
140
0.0625
141
12.0
290
     0
  0
SCALE
  5
5D
102
{ACAD_REACTORS
330
47
102
}
330
47
100
AcDbScale
 70
     0
300
3/32" = 1'-0"
140
0.09375
141
12.0
290
     0
  0
SCALE
  5
5E
102
{ACAD_REACTORS
330
47
102
}
330
47
100
AcDbScale
 70
     0
300
1/8" = 1'-0"
140
0.125
141
12.0
290
     0
  0
SCALE
  5
5F
102
{ACAD_REACTORS
330
47
102
}
330
47
100
AcDbScale
 70
     0
300
3/16" = 1'-0"
140
0.1875
141
12.0
290
     0
  0
SCALE
  5
60
102
{ACAD_REACTORS
330
47
102
}
330
47
100
AcDbScale
 70
     0
300
1/4" = 1'-0"
140
0.25
141
12.0
290
     0
  0
SCALE
  5
61
102
{ACAD_REACTORS
330
47
102
}
330
47
100
AcDbScale
 70
     0
300
3/8" = 1'-0"
140
0.375
141
12.0
290
     0
  0
SCALE
  5
62
102
{ACAD_REACTORS
330
47
102
}
330
47
100
AcDbScale
 70
     0
300
1/2" = 1'-0"
140
0.5
141
12.0
290
     0
  0
SCALE
  5
63
102
{ACAD_REACTORS
330
47
102
}
330
47
100
AcDbScale
 70
     0
300
3/4" = 1'-0"
140
0.75
141
12.0
290
     0
  0
SCALE
  5
64
102
{ACAD_REACTORS
330
47
102
}
330
47
100
AcDbScale
 70
     0
300
1" = 1'-0"
140
1.0
141
12.0
290
     0
  0
SCALE
  5
65
102
{ACAD_REACTORS
330
47
102
}
330
47
100
AcDbScale
 70
     0
300
1-1/2" = 1'-0"
140
1.5
141
12.0
290
     0
  0
SCALE
  5
66
102
{ACAD_REACTORS
330
47
102
}
330
47
100
AcDbScale
 70
     0
300
3" = 1'-0"
140
3.0
141
12.0
290
     0
  0
SCALE
  5
67
102
{ACAD_REACTORS
330
47
102
}
330
47
100
AcDbScale
 70
     0
300
6" = 1'-0"
140
6.0
141
12.0
290
     0
  0
SCALE
  5
68
102
{ACAD_REACTORS
330
47
102
}
330
47
100
AcDbScale
 70
     0
300
1'-0" = 1'-0"
140
12.0
141
12.0
290
     0
  0
TABLESTYLE
  5
6A
102
{ACAD_REACTORS
330
69
102
}
102
{ACAD_XDICTIONARY
360
232
102
}
330
69
100
AcDbTableStyle
  3
Standard
 70
     0
 71
     0
 40
0.06
 41
0.06
280
     0
281
     0
  7
Standard
140
0.18
170
     2
 62
     0
 63
   257
283
     0
 90
        4
 91
        0
  1

274
    -2
284
     1
 64
     0
275
    -2
285
     1
 65
     0
276
    -2
286
     1
 66
     0
277
    -2
287
     1
 67
     0
278
    -2
288
     1
 68
     0
279
    -2
289
     1
 69
     0
  7
Standard
140
0.25
170
     5
 62
     0
 63
   257
283
     0
 90
        4
 91
        0
  1

274
    -2
284
     1
 64
     0
275
    -2
285
     1
 65
     0
276
    -2
286
     1
 66
     0
277
    -2
287
     1
 67
     0
278
    -2
288
     1
 68
     0
279
    -2
289
     1
 69
     0
  7
Standard
140
0.18
170
     5
 62
     0
 63
   257
283
     0
 90
        4
 91
        0
  1

274
    -2
284
     1
 64
     0
275
    -2
285
     1
 65
     0
276
    -2
286
     1
 66
     0
277
    -2
287
     1
 67
     0
278
    -2
288
     1
 68
     0
279
    -2
289
     1
 69
     0
  0
VISUALSTYLE
  5
2F
102
{ACAD_REACTORS
330
2A
102
}
330
2A
100
AcDbVisualStyle
  2
2dWireframe
 70
     4
177
     3
291
     0
 70
    58
 90
        0
176
     1
 90
        2
176
     1
 90
        0
176
     1
 90
        0
176
     1
 40
0.6
176
     1
 40
30.0
176
     1
 62
     7
420
 16777215
176
     1
 90
        1
176
     1
 90
        4
176
     1
 62
     7
176
     1
 62
   257
176
     1
 90
        1
176
     1
 90
        1
176
     1
 40
1.0
176
     1
 90
        0
176
     1
 62
   257
176
     1
 40
1.0
176
     1
 90
        1
176
     1
 90
        6
176
     1
 90
        2
176
     1
 62
     7
176
     1
 90
        5
176
     1
 90
        0
176
     1
 90
        0
176
     1
290
     0
176
     1
 90
        1
176
     1
 40
0.0
176
     1
 90
        0
176
     1
290
     1
176
     1
290
     1
176
     1
290
     0
176
     1
290
     0
176
     1
290
     0
176
     1
290
     0
176
     1
290
     0
176
     1
290
     0
176
     1
290
     0
176
     1
 90
       50
176
     1
 40
0.0
176
     1
 40
1.0
176
     1
 90
        0
176
     1
 62
    18
420
        0
176
     1
 90
       50
176
     1
 90
        3
176
     1
 62
     5
420
      255
176
     1
290
     0
176
     1
 90
       50
176
     1
 90
       50
176
     1
 90
       50
176
     1
290
     0
176
     1
 90
       50
176
     1
 62
   256
176
     0
 40
1.0
176
     0
 90
        2
176
     1
  1
strokes_ogs.tif
176
     1
290
     0
176
     1
 40
1.0
176
     1
 40
1.0
176
     1
  0
VISUALSTYLE
  5
32
102
{ACAD_REACTORS
330
2A
102
}
330
2A
100
AcDbVisualStyle
  2
Basic
 70
     7
177
     3
291
     1
 70
    58
 90
        1
176
     1
 90
        0
176
     1
 90
        1
176
     1
 90
        0
176
     1
 40
0.6
176
     1
 40
30.0
176
     1
 62
     7
420
 16777215
176
     1
 90
        0
176
     1
 90
        4
176
     1
 62
     7
176
     1
 62
   257
176
     1
 90
        1
176
     1
 90
        1
176
     1
 40
1.0
176
     1
 90
        8
176
     1
 62
     7
176
     1
 40
1.0
176
     1
 90
        1
176
     1
 90
        6
176
     1
 90
        2
176
     1
 62
     7
176
     1
 90
        5
176
     1
 90
        0
176
     1
 90
        0
176
     1
290
     0
176
     1
 90
        1
176
     1
 40
0.0
176
     1
 90
        0
176
     1
290
     0
176
     1
290
     1
176
     1
290
     1
176
     1
290
     0
176
     1
290
     0
176
     1
290
     0
176
     1
290
     0
176
     1
290
     0
176
     1
290
     0
176
     1
 90
       50
176
     1
 40
0.0
176
     1
 40
1.0
176
     1
 90
        0
176
     1
 62
    18
420
        0
176
     1
 90
       50
176
     1
 90
        3
176
     1
 62
     5
420
      255
176
     1
290
     0
176
     1
 90
       50
176
     1
 90
       50
176
     1
 90
       50
176
     1
290
     0
176
     1
 90
       50
176
     1
 62
   256
176
     0
 40
1.0
176
     0
 90
        2
176
     1
  1
strokes_ogs.tif
176
     1
290
     0
176
     1
 40
1.0
176
     1
 40
1.0
176
     1
  0
VISUALSTYLE
  5
36
102
{ACAD_REACTORS
330
2A
102
}
330
2A
100
AcDbVisualStyle
  2
Brighten
 70
    12
177
     3
291
     1
 70
    58
 90
        2
176
     1
 90
        2
176
     1
 90
        0
176
     1
 90
        0
176
     1
 40
0.6
176
     1
 40
30.0
176
     1
 62
     7
420
 16777215
176
     1
 90
        1
176
     1
 90
        4
176
     1
 62
     7
176
     1
 62
   257
176
     1
 90
        1
176
     1
 90
        1
176
     1
 40
1.0
176
     1
 90
        8
176
     1
 62
     7
176
     1
 40
1.0
176
     1
 90
        1
176
     1
 90
        6
176
     1
 90
        2
176
     1
 62
     7
176
     1
 90
        5
176
     1
 90
        0
176
     1
 90
        0
176
     1
290
     0
176
     1
 90
        1
176
     1
 40
50.0
176
     1
 90
        0
176
     1
290
     0
176
     1
290
     1
176
     1
290
     1
176
     1
290
     0
176
     1
290
     0
176
     1
290
     0
176
     1
290
     0
176
     1
290
     0
176
     1
290
     0
176
     1
 90
       50
176
     1
 40
0.0
176
     1
 40
1.0
176
     1
 90
        0
176
     1
 62
    18
420
        0
176
     1
 90
       50
176
     1
 90
        3
176
     1
 62
     5
420
      255
176
     1
290
     0
176
     1
 90
       50
176
     1
 90
       50
176
     1
 90
       50
176
     1
290
     0
176
     1
 90
       50
176
     1
 62
   256
176
     0
 40
1.0
176
     0
 90
        2
176
     1
  1
strokes_ogs.tif
176
     1
290
     0
176
     1
 40
1.0
176
     1
 40
1.0
176
     1
  0
VISUALSTYLE
  5
3A
102
{ACAD_REACTORS
330
2A
102
}
330
2A
100
AcDbVisualStyle
  2
ColorChange
 70
    16
177
     3
291
     1
 70
    58
 90
        2
176
     1
 90
        2
176
     1
 90
        3
176
     1
 90
        0
176
     1
 40
0.6
176
     1
 40
30.0
176
     1
 62
     8
420
  8421504
176
     1
 90
        1
176
     1
 90
        4
176
     1
 62
     7
176
     1
 62
   257
176
     1
 90
        1
176
     1
 90
        1
176
     1
 40
1.0
176
     1
 90
        8
176
     1
 62
     8
420
  8421504
176
     1
 40
1.0
176
     1
 90
        1
176
     1
 90
        6
176
     1
 90
        2
176
     1
 62
     7
176
     1
 90
        5
176
     1
 90
        0
176
     1
 90
        0
176
     1
290
     0
176
     1
 90
        1
176
     1
 40
0.0
176
     1
 90
        0
176
     1
290
     0
176
     1
290
     1
176
     1
290
     1
176
     1
290
     0
176
     1
290
     0
176
     1
290
     0
176
     1
290
     0
176
     1
290
     0
176
     1
290
     0
176
     1
 90
       50
176
     1
 40
0.0
176
     1
 40
1.0
176
     1
 90
        0
176
     1
 62
    18
420
        0
176
     1
 90
       50
176
     1
 90
        3
176
     1
 62
     5
420
      255
176
     1
290
     0
176
     1
 90
       50
176
     1
 90
       50
176
     1
 90
       50
176
     1
290
     0
176
     1
 90
       50
176
     1
 62
   256
176
     0
 40
1.0
176
     0
 90
        2
176
     1
  1
strokes_ogs.tif
176
     1
290
     0
176
     1
 40
1.0
176
     1
 40
1.0
176
     1
  0
VISUALSTYLE
  5
34
102
{ACAD_REACTORS
330
2A
102
}
330
2A
100
AcDbVisualStyle
  2
Conceptual
 70
     9
177
     3
291
     0
 70
    58
 90
        3
176
     1
 90
        2
176
     1
 90
        0
176
     1
 90
        0
176
     1
 40
0.6
176
     1
 40
30.0
176
     1
 62
     7
420
 16777215
176
     1
 90
        2
176
     1
 90
        2
176
     1
 62
     7
176
     1
 62
   257
176
     1
 90
        1
176
     1
 90
        1
176
     1
 40
179.0
176
     1
 90
        8
176
     1
 62
     7
176
     1
 40
1.0
176
     1
 90
        1
176
     1
 90
        6
176
     1
 90
        2
176
     1
 62
     7
176
     1
 90
        3
176
     1
 90
        0
176
     1
 90
        0
176
     1
290
     0
176
     1
 90
        1
176
     1
 40
0.0
176
     1
 90
        0
176
     1
290
     0
176
     1
290
     1
176
     1
290
     1
176
     1
290
     0
176
     1
290
     0
176
     1
290
     0
176
     1
290
     0
176
     1
290
     0
176
     1
290
     0
176
     1
 90
       50
176
     1
 40
0.0
176
     1
 40
1.0
176
     1
 90
        0
176
     1
 62
    18
420
        0
176
     1
 90
       50
176
     1
 90
        3
176
     1
 62
     5
420
      255
176
     1
290
     0
176
     1
 90
       50
176
     1
 90
       50
176
     1
 90
       50
176
     1
290
     0
176
     1
 90
       50
176
     1
 62
   256
176
     0
 40
1.0
176
     0
 90
        2
176
     1
  1
strokes_ogs.tif
176
     1
290
     0
176
     1
 40
1.0
176
     1
 40
1.0
176
     1
  0
VISUALSTYLE
  5
35
102
{ACAD_REACTORS
330
2A
102
}
330
2A
100
AcDbVisualStyle
  2
Dim
 70
    11
177
     3
291
     1
 70
    58
 90
        2
176
     1
 90
        2
176
     1
 90
        0
176
     1
 90
        0
176
     1
 40
0.6
176
     1
 40
30.0
176
     1
 62
     7
420
 16777215
176
     1
 90
        1
176
     1
 90
        4
176
     1
 62
     7
176
     1
 62
   257
176
     1
 90
        1
176
     1
 90
        1
176
     1
 40
1.0
176
     1
 90
        8
176
     1
 62
     7
176
     1
 40
1.0
176
     1
 90
        1
176
     1
 90
        6
176
     1
 90
        2
176
     1
 62
     7
176
     1
 90
        5
176
     1
 90
        0
176
     1
 90
        0
176
     1
290
     0
176
     1
 90
        1
176
     1
 40
-50.0
176
     1
 90
        0
176
     1
290
     0
176
     1
290
     1
176
     1
290
     1
176
     1
290
     0
176
     1
290
     0
176
     1
290
     0
176
     1
290
     0
176
     1
290
     0
176
     1
290
     0
176
     1
 90
       50
176
     1
 40
0.0
176
     1
 40
1.0
176
     1
 90
        0
176
     1
 62
    18
420
        0
176
     1
 90
       50
176
     1
 90
        3
176
     1
 62
     5
420
      255
176
     1
290
     0
176
     1
 90
       50
176
     1
 90
       50
176
     1
 90
       50
176
     1
290
     0
176
     1
 90
       50
176
     1
 62
   256
176
     0
 40
1.0
176
     0
 90
        2
176
     1
  1
strokes_ogs.tif
176
     1
290
     0
176
     1
 40
1.0
176
     1
 40
1.0
176
     1
  0
VISUALSTYLE
  5
3D
102
{ACAD_REACTORS
330
2A
102
}
330
2A
100
AcDbVisualStyle
  2
EdgeColorOff
 70
    22
177
     3
291
     1
 70
    58
 90
        2
176
     0
 90
        2
176
     0
 90
        0
176
     0
 90
        0
176
     0
 40
0.6
176
     0
 40
30.0
176
     0
 62
     7
420
 16777215
176
     0
 90
        1
176
     0
 90
        4
176
     0
 62
     7
176
     0
 62
   257
176
     0
 90
        1
176
     0
 90
        1
176
     0
 40
1.0
176
     0
 90
        8
176
     2
 62
     7
176
     0
 40
1.0
176
     0
 90
        1
176
     0
 90
        6
176
     0
 90
        2
176
     0
 62
     7
176
     0
 90
        5
176
     0
 90
        0
176
     0
 90
        0
176
     0
290
     0
176
     0
 90
        1
176
     0
 40
0.0
176
     0
 90
        0
176
     0
290
     0
176
     0
290
     1
176
     0
290
     1
176
     0
290
     0
176
     0
290
     0
176
     0
290
     0
176
     0
290
     0
176
     0
290
     0
176
     0
290
     0
176
     0
 90
       50
176
     0
 40
0.0
176
     0
 40
1.0
176
     0
 90
        0
176
     0
 62
    18
420
        0
176
     0
 90
       50
176
     0
 90
        3
176
     0
 62
     5
420
      255
176
     0
290
     0
176
     0
 90
       50
176
     0
 90
       50
176
     0
 90
       50
176
     0
290
     0
176
     0
 90
       50
176
     0
 62
   256
176
     0
 40
1.0
176
     0
 90
        2
176
     0
  1
strokes_ogs.tif
176
     0
290
     0
176
     0
 40
1.0
176
     0
 40
1.0
176
     0
  0
VISUALSTYLE
  5
39
102
{ACAD_REACTORS
330
2A
102
}
330
2A
100
AcDbVisualStyle
  2
Facepattern
 70
    15
177
     3
291
     1
 70
    58
 90
        2
176
     1
 90
        2
176
     1
 90
        0
176
     1
 90
        0
176
     1
 40
0.6
176
     1
 40
30.0
176
     1
 62
     7
420
 16777215
176
     1
 90
        1
176
     1
 90
        4
176
     1
 62
     7
176
     1
 62
   257
176
     1
 90
        1
176
     1
 90
        1
176
     1
 40
1.0
176
     1
 90
        8
176
     1
 62
     7
176
     1
 40
1.0
176
     1
 90
        1
176
     1
 90
        6
176
     1
 90
        2
176
     1
 62
     7
176
     1
 90
        5
176
     1
 90
        0
176
     1
 90
        0
176
     1
290
     0
176
     1
 90
        1
176
     1
 40
0.0
176
     1
 90
        0
176
     1
290
     0
176
     1
290
     1
176
     1
290
     1
176
     1
290
     0
176
     1
290
     0
176
     1
290
     0
176
     1
290
     0
176
     1
290
     0
176
     1
290
     0
176
     1
 90
       50
176
     1
 40
0.0
176
     1
 40
1.0
176
     1
 90
        0
176
     1
 62
    18
420
        0
176
     1
 90
       50
176
     1
 90
        3
176
     1
 62
     5
420
      255
176
     1
290
     0
176
     1
 90
       50
176
     1
 90
       50
176
     1
 90
       50
176
     1
290
     0
176
     1
 90
       50
176
     1
 62
   256
176
     0
 40
1.0
176
     0
 90
        2
176
     1
  1
strokes_ogs.tif
176
     1
290
     0
176
     1
 40
1.0
176
     1
 40
1.0
176
     1
  0
VISUALSTYLE
  5
2B
102
{ACAD_REACTORS
330
2A
102
}
330
2A
100
AcDbVisualStyle
  2
Flat
 70
     0
177
     3
291
     1
 70
    58
 90
        2
176
     1
 90
        1
176
     1
 90
        1
176
     1
 90
        2
176
     1
 40
0.6
176
     1
 40
30.0
176
     1
 62
     7
420
 16777215
176
     1
 90
        0
176
     1
 90
        0
176
     1
 62
     7
176
     1
 62
   257
176
     1
 90
        1
176
     1
 90
        1
176
     1
 40
1.0
176
     1
 90
        8
176
     1
 62
     7
176
     1
 40
1.0
176
     1
 90
        1
176
     1
 90
        6
176
     1
 90
        2
176
     1
 62
     7
176
     1
 90
        5
176
     1
 90
        0
176
     1
 90
        0
176
     1
290
     0
176
     1
 90
       13
176
     1
 40
0.0
176
     1
 90
        0
176
     1
290
     0
176
     1
290
     1
176
     1
290
     1
176
     1
290
     0
176
     1
290
     0
176
     1
290
     0
176
     1
290
     0
176
     1
290
     0
176
     1
290
     0
176
     1
 90
       50
176
     1
 40
0.0
176
     1
 40
1.0
176
     1
 90
        0
176
     1
 62
    18
420
        0
176
     1
 90
       50
176
     1
 90
        3
176
     1
 62
     5
420
      255
176
     1
290
     0
176
     1
 90
       50
176
     1
 90
       50
176
     1
 90
       50
176
     1
290
     0
176
     1
 90
       50
176
     1
 62
   256
176
     0
 40
1.0
176
     0
 90
        2
176
     1
  1
strokes_ogs.tif
176
     1
290
     0
176
     1
 40
1.0
176
     1
 40
1.0
176
     1
  0
VISUALSTYLE
  5
2C
102
{ACAD_REACTORS
330
2A
102
}
330
2A
100
AcDbVisualStyle
  2
FlatWithEdges
 70
     1
177
     3
291
     1
 70
    58
 90
        2
176
     1
 90
        1
176
     1
 90
        1
176
     1
 90
        2
176
     1
 40
0.6
176
     1
 40
30.0
176
     1
 62
     7
420
 16777215
176
     1
 90
        1
176
     1
 90
        0
176
     1
 62
     7
176
     1
 62
   257
176
     1
 90
        1
176
     1
 90
        1
176
     1
 40
1.0
176
     1
 90
        0
176
     1
 62
   257
176
     1
 40
1.0
176
     1
 90
        1
176
     1
 90
        6
176
     1
 90
        2
176
     1
 62
     7
176
     1
 90
        5
176
     1
 90
        0
176
     1
 90
        0
176
     1
290
     0
176
     1
 90
       13
176
     1
 40
0.0
176
     1
 90
        0
176
     1
290
     0
176
     1
290
     1
176
     1
290
     1
176
     1
290
     0
176
     1
290
     0
176
     1
290
     0
176
     1
290
     0
176
     1
290
     0
176
     1
290
     0
176
     1
 90
       50
176
     1
 40
0.0
176
     1
 40
1.0
176
     1
 90
        0
176
     1
 62
    18
420
        0
176
     1
 90
       50
176
     1
 90
        3
176
     1
 62
     5
420
      255
176
     1
290
     0
176
     1
 90
       50
176
     1
 90
       50
176
     1
 90
       50
176
     1
290
     0
176
     1
 90
       50
176
     1
 62
   256
176
     0
 40
1.0
176
     0
 90
        2
176
     1
  1
strokes_ogs.tif
176
     1
290
     0
176
     1
 40
1.0
176
     1
 40
1.0
176
     1
  0
VISUALSTYLE
  5
2D
102
{ACAD_REACTORS
330
2A
102
}
330
2A
100
AcDbVisualStyle
  2
Gouraud
 70
     2
177
     3
291
     1
 70
    58
 90
        2
176
     1
 90
        2
176
     1
 90
        1
176
     1
 90
        2
176
     1
 40
0.6
176
     1
 40
30.0
176
     1
 62
     7
420
 16777215
176
     1
 90
        0
176
     1
 90
        0
176
     1
 62
     7
176
     1
 62
   257
176
     1
 90
        1
176
     1
 90
        1
176
     1
 40
1.0
176
     1
 90
        0
176
     1
 62
     7
176
     1
 40
1.0
176
     1
 90
        1
176
     1
 90
        6
176
     1
 90
        2
176
     1
 62
     7
176
     1
 90
        5
176
     1
 90
        0
176
     1
 90
        0
176
     1
290
     0
176
     1
 90
       13
176
     1
 40
0.0
176
     1
 90
        0
176
     1
290
     0
176
     1
290
     1
176
     1
290
     1
176
     1
290
     0
176
     1
290
     0
176
     1
290
     0
176
     1
290
     0
176
     1
290
     0
176
     1
290
     0
176
     1
 90
       50
176
     1
 40
0.0
176
     1
 40
1.0
176
     1
 90
        0
176
     1
 62
    18
420
        0
176
     1
 90
       50
176
     1
 90
        3
176
     1
 62
     5
420
      255
176
     1
290
     0
176
     1
 90
       50
176
     1
 90
       50
176
     1
 90
       50
176
     1
290
     0
176
     1
 90
       50
176
     1
 62
   256
176
     0
 40
1.0
176
     0
 90
        2
176
     1
  1
strokes_ogs.tif
176
     1
290
     0
176
     1
 40
1.0
176
     1
 40
1.0
176
     1
  0
VISUALSTYLE
  5
2E
102
{ACAD_REACTORS
330
2A
102
}
330
2A
100
AcDbVisualStyle
  2
GouraudWithEdges
 70
     3
177
     3
291
     1
 70
    58
 90
        2
176
     1
 90
        2
176
     1
 90
        1
176
     1
 90
        2
176
     1
 40
0.6
176
     1
 40
30.0
176
     1
 62
     7
420
 16777215
176
     1
 90
        1
176
     1
 90
        0
176
     1
 62
     7
176
     1
 62
   257
176
     1
 90
        1
176
     1
 90
        1
176
     1
 40
1.0
176
     1
 90
        0
176
     1
 62
   257
176
     1
 40
1.0
176
     1
 90
        1
176
     1
 90
        6
176
     1
 90
        2
176
     1
 62
     7
176
     1
 90
        5
176
     1
 90
        0
176
     1
 90
        0
176
     1
290
     0
176
     1
 90
       13
176
     1
 40
0.0
176
     1
 90
        0
176
     1
290
     0
176
     1
290
     1
176
     1
290
     1
176
     1
290
     0
176
     1
290
     0
176
     1
290
     0
176
     1
290
     0
176
     1
290
     0
176
     1
290
     0
176
     1
 90
       50
176
     1
 40
0.0
176
     1
 40
1.0
176
     1
 90
        0
176
     1
 62
    18
420
        0
176
     1
 90
       50
176
     1
 90
        3
176
     1
 62
     5
420
      255
176
     1
290
     0
176
     1
 90
       50
176
     1
 90
       50
176
     1
 90
       50
176
     1
290
     0
176
     1
 90
       50
176
     1
 62
   256
176
     0
 40
1.0
176
     0
 90
        2
176
     1
  1
strokes_ogs.tif
176
     1
290
     0
176
     1
 40
1.0
176
     1
 40
1.0
176
     1
  0
VISUALSTYLE
  5
31
102
{ACAD_REACTORS
330
2A
102
}
330
2A
100
AcDbVisualStyle
  2
Hidden
 70
     6
177
     3
291
     0
 70
    58
 90
        1
176
     1
 90
        2
176
     1
 90
        2
176
     1
 90
        0
176
     1
 40
0.6
176
     1
 40
30.0
176
     1
 62
     7
420
 16777215
176
     1
 90
        2
176
     1
 90
        2
176
     1
 62
     7
176
     1
 62
   257
176
     1
 90
        2
176
     1
 90
        1
176
     1
 40
40.0
176
     1
 90
        0
176
     1
 62
   257
176
     1
 40
1.0
176
     1
 90
        1
176
     1
 90
        6
176
     1
 90
        2
176
     1
 62
     7
176
     1
 90
        3
176
     1
 90
        0
176
     1
 90
        0
176
     1
290
     0
176
     1
 90
        1
176
     1
 40
0.0
176
     1
 90
        0
176
     1
290
     0
176
     1
290
     1
176
     1
290
     1
176
     1
290
     0
176
     1
290
     0
176
     1
290
     0
176
     1
290
     0
176
     1
290
     0
176
     1
290
     0
176
     1
 90
       50
176
     1
 40
0.0
176
     1
 40
1.0
176
     1
 90
        0
176
     1
 62
    18
420
        0
176
     1
 90
       50
176
     1
 90
        3
176
     1
 62
     5
420
      255
176
     1
290
     0
176
     1
 90
       50
176
     1
 90
       50
176
     1
 90
       50
176
     1
290
     0
176
     1
 90
       50
176
     1
 62
   256
176
     0
 40
1.0
176
     0
 90
        2
176
     1
  1
strokes_ogs.tif
176
     1
290
     0
176
     1
 40
1.0
176
     1
 40
1.0
176
     1
  0
VISUALSTYLE
  5
3B
102
{ACAD_REACTORS
330
2A
102
}
330
2A
100
AcDbVisualStyle
  2
JitterOff
 70
    20
177
     3
291
     1
 70
    58
 90
        2
176
     0
 90
        2
176
     0
 90
        0
176
     0
 90
        0
176
     0
 40
0.6
176
     0
 40
30.0
176
     0
 62
     7
420
 16777215
176
     0
 90
        1
176
     0
 90
        4
176
     0
 62
     7
176
     0
 62
   257
176
     0
 90
        1
176
     0
 90
        1
176
     0
 40
1.0
176
     0
 90
       10
176
     2
 62
     7
176
     0
 40
1.0
176
     0
 90
        1
176
     0
 90
        6
176
     0
 90
        2
176
     0
 62
     7
176
     0
 90
        5
176
     0
 90
        0
176
     0
 90
        0
176
     0
290
     0
176
     0
 90
        1
176
     0
 40
0.0
176
     0
 90
        0
176
     0
290
     0
176
     0
290
     1
176
     0
290
     1
176
     0
290
     0
176
     0
290
     0
176
     0
290
     0
176
     0
290
     0
176
     0
290
     0
176
     0
290
     0
176
     0
 90
       50
176
     0
 40
0.0
176
     0
 40
1.0
176
     0
 90
        0
176
     0
 62
    18
420
        0
176
     0
 90
       50
176
     0
 90
        3
176
     0
 62
     5
420
      255
176
     0
290
     0
176
     0
 90
       50
176
     0
 90
       50
176
     0
 90
       50
176
     0
290
     0
176
     0
 90
       50
176
     0
 62
   256
176
     0
 40
1.0
176
     0
 90
        2
176
     0
  1
strokes_ogs.tif
176
     0
290
     0
176
     0
 40
1.0
176
     0
 40
1.0
176
     0
  0
VISUALSTYLE
  5
38
102
{ACAD_REACTORS
330
2A
102
}
330
2A
100
AcDbVisualStyle
  2
Linepattern
 70
    14
177
     3
291
     1
 70
    58
 90
        2
176
     1
 90
        2
176
     1
 90
        0
176
     1
 90
        0
176
     1
 40
0.6
176
     1
 40
30.0
176
     1
 62
     7
420
 16777215
176
     1
 90
        1
176
     1
 90
        4
176
     1
 62
     7
176
     1
 62
   257
176
     1
 90
        7
176
     1
 90
        7
176
     1
 40
1.0
176
     1
 90
        8
176
     1
 62
     7
176
     1
 40
1.0
176
     1
 90
        1
176
     1
 90
        6
176
     1
 90
        2
176
     1
 62
     7
176
     1
 90
        5
176
     1
 90
        0
176
     1
 90
        0
176
     1
290
     0
176
     1
 90
        1
176
     1
 40
0.0
176
     1
 90
        0
176
     1
290
     0
176
     1
290
     1
176
     1
290
     1
176
     1
290
     0
176
     1
290
     0
176
     1
290
     0
176
     1
290
     0
176
     1
290
     0
176
     1
290
     0
176
     1
 90
       50
176
     1
 40
0.0
176
     1
 40
1.0
176
     1
 90
        0
176
     1
 62
    18
420
        0
176
     1
 90
       50
176
     1
 90
        3
176
     1
 62
     5
420
      255
176
     1
290
     0
176
     1
 90
       50
176
     1
 90
       50
176
     1
 90
       50
176
     1
290
     0
176
     1
 90
       50
176
     1
 62
   256
176
     0
 40
1.0
176
     0
 90
        2
176
     1
  1
strokes_ogs.tif
176
     1
290
     0
176
     1
 40
1.0
176
     1
 40
1.0
176
     1
  0
VISUALSTYLE
  5
3C
102
{ACAD_REACTORS
330
2A
102
}
330
2A
100
AcDbVisualStyle
  2
OverhangOff
 70
    21
177
     3
291
     1
 70
    58
 90
        2
176
     0
 90
        2
176
     0
 90
        0
176
     0
 90
        0
176
     0
 40
0.6
176
     0
 40
30.0
176
     0
 62
     7
420
 16777215
176
     0
 90
        1
176
     0
 90
        4
176
     0
 62
     7
176
     0
 62
   257
176
     0
 90
        1
176
     0
 90
        1
176
     0
 40
1.0
176
     0
 90
        9
176
     2
 62
     7
176
     0
 40
1.0
176
     0
 90
        1
176
     0
 90
        6
176
     0
 90
        2
176
     0
 62
     7
176
     0
 90
        5
176
     0
 90
        0
176
     0
 90
        0
176
     0
290
     0
176
     0
 90
        1
176
     0
 40
0.0
176
     0
 90
        0
176
     0
290
     0
176
     0
290
     1
176
     0
290
     1
176
     0
290
     0
176
     0
290
     0
176
     0
290
     0
176
     0
290
     0
176
     0
290
     0
176
     0
290
     0
176
     0
 90
       50
176
     0
 40
0.0
176
     0
 40
1.0
176
     0
 90
        0
176
     0
 62
    18
420
        0
176
     0
 90
       50
176
     0
 90
        3
176
     0
 62
     5
420
      255
176
     0
290
     0
176
     0
 90
       50
176
     0
 90
       50
176
     0
 90
       50
176
     0
290
     0
176
     0
 90
       50
176
     0
 62
   256
176
     0
 40
1.0
176
     0
 90
        2
176
     0
  1
strokes_ogs.tif
176
     0
290
     0
176
     0
 40
1.0
176
     0
 40
1.0
176
     0
  0
VISUALSTYLE
  5
33
102
{ACAD_REACTORS
330
2A
102
}
330
2A
100
AcDbVisualStyle
  2
Realistic
 70
     8
177
     3
291
     0
 70
    58
 90
        2
176
     1
 90
        3
176
     1
 90
        0
176
     1
 90
        2
176
     1
 40
0.6
176
     1
 40
30.0
176
     1
 62
     7
420
 16777215
176
     1
 90
        0
176
     1
 90
        0
176
     1
 62
     7
176
     1
 62
   257
176
     1
 90
        1
176
     1
 90
        1
176
     1
 40
1.0
176
     1
 90
        8
176
     1
 62
   257
176
     1
 40
1.0
176
     1
 90
        1
176
     1
 90
        6
176
     1
 90
        2
176
     1
 62
     7
176
     1
 90
        3
176
     1
 90
        0
176
     1
 90
        0
176
     1
290
     0
176
     1
 90
       13
176
     1
 40
0.0
176
     1
 90
        0
176
     1
290
     0
176
     1
290
     1
176
     1
290
     1
176
     1
290
     0
176
     1
290
     0
176
     1
290
     0
176
     1
290
     0
176
     1
290
     0
176
     1
290
     0
176
     1
 90
       50
176
     1
 40
0.0
176
     1
 40
1.0
176
     1
 90
        0
176
     1
 62
    18
420
        0
176
     1
 90
       50
176
     1
 90
        3
176
     1
 62
     5
420
      255
176
     1
290
     0
176
     1
 90
       50
176
     1
 90
       50
176
     1
 90
       50
176
     1
290
     0
176
     1
 90
       50
176
     1
 62
   256
176
     0
 40
1.0
176
     0
 90
        2
176
     1
  1
strokes_ogs.tif
176
     1
290
     0
176
     1
 40
1.0
176
     1
 40
1.0
176
     1
  0
VISUALSTYLE
  5
42
102
{ACAD_REACTORS
330
2A
102
}
330
2A
100
AcDbVisualStyle
  2
Shaded
 70
    27
177
     3
291
     0
 70
    58
 90
        2
176
     1
 90
        2
176
     1
 90
        1
176
     1
 90
        2
176
     1
 40
0.6
176
     1
 40
30.0
176
     1
 62
     7
420
 16777215
176
     1
 90
        0
176
     1
 90
        4
176
     1
 62
     7
176
     1
 62
   257
176
     1
 90
        1
176
     1
 90
        1
176
     1
 40
1.0
176
     1
 90
        8
176
     1
 62
   257
176
     1
 40
1.0
176
     1
 90
        1
176
     1
 90
        6
176
     1
 90
        2
176
     1
 62
     8
420
  7895160
176
     1
 90
        3
176
     1
 90
        0
176
     1
 90
        0
176
     1
290
     0
176
     1
 90
        5
176
     1
 40
0.0
176
     1
 90
        0
176
     1
290
     0
176
     1
290
     1
176
     1
290
     1
176
     1
290
     0
176
     1
290
     0
176
     1
290
     0
176
     1
290
     0
176
     1
290
     0
176
     1
290
     0
176
     1
 90
       50
176
     1
 40
0.0
176
     1
 40
1.0
176
     1
 90
        0
176
     1
 62
    18
420
        0
176
     1
 90
       50
176
     1
 90
        3
176
     1
 62
     5
420
      255
176
     1
290
     0
176
     1
 90
       50
176
     1
 90
       50
176
     1
 90
       50
176
     1
290
     0
176
     1
 90
       50
176
     1
 62
   256
176
     0
 40
1.0
176
     0
 90
        2
176
     1
  1
strokes_ogs.tif
176
     1
290
     0
176
     1
 40
1.0
176
     1
 40
1.0
176
     1
  0
VISUALSTYLE
  5
41
102
{ACAD_REACTORS
330
2A
102
}
330
2A
100
AcDbVisualStyle
  2
Shaded with edges
 70
    26
177
     3
291
     0
 70
    58
 90
        2
176
     1
 90
        2
176
     1
 90
        1
176
     1
 90
        2
176
     1
 40
0.6
176
     1
 40
30.0
176
     1
 62
     7
420
 16777215
176
     1
 90
        1
176
     1
 90
       10
176
     1
 62
     7
176
     1
 62
   257
176
     1
 90
        2
176
     1
 90
        1
176
     1
 40
1.0
176
     1
 90
        8
176
     1
 62
   257
176
     1
 40
1.0
176
     1
 90
        1
176
     1
 90
        6
176
     1
 90
        2
176
     1
 62
     7
176
     1
 90
        3
176
     1
 90
        0
176
     1
 90
        0
176
     1
290
     0
176
     1
 90
        5
176
     1
 40
0.0
176
     1
 90
        0
176
     1
290
     0
176
     1
290
     1
176
     1
290
     1
176
     1
290
     0
176
     1
290
     0
176
     1
290
     0
176
     1
290
     0
176
     1
290
     0
176
     1
290
     0
176
     1
 90
       50
176
     1
 40
0.0
176
     1
 40
1.0
176
     1
 90
        0
176
     1
 62
    18
420
        0
176
     1
 90
       50
176
     1
 90
        3
176
     1
 62
     5
420
      255
176
     1
290
     0
176
     1
 90
       50
176
     1
 90
       50
176
     1
 90
       50
176
     1
290
     0
176
     1
 90
       50
176
     1
 62
   256
176
     0
 40
1.0
176
     0
 90
        2
176
     1
  1
strokes_ogs.tif
176
     1
290
     0
176
     1
 40
1.0
176
     1
 40
1.0
176
     1
  0
VISUALSTYLE
  5
3E
102
{ACAD_REACTORS
330
2A
102
}
330
2A
100
AcDbVisualStyle
  2
Shades of Gray
 70
    23
177
     3
291
     0
 70
    58
 90
        2
176
     1
 90
        2
176
     1
 90
        3
176
     1
 90
        0
176
     1
 40
0.6
176
     1
 40
30.0
176
     1
 62
     7
420
 16777215
176
     1
 90
        2
176
     1
 90
        2
176
     1
 62
     7
176
     1
 62
     7
176
     1
 90
        1
176
     1
 90
        1
176
     1
 40
40.0
176
     1
 90
        8
176
     1
 62
     7
176
     1
 40
1.0
176
     1
 90
        1
176
     1
 90
        6
176
     1
 90
        2
176
     1
 62
     7
176
     1
 90
        3
176
     1
 90
        0
176
     1
 90
        0
176
     1
290
     0
176
     1
 90
        1
176
     1
 40
0.0
176
     1
 90
        0
176
     1
290
     0
176
     1
290
     1
176
     1
290
     1
176
     1
290
     0
176
     1
290
     0
176
     1
290
     0
176
     1
290
     0
176
     1
290
     0
176
     1
290
     0
176
     1
 90
       50
176
     1
 40
0.0
176
     1
 40
1.0
176
     1
 90
        0
176
     1
 62
    18
420
        0
176
     1
 90
       50
176
     1
 90
        3
176
     1
 62
     5
420
      255
176
     1
290
     0
176
     1
 90
       50
176
     1
 90
       50
176
     1
 90
       50
176
     1
290
     0
176
     1
 90
       50
176
     1
 62
   256
176
     0
 40
1.0
176
     0
 90
        2
176
     1
  1
strokes_ogs.tif
176
     1
290
     0
176
     1
 40
1.0
176
     1
 40
1.0
176
     1
  0
VISUALSTYLE
  5
3F
102
{ACAD_REACTORS
330
2A
102
}
330
2A
100
AcDbVisualStyle
  2
Sketchy
 70
    24
177
     3
291
     0
 70
    58
 90
        1
176
     1
 90
        2
176
     1
 90
        2
176
     1
 90
        0
176
     1
 40
0.6
176
     1
 40
30.0
176
     1
 62
     7
420
 16777215
176
     1
 90
        2
176
     1
 90
        2
176
     1
 62
     7
176
     1
 62
     7
176
     1
 90
        1
176
     1
 90
        1
176
     1
 40
40.0
176
     1
 90
       11
176
     1
 62
     7
176
     1
 40
1.0
176
     1
 90
        1
176
     1
 90
        6
176
     1
 90
        2
176
     1
 62
     7
176
     1
 90
        6
176
     1
 90
        0
176
     1
 90
        0
176
     1
290
     0
176
     1
 90
        1
176
     1
 40
0.0
176
     1
 90
        0
176
     1
290
     0
176
     1
290
     1
176
     1
290
     1
176
     1
290
     0
176
     1
290
     0
176
     1
290
     0
176
     1
290
     0
176
     1
290
     0
176
     1
290
     0
176
     1
 90
       50
176
     1
 40
0.0
176
     1
 40
1.0
176
     1
 90
        0
176
     1
 62
    18
420
        0
176
     1
 90
       50
176
     1
 90
        3
176
     1
 62
     5
420
      255
176
     1
290
     0
176
     1
 90
       50
176
     1
 90
       50
176
     1
 90
       50
176
     1
290
     0
176
     1
 90
       50
176
     1
 62
   256
176
     0
 40
1.0
176
     0
 90
        2
176
     1
  1
strokes_ogs.tif
176
     1
290
     0
176
     1
 40
1.0
176
     1
 40
1.0
176
     1
  0
VISUALSTYLE
  5
37
102
{ACAD_REACTORS
330
2A
102
}
330
2A
100
AcDbVisualStyle
  2
Thicken
 70
    13
177
     3
291
     1
 70
    58
 90
        2
176
     1
 90
        2
176
     1
 90
        0
176
     1
 90
        0
176
     1
 40
0.6
176
     1
 40
30.0
176
     1
 62
     7
420
 16777215
176
     1
 90
        1
176
     1
 90
        4
176
     1
 62
     7
176
     1
 62
   257
176
     1
 90
        1
176
     1
 90
        1
176
     1
 40
1.0
176
     1
 90
       12
176
     1
 62
     7
176
     1
 40
1.0
176
     1
 90
        1
176
     1
 90
        6
176
     1
 90
        2
176
     1
 62
     7
176
     1
 90
        5
176
     1
 90
        0
176
     1
 90
        0
176
     1
290
     0
176
     1
 90
        1
176
     1
 40
0.0
176
     1
 90
        0
176
     1
290
     0
176
     1
290
     1
176
     1
290
     1
176
     1
290
     0
176
     1
290
     0
176
     1
290
     0
176
     1
290
     0
176
     1
290
     0
176
     1
290
     0
176
     1
 90
       50
176
     1
 40
0.0
176
     1
 40
1.0
176
     1
 90
        0
176
     1
 62
    18
420
        0
176
     1
 90
       50
176
     1
 90
        3
176
     1
 62
     5
420
      255
176
     1
290
     0
176
     1
 90
       50
176
     1
 90
       50
176
     1
 90
       50
176
     1
290
     0
176
     1
 90
       50
176
     1
 62
   256
176
     0
 40
1.0
176
     0
 90
        2
176
     1
  1
strokes_ogs.tif
176
     1
290
     0
176
     1
 40
1.0
176
     1
 40
1.0
176
     1
  0
VISUALSTYLE
  5
30
102
{ACAD_REACTORS
330
2A
102
}
330
2A
100
AcDbVisualStyle
  2
Wireframe
 70
     5
177
     3
291
     0
 70
    58
 90
        0
176
     1
 90
        2
176
     1
 90
        0
176
     1
 90
        0
176
     1
 40
0.6
176
     1
 40
30.0
176
     1
 62
     7
420
 16777215
176
     1
 90
        1
176
     1
 90
        4
176
     1
 62
     7
176
     1
 62
   257
176
     1
 90
        1
176
     1
 90
        1
176
     1
 40
1.0
176
     1
 90
        0
176
     1
 62
   257
176
     1
 40
1.0
176
     1
 90
        1
176
     1
 90
        6
176
     1
 90
        2
176
     1
 62
     7
176
     1
 90
        3
176
     1
 90
        0
176
     1
 90
        0
176
     1
290
     0
176
     1
 90
        1
176
     1
 40
0.0
176
     1
 90
        0
176
     1
290
     0
176
     1
290
     1
176
     1
290
     1
176
     1
290
     0
176
     1
290
     0
176
     1
290
     0
176
     1
290
     0
176
     1
290
     0
176
     1
290
     0
176
     1
 90
       50
176
     1
 40
0.0
176
     1
 40
1.0
176
     1
 90
        0
176
     1
 62
    18
420
        0
176
     1
 90
       50
176
     1
 90
        3
176
     1
 62
     5
420
      255
176
     1
290
     0
176
     1
 90
       50
176
     1
 90
       50
176
     1
 90
       50
176
     1
290
     0
176
     1
 90
       50
176
     1
 62
   256
176
     0
 40
1.0
176
     0
 90
        2
176
     1
  1
strokes_ogs.tif
176
     1
290
     0
176
     1
 40
1.0
176
     1
 40
1.0
176
     1
  0
VISUALSTYLE
  5
40
102
{ACAD_REACTORS
330
2A
102
}
330
2A
100
AcDbVisualStyle
  2
X-Ray
 70
    25
177
     3
291
     0
 70
    58
 90
        2
176
     1
 90
        2
176
     1
 90
        1
176
     1
 90
        1
176
     1
 40
0.5
176
     1
 40
30.0
176
     1
 62
     7
420
 16777215
176
     1
 90
        1
176
     1
 90
        0
176
     1
 62
     7
176
     1
 62
   257
176
     1
 90
        1
176
     1
 90
        1
176
     1
 40
1.0
176
     1
 90
        8
176
     1
 62
     7
176
     1
 40
1.0
176
     1
 90
        1
176
     1
 90
        6
176
     1
 90
        2
176
     1
 62
     7
176
     1
 90
        3
176
     1
 90
        0
176
     1
 90
        0
176
     1
290
     0
176
     1
 90
       13
176
     1
 40
0.0
176
     1
 90
        0
176
     1
290
     0
176
     1
290
     1
176
     1
290
     1
176
     1
290
     0
176
     1
290
     0
176
     1
290
     0
176
     1
290
     0
176
     1
290
     0
176
     1
290
     0
176
     1
 90
       50
176
     1
 40
0.0
176
     1
 40
1.0
176
     1
 90
        0
176
     1
 62
    18
420
        0
176
     1
 90
       50
176
     1
 90
        3
176
     1
 62
     5
420
      255
176
     1
290
     0
176
     1
 90
       50
176
     1
 90
       50
176
     1
 90
       50
176
     1
290
     0
176
     1
 90
       50
176
     1
 62
   256
176
     0
 40
1.0
176
     0
 90
        2
176
     1
  1
strokes_ogs.tif
176
     1
290
     0
176
     1
 40
1.0
176
     1
 40
1.0
176
     1
  0
DICTIONARYVAR
  5
231
102
{ACAD_REACTORS
330
230
102
}
330
230
100
DictionaryVariables
280
     0
  1
1:1
  0
DICTIONARYVAR
  5
236
102
{ACAD_REACTORS
330
230
102
}
330
230
100
DictionaryVariables
280
     0
  1
Standard
  0
DICTIONARYVAR
  5
235
102
{ACAD_REACTORS
330
230
102
}
330
230
100
DictionaryVariables
280
     0
  1
Standard
  0
DICTIONARY
  5
232
330
6A
100
AcDbDictionary
280
     1
281
     1
  3
ACAD_ROUNDTRIP_2008_TABLESTYLE_CELLSTYLEMAP
360
233
  0
CELLSTYLEMAP
  5
233
102
{ACAD_REACTORS
330
232
102
}
330
232
100
AcDbCellStyleMap
 90
        3
300
CELLSTYLE
  1
TABLEFORMAT_BEGIN
 90
        5
170
     1
 91
        0
 92
    32768
 62
   257
 93
        1
300
CONTENTFORMAT
  1
CONTENTFORMAT_BEGIN
 90
        0
 91
        0
 92
        4
 93
        0
300

 40
0.0
140
1.0
 94
        5
 62
     0
340
11
144
0.25
309
CONTENTFORMAT_END
171
     1
301
MARGIN
  1
CELLMARGIN_BEGIN
 40
0.06
 40
0.06
 40
0.06
 40
0.06
 40
0.06
 40
0.06
309
CELLMARGIN_END
 94
        6
 95
        1
302
GRIDFORMAT
  1
GRIDFORMAT_BEGIN
 90
        0
 91
        1
 62
     0
 92
       -2
340
14
 93
        0
 40
0.045
309
GRIDFORMAT_END
 95
        2
302
GRIDFORMAT
  1
GRIDFORMAT_BEGIN
 90
        0
 91
        1
 62
     0
 92
       -2
340
14
 93
        0
 40
0.045
309
GRIDFORMAT_END
 95
        4
302
GRIDFORMAT
  1
GRIDFORMAT_BEGIN
 90
        0
 91
        1
 62
     0
 92
       -2
340
14
 93
        0
 40
0.045
309
GRIDFORMAT_END
 95
        8
302
GRIDFORMAT
  1
GRIDFORMAT_BEGIN
 90
        0
 91
        1
 62
     0
 92
       -2
340
14
 93
        0
 40
0.045
309
GRIDFORMAT_END
 95
       16
302
GRIDFORMAT
  1
GRIDFORMAT_BEGIN
 90
        0
 91
        1
 62
     0
 92
       -2
340
14
 93
        0
 40
0.045
309
GRIDFORMAT_END
 95
       32
302
GRIDFORMAT
  1
GRIDFORMAT_BEGIN
 90
        0
 91
        1
 62
     0
 92
       -2
340
14
 93
        0
 40
0.045
309
GRIDFORMAT_END
309
TABLEFORMAT_END
  1
CELLSTYLE_BEGIN
 90
        1
 91
        1
300
_TITLE
309
CELLSTYLE_END
300
CELLSTYLE
  1
TABLEFORMAT_BEGIN
 90
        5
170
     1
 91
        0
 92
        0
 62
   257
 93
        1
300
CONTENTFORMAT
  1
CONTENTFORMAT_BEGIN
 90
        0
 91
        0
 92
        4
 93
        0
300

 40
0.0
140
1.0
 94
        5
 62
     0
340
11
144
0.18
309
CONTENTFORMAT_END
171
     1
301
MARGIN
  1
CELLMARGIN_BEGIN
 40
0.06
 40
0.06
 40
0.06
 40
0.06
 40
0.06
 40
0.06
309
CELLMARGIN_END
 94
        6
 95
        1
302
GRIDFORMAT
  1
GRIDFORMAT_BEGIN
 90
        0
 91
        1
 62
     0
 92
       -2
340
14
 93
        0
 40
0.045
309
GRIDFORMAT_END
 95
        2
302
GRIDFORMAT
  1
GRIDFORMAT_BEGIN
 90
        0
 91
        1
 62
     0
 92
       -2
340
14
 93
        0
 40
0.045
309
GRIDFORMAT_END
 95
        4
302
GRIDFORMAT
  1
GRIDFORMAT_BEGIN
 90
        0
 91
        1
 62
     0
 92
       -2
340
14
 93
        0
 40
0.045
309
GRIDFORMAT_END
 95
        8
302
GRIDFORMAT
  1
GRIDFORMAT_BEGIN
 90
        0
 91
        1
 62
     0
 92
       -2
340
14
 93
        0
 40
0.045
309
GRIDFORMAT_END
 95
       16
302
GRIDFORMAT
  1
GRIDFORMAT_BEGIN
 90
        0
 91
        1
 62
     0
 92
       -2
340
14
 93
        0
 40
0.045
309
GRIDFORMAT_END
 95
       32
302
GRIDFORMAT
  1
GRIDFORMAT_BEGIN
 90
        0
 91
        1
 62
     0
 92
       -2
340
14
 93
        0
 40
0.045
309
GRIDFORMAT_END
309
TABLEFORMAT_END
  1
CELLSTYLE_BEGIN
 90
        2
 91
        1
300
_HEADER
309
CELLSTYLE_END
300
CELLSTYLE
  1
TABLEFORMAT_BEGIN
 90
        5
170
     1
 91
        0
 92
        0
 62
   257
 93
        1
300
CONTENTFORMAT
  1
CONTENTFORMAT_BEGIN
 90
        0
 91
        0
 92
        4
 93
        0
300

 40
0.0
140
1.0
 94
        2
 62
     0
340
11
144
0.18
309
CONTENTFORMAT_END
171
     1
301
MARGIN
  1
CELLMARGIN_BEGIN
 40
0.06
 40
0.06
 40
0.06
 40
0.06
 40
0.06
 40
0.06
309
CELLMARGIN_END
 94
        6
 95
        1
302
GRIDFORMAT
  1
GRIDFORMAT_BEGIN
 90
        0
 91
        1
 62
     0
 92
       -2
340
14
 93
        0
 40
0.045
309
GRIDFORMAT_END
 95
        2
302
GRIDFORMAT
  1
GRIDFORMAT_BEGIN
 90
        0
 91
        1
 62
     0
 92
       -2
340
14
 93
        0
 40
0.045
309
GRIDFORMAT_END
 95
        4
302
GRIDFORMAT
  1
GRIDFORMAT_BEGIN
 90
        0
 91
        1
 62
     0
 92
       -2
340
14
 93
        0
 40
0.045
309
GRIDFORMAT_END
 95
        8
302
GRIDFORMAT
  1
GRIDFORMAT_BEGIN
 90
        0
 91
        1
 62
     0
 92
       -2
340
14
 93
        0
 40
0.045
309
GRIDFORMAT_END
 95
       16
302
GRIDFORMAT
  1
GRIDFORMAT_BEGIN
 90
        0
 91
        1
 62
     0
 92
       -2
340
14
 93
        0
 40
0.045
309
GRIDFORMAT_END
 95
       32
302
GRIDFORMAT
  1
GRIDFORMAT_BEGIN
 90
        0
 91
        1
 62
     0
 92
       -2
340
14
 93
        0
 40
0.045
309
GRIDFORMAT_END
309
TABLEFORMAT_END
  1
CELLSTYLE_BEGIN
 90
        3
 91
        2
300
_DATA
309
CELLSTYLE_END
  0
ENDSEC
  0
EOF