0
SECTION
  2
HEADER
  9
$ACADVER
  1
AC1027
  9
$ACADMAINTVER
 70
     8
  9
$DWGCODEPAGE
  3
ANSI_1252
  9
$REQUIREDVERSIONS
160
                 0
  9
$COMMENTS
  1
File was created by Cadenas
  9
$CUSTOMPROPERTYTAG
  1
NN
  9
$CUSTOMPROPERTY
  1
Imperial - IP Pillow Block with Type E Dimensions 1-3/8 thru 2-3/16 inch 2-Bolt Trident Seal Expansion
  9
$CUSTOMPROPERTYTAG
  1
NT
  9
$CUSTOMPROPERTY
  1
Imperial/E 2 Bolt Piliow Block Bearings
  9
$CUSTOMPROPERTYTAG
  1
NB
  9
$CUSTOMPROPERTY
  1
071150
  9
$CUSTOMPROPERTYTAG
  1
NBSYN
  9
$CUSTOMPROPERTY
  1
$PN.
  9
$CUSTOMPROPERTYTAG
  1
LINA
  9
$CUSTOMPROPERTY
  1
071150
  9
$CUSTOMPROPERTYTAG
  1
SS
  9
$CUSTOMPROPERTY
  1
2-3/16
  9
$CUSTOMPROPERTYTAG
  1
TYPE
  9
$CUSTOMPROPERTY
  1
Expansion
  9
$CUSTOMPROPERTYTAG
  1
PN
  9
$CUSTOMPROPERTY
  1
071150
  9
$CUSTOMPROPERTYTAG
  1
DESCRIPTION
  9
$CUSTOMPROPERTY
  1
EP2B-IP-203RE
  9
$CUSTOMPROPERTYTAG
  1
ST
  9
$CUSTOMPROPERTY
  1
Contact Seal
  9
$CUSTOMPROPERTYTAG
  1
A
  9
$CUSTOMPROPERTY
  1
3.03
  9
$CUSTOMPROPERTYTAG
  1
B
  9
$CUSTOMPROPERTY
  1
9.62
  9
$CUSTOMPROPERTYTAG
  1
C
  9
$CUSTOMPROPERTY
  1
2.56
  9
$CUSTOMPROPERTYTAG
  1
DMIN
  9
$CUSTOMPROPERTY
  1
7.63
  9
$CUSTOMPROPERTYTAG
  1
DMAX
  9
$CUSTOMPROPERTY
  1
7.88
  9
$CUSTOMPROPERTYTAG
  1
F
  9
$CUSTOMPROPERTY
  1
5/8
  9
$CUSTOMPROPERTYTAG
  1
G
  9
$CUSTOMPROPERTY
  1
0.88
  9
$CUSTOMPROPERTYTAG
  1
H
  9
$CUSTOMPROPERTY
  1
1.5
  9
$CUSTOMPROPERTYTAG
  1
J
  9
$CUSTOMPROPERTY
  1
5
  9
$CUSTOMPROPERTYTAG
  1
L
  9
$CUSTOMPROPERTY
  1
3.50
  9
$CUSTOMPROPERTYTAG
  1
M
  9
$CUSTOMPROPERTY
  1
2.50
  9
$CUSTOMPROPERTYTAG
  1
R
  9
$CUSTOMPROPERTY
  1
1.06
  9
$CUSTOMPROPERTYTAG
  1
S
  9
$CUSTOMPROPERTY
  1
1.97
  9
$CUSTOMPROPERTYTAG
  1
X
  9
$CUSTOMPROPERTY
  1
0.25
  9
$CUSTOMPROPERTYTAG
  1
Y
  9
$CUSTOMPROPERTY
  1
0.025
  9
$CUSTOMPROPERTYTAG
  1
Z
  9
$CUSTOMPROPERTY
  1
2.6
  9
$CUSTOMPROPERTYTAG
  1
COMPANY
  9
$CUSTOMPROPERTY
  1
baldor
  9
$INSBASE
 10
0.0
 20
0.0
 30
0.0
  9
$EXTMIN
 10
1.000000000000000E+20
 20
1.000000000000000E+20
 30
1.000000000000000E+20
  9
$EXTMAX
 10
-1.000000000000000E+20
 20
-1.000000000000000E+20
 30
-1.000000000000000E+20
  9
$LIMMIN
 10
0.0
 20
0.0
  9
$LIMMAX
 10
12.0
 20
9.0
  9
$ORTHOMODE
 70
     0
  9
$REGENMODE
 70
     1
  9
$FILLMODE
 70
     1
  9
$QTEXTMODE
 70
     0
  9
$MIRRTEXT
 70
     1
  9
$LTSCALE
 40
1.0
  9
$ATTMODE
 70
     1
  9
$TEXTSIZE
 40
0.2
  9
$TRACEWID
 40
0.05
  9
$TEXTSTYLE
  7
Standard
  9
$CLAYER
  8
0
  9
$CELTYPE
  6
ByLayer
  9
$CECOLOR
 62
   256
  9
$CELTSCALE
 40
1.0
  9
$DISPSILH
 70
     0
  9
$DIMSCALE
 40
1.0
  9
$DIMASZ
 40
0.18
  9
$DIMEXO
 40
0.0625
  9
$DIMDLI
 40
0.38
  9
$DIMRND
 40
0.0
  9
$DIMDLE
 40
0.0
  9
$DIMEXE
 40
0.18
  9
$DIMTP
 40
0.0
  9
$DIMTM
 40
0.0
  9
$DIMTXT
 40
0.18
  9
$DIMCEN
 40
0.09
  9
$DIMTSZ
 40
0.0
  9
$DIMTOL
 70
     0
  9
$DIMLIM
 70
     0
  9
$DIMTIH
 70
     1
  9
$DIMTOH
 70
     1
  9
$DIMSE1
 70
     0
  9
$DIMSE2
 70
     0
  9
$DIMTAD
 70
     0
  9
$DIMZIN
 70
     0
  9
$DIMBLK
  1

  9
$DIMASO
 70
     1
  9
$DIMSHO
 70
     1
  9
$DIMPOST
  1

  9
$DIMAPOST
  1

  9
$DIMALT
 70
     0
  9
$DIMALTD
 70
     2
  9
$DIMALTF
 40
25.4
  9
$DIMLFAC
 40
1.0
  9
$DIMTOFL
 70
     0
  9
$DIMTVP
 40
0.0
  9
$DIMTIX
 70
     0
  9
$DIMSOXD
 70
     0
  9
$DIMSAH
 70
     0
  9
$DIMBLK1
  1

  9
$DIMBLK2
  1

  9
$DIMSTYLE
  2
Standard
  9
$DIMCLRD
 70
     0
  9
$DIMCLRE
 70
     0
  9
$DIMCLRT
 70
     0
  9
$DIMTFAC
 40
1.0
  9
$DIMGAP
 40
0.09
  9
$DIMJUST
 70
     0
  9
$DIMSD1
 70
     0
  9
$DIMSD2
 70
     0
  9
$DIMTOLJ
 70
     1
  9
$DIMTZIN
 70
     0
  9
$DIMALTZ
 70
     0
  9
$DIMALTTZ
 70
     0
  9
$DIMUPT
 70
     0
  9
$DIMDEC
 70
     4
  9
$DIMTDEC
 70
     4
  9
$DIMALTU
 70
     2
  9
$DIMALTTD
 70
     2
  9
$DIMTXSTY
  7
Standard
  9
$DIMAUNIT
 70
     0
  9
$DIMADEC
 70
     0
  9
$DIMALTRND
 40
0.0
  9
$DIMAZIN
 70
     0
  9
$DIMDSEP
 70
    46
  9
$DIMATFIT
 70
     3
  9
$DIMFRAC
 70
     0
  9
$DIMLDRBLK
  1

  9
$DIMLUNIT
 70
     2
  9
$DIMLWD
 70
    -2
  9
$DIMLWE
 70
    -2
  9
$DIMTMOVE
 70
     0
  9
$DIMFXL
 40
1.0
  9
$DIMFXLON
 70
     0
  9
$DIMJOGANG
 40
0.7853981633974483
  9
$DIMTFILL
 70
     0
  9
$DIMTFILLCLR
 70
     0
  9
$DIMARCSYM
 70
     0
  9
$DIMLTYPE
  6

  9
$DIMLTEX1
  6

  9
$DIMLTEX2
  6

  9
$DIMTXTDIRECTION
 70
     0
  9
$LUNITS
 70
     2
  9
$LUPREC
 70
     4
  9
$SKETCHINC
 40
0.1
  9
$FILLETRAD
 40
0.5
  9
$AUNITS
 70
     0
  9
$AUPREC
 70
     0
  9
$MENU
  1
.
  9
$ELEVATION
 40
0.0
  9
$PELEVATION
 40
0.0
  9
$THICKNESS
 40
0.0
  9
$LIMCHECK
 70
     0
  9
$CHAMFERA
 40
0.0
  9
$CHAMFERB
 40
0.0
  9
$CHAMFERC
 40
0.0
  9
$CHAMFERD
 40
0.0
  9
$SKPOLY
 70
     0
  9
$TDCREATE
 40
2458168.983214294
  9
$TDUCREATE
 40
2458168.941547627
  9
$TDUPDATE
 40
2458168.983214479
  9
$TDUUPDATE
 40
2458168.941547812
  9
$TDINDWG
 40
0.0000000116
  9
$TDUSRTIMER
 40
0.0000000116
  9
$USRTIMER
 70
     1
  9
$ANGBASE
 50
0.0
  9
$ANGDIR
 70
     0
  9
$PDMODE
 70
     0
  9
$PDSIZE
 40
0.0
  9
$PLINEWID
 40
0.0
  9
$SPLFRAME
 70
     0
  9
$SPLINETYPE
 70
     6
  9
$SPLINESEGS
 70
     8
  9
$HANDSEED
  5
284
  9
$SURFTAB1
 70
     6
  9
$SURFTAB2
 70
     6
  9
$SURFTYPE
 70
     6
  9
$SURFU
 70
     6
  9
$SURFV
 70
     6
  9
$UCSBASE
  2

  9
$UCSNAME
  2

  9
$UCSORG
 10
0.0
 20
0.0
 30
0.0
  9
$UCSXDIR
 10
1.0
 20
0.0
 30
0.0
  9
$UCSYDIR
 10
0.0
 20
1.0
 30
0.0
  9
$UCSORTHOREF
  2

  9
$UCSORTHOVIEW
 70
     0
  9
$UCSORGTOP
 10
0.0
 20
0.0
 30
0.0
  9
$UCSORGBOTTOM
 10
0.0
 20
0.0
 30
0.0
  9
$UCSORGLEFT
 10
0.0
 20
0.0
 30
0.0
  9
$UCSORGRIGHT
 10
0.0
 20
0.0
 30
0.0
  9
$UCSORGFRONT
 10
0.0
 20
0.0
 30
0.0
  9
$UCSORGBACK
 10
0.0
 20
0.0
 30
0.0
  9
$PUCSBASE
  2

  9
$PUCSNAME
  2

  9
$PUCSORG
 10
0.0
 20
0.0
 30
0.0
  9
$PUCSXDIR
 10
1.0
 20
0.0
 30
0.0
  9
$PUCSYDIR
 10
0.0
 20
1.0
 30
0.0
  9
$PUCSORTHOREF
  2

  9
$PUCSORTHOVIEW
 70
     0
  9
$PUCSORGTOP
 10
0.0
 20
0.0
 30
0.0
  9
$PUCSORGBOTTOM
 10
0.0
 20
0.0
 30
0.0
  9
$PUCSORGLEFT
 10
0.0
 20
0.0
 30
0.0
  9
$PUCSORGRIGHT
 10
0.0
 20
0.0
 30
0.0
  9
$PUCSORGFRONT
 10
0.0
 20
0.0
 30
0.0
  9
$PUCSORGBACK
 10
0.0
 20
0.0
 30
0.0
  9
$USERI1
 70
     0
  9
$USERI2
 70
     0
  9
$USERI3
 70
     0
  9
$USERI4
 70
     0
  9
$USERI5
 70
     0
  9
$USERR1
 40
0.0
  9
$USERR2
 40
0.0
  9
$USERR3
 40
0.0
  9
$USERR4
 40
0.0
  9
$USERR5
 40
0.0
  9
$WORLDVIEW
 70
     1
  9
$SHADEDGE
 70
     3
  9
$SHADEDIF
 70
    70
  9
$TILEMODE
 70
     1
  9
$MAXACTVP
 70
    64
  9
$PINSBASE
 10
0.0
 20
0.0
 30
0.0
  9
$PLIMCHECK
 70
     0
  9
$PEXTMIN
 10
1.000000000000000E+20
 20
1.000000000000000E+20
 30
1.000000000000000E+20
  9
$PEXTMAX
 10
-1.000000000000000E+20
 20
-1.000000000000000E+20
 30
-1.000000000000000E+20
  9
$PLIMMIN
 10
0.0
 20
0.0
  9
$PLIMMAX
 10
12.0
 20
9.0
  9
$UNITMODE
 70
     0
  9
$VISRETAIN
 70
     1
  9
$PLINEGEN
 70
     0
  9
$PSLTSCALE
 70
     1
  9
$TREEDEPTH
 70
  3020
  9
$CMLSTYLE
  2
Standard
  9
$CMLJUST
 70
     0
  9
$CMLSCALE
 40
1.0
  9
$PROXYGRAPHICS
 70
     1
  9
$MEASUREMENT
 70
     0
  9
$CELWEIGHT
370
    -1
  9
$ENDCAPS
280
     0
  9
$JOINSTYLE
280
     0
  9
$LWDISPLAY
290
     0
  9
$INSUNITS
 70
     1
  9
$HYPERLINKBASE
  1

  9
$STYLESHEET
  1

  9
$XEDIT
290
     1
  9
$CEPSNTYPE
380
     0
  9
$PSTYLEMODE
290
     1
  9
$FINGERPRINTGUID
  2
{7C73E347-EAFB-4A3F-A7B7-8833570EE525}
  9
$VERSIONGUID
  2
{FAEB1C32-E019-11D5-929B-00C0DF256EC4}
  9
$EXTNAMES
290
     1
  9
$PSVPSCALE
 40
0.0
  9
$OLESTARTUP
290
     0
  9
$SORTENTS
280
   127
  9
$INDEXCTL
280
     0
  9
$HIDETEXT
280
     1
  9
$XCLIPFRAME
280
     2
  9
$HALOGAP
280
     0
  9
$OBSCOLOR
 70
   257
  9
$OBSLTYPE
280
     0
  9
$INTERSECTIONDISPLAY
280
     0
  9
$INTERSECTIONCOLOR
 70
   257
  9
$DIMASSOC
280
     2
  9
$PROJECTNAME
  1

  9
$CAMERADISPLAY
290
     0
  9
$LENSLENGTH
 40
50.0
  9
$CAMERAHEIGHT
 40
0.0
  9
$STEPSPERSEC
 40
2.0
  9
$STEPSIZE
 40
6.0
  9
$3DDWFPREC
 40
2.0
  9
$PSOLWIDTH
 40
0.25
  9
$PSOLHEIGHT
 40
4.0
  9
$LOFTANG1
 40
1.570796326794897
  9
$LOFTANG2
 40
1.570796326794897
  9
$LOFTMAG1
 40
0.0
  9
$LOFTMAG2
 40
0.0
  9
$LOFTPARAM
 70
     7
  9
$LOFTNORMALS
280
     1
  9
$LATITUDE
 40
37.795
  9
$LONGITUDE
 40
-122.394
  9
$NORTHDIRECTION
 40
0.0
  9
$TIMEZONE
 70
 -8000
  9
$LIGHTGLYPHDISPLAY
280
     1
  9
$TILEMODELIGHTSYNCH
280
     1
  9
$CMATERIAL
347
44
  9
$SOLIDHIST
280
     0
  9
$SHOWHIST
280
     1
  9
$DWFFRAME
280
     2
  9
$DGNFRAME
280
     2
  9
$REALWORLDSCALE
290
     1
  9
$INTERFERECOLOR
 62
   256
  9
$CSHADOW
280
     0
  9
$SHADOWPLANELOCATION
 40
0.0
  0
ENDSEC
  0
SECTION
  2
CLASSES
  0
CLASS
  1
ACDBDICTIONARYWDFLT
  2
AcDbDictionaryWithDefault
  3
ObjectDBX Classes
 90
        0
 91
        4
280
     0
281
     0
  0
CLASS
  1
VISUALSTYLE
  2
AcDbVisualStyle
  3
ObjectDBX Classes
 90
     4095
 91
        4
280
     0
281
     0
  0
CLASS
  1
MATERIAL
  2
AcDbMaterial
  3
ObjectDBX Classes
 90
     1153
 91
        4
280
     0
281
     0
  0
CLASS
  1
SCALE
  2
AcDbScale
  3
ObjectDBX Classes
 90
     1153
 91
        4
280
     0
281
     0
  0
CLASS
  1
TABLESTYLE
  2
AcDbTableStyle
  3
ObjectDBX Classes
 90
     4095
 91
        4
280
     0
281
     0
  0
CLASS
  1
MLEADERSTYLE
  2
AcDbMLeaderStyle
  3
ACDB_MLEADERSTYLE_CLASS
 90
     4095
 91
        4
280
     0
281
     0
  0
CLASS
  1
SUN
  2
AcDbSun
  3
SCENEOE
 90
     1153
 91
        4
280
     0
281
     0
  0
CLASS
  1
DICTIONARYVAR
  2
AcDbDictionaryVar
  3
ObjectDBX Classes
 90
        0
 91
        4
280
     0
281
     0
  0
CLASS
  1
CELLSTYLEMAP
  2
AcDbCellStyleMap
  3
ObjectDBX Classes
 90
     1152
 91
        4
280
     0
281
     0
  0
ENDSEC
  0
SECTION
  2
TABLES
  0
TABLE
  2
VPORT
  5
8
330
0
100
AcDbSymbolTable
 70
     1
  0
VPORT
  5
29
330
8
100
AcDbSymbolTableRecord
100
AcDbViewportTableRecord
  2
*Active
 70
     0
 10
0.0
 20
0.0
 11
1.0
 21
1.0
 12
-0.2411249999999985
 22
0.063882263612669
 13
0.0
 23
0.0
 14
0.5
 24
0.5
 15
0.5
 25
0.5
 16
0.0
 26
0.0
 36
1.0
 17
0.0
 27
0.0
 37
0.0
 40
5.230319817769845
 41
0.6743191856103049
 42
50.0
 43
0.0
 44
0.0
 50
0.0
 51
0.0
 71
     0
 72
   100
 73
     1
 74
     3
 75
     0
 76
     0
 77
     0
 78
     0
281
     0
 65
     1
110
0.0
120
0.0
130
0.0
111
1.0
121
0.0
131
0.0
112
0.0
122
1.0
132
0.0
 79
     0
146
0.0
348
2F
 60
     3
 61
     5
292
     1
282
     1
141
0.0
142
0.0
 63
   250
361
6D
  0
ENDTAB
  0
TABLE
  2
LTYPE
  5
5
330
0
100
AcDbSymbolTable
 70
     3
  0
LTYPE
  5
14
330
5
100
AcDbSymbolTableRecord
100
AcDbLinetypeTableRecord
  2
ByBlock
 70
     0
  3

 72
    65
 73
     0
 40
0.0
  0
LTYPE
  5
15
330
5
100
AcDbSymbolTableRecord
100
AcDbLinetypeTableRecord
  2
ByLayer
 70
     0
  3

 72
    65
 73
     0
 40
0.0
  0
LTYPE
  5
16
330
5
100
AcDbSymbolTableRecord
100
AcDbLinetypeTableRecord
  2
Continuous
 70
     0
  3
Solid line
 72
    65
 73
     0
 40
0.0
  0
LTYPE
  5
9E
330
5
100
AcDbSymbolTableRecord
100
AcDbLinetypeTableRecord
  2
Dashed
 70
     0
  3

 72
    65
 73
     2
 40
2.0
 49
1.0
 74
     0
 49
-1.0
 74
     0
  0
LTYPE
  5
190
330
5
100
AcDbSymbolTableRecord
100
AcDbLinetypeTableRecord
  2
Center
 70
     0
  3

 72
    65
 73
     4
 40
1.5
 49
0.45
 74
     0
 49
-0.5
 74
     0
 49
0.05
 74
     0
 49
-0.5
 74
     0
  0
ENDTAB
  0
TABLE
  2
LAYER
  5
2
330
0
100
AcDbSymbolTable
 70
     7
  0
LAYER
  5
10
330
2
100
AcDbSymbolTableRecord
100
AcDbLayerTableRecord
  2
0
 70
     0
 62
     7
  6
Continuous
370
    -3
390
F
347
46
348
0
  0
LAYER
  5
72
330
2
100
AcDbSymbolTableRecord
100
AcDbLayerTableRecord
  2
AM_6
 70
     0
 62
    -2
  6
Continuous
370
    35
390
F
347
46
348
0
  0
LAYER
  5
9F
330
2
100
AcDbSymbolTableRecord
100
AcDbLayerTableRecord
  2
AM_9
 70
     0
 62
     6
  6
Dashed
370
    25
390
F
347
46
348
0
  0
LAYER
  5
AB
330
2
100
AcDbSymbolTableRecord
100
AcDbLayerTableRecord
  2
AM_5
 70
     0
 62
     3
  6
Continuous
370
    25
390
F
347
46
348
0
  0
LAYER
  5
AF
330
2
100
AcDbSymbolTableRecord
100
AcDbLayerTableRecord
  2
AM_4
 70
     0
 62
     7
  6
Continuous
370
    50
390
F
347
46
348
0
  0
LAYER
  5
191
330
2
100
AcDbSymbolTableRecord
100
AcDbLayerTableRecord
  2
AM_7
 70
     0
 62
     7
  6
Center
370
    25
390
F
347
46
348
0
  0
LAYER
  5
26F
330
2
100
AcDbSymbolTableRecord
100
AcDbLayerTableRecord
  2
ConnectionPoints
 70
     0
 62
     7
  6
Continuous
370
    50
390
F
347
46
348
0
  0
ENDTAB
  0
TABLE
  2
STYLE
  5
3
330
0
100
AcDbSymbolTable
 70
     1
  0
STYLE
  5
11
330
3
100
AcDbSymbolTableRecord
100
AcDbTextStyleTableRecord
  2
Standard
 70
     0
 40
0.0
 41
1.0
 50
0.0
 71
     0
 42
0.2
  3
txt
  4

  0
ENDTAB
  0
TABLE
  2
VIEW
  5
6
330
0
100
AcDbSymbolTable
 70
     0
  0
ENDTAB
  0
TABLE
  2
UCS
  5
7
330
0
100
AcDbSymbolTable
 70
     0
  0
ENDTAB
  0
TABLE
  2
APPID
  5
9
330
0
100
AcDbSymbolTable
 70
     1
  0
APPID
  5
12
330
9
100
AcDbSymbolTableRecord
100
AcDbRegAppTableRecord
  2
ACAD
 70
     0
  0
ENDTAB
  0
TABLE
  2
DIMSTYLE
  5
A
330
0
100
AcDbSymbolTable
 70
     1
100
AcDbDimStyleTable
  0
DIMSTYLE
105
27
330
A
100
AcDbSymbolTableRecord
100
AcDbDimStyleTableRecord
  2
Standard
 70
     0
178
     0
340
11
  0
ENDTAB
  0
TABLE
  2
BLOCK_RECORD
  5
1
330
0
100
AcDbSymbolTable
 70
     8
  0
BLOCK_RECORD
  5
1F
330
1
100
AcDbSymbolTableRecord
100
AcDbBlockTableRecord
  2
*Model_Space
340
22
 70
     0
280
     1
281
     0
  0
BLOCK_RECORD
  5
1B
330
1
100
AcDbSymbolTableRecord
100
AcDbBlockTableRecord
  2
*Paper_Space
340
1E
 70
     0
280
     1
281
     0
  0
BLOCK_RECORD
  5
23
330
1
100
AcDbSymbolTableRecord
100
AcDbBlockTableRecord
  2
*Paper_Space0
340
26
 70
     0
280
     1
281
     0
  0
BLOCK_RECORD
  5
6E
330
1
100
AcDbSymbolTableRecord
100
AcDbBlockTableRecord
  2
1_071150_2
340
0
102
{BLKREFS
331
6F
102
}
 70
     0
280
     1
281
     0
  0
BLOCK_RECORD
  5
8E
330
1
100
AcDbSymbolTableRecord
100
AcDbBlockTableRecord
  2
2_ASME_B18_3_10_1_0_in_071150_2
340
0
102
{BLKREFS
331
8F
102
}
 70
     0
280
     1
281
     0
  0
BLOCK_RECORD
  5
B6
330
1
100
AcDbSymbolTableRecord
100
AcDbBlockTableRecord
  2
3_ASME_B18_3_10_2_0_in_071150_2
340
0
102
{BLKREFS
331
B7
102
}
 70
     0
280
     1
281
     0
  0
BLOCK_RECORD
  5
DA
330
1
100
AcDbSymbolTableRecord
100
AcDbBlockTableRecord
  2
4_070892LWE_0_in_071150_2
340
0
102
{BLKREFS
331
DB
102
}
 70
     0
280
     1
281
     0
  0
BLOCK_RECORD
  5
113
330
1
100
AcDbSymbolTableRecord
100
AcDbBlockTableRecord
  2
5_070892E_0_in_071150_2
340
0
102
{BLKREFS
331
114
102
}
 70
     0
280
     1
281
     0
  0
BLOCK_RECORD
  5
1A6
330
1
100
AcDbSymbolTableRecord
100
AcDbBlockTableRecord
  2
6_405015E_Inch_0_in_071150_2
340
0
102
{BLKREFS
331
1A7
102
}
 70
     0
280
     1
281
     0
  0
BLOCK_RECORD
  5
209
330
1
100
AcDbSymbolTableRecord
100
AcDbBlockTableRecord
  2
7_071150H_0_in_071150_2
340
0
102
{BLKREFS
331
20A
102
}
 70
     0
280
     1
281
     0
  0
ENDTAB
  0
ENDSEC
  0
SECTION
  2
BLOCKS
  0
BLOCK
  5
20
330
1F
100
AcDbEntity
  8
0
100
AcDbBlockBegin
  2
*Model_Space
 70
     0
 10
0.0
 20
0.0
 30
0.0
  3
*Model_Space
  1

  0
ENDBLK
  5
21
330
1F
100
AcDbEntity
  8
0
100
AcDbBlockEnd
  0
BLOCK
  5
1C
330
1B
100
AcDbEntity
 67
     1
  8
0
100
AcDbBlockBegin
  2
*Paper_Space
 70
     0
 10
0.0
 20
0.0
 30
0.0
  3
*Paper_Space
  1

  0
ENDBLK
  5
1D
330
1B
100
AcDbEntity
 67
     1
  8
0
100
AcDbBlockEnd
  0
BLOCK
  5
24
330
23
100
AcDbEntity
  8
0
100
AcDbBlockBegin
  2
*Paper_Space0
 70
     0
 10
0.0
 20
0.0
 30
0.0
  3
*Paper_Space0
  1

  0
ENDBLK
  5
25
330
23
100
AcDbEntity
  8
0
100
AcDbBlockEnd
  0
BLOCK
  5
70
330
6E
100
AcDbEntity
  8
0
100
AcDbBlockBegin
  2
1_071150_2
 70
     2
 10
0.0
 20
0.0
 30
0.0
  3
1_071150_2
  1

  0
ATTDEF
  5
73
330
6E
100
AcDbEntity
  8
AM_6
100
AcDbText
 10
6.487750000000001
 20
2.627764527225338
 30
0.0
 40
0.5
  1
Imperial - IP Pillow Block with Type E Dimensions 1-3/8 thru 2-3/16 inch 2-Bolt Trident Seal Expansion
100
AcDbAttributeDefinition
  3

  2
NN
 70
     8
280
     0
  0
ATTDEF
  5
74
330
6E
100
AcDbEntity
  8
AM_6
100
AcDbText
 10
6.487750000000001
 20
2.127764527225338
 30
0.0
 40
0.5
  1
Imperial/E 2 Bolt Piliow Block Bearings
100
AcDbAttributeDefinition
  3

  2
NT
 70
     8
280
     0
  0
ATTDEF
  5
75
330
6E
100
AcDbEntity
  8
AM_6
100
AcDbText
 10
6.487750000000001
 20
1.627764527225338
 30
0.0
 40
0.5
  1
071150
100
AcDbAttributeDefinition
  3

  2
NB
 70
     8
280
     0
  0
ATTDEF
  5
76
330
6E
100
AcDbEntity
  8
AM_6
100
AcDbText
 10
6.487750000000001
 20
1.127764527225338
 30
0.0
 40
0.5
  1
$PN.
100
AcDbAttributeDefinition
  3

  2
NBSYN
 70
     8
280
     0
  0
ATTDEF
  5
77
330
6E
100
AcDbEntity
  8
AM_6
100
AcDbText
 10
6.487750000000001
 20
0.6277645272253376
 30
0.0
 40
0.5
  1
071150
100
AcDbAttributeDefinition
  3

  2
LINA
 70
     8
280
     0
  0
ATTDEF
  5
78
330
6E
100
AcDbEntity
  8
AM_6
100
AcDbText
 10
6.487750000000001
 20
0.1277645272253376
 30
0.0
 40
0.5
  1
2-3/16
100
AcDbAttributeDefinition
  3

  2
SS
 70
     8
280
     0
  0
ATTDEF
  5
79
330
6E
100
AcDbEntity
  8
AM_6
100
AcDbText
 10
6.487750000000001
 20
-0.3722354727746624
 30
0.0
 40
0.5
  1
Expansion
100
AcDbAttributeDefinition
  3

  2
TYPE
 70
     8
280
     0
  0
ATTDEF
  5
7A
330
6E
100
AcDbEntity
  8
AM_6
100
AcDbText
 10
6.487750000000001
 20
-0.8722354727746624
 30
0.0
 40
0.5
  1
071150
100
AcDbAttributeDefinition
  3

  2
PN
 70
     8
280
     0
  0
ATTDEF
  5
7B
330
6E
100
AcDbEntity
  8
AM_6
100
AcDbText
 10
6.487750000000001
 20
-1.372235472774662
 30
0.0
 40
0.5
  1
EP2B-IP-203RE
100
AcDbAttributeDefinition
  3

  2
DESCRIPTION
 70
     8
280
     0
  0
ATTDEF
  5
7C
330
6E
100
AcDbEntity
  8
AM_6
100
AcDbText
 10
6.487750000000001
 20
-1.872235472774662
 30
0.0
 40
0.5
  1
Contact Seal
100
AcDbAttributeDefinition
  3

  2
ST
 70
     8
280
     0
  0
ATTDEF
  5
7D
330
6E
100
AcDbEntity
  8
AM_6
100
AcDbText
 10
6.487750000000001
 20
-2.372235472774662
 30
0.0
 40
0.5
  1
3.03
100
AcDbAttributeDefinition
  3

  2
A
 70
     8
280
     0
  0
ATTDEF
  5
7E
330
6E
100
AcDbEntity
  8
AM_6
100
AcDbText
 10
6.487750000000001
 20
-2.872235472774662
 30
0.0
 40
0.5
  1
9.62
100
AcDbAttributeDefinition
  3

  2
B
 70
     8
280
     0
  0
ATTDEF
  5
7F
330
6E
100
AcDbEntity
  8
AM_6
100
AcDbText
 10
6.487750000000001
 20
-3.372235472774662
 30
0.0
 40
0.5
  1
2.56
100
AcDbAttributeDefinition
  3

  2
C
 70
     8
280
     0
  0
ATTDEF
  5
80
330
6E
100
AcDbEntity
  8
AM_6
100
AcDbText
 10
6.487750000000001
 20
-3.872235472774662
 30
0.0
 40
0.5
  1
7.63
100
AcDbAttributeDefinition
  3

  2
DMIN
 70
     8
280
     0
  0
ATTDEF
  5
81
330
6E
100
AcDbEntity
  8
AM_6
100
AcDbText
 10
6.487750000000001
 20
-4.372235472774662
 30
0.0
 40
0.5
  1
7.88
100
AcDbAttributeDefinition
  3

  2
DMAX
 70
     8
280
     0
  0
ATTDEF
  5
82
330
6E
100
AcDbEntity
  8
AM_6
100
AcDbText
 10
6.487750000000001
 20
-4.872235472774662
 30
0.0
 40
0.5
  1
5/8
100
AcDbAttributeDefinition
  3

  2
F
 70
     8
280
     0
  0
ATTDEF
  5
83
330
6E
100
AcDbEntity
  8
AM_6
100
AcDbText
 10
6.487750000000001
 20
-5.372235472774662
 30
0.0
 40
0.5
  1
0.88
100
AcDbAttributeDefinition
  3

  2
G
 70
     8
280
     0
  0
ATTDEF
  5
84
330
6E
100
AcDbEntity
  8
AM_6
100
AcDbText
 10
6.487750000000001
 20
-5.872235472774662
 30
0.0
 40
0.5
  1
1.5
100
AcDbAttributeDefinition
  3

  2
H
 70
     8
280
     0
  0
ATTDEF
  5
85
330
6E
100
AcDbEntity
  8
AM_6
100
AcDbText
 10
6.487750000000001
 20
-6.372235472774662
 30
0.0
 40
0.5
  1
5
100
AcDbAttributeDefinition
  3

  2
J
 70
     8
280
     0
  0
ATTDEF
  5
86
330
6E
100
AcDbEntity
  8
AM_6
100
AcDbText
 10
6.487750000000001
 20
-6.872235472774662
 30
0.0
 40
0.5
  1
3.50
100
AcDbAttributeDefinition
  3

  2
L
 70
     8
280
     0
  0
ATTDEF
  5
87
330
6E
100
AcDbEntity
  8
AM_6
100
AcDbText
 10
6.487750000000001
 20
-7.372235472774662
 30
0.0
 40
0.5
  1
2.50
100
AcDbAttributeDefinition
  3

  2
M
 70
     8
280
     0
  0
ATTDEF
  5
88
330
6E
100
AcDbEntity
  8
AM_6
100
AcDbText
 10
6.487750000000001
 20
-7.872235472774662
 30
0.0
 40
0.5
  1
1.06
100
AcDbAttributeDefinition
  3

  2
R
 70
     8
280
     0
  0
ATTDEF
  5
89
330
6E
100
AcDbEntity
  8
AM_6
100
AcDbText
 10
6.487750000000001
 20
-8.372235472774662
 30
0.0
 40
0.5
  1
1.97
100
AcDbAttributeDefinition
  3

  2
S
 70
     8
280
     0
  0
ATTDEF
  5
8A
330
6E
100
AcDbEntity
  8
AM_6
100
AcDbText
 10
6.487750000000001
 20
-8.872235472774662
 30
0.0
 40
0.5
  1
0.25
100
AcDbAttributeDefinition
  3

  2
X
 70
     8
280
     0
  0
ATTDEF
  5
8B
330
6E
100
AcDbEntity
  8
AM_6
100
AcDbText
 10
6.487750000000001
 20
-9.372235472774662
 30
0.0
 40
0.5
  1
0.025
100
AcDbAttributeDefinition
  3

  2
Y
 70
     8
280
     0
  0
ATTDEF
  5
8C
330
6E
100
AcDbEntity
  8
AM_6
100
AcDbText
 10
6.487750000000001
 20
-9.872235472774662
 30
0.0
 40
0.5
  1
2.6
100
AcDbAttributeDefinition
  3

  2
Z
 70
     8
280
     0
  0
ATTDEF
  5
8D
330
6E
100
AcDbEntity
  8
AM_6
100
AcDbText
 10
6.487750000000001
 20
-10.37223547277466
 30
0.0
 40
0.5
  1
baldor
100
AcDbAttributeDefinition
  3

  2
COMPANY
 70
     8
280
     0
  0
INSERT
  5
8F
330
6E
100
AcDbEntity
  8
0
100
AcDbBlockReference
  2
2_ASME_B18_3_10_1_0_in_071150_2
 10
0.0
 20
0.0
 30
0.0
  0
INSERT
  5
B7
330
6E
100
AcDbEntity
  8
0
100
AcDbBlockReference
  2
3_ASME_B18_3_10_2_0_in_071150_2
 10
0.0
 20
0.0
 30
0.0
  0
INSERT
  5
DB
330
6E
100
AcDbEntity
  8
0
100
AcDbBlockReference
  2
4_070892LWE_0_in_071150_2
 10
0.0
 20
0.0
 30
0.0
  0
INSERT
  5
114
330
6E
100
AcDbEntity
  8
0
100
AcDbBlockReference
  2
5_070892E_0_in_071150_2
 10
0.0
 20
0.0
 30
0.0
  0
INSERT
  5
1A7
330
6E
100
AcDbEntity
  8
0
100
AcDbBlockReference
  2
6_405015E_Inch_0_in_071150_2
 10
0.0
 20
0.0
 30
0.0
  0
INSERT
  5
20A
330
6E
100
AcDbEntity
  8
0
100
AcDbBlockReference
  2
7_071150H_0_in_071150_2
 10
0.0
 20
0.0
 30
0.0
  0
ENDBLK
  5
71
330
6E
100
AcDbEntity
  8
0
100
AcDbBlockEnd
  0
BLOCK
  5
90
330
8E
100
AcDbEntity
  8
0
100
AcDbBlockBegin
  2
2_ASME_B18_3_10_1_0_in_071150_2
 70
     2
 10
0.0
 20
0.0
 30
0.0
  3
2_ASME_B18_3_10_1_0_in_071150_2
  1

  0
ATTDEF
  5
92
330
8E
100
AcDbEntity
  8
AM_6
100
AcDbText
 10
4.255000000000001
 20
-1.302138888888889
 30
0.0
 40
0.5
  1
ANSI/ASME B18.3-1998
100
AcDbAttributeDefinition
  3

  2
NN
 70
     8
280
     0
  0
ATTDEF
  5
93
330
8E
100
AcDbEntity
  8
AM_6
100
AcDbText
 10
4.255000000000001
 20
-1.802138888888889
 30
0.0
 40
0.5
  1
Socket Button Head Cap Screws
100
AcDbAttributeDefinition
  3

  2
NT
 70
     8
280
     0
  0
ATTDEF
  5
94
330
8E
100
AcDbEntity
  8
AM_6
100
AcDbText
 10
4.255000000000001
 20
-2.302138888888889
 30
0.0
 40
0.5
  1
ASME B18.3-10
100
AcDbAttributeDefinition
  3

  2
NB
 70
     8
280
     0
  0
ATTDEF
  5
95
330
8E
100
AcDbEntity
  8
AM_6
100
AcDbText
 10
4.255000000000001
 20
-2.802138888888889
 30
0.0
 40
0.5
  1
ASME B18.3-$NS.
100
AcDbAttributeDefinition
  3

  2
NBSYN
 70
     8
280
     0
  0
ATTDEF
  5
96
330
8E
100
AcDbEntity
  8
AM_6
100
AcDbText
 10
4.255000000000001
 20
-3.302138888888889
 30
0.0
 40
0.5
  1
ASME B18.3-10
100
AcDbAttributeDefinition
  3

  2
LINA
 70
     8
280
     0
  0
ATTDEF
  5
97
330
8E
100
AcDbEntity
  8
AM_6
100
AcDbText
 10
4.255000000000001
 20
-3.802138888888889
 30
0.0
 40
0.5
  1
10
100
AcDbAttributeDefinition
  3

  2
NS
 70
     8
280
     0
  0
ATTDEF
  5
98
330
8E
100
AcDbEntity
  8
AM_6
100
AcDbText
 10
4.255000000000001
 20
-4.302138888888889
 30
0.0
 40
0.5
  1
0.361
100
AcDbAttributeDefinition
  3

  2
A
 70
     8
280
     0
  0
ATTDEF
  5
99
330
8E
100
AcDbEntity
  8
AM_6
100
AcDbText
 10
4.255000000000001
 20
-4.802138888888889
 30
0.0
 40
0.5
  1
0.101
100
AcDbAttributeDefinition
  3

  2
H
 70
     8
280
     0
  0
ATTDEF
  5
9A
330
8E
100
AcDbEntity
  8
AM_6
100
AcDbText
 10
4.255000000000001
 20
-5.302138888888889
 30
0.0
 40
0.5
  1
0.800
100
AcDbAttributeDefinition
  3

  2
L
 70
     8
280
     0
  0
ATTDEF
  5
9B
330
8E
100
AcDbEntity
  8
AM_6
100
AcDbText
 10
4.255000000000001
 20
-5.802138888888889
 30
0.0
 40
0.5
  1
0.020
100
AcDbAttributeDefinition
  3

  2
S
 70
     8
280
     0
  0
ATTDEF
  5
9C
330
8E
100
AcDbEntity
  8
AM_6
100
AcDbText
 10
4.255000000000001
 20
-6.302138888888889
 30
0.0
 40
0.5
  1
0.125000
100
AcDbAttributeDefinition
  3

  2
J
 70
     8
280
     0
  0
ATTDEF
  5
9D
330
8E
100
AcDbEntity
  8
AM_6
100
AcDbText
 10
4.255000000000001
 20
-6.802138888888889
 30
0.0
 40
0.5
  1
baldor
100
AcDbAttributeDefinition
  3

  2
COMPANY
 70
     8
280
     0
  0
LINE
  5
A0
330
8E
100
AcDbEntity
  8
AM_9
100
AcDbLine
 10
-1.585
 20
-1.410470105240186
 30
0.0
 11
-1.646
 21
-1.410470105240186
 31
0.0
  0
LINE
  5
A1
330
8E
100
AcDbEntity
  8
AM_9
100
AcDbLine
 10
-1.585
 20
-1.554807672537592
 30
0.0
 11
-1.646
 21
-1.554807672537592
 31
0.0
  0
LINE
  5
A2
330
8E
100
AcDbEntity
  8
AM_9
100
AcDbLine
 10
-1.585
 20
-1.446554497064537
 30
0.0
 11
-1.646
 21
-1.446554497064537
 31
0.0
  0
LINE
  5
A3
330
8E
100
AcDbEntity
  8
AM_9
100
AcDbLine
 10
-1.585
 20
-1.410470105240186
 30
0.0
 11
-1.585
 21
-1.554807672537592
 31
0.0
  0
LINE
  5
A4
330
8E
100
AcDbEntity
  8
AM_9
100
AcDbLine
 10
-1.585
 20
-1.51872328071324
 30
0.0
 11
-1.646
 21
-1.51872328071324
 31
0.0
  0
LINE
  5
A5
330
8E
100
AcDbEntity
  8
AM_9
100
AcDbLine
 10
-0.7449999999999997
 20
-1.406238888888889
 30
0.0
 11
-0.7449999999999997
 21
-1.559038888888889
 31
0.0
  0
LINE
  5
A6
330
8E
100
AcDbEntity
  8
AM_9
100
AcDbLine
 10
-0.7449999999999997
 20
-1.406238888888889
 30
0.0
 11
-0.7635999999999997
 21
-1.387638888888889
 31
0.0
  0
LINE
  5
A7
330
8E
100
AcDbEntity
  8
AM_9
100
AcDbLine
 10
-0.7635999999999997
 20
-1.577638888888889
 30
0.0
 11
-0.7449999999999997
 21
-1.559038888888889
 31
0.0
  0
LINE
  5
A8
330
8E
100
AcDbEntity
  8
AM_9
100
AcDbLine
 10
-0.7635999999999997
 20
-1.387638888888889
 30
0.0
 11
-0.7635999999999997
 21
-1.577638888888889
 31
0.0
  0
LINE
  5
A9
330
8E
100
AcDbEntity
  8
AM_9
100
AcDbLine
 10
-1.545
 20
-1.577638888888889
 30
0.0
 11
-0.7635999999999997
 21
-1.577638888888889
 31
0.0
  0
LINE
  5
AA
330
8E
100
AcDbEntity
  8
AM_9
100
AcDbLine
 10
-0.7635999999999997
 20
-1.387638888888889
 30
0.0
 11
-1.545
 21
-1.387638888888889
 31
0.0
  0
LINE
  5
AC
330
8E
100
AcDbEntity
  8
AM_5
100
AcDbLine
 10
-1.465
 20
-1.559038888888889
 30
0.0
 11
-1.497216145020781
 21
-1.577638888888889
 31
0.0
  0
LINE
  5
AD
330
8E
100
AcDbEntity
  8
AM_5
100
AcDbLine
 10
-1.465
 20
-1.387638888888889
 30
0.0
 11
-1.465
 21
-1.577638888888885
 31
0.0
  0
LINE
  5
AE
330
8E
100
AcDbEntity
  8
AM_5
100
AcDbLine
 10
-1.465
 20
-1.406238888888889
 30
0.0
 11
-1.497216145020782
 21
-1.387638888888889
 31
0.0
  0
LINE
  5
B0
330
8E
100
AcDbEntity
  8
AM_4
100
AcDbLine
 10
-1.646
 20
-1.383138888888889
 30
0.0
 11
-1.646
 21
-1.582138888888889
 31
0.0
  0
ARC
  5
B1
330
8E
100
AcDbEntity
  8
AM_4
100
AcDbCircle
 10
-1.564999999999999
 20
-1.582138888888888
 30
0.0
 40
0.0810000000000006
100
AcDbArc
 50
180.0
 51
270.0
  0
ARC
  5
B2
330
8E
100
AcDbEntity
  8
AM_4
100
AcDbCircle
 10
-1.564999999999999
 20
-1.38313888888889
 30
0.0
 40
0.0810000000000006
100
AcDbArc
 50
90.0
 51
180.0
  0
LINE
  5
B3
330
8E
100
AcDbEntity
  8
AM_4
100
AcDbLine
 10
-1.565
 20
-1.302138888888889
 30
0.0
 11
-1.565
 21
-1.663138888888889
 31
0.0
  0
LINE
  5
B4
330
8E
100
AcDbEntity
  8
AM_4
100
AcDbLine
 10
-1.565
 20
-1.663138888888889
 30
0.0
 11
-1.545
 21
-1.663138888888889
 31
0.0
  0
LINE
  5
B5
330
8E
100
AcDbEntity
  8
AM_4
100
AcDbLine
 10
-1.545
 20
-1.302138888888889
 30
0.0
 11
-1.565
 21
-1.302138888888889
 31
0.0
  0
ENDBLK
  5
91
330
8E
100
AcDbEntity
  8
0
100
AcDbBlockEnd
  0
BLOCK
  5
B8
330
B6
100
AcDbEntity
  8
0
100
AcDbBlockBegin
  2
3_ASME_B18_3_10_2_0_in_071150_2
 70
     2
 10
0.0
 20
0.0
 30
0.0
  3
3_ASME_B18_3_10_2_0_in_071150_2
  1

  0
ATTDEF
  5
BA
330
B6
100
AcDbEntity
  8
AM_6
100
AcDbText
 10
4.255000000000001
 20
1.663138888888889
 30
0.0
 40
0.5
  1
ANSI/ASME B18.3-1998
100
AcDbAttributeDefinition
  3

  2
NN
 70
     8
280
     0
  0
ATTDEF
  5
BB
330
B6
100
AcDbEntity
  8
AM_6
100
AcDbText
 10
4.255000000000001
 20
1.163138888888889
 30
0.0
 40
0.5
  1
Socket Button Head Cap Screws
100
AcDbAttributeDefinition
  3

  2
NT
 70
     8
280
     0
  0
ATTDEF
  5
BC
330
B6
100
AcDbEntity
  8
AM_6
100
AcDbText
 10
4.255000000000001
 20
0.6631388888888887
 30
0.0
 40
0.5
  1
ASME B18.3-10
100
AcDbAttributeDefinition
  3

  2
NB
 70
     8
280
     0
  0
ATTDEF
  5
BD
330
B6
100
AcDbEntity
  8
AM_6
100
AcDbText
 10
4.255000000000001
 20
0.1631388888888887
 30
0.0
 40
0.5
  1
ASME B18.3-$NS.
100
AcDbAttributeDefinition
  3

  2
NBSYN
 70
     8
280
     0
  0
ATTDEF
  5
BE
330
B6
100
AcDbEntity
  8
AM_6
100
AcDbText
 10
4.255000000000001
 20
-0.3368611111111113
 30
0.0
 40
0.5
  1
ASME B18.3-10
100
AcDbAttributeDefinition
  3

  2
LINA
 70
     8
280
     0
  0
ATTDEF
  5
BF
330
B6
100
AcDbEntity
  8
AM_6
100
AcDbText
 10
4.255000000000001
 20
-0.8368611111111113
 30
0.0
 40
0.5
  1
10
100
AcDbAttributeDefinition
  3

  2
NS
 70
     8
280
     0
  0
ATTDEF
  5
C0
330
B6
100
AcDbEntity
  8
AM_6
100
AcDbText
 10
4.255000000000001
 20
-1.336861111111111
 30
0.0
 40
0.5
  1
0.361
100
AcDbAttributeDefinition
  3

  2
A
 70
     8
280
     0
  0
ATTDEF
  5
C1
330
B6
100
AcDbEntity
  8
AM_6
100
AcDbText
 10
4.255000000000001
 20
-1.836861111111111
 30
0.0
 40
0.5
  1
0.101
100
AcDbAttributeDefinition
  3

  2
H
 70
     8
280
     0
  0
ATTDEF
  5
C2
330
B6
100
AcDbEntity
  8
AM_6
100
AcDbText
 10
4.255000000000001
 20
-2.336861111111111
 30
0.0
 40
0.5
  1
0.800
100
AcDbAttributeDefinition
  3

  2
L
 70
     8
280
     0
  0
ATTDEF
  5
C3
330
B6
100
AcDbEntity
  8
AM_6
100
AcDbText
 10
4.255000000000001
 20
-2.836861111111111
 30
0.0
 40
0.5
  1
0.020
100
AcDbAttributeDefinition
  3

  2
S
 70
     8
280
     0
  0
ATTDEF
  5
C4
330
B6
100
AcDbEntity
  8
AM_6
100
AcDbText
 10
4.255000000000001
 20
-3.336861111111111
 30
0.0
 40
0.5
  1
0.125000
100
AcDbAttributeDefinition
  3

  2
J
 70
     8
280
     0
  0
ATTDEF
  5
C5
330
B6
100
AcDbEntity
  8
AM_6
100
AcDbText
 10
4.255000000000001
 20
-3.836861111111111
 30
0.0
 40
0.5
  1
baldor
100
AcDbAttributeDefinition
  3

  2
COMPANY
 70
     8
280
     0
  0
LINE
  5
C6
330
B6
100
AcDbEntity
  8
AM_9
100
AcDbLine
 10
-1.585
 20
1.554807672537592
 30
0.0
 11
-1.646
 21
1.554807672537592
 31
0.0
  0
LINE
  5
C7
330
B6
100
AcDbEntity
  8
AM_9
100
AcDbLine
 10
-1.585
 20
1.410470105240186
 30
0.0
 11
-1.646
 21
1.410470105240186
 31
0.0
  0
LINE
  5
C8
330
B6
100
AcDbEntity
  8
AM_9
100
AcDbLine
 10
-1.585
 20
1.554807672537592
 30
0.0
 11
-1.585
 21
1.410470105240186
 31
0.0
  0
LINE
  5
C9
330
B6
100
AcDbEntity
  8
AM_9
100
AcDbLine
 10
-1.585
 20
1.51872328071324
 30
0.0
 11
-1.646
 21
1.51872328071324
 31
0.0
  0
LINE
  5
CA
330
B6
100
AcDbEntity
  8
AM_9
100
AcDbLine
 10
-1.585
 20
1.446554497064537
 30
0.0
 11
-1.646
 21
1.446554497064537
 31
0.0
  0
LINE
  5
CB
330
B6
100
AcDbEntity
  8
AM_9
100
AcDbLine
 10
-0.7449999999999997
 20
1.559038888888889
 30
0.0
 11
-0.7449999999999997
 21
1.406238888888889
 31
0.0
  0
LINE
  5
CC
330
B6
100
AcDbEntity
  8
AM_9
100
AcDbLine
 10
-0.7449999999999997
 20
1.559038888888889
 30
0.0
 11
-0.7635999999999997
 21
1.577638888888889
 31
0.0
  0
LINE
  5
CD
330
B6
100
AcDbEntity
  8
AM_9
100
AcDbLine
 10
-0.7635999999999997
 20
1.387638888888889
 30
0.0
 11
-0.7449999999999997
 21
1.406238888888889
 31
0.0
  0
LINE
  5
CE
330
B6
100
AcDbEntity
  8
AM_9
100
AcDbLine
 10
-0.7635999999999997
 20
1.577638888888889
 30
0.0
 11
-0.7635999999999997
 21
1.387638888888889
 31
0.0
  0
LINE
  5
CF
330
B6
100
AcDbEntity
  8
AM_9
100
AcDbLine
 10
-1.545
 20
1.387638888888889
 30
0.0
 11
-0.7635999999999997
 21
1.387638888888889
 31
0.0
  0
LINE
  5
D0
330
B6
100
AcDbEntity
  8
AM_9
100
AcDbLine
 10
-0.7635999999999997
 20
1.577638888888889
 30
0.0
 11
-1.545
 21
1.577638888888889
 31
0.0
  0
LINE
  5
D1
330
B6
100
AcDbEntity
  8
AM_5
100
AcDbLine
 10
-1.465
 20
1.406238888888889
 30
0.0
 11
-1.497216145020782
 21
1.387638888888889
 31
0.0
  0
LINE
  5
D2
330
B6
100
AcDbEntity
  8
AM_5
100
AcDbLine
 10
-1.465
 20
1.577638888888885
 30
0.0
 11
-1.465
 21
1.387638888888889
 31
0.0
  0
LINE
  5
D3
330
B6
100
AcDbEntity
  8
AM_5
100
AcDbLine
 10
-1.465
 20
1.559038888888889
 30
0.0
 11
-1.497216145020781
 21
1.577638888888889
 31
0.0
  0
LINE
  5
D4
330
B6
100
AcDbEntity
  8
AM_4
100
AcDbLine
 10
-1.646
 20
1.582138888888889
 30
0.0
 11
-1.646
 21
1.383138888888889
 31
0.0
  0
ARC
  5
D5
330
B6
100
AcDbEntity
  8
AM_4
100
AcDbCircle
 10
-1.564999999999999
 20
1.38313888888889
 30
0.0
 40
0.0810000000000006
100
AcDbArc
 50
180.0
 51
270.0
  0
ARC
  5
D6
330
B6
100
AcDbEntity
  8
AM_4
100
AcDbCircle
 10
-1.564999999999999
 20
1.582138888888888
 30
0.0
 40
0.0810000000000006
100
AcDbArc
 50
90.0
 51
180.0
  0
LINE
  5
D7
330
B6
100
AcDbEntity
  8
AM_4
100
AcDbLine
 10
-1.565
 20
1.663138888888889
 30
0.0
 11
-1.565
 21
1.302138888888889
 31
0.0
  0
LINE
  5
D8
330
B6
100
AcDbEntity
  8
AM_4
100
AcDbLine
 10
-1.565
 20
1.302138888888889
 30
0.0
 11
-1.545
 21
1.302138888888889
 31
0.0
  0
LINE
  5
D9
330
B6
100
AcDbEntity
  8
AM_4
100
AcDbLine
 10
-1.545
 20
1.663138888888889
 30
0.0
 11
-1.565
 21
1.663138888888889
 31
0.0
  0
ENDBLK
  5
B9
330
B6
100
AcDbEntity
  8
0
100
AcDbBlockEnd
  0
BLOCK
  5
DC
330
DA
100
AcDbEntity
  8
0
100
AcDbBlockBegin
  2
4_070892LWE_0_in_071150_2
 70
     2
 10
0.0
 20
0.0
 30
0.0
  3
4_070892LWE_0_in_071150_2
  1

  0
ATTDEF
  5
DE
330
DA
100
AcDbEntity
  8
AM_6
100
AcDbText
 10
3.895
 20
1.75
 30
0.0
 40
0.5
  1
Imperial/E Insert Lockwasher -Inch
100
AcDbAttributeDefinition
  3

  2
NN
 70
     8
280
     0
  0
ATTDEF
  5
DF
330
DA
100
AcDbEntity
  8
AM_6
100
AcDbText
 10
3.895
 20
1.25
 30
0.0
 40
0.5
  1
Imperial/E Bearings
100
AcDbAttributeDefinition
  3

  2
NT
 70
     8
280
     0
  0
ATTDEF
  5
E0
330
DA
100
AcDbEntity
  8
AM_6
100
AcDbText
 10
3.895
 20
0.7500000000000002
 30
0.0
 40
0.5
  1
070892LWE
100
AcDbAttributeDefinition
  3

  2
NB
 70
     8
280
     0
  0
ATTDEF
  5
E1
330
DA
100
AcDbEntity
  8
AM_6
100
AcDbText
 10
3.895
 20
0.2500000000000002
 30
0.0
 40
0.5
  1
$PN.LWE
100
AcDbAttributeDefinition
  3

  2
NBSYN
 70
     8
280
     0
  0
ATTDEF
  5
E2
330
DA
100
AcDbEntity
  8
AM_6
100
AcDbText
 10
3.895
 20
-0.2499999999999998
 30
0.0
 40
0.5
  1
070892
100
AcDbAttributeDefinition
  3

  2
LINA
 70
     8
280
     0
  0
ATTDEF
  5
E3
330
DA
100
AcDbEntity
  8
AM_6
100
AcDbText
 10
3.895
 20
-0.7499999999999998
 30
0.0
 40
0.5
  1
2-3/16
100
AcDbAttributeDefinition
  3

  2
SS
 70
     8
280
     0
  0
ATTDEF
  5
E4
330
DA
100
AcDbEntity
  8
AM_6
100
AcDbText
 10
3.895
 20
-1.25
 30
0.0
 40
0.5
  1
3.500000
100
AcDbAttributeDefinition
  3

  2
E1
 70
     8
280
     0
  0
ATTDEF
  5
E5
330
DA
100
AcDbEntity
  8
AM_6
100
AcDbText
 10
3.895
 20
-1.75
 30
0.0
 40
0.5
  1
2.187500
100
AcDbAttributeDefinition
  3

  2
SS1
 70
     8
280
     0
  0
ATTDEF
  5
E6
330
DA
100
AcDbEntity
  8
AM_6
100
AcDbText
 10
3.895
 20
-2.25
 30
0.0
 40
0.5
  1
070892
100
AcDbAttributeDefinition
  3

  2
PN
 70
     8
280
     0
  0
ATTDEF
  5
E7
330
DA
100
AcDbEntity
  8
AM_6
100
AcDbText
 10
3.895
 20
-2.75
 30
0.0
 40
0.5
  1
INS-IP-203R
100
AcDbAttributeDefinition
  3

  2
DESCRIPTION
 70
     8
280
     0
  0
ATTDEF
  5
E8
330
DA
100
AcDbEntity
  8
AM_6
100
AcDbText
 10
3.895
 20
-3.25
 30
0.0
 40
0.5
  1
3.9370
100
AcDbAttributeDefinition
  3

  2
A
 70
     8
280
     0
  0
ATTDEF
  5
E9
330
DA
100
AcDbEntity
  8
AM_6
100
AcDbText
 10
3.895
 20
-3.75
 30
0.0
 40
0.5
  1
1-3/64
100
AcDbAttributeDefinition
  3

  2
B
 70
     8
280
     0
  0
ATTDEF
  5
EA
330
DA
100
AcDbEntity
  8
AM_6
100
AcDbText
 10
3.895
 20
-4.25
 30
0.0
 40
0.5
  1
1.046875
100
AcDbAttributeDefinition
  3

  2
B1
 70
     8
280
     0
  0
ATTDEF
  5
EB
330
DA
100
AcDbEntity
  8
AM_6
100
AcDbText
 10
3.895
 20
-4.75
 30
0.0
 40
0.5
  1
3-1/32
100
AcDbAttributeDefinition
  3

  2
C
 70
     8
280
     0
  0
ATTDEF
  5
EC
330
DA
100
AcDbEntity
  8
AM_6
100
AcDbText
 10
3.895
 20
-5.25
 30
0.0
 40
0.5
  1
3.031250
100
AcDbAttributeDefinition
  3

  2
C1
 70
     8
280
     0
  0
ATTDEF
  5
ED
330
DA
100
AcDbEntity
  8
AM_6
100
AcDbText
 10
3.895
 20
-5.75
 30
0.0
 40
0.5
  1
1.050
100
AcDbAttributeDefinition
  3

  2
D
 70
     8
280
     0
  0
ATTDEF
  5
EE
330
DA
100
AcDbEntity
  8
AM_6
100
AcDbText
 10
3.895
 20
-6.25
 30
0.0
 40
0.5
  1
3-1/2
100
AcDbAttributeDefinition
  3

  2
E
 70
     8
280
     0
  0
ATTDEF
  5
EF
330
DA
100
AcDbEntity
  8
AM_6
100
AcDbText
 10
3.895
 20
-6.75
 30
0.0
 40
0.5
  1
0.1900
100
AcDbAttributeDefinition
  3

  2
NDM
 70
     8
280
     0
  0
ATTDEF
  5
F0
330
DA
100
AcDbEntity
  8
AM_6
100
AcDbText
 10
3.895
 20
-7.25
 30
0.0
 40
0.5
  1
0.1450
100
AcDbAttributeDefinition
  3

  2
KDM
 70
     8
280
     0
  0
ATTDEF
  5
F1
330
DA
100
AcDbEntity
  8
AM_6
100
AcDbText
 10
3.895
 20
-7.75
 30
0.0
 40
0.5
  1
2.92
100
AcDbAttributeDefinition
  3

  2
AL
 70
     8
280
     0
  0
ATTDEF
  5
F2
330
DA
100
AcDbEntity
  8
AM_6
100
AcDbText
 10
3.895
 20
-8.25
 30
0.0
 40
0.5
  1
0.50
100
AcDbAttributeDefinition
  3

  2
BL
 70
     8
280
     0
  0
ATTDEF
  5
F3
330
DA
100
AcDbEntity
  8
AM_6
100
AcDbText
 10
3.895
 20
-8.75
 30
0.0
 40
0.5
  1
0.07
100
AcDbAttributeDefinition
  3

  2
CL
 70
     8
280
     0
  0
ATTDEF
  5
F4
330
DA
100
AcDbEntity
  8
AM_6
100
AcDbText
 10
3.895
 20
-9.25
 30
0.0
 40
0.5
  1
0.44
100
AcDbAttributeDefinition
  3

  2
DL
 70
     8
280
     0
  0
ATTDEF
  5
F5
330
DA
100
AcDbEntity
  8
AM_6
100
AcDbText
 10
3.895
 20
-9.75
 30
0.0
 40
0.5
  1
baldor
100
AcDbAttributeDefinition
  3

  2
COMPANY
 70
     8
280
     0
  0
LINE
  5
F6
330
DA
100
AcDbEntity
  8
AM_9
100
AcDbLine
 10
-1.475
 20
1.038468339436791
 30
0.0
 11
-1.545
 21
1.038468339436791
 31
0.0
  0
LINE
  5
F7
330
DA
100
AcDbEntity
  8
AM_9
100
AcDbLine
 10
-1.105
 20
1.009553897169328
 30
0.0
 11
-1.475
 21
1.009553897169329
 31
0.0
  0
LINE
  5
F8
330
DA
100
AcDbEntity
  8
AM_9
100
AcDbLine
 10
-1.105
 20
0.9560369800276005
 30
0.0
 11
-1.545
 21
0.9560369800276005
 31
0.0
  0
LINE
  5
F9
330
DA
100
AcDbEntity
  8
AM_9
100
AcDbLine
 10
-1.475
 20
1.105224755260601
 30
0.0
 11
-1.105
 21
1.105224755260601
 31
0.0
  0
LINE
  5
FA
330
DA
100
AcDbEntity
  8
AM_9
100
AcDbLine
 10
-1.105
 20
1.051707838118873
 30
0.0
 11
-1.545
 21
1.051707838118873
 31
0.0
  0
LINE
  5
FB
330
DA
100
AcDbEntity
  8
AM_9
100
AcDbLine
 10
-1.105
 20
0.9560369800276005
 30
0.0
 11
-1.105
 21
1.105224755260601
 31
0.0
  0
LINE
  5
FC
330
DA
100
AcDbEntity
  8
AM_9
100
AcDbLine
 10
-1.475
 20
1.134139197528063
 30
0.0
 11
-1.545
 21
1.134139197528063
 31
0.0
  0
LINE
  5
FD
330
DA
100
AcDbEntity
  8
AM_9
100
AcDbLine
 10
-1.475
 20
1.482638888888889
 30
0.0
 11
-1.545
 21
1.482638888888889
 31
0.0
  0
LINE
  5
FE
330
DA
100
AcDbEntity
  8
AM_9
100
AcDbLine
 10
-1.475
 20
1.577687730650903
 30
0.0
 11
-1.545
 21
1.577687730650903
 31
0.0
  0
LINE
  5
FF
330
DA
100
AcDbEntity
  8
AM_9
100
AcDbLine
 10
-1.475
 20
-1.482638888888889
 30
0.0
 11
-1.545
 21
-1.482638888888889
 31
0.0
  0
LINE
  5
100
330
DA
100
AcDbEntity
  8
AM_9
100
AcDbLine
 10
-1.545
 20
-1.577687730650903
 30
0.0
 11
-1.475
 21
-1.577687730650903
 31
0.0
  0
LINE
  5
101
330
DA
100
AcDbEntity
  8
AM_9
100
AcDbLine
 10
-1.475
 20
1.178609968254163
 30
0.0
 11
-1.545
 21
1.178609968254163
 31
0.0
  0
LINE
  5
102
330
DA
100
AcDbEntity
  8
AM_9
100
AcDbLine
 10
-1.475
 20
-1.178609968254163
 30
0.0
 11
-1.545
 21
-1.178609968254163
 31
0.0
  0
LINE
  5
103
330
DA
100
AcDbEntity
  8
AM_9
100
AcDbLine
 10
-1.475
 20
-0.9005782451393021
 30
0.0
 11
-1.545
 21
-0.9005782451393022
 31
0.0
  0
LINE
  5
104
330
DA
100
AcDbEntity
  8
AM_9
100
AcDbLine
 10
-1.475
 20
0.9005782451393021
 30
0.0
 11
-1.545
 21
0.900578245139302
 31
0.0
  0
LINE
  5
105
330
DA
100
AcDbEntity
  8
AM_9
100
AcDbLine
 10
-1.475
 20
0.7662279567138581
 30
0.0
 11
-1.545
 21
0.7662279567138583
 31
0.0
  0
LINE
  5
106
330
DA
100
AcDbEntity
  8
AM_9
100
AcDbLine
 10
-1.475
 20
-0.7662279567138578
 30
0.0
 11
-1.545
 21
-0.7662279567138578
 31
0.0
  0
LINE
  5
107
330
DA
100
AcDbEntity
  8
AM_9
100
AcDbLine
 10
-1.475
 20
1.115559156596944
 30
0.0
 11
-1.545
 21
1.115559156596944
 31
0.0
  0
LINE
  5
108
330
DA
100
AcDbEntity
  8
AM_9
100
AcDbLine
 10
-1.475
 20
0.9812088681714997
 30
0.0
 11
-1.545
 21
0.9812088681714997
 31
0.0
  0
LINE
  5
109
330
DA
100
AcDbEntity
  8
AM_9
100
AcDbLine
 10
-1.475
 20
1.143418552400836
 30
0.0
 11
-1.545
 21
1.143418552400836
 31
0.0
  0
LINE
  5
10A
330
DA
100
AcDbEntity
  8
AM_9
100
AcDbLine
 10
-1.475
 20
-0.9812088681714993
 30
0.0
 11
-1.545
 21
-0.9812088681714993
 31
0.0
  0
LINE
  5
10B
330
DA
100
AcDbEntity
  8
AM_9
100
AcDbLine
 10
-1.475
 20
-1.115559156596938
 30
0.0
 11
-1.545
 21
-1.115559156596938
 31
0.0
  0
LINE
  5
10C
330
DA
100
AcDbEntity
  8
AM_9
100
AcDbLine
 10
-1.545
 20
-1.143418552400836
 30
0.0
 11
-1.475
 21
-1.143418552400836
 31
0.0
  0
LINE
  5
10D
330
DA
100
AcDbEntity
  8
AM_9
100
AcDbLine
 10
-1.475
 20
0.0950000000000003
 30
0.0
 11
-1.545
 21
0.0950000000000002
 31
0.0
  0
LINE
  5
10E
330
DA
100
AcDbEntity
  8
AM_9
100
AcDbLine
 10
-1.475
 20
-0.0949999999999997
 30
0.0
 11
-1.545
 21
-0.0949999999999997
 31
0.0
  0
LINE
  5
10F
330
DA
100
AcDbEntity
  8
AM_4
100
AcDbLine
 10
-1.475
 20
1.75
 30
0.0
 11
-1.545
 21
1.75
 31
0.0
  0
LINE
  5
110
330
DA
100
AcDbEntity
  8
AM_4
100
AcDbLine
 10
-1.545
 20
-1.75
 30
0.0
 11
-1.475
 21
-1.75
 31
0.0
  0
LINE
  5
111
330
DA
100
AcDbEntity
  8
AM_4
100
AcDbLine
 10
-1.545
 20
1.75
 30
0.0
 11
-1.545
 21
-1.75
 31
0.0
  0
LINE
  5
112
330
DA
100
AcDbEntity
  8
AM_4
100
AcDbLine
 10
-1.475
 20
1.75
 30
0.0
 11
-1.475
 21
-1.75
 31
0.0
  0
ENDBLK
  5
DD
330
DA
100
AcDbEntity
  8
0
100
AcDbBlockEnd
  0
BLOCK
  5
115
330
113
100
AcDbEntity
  8
0
100
AcDbBlockBegin
  2
5_070892E_0_in_071150_2
 70
     2
 10
0.0
 20
0.0
 30
0.0
  3
5_070892E_0_in_071150_2
  1

  0
ATTDEF
  5
117
330
113
100
AcDbEntity
  8
AM_6
100
AcDbText
 10
6.487750000000001
 20
1.9685
 30
0.0
 40
0.5
  1
Imperial/E Insert -Inch
100
AcDbAttributeDefinition
  3

  2
NN
 70
     8
280
     0
  0
ATTDEF
  5
118
330
113
100
AcDbEntity
  8
AM_6
100
AcDbText
 10
6.487750000000001
 20
1.4685
 30
0.0
 40
0.5
  1
Imperial Bearings
100
AcDbAttributeDefinition
  3

  2
NT
 70
     8
280
     0
  0
ATTDEF
  5
119
330
113
100
AcDbEntity
  8
AM_6
100
AcDbText
 10
6.487750000000001
 20
0.9684999999999997
 30
0.0
 40
0.5
  1
070892E
100
AcDbAttributeDefinition
  3

  2
NB
 70
     8
280
     0
  0
ATTDEF
  5
11A
330
113
100
AcDbEntity
  8
AM_6
100
AcDbText
 10
6.487750000000001
 20
0.4684999999999997
 30
0.0
 40
0.5
  1
$PN.
100
AcDbAttributeDefinition
  3

  2
NBSYN
 70
     8
280
     0
  0
ATTDEF
  5
11B
330
113
100
AcDbEntity
  8
AM_6
100
AcDbText
 10
6.487750000000001
 20
-0.0315000000000003
 30
0.0
 40
0.5
  1
070892E
100
AcDbAttributeDefinition
  3

  2
LINA
 70
     8
280
     0
  0
ATTDEF
  5
11C
330
113
100
AcDbEntity
  8
AM_6
100
AcDbText
 10
6.487750000000001
 20
-0.5315000000000003
 30
0.0
 40
0.5
  1
2-3/16
100
AcDbAttributeDefinition
  3

  2
SS
 70
     8
280
     0
  0
ATTDEF
  5
11D
330
113
100
AcDbEntity
  8
AM_6
100
AcDbText
 10
6.487750000000001
 20
-1.0315
 30
0.0
 40
0.5
  1
2.187500
100
AcDbAttributeDefinition
  3

  2
SS1
 70
     8
280
     0
  0
ATTDEF
  5
11E
330
113
100
AcDbEntity
  8
AM_6
100
AcDbText
 10
6.487750000000001
 20
-1.5315
 30
0.0
 40
0.5
  1
070892E
100
AcDbAttributeDefinition
  3

  2
PN
 70
     8
280
     0
  0
ATTDEF
  5
11F
330
113
100
AcDbEntity
  8
AM_6
100
AcDbText
 10
6.487750000000001
 20
-2.0315
 30
0.0
 40
0.5
  1
INS-IP-203R
100
AcDbAttributeDefinition
  3

  2
DESCRIPTION
 70
     8
280
     0
  0
ATTDEF
  5
120
330
113
100
AcDbEntity
  8
AM_6
100
AcDbText
 10
6.487750000000001
 20
-2.5315
 30
0.0
 40
0.5
  1
Contact Seal
100
AcDbAttributeDefinition
  3

  2
ST
 70
     8
280
     0
  0
ATTDEF
  5
121
330
113
100
AcDbEntity
  8
AM_6
100
AcDbText
 10
6.487750000000001
 20
-3.0315
 30
0.0
 40
0.5
  1
1
100
AcDbAttributeDefinition
  3

  2
ST1
 70
     8
280
     0
  0
ATTDEF
  5
122
330
113
100
AcDbEntity
  8
AM_6
100
AcDbText
 10
6.487750000000001
 20
-3.5315
 30
0.0
 40
0.5
  1
3.9370
100
AcDbAttributeDefinition
  3

  2
A
 70
     8
280
     0
  0
ATTDEF
  5
123
330
113
100
AcDbEntity
  8
AM_6
100
AcDbText
 10
6.487750000000001
 20
-4.0315
 30
0.0
 40
0.5
  1
1-3/64
100
AcDbAttributeDefinition
  3

  2
B
 70
     8
280
     0
  0
ATTDEF
  5
124
330
113
100
AcDbEntity
  8
AM_6
100
AcDbText
 10
6.487750000000001
 20
-4.5315
 30
0.0
 40
0.5
  1
1.046875
100
AcDbAttributeDefinition
  3

  2
B1
 70
     8
280
     0
  0
ATTDEF
  5
125
330
113
100
AcDbEntity
  8
AM_6
100
AcDbText
 10
6.487750000000001
 20
-5.0315
 30
0.0
 40
0.5
  1
3-1/32
100
AcDbAttributeDefinition
  3

  2
C
 70
     8
280
     0
  0
ATTDEF
  5
126
330
113
100
AcDbEntity
  8
AM_6
100
AcDbText
 10
6.487750000000001
 20
-5.5315
 30
0.0
 40
0.5
  1
3.030000
100
AcDbAttributeDefinition
  3

  2
C1
 70
     8
280
     0
  0
ATTDEF
  5
127
330
113
100
AcDbEntity
  8
AM_6
100
AcDbText
 10
6.487750000000001
 20
-6.0315
 30
0.0
 40
0.5
  1
3.96000
100
AcDbAttributeDefinition
  3

  2
CR
 70
     8
280
     0
  0
ATTDEF
  5
128
330
113
100
AcDbEntity
  8
AM_6
100
AcDbText
 10
6.487750000000001
 20
-6.5315
 30
0.0
 40
0.5
  1
1.050
100
AcDbAttributeDefinition
  3

  2
D
 70
     8
280
     0
  0
ATTDEF
  5
129
330
113
100
AcDbEntity
  8
AM_6
100
AcDbText
 10
6.487750000000001
 20
-7.0315
 30
0.0
 40
0.5
  1
3-1/2
100
AcDbAttributeDefinition
  3

  2
E
 70
     8
280
     0
  0
ATTDEF
  5
12A
330
113
100
AcDbEntity
  8
AM_6
100
AcDbText
 10
6.487750000000001
 20
-7.5315
 30
0.0
 40
0.5
  1
3.500000
100
AcDbAttributeDefinition
  3

  2
E1
 70
     8
280
     0
  0
ATTDEF
  5
12B
330
113
100
AcDbEntity
  8
AM_6
100
AcDbText
 10
6.487750000000001
 20
-8.031500000000001
 30
0.0
 40
0.5
  1
0.1900
100
AcDbAttributeDefinition
  3

  2
NDM
 70
     8
280
     0
  0
ATTDEF
  5
12C
330
113
100
AcDbEntity
  8
AM_6
100
AcDbText
 10
6.487750000000001
 20
-8.531500000000001
 30
0.0
 40
0.5
  1
0.1450
100
AcDbAttributeDefinition
  3

  2
KDM
 70
     8
280
     0
  0
ATTDEF
  5
12D
330
113
100
AcDbEntity
  8
AM_6
100
AcDbText
 10
6.487750000000001
 20
-9.031500000000001
 30
0.0
 40
0.5
  1
2.92
100
AcDbAttributeDefinition
  3

  2
AL
 70
     8
280
     0
  0
ATTDEF
  5
12E
330
113
100
AcDbEntity
  8
AM_6
100
AcDbText
 10
6.487750000000001
 20
-9.531500000000001
 30
0.0
 40
0.5
  1
0.50
100
AcDbAttributeDefinition
  3

  2
BL
 70
     8
280
     0
  0
ATTDEF
  5
12F
330
113
100
AcDbEntity
  8
AM_6
100
AcDbText
 10
6.487750000000001
 20
-10.0315
 30
0.0
 40
0.5
  1
0.07
100
AcDbAttributeDefinition
  3

  2
CL
 70
     8
280
     0
  0
ATTDEF
  5
130
330
113
100
AcDbEntity
  8
AM_6
100
AcDbText
 10
6.487750000000001
 20
-10.5315
 30
0.0
 40
0.5
  1
0.44
100
AcDbAttributeDefinition
  3

  2
DL
 70
     8
280
     0
  0
ATTDEF
  5
131
330
113
100
AcDbEntity
  8
AM_6
100
AcDbText
 10
6.487750000000001
 20
-11.0315
 30
0.0
 40
0.5
  1
0.8000
100
AcDbAttributeDefinition
  3

  2
LL
 70
     8
280
     0
  0
ATTDEF
  5
132
330
113
100
AcDbEntity
  8
AM_6
100
AcDbText
 10
6.487750000000001
 20
-11.5315
 30
0.0
 40
0.5
  1
0.025
100
AcDbAttributeDefinition
  3

  2
Y
 70
     8
280
     0
  0
ATTDEF
  5
133
330
113
100
AcDbEntity
  8
AM_6
100
AcDbText
 10
6.487750000000001
 20
-12.0315
 30
0.0
 40
0.5
  1
0.025000
100
AcDbAttributeDefinition
  3

  2
Y1
 70
     8
280
     0
  0
ATTDEF
  5
134
330
113
100
AcDbEntity
  8
AM_6
100
AcDbText
 10
6.487750000000001
 20
-12.5315
 30
0.0
 40
0.5
  1
2-19/32
100
AcDbAttributeDefinition
  3

  2
Z
 70
     8
280
     0
  0
ATTDEF
  5
135
330
113
100
AcDbEntity
  8
AM_6
100
AcDbText
 10
6.487750000000001
 20
-13.0315
 30
0.0
 40
0.5
  1
2.593750
100
AcDbAttributeDefinition
  3

  2
Z1
 70
     8
280
     0
  0
ATTDEF
  5
136
330
113
100
AcDbEntity
  8
AM_6
100
AcDbText
 10
6.487750000000001
 20
-13.5315
 30
0.0
 40
0.5
  1
0.94000
100
AcDbAttributeDefinition
  3

  2
P1
 70
     8
280
     0
  0
ATTDEF
  5
137
330
113
100
AcDbEntity
  8
AM_6
100
AcDbText
 10
6.487750000000001
 20
-14.0315
 30
0.0
 40
0.5
  1
1.38000
100
AcDbAttributeDefinition
  3

  2
H1
 70
     8
280
     0
  0
ATTDEF
  5
138
330
113
100
AcDbEntity
  8
AM_6
100
AcDbText
 10
6.487750000000001
 20
-14.5315
 30
0.0
 40
0.5
  1
0.68000
100
AcDbAttributeDefinition
  3

  2
G1
 70
     8
280
     0
  0
ATTDEF
  5
139
330
113
100
AcDbEntity
  8
AM_6
100
AcDbText
 10
6.487750000000001
 20
-15.0315
 30
0.0
 40
0.5
  1
0.10100
100
AcDbAttributeDefinition
  3

  2
CW
 70
     8
280
     0
  0
ATTDEF
  5
13A
330
113
100
AcDbEntity
  8
AM_6
100
AcDbText
 10
6.487750000000001
 20
-15.5315
 30
0.0
 40
0.5
  1
3.50000
100
AcDbAttributeDefinition
  3

  2
L1
 70
     8
280
     0
  0
ATTDEF
  5
13B
330
113
100
AcDbEntity
  8
AM_6
100
AcDbText
 10
6.487750000000001
 20
-16.0315
 30
0.0
 40
0.5
  1
baldor
100
AcDbAttributeDefinition
  3

  2
COMPANY
 70
     8
280
     0
  0
LINE
  5
13C
330
113
100
AcDbEntity
  8
AM_9
100
AcDbLine
 10
0.7834374999999995
 20
1.108047935886763
 30
0.0
 11
-1.475
 21
1.108047935886763
 31
0.0
  0
LINE
  5
13D
330
113
100
AcDbEntity
  8
AM_9
100
AcDbLine
 10
0.7834374999999995
 20
1.012377077795491
 30
0.0
 11
-1.475
 21
1.012377077795491
 31
0.0
  0
LINE
  5
13E
330
113
100
AcDbEntity
  8
AM_9
100
AcDbLine
 10
-0.6349999999999998
 20
1.482638888888889
 30
0.0
 11
-0.6768290270027879
 21
1.555088888888889
 31
0.0
  0
LINE
  5
13F
330
113
100
AcDbEntity
  8
AM_9
100
AcDbLine
 10
-0.6768290270027879
 20
1.410188888888889
 30
0.0
 11
-0.6349999999999998
 21
1.482638888888889
 31
0.0
  0
LINE
  5
140
330
113
100
AcDbEntity
  8
AM_9
100
AcDbLine
 10
-0.6350000000000069
 20
-1.482638888888889
 30
0.0
 11
-0.6768290270027865
 21
-1.410188888888889
 31
0.0
  0
LINE
  5
141
330
113
100
AcDbEntity
  8
AM_9
100
AcDbLine
 10
-0.6768290270027865
 20
-1.555088888888889
 30
0.0
 11
-0.6350000000000069
 21
-1.482638888888889
 31
0.0
  0
LINE
  5
142
330
113
100
AcDbEntity
  8
AM_9
100
AcDbLine
 10
-1.452449999999994
 20
-1.555088888888889
 30
0.0
 11
-0.6768290270027865
 21
-1.555088888888889
 31
0.0
  0
LINE
  5
143
330
113
100
AcDbEntity
  8
AM_9
100
AcDbLine
 10
-0.6768290270027865
 20
-1.410188888888889
 30
0.0
 11
-1.452449999999994
 21
-1.410188888888889
 31
0.0
  0
LINE
  5
144
330
113
100
AcDbEntity
  8
AM_9
100
AcDbLine
 10
-0.6768290270027865
 20
-1.410188888888889
 30
0.0
 11
-0.6768290270027865
 21
-1.555088888888889
 31
0.0
  0
LINE
  5
145
330
113
100
AcDbEntity
  8
AM_9
100
AcDbLine
 10
-0.6768290270027879
 20
1.410188888888889
 30
0.0
 11
-0.6768290270027879
 21
1.555088888888889
 31
0.0
  0
LINE
  5
146
330
113
100
AcDbEntity
  8
AM_9
100
AcDbLine
 10
-0.6768290270027879
 20
1.555088888888889
 30
0.0
 11
-1.45245
 21
1.555088888888889
 31
0.0
  0
LINE
  5
147
330
113
100
AcDbEntity
  8
AM_9
100
AcDbLine
 10
-1.45245
 20
1.410188888888889
 30
0.0
 11
-0.6768290270027879
 21
1.410188888888889
 31
0.0
  0
LINE
  5
148
330
113
100
AcDbEntity
  8
AM_9
100
AcDbLine
 10
-1.45245
 20
1.410188888888889
 30
0.0
 11
-1.45245
 21
1.555088888888889
 31
0.0
  0
LINE
  5
149
330
113
100
AcDbEntity
  8
AM_9
100
AcDbLine
 10
-1.45245
 20
1.555088888888889
 30
0.0
 11
-1.475
 21
1.577638888888889
 31
0.0
  0
LINE
  5
14A
330
113
100
AcDbEntity
  8
AM_9
100
AcDbLine
 10
-1.475
 20
1.387638888888889
 30
0.0
 11
-1.45245
 21
1.410188888888889
 31
0.0
  0
LINE
  5
14B
330
113
100
AcDbEntity
  8
AM_9
100
AcDbLine
 10
-1.452449999999994
 20
-1.410188888888889
 30
0.0
 11
-1.474999999999999
 21
-1.387638888888889
 31
0.0
  0
LINE
  5
14C
330
113
100
AcDbEntity
  8
AM_9
100
AcDbLine
 10
-1.474999999999999
 20
-1.577638888888889
 30
0.0
 11
-1.452449999999994
 21
-1.555088888888889
 31
0.0
  0
LINE
  5
14D
330
113
100
AcDbEntity
  8
AM_9
100
AcDbLine
 10
-1.452449999999994
 20
-1.410188888888889
 30
0.0
 11
-1.452449999999994
 21
-1.555088888888889
 31
0.0
  0
LINE
  5
14E
330
113
100
AcDbEntity
  8
AM_9
100
AcDbLine
 10
0.7834374999999995
 20
1.051707838118872
 30
0.0
 11
-1.72
 21
1.051707838118873
 31
0.0
  0
LINE
  5
14F
330
113
100
AcDbEntity
  8
AM_9
100
AcDbLine
 10
-1.72
 20
0.9560369800276006
 30
0.0
 11
0.7834374999999995
 21
0.9560369800276001
 31
0.0
  0
LINE
  5
150
330
113
100
AcDbEntity
  8
AM_9
100
AcDbLine
 10
0.7834375
 20
1.09375
 30
0.0
 11
-1.72
 21
1.09375
 31
0.0
  0
LINE
  5
151
330
113
100
AcDbEntity
  8
AM_9
100
AcDbLine
 10
-1.72
 20
-1.09375
 30
0.0
 11
0.7834375
 21
-1.09375
 31
0.0
  0
LINE
  5
152
330
113
100
AcDbEntity
  8
AM_9
100
AcDbLine
 10
1.31
 20
1.151315789473684
 30
0.0
 11
0.7834375
 21
1.151315789473684
 31
0.0
  0
LINE
  5
153
330
113
100
AcDbEntity
  8
AM_9
100
AcDbLine
 10
0.7834375
 20
-1.151315789473684
 30
0.0
 11
1.31
 21
-1.151315789473684
 31
0.0
  0
LINE
  5
154
330
113
100
AcDbEntity
  8
AM_9
100
AcDbLine
 10
-1.72
 20
1.1052247552606
 30
0.0
 11
-1.475
 21
1.1052247552606
 31
0.0
  0
LINE
  5
155
330
113
100
AcDbEntity
  8
AM_9
100
AcDbLine
 10
-1.475
 20
1.009553897169328
 30
0.0
 11
-1.72
 21
1.009553897169328
 31
0.0
  0
LINE
  5
156
330
113
100
AcDbEntity
  8
AM_9
100
AcDbLine
 10
-1.475
 20
1.151315789473684
 30
0.0
 11
-1.545
 21
1.151315789473684
 31
0.0
  0
LINE
  5
157
330
113
100
AcDbEntity
  8
AM_9
100
AcDbLine
 10
-1.545
 20
-1.151315789473684
 30
0.0
 11
-1.475
 21
-1.151315789473684
 31
0.0
  0
LINE
  5
158
330
113
100
AcDbEntity
  8
AM_9
100
AcDbLine
 10
-1.035
 20
-0.8555992052357224
 30
0.0
 11
-1.475
 21
-0.8555992052357224
 31
0.0
  0
LINE
  5
159
330
113
100
AcDbEntity
  8
AM_9
100
AcDbLine
 10
-1.035
 20
-1.209152595828996
 30
0.0
 11
-1.28
 21
-1.209152595828996
 31
0.0
  0
LINE
  5
15A
330
113
100
AcDbEntity
  8
AM_9
100
AcDbLine
 10
-1.035
 20
0.8555992052357221
 30
0.0
 11
-1.475
 21
0.8555992052357221
 31
0.0
  0
LINE
  5
15B
330
113
100
AcDbEntity
  8
AM_9
100
AcDbLine
 10
-1.035
 20
1.209152595828995
 30
0.0
 11
-1.152
 21
1.209152595828995
 31
0.0
  0
LINE
  5
15C
330
113
100
AcDbEntity
  8
AM_9
100
AcDbLine
 10
1.31
 20
-1.296875
 30
0.0
 11
1.31
 21
1.296875
 31
0.0
  0
LINE
  5
15D
330
113
100
AcDbEntity
  8
AM_9
100
AcDbLine
 10
1.335000000000001
 20
1.296875
 30
0.0
 11
1.31
 21
1.296875
 31
0.0
  0
LINE
  5
15E
330
113
100
AcDbEntity
  8
AM_9
100
AcDbLine
 10
1.31
 20
-1.296875
 30
0.0
 11
1.335000000000001
 21
-1.296875
 31
0.0
  0
LINE
  5
15F
330
113
100
AcDbEntity
  8
AM_9
100
AcDbLine
 10
-1.035
 20
1.407008337285315
 30
0.0
 11
-1.035
 21
0.8555992052357221
 31
0.0
  0
ARC
  5
160
330
113
100
AcDbEntity
  8
AM_9
100
AcDbCircle
 10
0.8928124999999998
 20
1.589882260469459
 30
0.0
 40
0.1000000000000004
100
AcDbArc
 50
0.0
 51
60.00000000000005
  0
ARC
  5
161
330
113
100
AcDbEntity
  8
AM_9
100
AcDbCircle
 10
0.8928125
 20
-1.589882260469459
 30
0.0
 40
0.1000000000000001
100
AcDbArc
 50
300.0
 51
0.0
  0
LINE
  5
162
330
113
100
AcDbEntity
  8
AM_9
100
AcDbLine
 10
1.152
 20
1.729166666666667
 30
0.0
 11
0.9928124999999997
 21
1.729166666666667
 31
0.0
  0
LINE
  5
163
330
113
100
AcDbEntity
  8
AM_9
100
AcDbLine
 10
0.9928124999999997
 20
-1.729166666666667
 30
0.0
 11
1.28
 21
-1.729166666666667
 31
0.0
  0
LINE
  5
164
330
113
100
AcDbEntity
  8
AM_9
100
AcDbLine
 10
0.9928124999999997
 20
-1.729166666666667
 30
0.0
 11
0.9928124999999997
 21
1.729166666666667
 31
0.0
  0
LINE
  5
165
330
113
100
AcDbEntity
  8
AM_9
100
AcDbLine
 10
0.9428124999999999
 20
1.676484800847903
 30
0.0
 11
0.7834375
 21
1.7685
 31
0.0
  0
LINE
  5
166
330
113
100
AcDbEntity
  8
AM_9
100
AcDbLine
 10
0.7834375
 20
-1.7685
 30
0.0
 11
0.9428124999999999
 21
-1.676484800847903
 31
0.0
  0
LINE
  5
167
330
113
100
AcDbEntity
  8
AM_9
100
AcDbLine
 10
0.9428124999999999
 20
-1.676484800847903
 30
0.0
 11
0.9428124999999999
 21
1.676484800847903
 31
0.0
  0
LINE
  5
168
330
113
100
AcDbEntity
  8
AM_9
100
AcDbLine
 10
-1.280000001533399
 20
-1.050399874547677
 30
0.0
 11
-1.035
 21
-1.053454946692042
 31
0.0
  0
LINE
  5
169
330
113
100
AcDbEntity
  8
AM_9
100
AcDbLine
 10
-1.035
 20
-0.8555992052357224
 30
0.0
 11
-1.035
 21
-1.407008337285315
 31
0.0
  0
LINE
  5
16A
330
113
100
AcDbEntity
  8
AM_9
100
AcDbLine
 10
-1.035
 20
-1.407008337285315
 30
0.0
 11
-1.280000001533399
 21
-1.403953265140951
 31
0.0
  0
LINE
  5
16B
330
113
100
AcDbEntity
  8
AM_9
100
AcDbLine
 10
-1.152000001211343
 20
1.405549403675393
 30
0.0
 11
-1.035
 21
1.407008337285315
 31
0.0
  0
LINE
  5
16C
330
113
100
AcDbEntity
  8
AM_9
100
AcDbLine
 10
-1.035
 20
1.053454946692041
 30
0.0
 11
-1.152000001211343
 21
1.051996013082119
 31
0.0
  0
LINE
  5
16D
330
113
100
AcDbEntity
  8
AM_9
100
AcDbLine
 10
-1.279999999999999
 20
-1.753403737661003
 30
0.0
 11
-0.312564879678136
 21
-1.770290380500059
 31
0.0
  0
LINE
  5
16E
330
113
100
AcDbEntity
  8
AM_9
100
AcDbLine
 10
-0.312564879678136
 20
1.770290380500059
 30
0.0
 11
-1.152
 21
1.755637985971815
 31
0.0
  0
ARC
  5
16F
330
113
100
AcDbEntity
  8
AM_9
100
AcDbCircle
 10
-0.3134375000000006
 20
1.820282765257879
 30
0.0
 40
0.0500000000000005
100
AcDbArc
 50
271.0000000000005
 51
0.0
  0
ARC
  5
170
330
113
100
AcDbEntity
  8
AM_9
100
AcDbCircle
 10
-0.3134375000000006
 20
-1.820282765257879
 30
0.0
 40
0.0500000000000005
100
AcDbArc
 50
0.0
 51
88.99999999999956
  0
LINE
  5
171
330
113
100
AcDbEntity
  8
AM_9
100
AcDbLine
 10
-0.312564879678136
 20
-1.770290380500059
 30
0.0
 11
-0.312564879678136
 21
1.770290380500059
 31
0.0
  0
LINE
  5
172
330
113
100
AcDbEntity
  8
AM_9
100
AcDbLine
 10
0.2702206781528942
 20
1.91615625
 30
0.0
 11
0.209779321847105
 21
1.91615625
 31
0.0
  0
LINE
  5
173
330
113
100
AcDbEntity
  8
AM_9
100
AcDbLine
 10
0.209779321847105
 20
-1.91615625
 30
0.0
 11
0.2702206781528942
 21
-1.91615625
 31
0.0
  0
LINE
  5
174
330
113
100
AcDbEntity
  8
AM_9
100
AcDbLine
 10
0.1795586436942106
 20
1.9685
 30
0.0
 11
-0.2534375000000008
 21
1.9685
 31
0.0
  0
LINE
  5
175
330
113
100
AcDbEntity
  8
AM_9
100
AcDbLine
 10
-0.2534375000000008
 20
-1.9685
 30
0.0
 11
0.1795586436942106
 21
-1.9685
 31
0.0
  0
LINE
  5
176
330
113
100
AcDbEntity
  8
AM_9
100
AcDbLine
 10
0.7834375
 20
-1.918500000745058
 30
0.0
 11
0.7834375
 21
1.918500000745058
 31
0.0
  0
ARC
  5
177
330
113
100
AcDbEntity
  8
AM_9
100
AcDbCircle
 10
0.7334375000000002
 20
1.9185
 30
0.0
 40
0.0499999999999998
100
AcDbArc
 50
0.0
 51
90.0
  0
ARC
  5
178
330
113
100
AcDbEntity
  8
AM_9
100
AcDbCircle
 10
0.7334375000000002
 20
-1.9185
 30
0.0
 40
0.0499999999999998
100
AcDbArc
 50
270.0
 51
0.0
  0
LINE
  5
179
330
113
100
AcDbEntity
  8
AM_9
100
AcDbLine
 10
0.2702206781528942
 20
-1.91615625
 30
0.0
 11
0.3004413563057886
 21
-1.9685
 31
0.0
  0
LINE
  5
17A
330
113
100
AcDbEntity
  8
AM_9
100
AcDbLine
 10
0.3004413563057886
 20
1.9685
 30
0.0
 11
0.2702206781528942
 21
1.91615625
 31
0.0
  0
LINE
  5
17B
330
113
100
AcDbEntity
  8
AM_9
100
AcDbLine
 10
0.2702206781528942
 20
-1.91615625
 30
0.0
 11
0.2702206781528942
 21
1.91615625
 31
0.0
  0
LINE
  5
17C
330
113
100
AcDbEntity
  8
AM_9
100
AcDbLine
 10
-0.2634375000000004
 20
-1.9585
 30
0.0
 11
-0.2634375000000004
 21
1.9585
 31
0.0
  0
ARC
  5
17D
330
113
100
AcDbEntity
  8
AM_9
100
AcDbCircle
 10
-0.2534375000000009
 20
1.9585
 30
0.0
 40
0.0099999999999993
100
AcDbArc
 50
90.0
 51
179.9999991462263
  0
ARC
  5
17E
330
113
100
AcDbEntity
  8
AM_9
100
AcDbCircle
 10
-0.2534375000000009
 20
-1.9585
 30
0.0
 40
0.0099999999999994
100
AcDbArc
 50
179.9999991462263
 51
270.0
  0
LINE
  5
17F
330
113
100
AcDbEntity
  8
AM_9
100
AcDbLine
 10
-0.2534375000000008
 20
-1.9685
 30
0.0
 11
-0.2534375000000008
 21
1.9685
 31
0.0
  0
LINE
  5
180
330
113
100
AcDbEntity
  8
AM_9
100
AcDbLine
 10
0.209779321847105
 20
1.91615625
 30
0.0
 11
0.1795586436942106
 21
1.9685
 31
0.0
  0
LINE
  5
181
330
113
100
AcDbEntity
  8
AM_9
100
AcDbLine
 10
0.1795586436942106
 20
-1.9685
 30
0.0
 11
0.209779321847105
 21
-1.91615625
 31
0.0
  0
LINE
  5
182
330
113
100
AcDbEntity
  8
AM_9
100
AcDbLine
 10
0.209779321847105
 20
-1.91615625
 30
0.0
 11
0.209779321847105
 21
1.91615625
 31
0.0
  0
LINE
  5
183
330
113
100
AcDbEntity
  8
AM_9
100
AcDbLine
 10
0.1795586436942106
 20
-1.9685
 30
0.0
 11
0.1795586436942106
 21
1.9685
 31
0.0
  0
LINE
  5
184
330
113
100
AcDbEntity
  8
AM_9
100
AcDbLine
 10
0.7334374999999996
 20
1.9685
 30
0.0
 11
0.3004413563057886
 21
1.9685
 31
0.0
  0
LINE
  5
185
330
113
100
AcDbEntity
  8
AM_9
100
AcDbLine
 10
0.3004413563057886
 20
-1.9685
 30
0.0
 11
0.7334374999999996
 21
-1.9685
 31
0.0
  0
LINE
  5
186
330
113
100
AcDbEntity
  8
AM_9
100
AcDbLine
 10
0.7334374999999996
 20
-1.9685
 30
0.0
 11
0.7334374999999996
 21
1.9685
 31
0.0
  0
LINE
  5
187
330
113
100
AcDbEntity
  8
AM_9
100
AcDbLine
 10
0.3004413563057886
 20
-1.9685
 30
0.0
 11
0.3004413563057886
 21
1.9685
 31
0.0
  0
LINE
  5
188
330
113
100
AcDbEntity
  8
AM_5
100
AcDbLine
 10
-1.475
 20
1.577638888888889
 30
0.0
 11
-0.7749999999999999
 21
1.577638888888889
 31
0.0
  0
LINE
  5
189
330
113
100
AcDbEntity
  8
AM_5
100
AcDbLine
 10
-0.7750000000000005
 20
1.577638888888889
 30
0.0
 11
-0.7480273103968563
 21
1.562066199285745
 31
0.0
  0
LINE
  5
18A
330
113
100
AcDbEntity
  8
AM_5
100
AcDbLine
 10
-1.475
 20
1.387638888888889
 30
0.0
 11
-0.7749999999999999
 21
1.387638888888889
 31
0.0
  0
LINE
  5
18B
330
113
100
AcDbEntity
  8
AM_5
100
AcDbLine
 10
-0.775
 20
1.387638888888889
 30
0.0
 11
-0.7480273103968567
 21
1.403211578492032
 31
0.0
  0
LINE
  5
18C
330
113
100
AcDbEntity
  8
AM_5
100
AcDbLine
 10
-1.475
 20
-1.577638888888889
 30
0.0
 11
-0.7749999999999937
 21
-1.577638888888889
 31
0.0
  0
LINE
  5
18D
330
113
100
AcDbEntity
  8
AM_5
100
AcDbLine
 10
-0.7749999999999941
 20
-1.577638888888889
 30
0.0
 11
-0.7480273103968663
 21
-1.562066199285756
 31
0.0
  0
LINE
  5
18E
330
113
100
AcDbEntity
  8
AM_5
100
AcDbLine
 10
-1.474999999999999
 20
-1.387638888888889
 30
0.0
 11
-0.7749999999999937
 21
-1.387638888888889
 31
0.0
  0
LINE
  5
18F
330
113
100
AcDbEntity
  8
AM_5
100
AcDbLine
 10
-0.7749999999999939
 20
-1.387638888888889
 30
0.0
 11
-0.7480273103968664
 21
-1.403211578492022
 31
0.0
  0
LINE
  5
192
330
113
100
AcDbEntity
  8
AM_7
100
AcDbLine
 10
1.487750000000001
 20
0.0
 30
0.0
 11
-1.87275
 21
0.0
 31
0.0
  0
LINE
  5
193
330
113
100
AcDbEntity
  8
AM_7
100
AcDbLine
 10
-0.5929999999999997
 20
1.482638888888889
 30
0.0
 11
-1.69105
 21
1.482638888888889
 31
0.0
  0
LINE
  5
194
330
113
100
AcDbEntity
  8
AM_7
100
AcDbLine
 10
-0.5930000000000075
 20
-1.482638888888889
 30
0.0
 11
-1.69105
 21
-1.482638888888889
 31
0.0
  0
LINE
  5
195
330
113
100
AcDbEntity
  8
AM_4
100
AcDbLine
 10
-1.545
 20
1.151315789473684
 30
0.0
 11
-1.72
 21
1.151315789473684
 31
0.0
  0
LINE
  5
196
330
113
100
AcDbEntity
  8
AM_4
100
AcDbLine
 10
-1.72
 20
-1.151315789473684
 30
0.0
 11
-1.545
 21
-1.151315789473684
 31
0.0
  0
LINE
  5
197
330
113
100
AcDbEntity
  8
AM_4
100
AcDbLine
 10
-1.72
 20
-1.151315789473684
 30
0.0
 11
-1.72
 21
1.151315789473684
 31
0.0
  0
LINE
  5
198
330
113
100
AcDbEntity
  8
AM_4
100
AcDbLine
 10
-1.28
 20
-1.209152595828996
 30
0.0
 11
-1.475
 21
-1.209152595828996
 31
0.0
  0
LINE
  5
199
330
113
100
AcDbEntity
  8
AM_4
100
AcDbLine
 10
-1.152
 20
1.209152595828995
 30
0.0
 11
-1.475
 21
1.209152595828995
 31
0.0
  0
LINE
  5
19A
330
113
100
AcDbEntity
  8
AM_4
100
AcDbLine
 10
1.335000000000001
 20
-1.729166666666667
 30
0.0
 11
1.335000000000001
 21
1.729166666666667
 31
0.0
  0
LINE
  5
19B
330
113
100
AcDbEntity
  8
AM_4
100
AcDbLine
 10
1.335000000000001
 20
1.729166666666667
 30
0.0
 11
1.152
 21
1.729166666666667
 31
0.0
  0
LINE
  5
19C
330
113
100
AcDbEntity
  8
AM_4
100
AcDbLine
 10
1.28
 20
-1.729166666666667
 30
0.0
 11
1.335000000000001
 21
-1.729166666666667
 31
0.0
  0
LINE
  5
19D
330
113
100
AcDbEntity
  8
AM_4
100
AcDbLine
 10
-1.475
 20
-1.047968176094953
 30
0.0
 11
-1.475
 21
1.047968176094952
 31
0.0
  0
LINE
  5
19E
330
113
100
AcDbEntity
  8
AM_4
100
AcDbLine
 10
-1.475
 20
-1.047968176094953
 30
0.0
 11
-1.280000001533399
 21
-1.050399874547677
 31
0.0
  0
LINE
  5
19F
330
113
100
AcDbEntity
  8
AM_4
100
AcDbLine
 10
-1.280000001533399
 20
-1.403953265140951
 30
0.0
 11
-1.475
 21
-1.401521566688226
 31
0.0
  0
LINE
  5
1A0
330
113
100
AcDbEntity
  8
AM_4
100
AcDbLine
 10
-1.475
 20
1.401521566688226
 30
0.0
 11
-1.475
 21
1.75
 31
0.0
  0
LINE
  5
1A1
330
113
100
AcDbEntity
  8
AM_4
100
AcDbLine
 10
-1.475
 20
1.401521566688226
 30
0.0
 11
-1.152000001211343
 21
1.405549403675393
 31
0.0
  0
LINE
  5
1A2
330
113
100
AcDbEntity
  8
AM_4
100
AcDbLine
 10
-1.152000001211343
 20
1.051996013082119
 30
0.0
 11
-1.475
 21
1.047968176094952
 31
0.0
  0
LINE
  5
1A3
330
113
100
AcDbEntity
  8
AM_4
100
AcDbLine
 10
-1.475
 20
-1.75
 30
0.0
 11
-1.279999999999999
 21
-1.753403737661003
 31
0.0
  0
LINE
  5
1A4
330
113
100
AcDbEntity
  8
AM_4
100
AcDbLine
 10
-1.152
 20
1.755637985971815
 30
0.0
 11
-1.475
 21
1.75
 31
0.0
  0
LINE
  5
1A5
330
113
100
AcDbEntity
  8
AM_4
100
AcDbLine
 10
-1.475
 20
-1.75
 30
0.0
 11
-1.475
 21
-1.401521566688226
 31
0.0
  0
ENDBLK
  5
116
330
113
100
AcDbEntity
  8
0
100
AcDbBlockEnd
  0
BLOCK
  5
1A8
330
1A6
100
AcDbEntity
  8
0
100
AcDbBlockBegin
  2
6_405015E_Inch_0_in_071150_2
 70
     2
 10
0.0
 20
0.0
 30
0.0
  3
6_405015E_Inch_0_in_071150_2
  1

  0
ATTDEF
  5
1AA
330
1A6
100
AcDbEntity
  8
AM_6
100
AcDbText
 10
5.252590742770462
 20
2.627764527225338
 30
0.0
 40
0.5
  1
405015E -Inch
100
AcDbAttributeDefinition
  3

  2
NN
 70
     8
280
     0
  0
ATTDEF
  5
1AB
330
1A6
100
AcDbEntity
  8
AM_6
100
AcDbText
 10
5.252590742770462
 20
2.127764527225338
 30
0.0
 40
0.5
  1
Grease Fitting
100
AcDbAttributeDefinition
  3

  2
NT
 70
     8
280
     0
  0
ATTDEF
  5
1AC
330
1A6
100
AcDbEntity
  8
AM_6
100
AcDbText
 10
5.252590742770462
 20
1.627764527225338
 30
0.0
 40
0.5
  1
405015E-Inch
100
AcDbAttributeDefinition
  3

  2
NB
 70
     8
280
     0
  0
ATTDEF
  5
1AD
330
1A6
100
AcDbEntity
  8
AM_6
100
AcDbText
 10
5.252590742770462
 20
1.127764527225338
 30
0.0
 40
0.5
  1
$MN.-Inch
100
AcDbAttributeDefinition
  3

  2
NBSYN
 70
     8
280
     0
  0
ATTDEF
  5
1AE
330
1A6
100
AcDbEntity
  8
AM_6
100
AcDbText
 10
5.252590742770462
 20
0.6277645272253376
 30
0.0
 40
0.5
  1
405015E
100
AcDbAttributeDefinition
  3

  2
LINA
 70
     8
280
     0
  0
ATTDEF
  5
1AF
330
1A6
100
AcDbEntity
  8
AM_6
100
AcDbText
 10
5.252590742770462
 20
0.1277645272253376
 30
0.0
 40
0.5
  1
405015E
100
AcDbAttributeDefinition
  3

  2
MN
 70
     8
280
     0
  0
ATTDEF
  5
1B0
330
1A6
100
AcDbEntity
  8
AM_6
100
AcDbText
 10
5.252590742770462
 20
-0.3722354727746624
 30
0.0
 40
0.5
  1
1/8 x 27PTF
100
AcDbAttributeDefinition
  3

  2
T
 70
     8
280
     0
  0
ATTDEF
  5
1B1
330
1A6
100
AcDbEntity
  8
AM_6
100
AcDbText
 10
5.252590742770462
 20
-0.8722354727746624
 30
0.0
 40
0.5
  1
baldor
100
AcDbAttributeDefinition
  3

  2
COMPANY
 70
     8
280
     0
  0
LINE
  5
1B2
330
1A6
100
AcDbEntity
  8
AM_9
100
AcDbLine
 10
-0.1262953713852306
 20
2.439790818529368
 30
0.0
 11
-0.1262953713852306
 21
2.368893821528157
 31
0.0
  0
LINE
  5
1B3
330
1A6
100
AcDbEntity
  8
AM_9
100
AcDbLine
 10
0.1262953713852307
 20
2.439790818529368
 30
0.0
 11
0.1262953713852307
 21
2.368893821528157
 31
0.0
  0
LWPOLYLINE
  5
1B4
330
1A6
100
AcDbEntity
  8
AM_9
100
AcDbPolyline
 90
        3
 70
     0
 43
0.0
 10
0.0000000000000001
 20
2.361041049839541
 10
0.0631476856926154
 20
2.36311377840031
 10
0.1262953713852307
 20
2.368893821528157
  0
LWPOLYLINE
  5
1B5
330
1A6
100
AcDbEntity
  8
AM_9
100
AcDbPolyline
 90
        4
 70
     0
 43
0.0
 10
-0.1262953713852306
 20
2.368893821528157
 10
-0.0967996321117977
 20
2.365788958354019
 10
-0.0485424412477543
 20
2.362275853319474
 10
0.0000000000000001
 20
2.361041049839541
  0
ELLIPSE
  5
1B6
330
1A6
100
AcDbEntity
  8
AM_9
100
AcDbEllipse
 10
-0.0000000000000004
 20
2.25166604983954
 30
0.0
 11
0.2187499999999995
 21
0.0
 31
0.0
210
0.0
220
0.0
230
1.0
 40
0.5000000000000012
 41
1.570796326794897
 42
2.617993877991491
  0
LWPOLYLINE
  5
1B7
330
1A6
100
AcDbEntity
  8
AM_9
100
AcDbPolyline
 90
        3
 70
     0
 43
0.0
 10
-0.1894430570778459
 20
2.306353549839541
 10
-0.1578692142315382
 20
2.33577002840031
 10
-0.1262953713852306
 20
2.368893821528157
  0
ELLIPSE
  5
1B8
330
1A6
100
AcDbEntity
  8
AM_9
100
AcDbEllipse
 10
0.0000000000000007
 20
2.251666049839541
 30
0.0
 11
0.2187499999999991
 21
0.0
 31
0.0
210
0.0
220
0.0
230
1.0
 40
0.5000000000000021
 41
0.5235987755982983
 42
1.570796326794897
  0
LWPOLYLINE
  5
1B9
330
1A6
100
AcDbEntity
  8
AM_9
100
AcDbPolyline
 90
        3
 70
     0
 43
0.0
 10
0.1262953713852307
 20
2.368893821528157
 10
0.1577272497321277
 20
2.335911284646908
 10
0.189443057077846
 20
2.306353549839541
  0
LWPOLYLINE
  5
1BA
330
1A6
100
AcDbEntity
  8
AM_9
100
AcDbPolyline
 90
        3
 70
     0
 43
0.0
 10
0.1017936341075117
 20
2.442416703089427
 10
0.0634316146914368
 20
2.445552550273542
 10
0.0000000000000001
 20
2.447643590217984
  0
LINE
  5
1BB
330
1A6
100
AcDbEntity
  8
AM_9
100
AcDbLine
 10
0.1050470645306125
 20
2.442094025328204
 30
0.0
 11
0.1017936341075117
 21
2.442416703089427
 31
0.0
  0
LINE
  5
1BC
330
1A6
100
AcDbEntity
  8
AM_9
100
AcDbLine
 10
-0.1019402242712157
 20
2.442402343118598
 30
0.0
 11
-0.1050087569988761
 21
2.442097872832714
 31
0.0
  0
LWPOLYLINE
  5
1BD
330
1A6
100
AcDbEntity
  8
AM_9
100
AcDbPolyline
 90
        4
 70
     0
 43
0.0
 10
0.0000000000000001
 20
2.447643590217984
 10
-0.0483998160558988
 20
2.446415946625537
 10
-0.0967996321117977
 20
2.442895681703506
 10
-0.1019402242712157
 20
2.442402343118598
  0
LWPOLYLINE
  5
1BE
330
1A6
100
AcDbEntity
  8
AM_9
100
AcDbPolyline
 90
        3
 70
     0
 43
0.0
 10
0.189443057077846
 20
2.306353549839541
 10
0.2210168999241537
 20
2.28108252840031
 10
0.2525907427704613
 20
2.259518821528157
  0
LWPOLYLINE
  5
1BF
330
1A6
100
AcDbEntity
  8
AM_9
100
AcDbPolyline
 90
        3
 70
     0
 43
0.0
 10
-0.2525907427704611
 20
2.259518821528157
 10
-0.2211588644235642
 20
2.280977894921058
 10
-0.1894430570778459
 20
2.306353549839541
  0
LINE
  5
1C0
330
1A6
100
AcDbEntity
  8
AM_9
100
AcDbLine
 10
0.1321931418159854
 20
1.975431984334445
 30
0.0
 11
0.1621706131788416
 21
1.996629257617947
 31
0.0
  0
LINE
  5
1C1
330
1A6
100
AcDbEntity
  8
AM_9
100
AcDbLine
 10
-0.1621706131788415
 20
1.996629257617947
 30
0.0
 11
-0.1321931418159852
 21
1.975431984334445
 31
0.0
  0
ELLIPSE
  5
1C2
330
1A6
100
AcDbEntity
  8
AM_9
100
AcDbEllipse
 10
0.0000000000000002
 20
2.251666049839541
 30
0.0
 11
0.2187500000000001
 21
3.259629011154178E-9
 31
0.0
210
0.0
220
0.0
230
1.0
 40
0.4999999999999997
 41
2.617993853777112
 42
4.71238898038469
  0
ELLIPSE
  5
1C3
330
1A6
100
AcDbEntity
  8
AM_9
100
AcDbEllipse
 10
0.0000000000000006
 20
2.25166604983954
 30
0.0
 11
0.2187499999999994
 21
0.0
 31
0.0
210
0.0
220
0.0
230
1.0
 40
0.5000000000000013
 41
4.71238898038469
 42
6.806784082777889
  0
ELLIPSE
  5
1C4
330
1A6
100
AcDbEntity
  8
AM_9
100
AcDbEllipse
 10
0.0000000000000001
 20
2.053965227761916
 30
0.0
 11
0.1986176267812153
 21
0.0
 31
0.0
210
0.0
220
0.0
230
1.0
 40
0.5000000000000037
 41
0.0
 42
3.159636730294248
  0
LINE
  5
1C5
330
1A6
100
AcDbEntity
  8
AM_9
100
AcDbLine
 10
0.1985852938306409
 20
2.052173389153096
 30
0.0
 11
0.2057184028850728
 21
2.249809849061911
 31
0.0
  0
LINE
  5
1C6
330
1A6
100
AcDbEntity
  8
AM_9
100
AcDbLine
 10
-0.2057184028850727
 20
2.249809849061911
 30
0.0
 11
-0.1985852938306407
 21
2.052173389153096
 31
0.0
  0
ELLIPSE
  5
1C7
330
1A6
100
AcDbEntity
  8
AM_9
100
AcDbEllipse
 10
-0.000000000001035
 20
2.053965227760324
 30
0.0
 11
0.1986176267822505
 21
0.0
 31
0.0
210
0.0
220
0.0
230
1.0
 40
0.4999999999999802
 41
3.159636730278304
 42
6.283185307179586
  0
LINE
  5
1C8
330
1A6
100
AcDbEntity
  8
AM_9
100
AcDbLine
 10
-0.10178102724221
 20
2.442101424003828
 30
0.0
 11
-0.1049999999999999
 21
2.4357990293643
 31
0.0
  0
LINE
  5
1C9
330
1A6
100
AcDbEntity
  8
AM_9
100
AcDbLine
 10
0.1050000000000001
 20
2.4357990293643
 30
0.0
 11
0.1017810272422102
 21
2.442101424003828
 31
0.0
  0
ELLIPSE
  5
1CA
330
1A6
100
AcDbEntity
  8
AM_9
100
AcDbEllipse
 10
0.0000000000000001
 20
2.42920125761535
 30
0.0
 11
0.1050000000000001
 21
0.0
 31
0.0
210
0.0
220
0.0
230
1.0
 40
0.5000000000000017
 41
0.2500328930988074
 42
3.141592653589793
  0
ELLIPSE
  5
1CB
330
1A6
100
AcDbEntity
  8
AM_9
100
AcDbEllipse
 10
0.0000000000000019
 20
2.401274641744272
 30
0.0
 11
0.1188200907348957
 21
0.0
 31
0.0
210
0.0
220
0.0
230
1.0
 40
0.5000000000000514
 41
0.2500328930990214
 42
2.535447513394567
  0
ELLIPSE
  5
1CC
330
1A6
100
AcDbEntity
  8
AM_9
100
AcDbEllipse
 10
-0.0000000000000035
 20
2.429201257615337
 30
0.0
 11
0.1050000000000036
 21
0.0
 31
0.0
210
0.0
220
0.0
230
1.0
 40
0.5000000000000103
 41
0.0
 42
0.2500328930990415
  0
LINE
  5
1CD
330
1A6
100
AcDbEntity
  8
AM_9
100
AcDbLine
 10
0.1050000000000001
 20
2.44743948642781
 30
0.0
 11
0.1050000000000001
 21
2.455182019728884
 31
0.0
  0
LINE
  5
1CE
330
1A6
100
AcDbEntity
  8
AM_9
100
AcDbLine
 10
-0.1049999999999999
 20
2.455182019728884
 30
0.0
 11
-0.1049999999999999
 21
2.44743948642781
 31
0.0
  0
ELLIPSE
  5
1CF
330
1A6
100
AcDbEntity
  8
AM_9
100
AcDbEllipse
 10
0.0000000000000014
 20
2.455182019728904
 30
0.0
 11
0.1050000000000014
 21
0.0
 31
0.0
210
0.0
220
0.0
230
1.0
 40
0.5000000000000294
 41
3.141592653589793
 42
3.434435425318717
  0
LINE
  5
1D0
330
1A6
100
AcDbEntity
  8
AM_9
100
AcDbLine
 10
-0.0976523208201057
 20
2.435120757476732
 30
0.0
 11
-0.1098343496897826
 21
2.426333904349883
 31
0.0
  0
LINE
  5
1D1
330
1A6
100
AcDbEntity
  8
AM_9
100
AcDbLine
 10
0.1098343496897827
 20
2.426333904349883
 30
0.0
 11
0.0976523208201058
 21
2.435120757476732
 31
0.0
  0
ELLIPSE
  5
1D2
330
1A6
100
AcDbEntity
  8
AM_9
100
AcDbEllipse
 10
-0.000000000000002
 20
2.401274641744272
 30
0.0
 11
0.1188200907348955
 21
0.0
 31
0.0
210
0.0
220
0.0
230
1.0
 40
0.5000000000000524
 41
2.535447513394539
 42
2.891559760490764
  0
ELLIPSE
  5
1D3
330
1A6
100
AcDbEntity
  8
AM_9
100
AcDbEllipse
 10
0.0000000000000001
 20
2.354132615505956
 30
0.0
 11
0.1725340532830151
 21
2.570957739398109E-9
 31
0.0
210
0.0
220
0.0
230
1.0
 40
0.4999999999999998
 41
0.6061451176472872
 42
2.535447490846922
  0
ELLIPSE
  5
1D4
330
1A6
100
AcDbEntity
  8
AM_9
100
AcDbEllipse
 10
-0.0000000000000005
 20
2.338268590217988
 30
0.0
 11
0.2187500000000019
 21
0.0
 31
0.0
210
0.0
220
0.0
230
1.0
 40
0.4999999999999793
 41
1.065244638251233
 42
1.570796326794897
  0
ELLIPSE
  5
1D5
330
1A6
100
AcDbEntity
  8
AM_9
100
AcDbEllipse
 10
0.0000000000000006
 20
2.338268590217988
 30
0.0
 11
0.2187500000000016
 21
3.259629011154199E-9
 31
0.0
210
0.0
220
0.0
230
1.0
 40
0.4999999999999801
 41
1.570796326794897
 42
2.076348002645669
  0
ELLIPSE
  5
1D6
330
1A6
100
AcDbEntity
  8
AM_9
100
AcDbEllipse
 10
-0.0000000000030864
 20
2.338268590213869
 30
0.0
 11
0.2137499999938015
 21
0.0
 31
0.0
210
0.0
220
0.0
230
1.0
 40
0.5000000000275678
 41
-4.198889882961357
 42
-4.184564777765143
  0
ELLIPSE
  5
1D7
330
1A6
100
AcDbEntity
  8
AM_9
100
AcDbEllipse
 10
-0.0000000000012868
 20
2.338268590218321
 30
0.0
 11
0.2137499999973194
 21
0.0
 31
0.0
210
0.0
220
0.0
230
1.0
 40
0.5000000000034742
 41
1.075763652996295
 42
2.084295424225412
  0
ELLIPSE
  5
1D8
330
1A6
100
AcDbEntity
  8
AM_9
100
AcDbEllipse
 10
0.000000000001287
 20
2.338268590218322
 30
0.0
 11
0.213749999997318
 21
0.0
 31
0.0
210
0.0
220
0.0
230
1.0
 40
0.5000000000034713
 41
1.042972124168058
 42
1.075763653006885
  0
ELLIPSE
  5
1D9
330
1A6
100
AcDbEntity
  8
AM_9
100
AcDbEllipse
 10
0.0000000000000001
 20
2.455182019728883
 30
0.0
 11
0.1050000000000003
 21
1.564621925354008E-9
 31
0.0
210
0.0
220
0.0
230
1.0
 40
0.4999999999999964
 41
5.990342507511337
 42
9.42477793495981
  0
ELLIPSE
  5
1DA
330
1A6
100
AcDbEntity
  8
AM_9
100
AcDbEllipse
 10
0.0000000000000001
 20
2.50714354395595
 30
0.0
 11
0.1350000000000002
 21
0.0
 31
0.0
210
0.0
220
0.0
230
1.0
 40
0.5000000000000118
 41
0.2354336045415604
 42
2.906159049048232
  0
ELLIPSE
  5
1DB
330
1A6
100
AcDbEntity
  8
AM_9
100
AcDbEllipse
 10
0.0000000000000001
 20
2.022169317836665
 30
0.0
 11
0.1619028724722693
 21
0.0
 31
0.0
210
0.0
220
0.0
230
1.0
 40
0.500000000000005
 41
0.0
 42
6.283185307179586
  0
ELLIPSE
  5
1DC
330
1A6
100
AcDbEntity
  8
AM_9
100
AcDbEllipse
 10
-0.0000000000010053
 20
2.251666049839196
 30
0.0
 11
0.2057518972240749
 21
0.0
 31
0.0
210
0.0
220
0.0
230
1.0
 40
0.5000000000000258
 41
0.0
 42
6.283185307179586
  0
LWPOLYLINE
  5
1DD
330
1A6
100
AcDbEntity
  8
AM_4
100
AcDbPolyline
 90
        3
 70
     0
 43
0.0
 10
0.189443057077846
 20
2.392956090217984
 10
0.1578692142315384
 20
2.418227111657215
 10
0.1262953713852307
 20
2.439790818529368
  0
LINE
  5
1DE
330
1A6
100
AcDbEntity
  8
AM_4
100
AcDbLine
 10
0.1262953713852307
 20
2.439790818529368
 30
0.0
 11
0.1050470645306125
 21
2.442094025328204
 31
0.0
  0
LWPOLYLINE
  5
1DF
330
1A6
100
AcDbEntity
  8
AM_4
100
AcDbPolyline
 90
        3
 70
     0
 43
0.0
 10
-0.1262953713852306
 20
2.439790818529368
 10
-0.1577272497321275
 20
2.418331745136467
 10
-0.1894430570778459
 20
2.392956090217984
  0
LINE
  5
1E0
330
1A6
100
AcDbEntity
  8
AM_4
100
AcDbLine
 10
-0.1050087569988761
 20
2.442097872832714
 30
0.0
 11
-0.1262953713852306
 21
2.439790818529368
 31
0.0
  0
LWPOLYLINE
  5
1E1
330
1A6
100
AcDbEntity
  8
AM_4
100
AcDbPolyline
 90
        3
 70
     0
 43
0.0
 10
0.2525907427704613
 20
2.330415818529368
 10
0.2211588644235644
 20
2.363398355410617
 10
0.189443057077846
 20
2.392956090217984
  0
LWPOLYLINE
  5
1E2
330
1A6
100
AcDbEntity
  8
AM_4
100
AcDbPolyline
 90
        3
 70
     0
 43
0.0
 10
-0.1894430570778459
 20
2.392956090217984
 10
-0.2210168999241535
 20
2.363539611657215
 10
-0.2525907427704611
 20
2.330415818529368
  0
LINE
  5
1E3
330
1A6
100
AcDbEntity
  8
AM_4
100
AcDbLine
 10
-0.1049999999999999
 20
2.4357990293643
 30
0.0
 11
-0.1151252948555657
 21
2.415974815609486
 31
0.0
  0
LINE
  5
1E4
330
1A6
100
AcDbEntity
  8
AM_4
100
AcDbLine
 10
0.1151252948555659
 20
2.415974815609486
 30
0.0
 11
0.1050000000000001
 21
2.4357990293643
 31
0.0
  0
ELLIPSE
  5
1E5
330
1A6
100
AcDbEntity
  8
AM_4
100
AcDbEllipse
 10
0.0000000000000001
 20
2.401274641744287
 30
0.0
 11
0.1188200907348975
 21
0.0
 31
0.0
210
0.0
220
0.0
230
1.0
 40
0.4999999999999952
 41
2.891559760490987
 42
6.283185307179586
  0
LINE
  5
1E6
330
1A6
100
AcDbEntity
  8
AM_4
100
AcDbLine
 10
0.1050000000000001
 20
2.429201257615351
 30
0.0
 11
0.1050000000000001
 21
2.44743948642781
 31
0.0
  0
LINE
  5
1E7
330
1A6
100
AcDbEntity
  8
AM_4
100
AcDbLine
 10
-0.1049999999999999
 20
2.44743948642781
 30
0.0
 11
-0.1049999999999999
 21
2.429201257615351
 31
0.0
  0
ELLIPSE
  5
1E8
330
1A6
100
AcDbEntity
  8
AM_4
100
AcDbEllipse
 10
0.0000000000000001
 20
2.429201257615351
 30
0.0
 11
0.1049999999999999
 21
1.564621925354003E-9
 31
0.0
210
0.0
220
0.0
230
1.0
 40
0.5000000000000024
 41
3.141592627780224
 42
6.28318702669927
  0
ELLIPSE
  5
1E9
330
1A6
100
AcDbEntity
  8
AM_4
100
AcDbEllipse
 10
-0.0000000000000019
 20
2.401274641744279
 30
0.0
 11
0.1188200907348995
 21
0.0
 31
0.0
210
0.0
220
0.0
230
1.0
 40
0.5000000000000057
 41
0.0
 42
0.2500328930989204
  0
LINE
  5
1EA
330
1A6
100
AcDbEntity
  8
AM_4
100
AcDbLine
 10
-0.1098343496897826
 20
2.426333904349883
 30
0.0
 11
-0.1417971541629017
 21
2.403279249708026
 31
0.0
  0
LINE
  5
1EB
330
1A6
100
AcDbEntity
  8
AM_4
100
AcDbLine
 10
0.1417971541629019
 20
2.403279249708026
 30
0.0
 11
0.1098343496897827
 21
2.426333904349883
 31
0.0
  0
ELLIPSE
  5
1EC
330
1A6
100
AcDbEntity
  8
AM_4
100
AcDbEllipse
 10
0.0
 20
2.354132615505955
 30
0.0
 11
0.1725340532830152
 21
2.570957739398110E-9
 31
0.0
210
0.0
220
0.0
230
1.0
 40
0.4999999999999995
 41
2.535447490846909
 42
6.889330424826881
  0
LWPOLYLINE
  5
1ED
330
1A6
100
AcDbEntity
  8
AM_4
100
AcDbPolyline
 90
        4
 70
     0
 43
0.0
 10
0.0000000000000001
 20
2.142291049839541
 10
-0.0483998160558988
 20
2.143518693431989
 10
-0.0967996321117977
 20
2.147038958354019
 10
-0.1262953713852306
 20
2.150143821528157
  0
LWPOLYLINE
  5
1EE
330
1A6
100
AcDbEntity
  8
AM_4
100
AcDbPolyline
 90
        3
 70
     0
 43
0.0
 10
0.1262953713852308
 20
2.150143821528157
 10
0.0634316146914368
 20
2.144382089783983
 10
0.0000000000000001
 20
2.142291049839541
  0
LWPOLYLINE
  5
1EF
330
1A6
100
AcDbEntity
  8
AM_4
100
AcDbPolyline
 90
        3
 70
     0
 43
0.0
 10
0.0000000000000001
 20
2.228893590217984
 10
0.0631476856926154
 20
2.226820861657215
 10
0.1262953713852308
 20
2.221040818529368
  0
ELLIPSE
  5
1F0
330
1A6
100
AcDbEntity
  8
AM_4
100
AcDbEllipse
 10
0.0000000000000002
 20
2.338268590217985
 30
0.0
 11
0.2187499999999998
 21
0.0
 31
0.0
210
0.0
220
0.0
230
1.0
 40
0.5000000000000027
 41
4.71238898038469
 42
7.348429945430816
  0
ELLIPSE
  5
1F1
330
1A6
100
AcDbEntity
  8
AM_4
100
AcDbEllipse
 10
-0.0000000000000022
 20
2.338268590217985
 30
0.0
 11
0.2187499999999968
 21
0.0
 31
0.0
210
0.0
220
0.0
230
1.0
 40
0.5000000000000032
 41
2.076348015338556
 42
3.665191429188102
  0
LINE
  5
1F2
330
1A6
100
AcDbEntity
  8
AM_4
100
AcDbLine
 10
0.2525907427704613
 20
2.330415818529368
 30
0.0
 11
0.2525907427704613
 21
2.259518821528157
 31
0.0
  0
LWPOLYLINE
  5
1F3
330
1A6
100
AcDbEntity
  8
AM_4
100
AcDbPolyline
 90
        3
 70
     0
 43
0.0
 10
0.189443057077846
 20
2.283581090217984
 10
0.2210168999241536
 20
2.308852111657215
 10
0.2525907427704613
 20
2.330415818529368
  0
LWPOLYLINE
  5
1F4
330
1A6
100
AcDbEntity
  8
AM_4
100
AcDbPolyline
 90
        3
 70
     0
 43
0.0
 10
0.1262953713852308
 20
2.221040818529368
 10
0.1577272497321276
 20
2.254023355410617
 10
0.189443057077846
 20
2.283581090217984
  0
LINE
  5
1F5
330
1A6
100
AcDbEntity
  8
AM_4
100
AcDbLine
 10
0.1262953713852308
 20
2.221040818529368
 30
0.0
 11
0.1262953713852308
 21
2.150143821528157
 31
0.0
  0
LWPOLYLINE
  5
1F6
330
1A6
100
AcDbEntity
  8
AM_4
100
AcDbPolyline
 90
        3
 70
     0
 43
0.0
 10
0.189443057077846
 20
2.196978549839541
 10
0.1578692142315384
 20
2.17170752840031
 10
0.1262953713852308
 20
2.150143821528157
  0
LWPOLYLINE
  5
1F7
330
1A6
100
AcDbEntity
  8
AM_4
100
AcDbPolyline
 90
        3
 70
     0
 43
0.0
 10
0.2525907427704613
 20
2.259518821528157
 10
0.2211588644235643
 20
2.226536284646908
 10
0.189443057077846
 20
2.196978549839541
  0
LINE
  5
1F8
330
1A6
100
AcDbEntity
  8
AM_4
100
AcDbLine
 10
-0.1262953713852306
 20
2.221040818529368
 30
0.0
 11
-0.1262953713852306
 21
2.150143821528157
 31
0.0
  0
LWPOLYLINE
  5
1F9
330
1A6
100
AcDbEntity
  8
AM_4
100
AcDbPolyline
 90
        3
 70
     0
 43
0.0
 10
-0.2525907427704611
 20
2.330415818529368
 10
-0.2211588644235642
 20
2.308956745136467
 10
-0.1894430570778459
 20
2.283581090217984
  0
LINE
  5
1FA
330
1A6
100
AcDbEntity
  8
AM_4
100
AcDbLine
 10
-0.2525907427704611
 20
2.330415818529368
 30
0.0
 11
-0.2525907427704611
 21
2.259518821528157
 31
0.0
  0
LWPOLYLINE
  5
1FB
330
1A6
100
AcDbEntity
  8
AM_4
100
AcDbPolyline
 90
        3
 70
     0
 43
0.0
 10
-0.1894430570778459
 20
2.196978549839541
 10
-0.2210168999241535
 20
2.22639502840031
 10
-0.2525907427704611
 20
2.259518821528157
  0
LWPOLYLINE
  5
1FC
330
1A6
100
AcDbEntity
  8
AM_4
100
AcDbPolyline
 90
        3
 70
     0
 43
0.0
 10
-0.1262953713852306
 20
2.150143821528157
 10
-0.1577272497321275
 20
2.171602894921057
 10
-0.1894430570778459
 20
2.196978549839541
  0
ELLIPSE
  5
1FD
330
1A6
100
AcDbEntity
  8
AM_4
100
AcDbEllipse
 10
-0.0000000000000003
 20
2.338268590217985
 30
0.0
 11
0.2187499999999996
 21
0.0
 31
0.0
210
0.0
220
0.0
230
1.0
 40
0.5000000000000031
 41
3.665191429188093
 42
4.71238898038469
  0
LWPOLYLINE
  5
1FE
330
1A6
100
AcDbEntity
  8
AM_4
100
AcDbPolyline
 90
        3
 70
     0
 43
0.0
 10
-0.1894430570778459
 20
2.283581090217984
 10
-0.1578692142315383
 20
2.254164611657215
 10
-0.1262953713852306
 20
2.221040818529368
  0
LWPOLYLINE
  5
1FF
330
1A6
100
AcDbEntity
  8
AM_4
100
AcDbPolyline
 90
        4
 70
     0
 43
0.0
 10
-0.1262953713852306
 20
2.221040818529368
 10
-0.0967996321117977
 20
2.224145681703506
 10
-0.0485424412477543
 20
2.227658786738051
 10
0.0000000000000001
 20
2.228893590217984
  0
ELLIPSE
  5
200
330
1A6
100
AcDbEntity
  8
AM_4
100
AcDbEllipse
 10
0.0000000000000001
 20
2.338268590217984
 30
0.0
 11
0.21375
 21
3.185123205184937E-9
 31
0.0
210
0.0
220
0.0
230
1.0
 40
0.5000000000000003
 41
2.098620516301819
 42
7.326157418226548
  0
LINE
  5
201
330
1A6
100
AcDbEntity
  8
AM_4
100
AcDbLine
 10
0.1005298463144156
 20
2.440026575162656
 30
0.0
 11
0.1292526595471058
 21
2.4876579723708
 31
0.0
  0
LINE
  5
202
330
1A6
100
AcDbEntity
  8
AM_4
100
AcDbLine
 10
-0.1292526595471055
 20
2.4876579723708
 30
0.0
 11
-0.1005298463144154
 21
2.440026575162656
 31
0.0
  0
ELLIPSE
  5
203
330
1A6
100
AcDbEntity
  8
AM_4
100
AcDbEllipse
 10
0.0000000000000001
 20
2.455182019728883
 30
0.0
 11
0.1049999999999999
 21
0.0
 31
0.0
210
0.0
220
0.0
230
1.0
 40
0.5000000000000027
 41
3.434435425318362
 42
5.990342535451018
  0
ELLIPSE
  5
204
330
1A6
100
AcDbEntity
  8
AM_4
100
AcDbEllipse
 10
0.0000000000000039
 20
2.507143543955903
 30
0.0
 11
0.1349999999999962
 21
0.0
 31
0.0
210
0.0
220
0.0
230
1.0
 40
0.5000000000000526
 41
3.434435425317668
 42
6.518618911721807
  0
LINE
  5
205
330
1A6
100
AcDbEntity
  8
AM_4
100
AcDbLine
 10
-0.0998453562378796
 20
2.588401138699903
 30
0.0
 11
-0.1312757938985218
 21
2.522888907847528
 31
0.0
  0
LINE
  5
206
330
1A6
100
AcDbEntity
  8
AM_4
100
AcDbLine
 10
0.131275793898522
 20
2.522888907847528
 30
0.0
 11
0.0998453562378798
 21
2.588401138699903
 31
0.0
  0
ELLIPSE
  5
207
330
1A6
100
AcDbEntity
  8
AM_4
100
AcDbEllipse
 10
0.0000000000000009
 20
2.507143543955952
 30
0.0
 11
0.1350000000000008
 21
0.0
 31
0.0
210
0.0
220
0.0
230
1.0
 40
0.5000000000000029
 41
2.906159049048255
 42
3.43443542531839
  0
ELLIPSE
  5
208
330
1A6
100
AcDbEntity
  8
AM_4
100
AcDbEllipse
 10
-0.0000000000000071
 20
2.576425576258744
 30
0.0
 11
0.1026779019331947
 21
0.0
 31
0.0
210
0.0
220
0.0
230
1.0
 40
0.499999999999961
 41
0.0
 42
6.283185307179586
  0
ENDBLK
  5
1A9
330
1A6
100
AcDbEntity
  8
0
100
AcDbBlockEnd
  0
BLOCK
  5
20B
330
209
100
AcDbEntity
  8
0
100
AcDbBlockBegin
  2
7_071150H_0_in_071150_2
 70
     2
 10
0.0
 20
0.0
 30
0.0
  3
7_071150H_0_in_071150_2
  1

  0
ATTDEF
  5
20D
330
209
100
AcDbEntity
  8
AM_6
100
AcDbText
 10
6.28
 20
2.5
 30
0.0
 40
0.5
  1
EP2B-IP -(Contact Seal)-Housing -Inch
100
AcDbAttributeDefinition
  3

  2
NN
 70
     8
280
     0
  0
ATTDEF
  5
20E
330
209
100
AcDbEntity
  8
AM_6
100
AcDbText
 10
6.28
 20
2.0
 30
0.0
 40
0.5
  1
Imperial 2 Bolt Piliow Block Bearings
100
AcDbAttributeDefinition
  3

  2
NT
 70
     8
280
     0
  0
ATTDEF
  5
20F
330
209
100
AcDbEntity
  8
AM_6
100
AcDbText
 10
6.28
 20
1.5
 30
0.0
 40
0.5
  1
071150H
100
AcDbAttributeDefinition
  3

  2
NB
 70
     8
280
     0
  0
ATTDEF
  5
210
330
209
100
AcDbEntity
  8
AM_6
100
AcDbText
 10
6.28
 20
1.0
 30
0.0
 40
0.5
  1
$PN.H
100
AcDbAttributeDefinition
  3

  2
NBSYN
 70
     8
280
     0
  0
ATTDEF
  5
211
330
209
100
AcDbEntity
  8
AM_6
100
AcDbText
 10
6.28
 20
0.5
 30
0.0
 40
0.5
  1
071150
100
AcDbAttributeDefinition
  3

  2
LINA
 70
     8
280
     0
  0
ATTDEF
  5
212
330
209
100
AcDbEntity
  8
AM_6
100
AcDbText
 10
6.28
 20
0.0
 30
0.0
 40
0.5
  1
2-3/16
100
AcDbAttributeDefinition
  3

  2
SS
 70
     8
280
     0
  0
ATTDEF
  5
213
330
209
100
AcDbEntity
  8
AM_6
100
AcDbText
 10
6.28
 20
-0.5
 30
0.0
 40
0.5
  1
2.187500
100
AcDbAttributeDefinition
  3

  2
SS1
 70
     8
280
     0
  0
ATTDEF
  5
214
330
209
100
AcDbEntity
  8
AM_6
100
AcDbText
 10
6.28
 20
-1.0
 30
0.0
 40
0.5
  1
Expansion
100
AcDbAttributeDefinition
  3

  2
TYPE
 70
     8
280
     0
  0
ATTDEF
  5
215
330
209
100
AcDbEntity
  8
AM_6
100
AcDbText
 10
6.28
 20
-1.5
 30
0.0
 40
0.5
  1
071129
100
AcDbAttributeDefinition
  3

  2
PN1
 70
     8
280
     0
  0
ATTDEF
  5
216
330
209
100
AcDbEntity
  8
AM_6
100
AcDbText
 10
6.28
 20
-2.0
 30
0.0
 40
0.5
  1
071150
100
AcDbAttributeDefinition
  3

  2
PN2
 70
     8
280
     0
  0
ATTDEF
  5
217
330
209
100
AcDbEntity
  8
AM_6
100
AcDbText
 10
6.28
 20
-2.5
 30
0.0
 40
0.5
  1
EP2B-IP-203R
100
AcDbAttributeDefinition
  3

  2
DES1
 70
     8
280
     0
  0
ATTDEF
  5
218
330
209
100
AcDbEntity
  8
AM_6
100
AcDbText
 10
6.28
 20
-3.0
 30
0.0
 40
0.5
  1
Non-Expansion Type
100
AcDbAttributeDefinition
  3

  2
EF
 70
     8
280
     0
  0
ATTDEF
  5
219
330
209
100
AcDbEntity
  8
AM_6
100
AcDbText
 10
6.28
 20
-3.5
 30
0.0
 40
0.5
  1
1
100
AcDbAttributeDefinition
  3

  2
EF1
 70
     8
280
     0
  0
ATTDEF
  5
21A
330
209
100
AcDbEntity
  8
AM_6
100
AcDbText
 10
6.28
 20
-4.0
 30
0.0
 40
0.5
  1
Contact Seal
100
AcDbAttributeDefinition
  3

  2
ST
 70
     8
280
     0
  0
ATTDEF
  5
21B
330
209
100
AcDbEntity
  8
AM_6
100
AcDbText
 10
6.28
 20
-4.5
 30
0.0
 40
0.5
  1
1
100
AcDbAttributeDefinition
  3

  2
ST1
 70
     8
280
     0
  0
ATTDEF
  5
21C
330
209
100
AcDbEntity
  8
AM_6
100
AcDbText
 10
6.28
 20
-5.0
 30
0.0
 40
0.5
  1
3.03
100
AcDbAttributeDefinition
  3

  2
A
 70
     8
280
     0
  0
ATTDEF
  5
21D
330
209
100
AcDbEntity
  8
AM_6
100
AcDbText
 10
6.28
 20
-5.5
 30
0.0
 40
0.5
  1
3.0300000
100
AcDbAttributeDefinition
  3

  2
A1
 70
     8
280
     0
  0
ATTDEF
  5
21E
330
209
100
AcDbEntity
  8
AM_6
100
AcDbText
 10
6.28
 20
-6.0
 30
0.0
 40
0.5
  1
9.62
100
AcDbAttributeDefinition
  3

  2
B
 70
     8
280
     0
  0
ATTDEF
  5
21F
330
209
100
AcDbEntity
  8
AM_6
100
AcDbText
 10
6.28
 20
-6.5
 30
0.0
 40
0.5
  1
9.6200000
100
AcDbAttributeDefinition
  3

  2
B1
 70
     8
280
     0
  0
ATTDEF
  5
220
330
209
100
AcDbEntity
  8
AM_6
100
AcDbText
 10
6.28
 20
-7.0
 30
0.0
 40
0.5
  1
2.56
100
AcDbAttributeDefinition
  3

  2
C
 70
     8
280
     0
  0
ATTDEF
  5
221
330
209
100
AcDbEntity
  8
AM_6
100
AcDbText
 10
6.28
 20
-7.5
 30
0.0
 40
0.5
  1
2.5600000
100
AcDbAttributeDefinition
  3

  2
C1
 70
     8
280
     0
  0
ATTDEF
  5
222
330
209
100
AcDbEntity
  8
AM_6
100
AcDbText
 10
6.28
 20
-8.0
 30
0.0
 40
0.5
  1
7.63
100
AcDbAttributeDefinition
  3

  2
DMIN
 70
     8
280
     0
  0
ATTDEF
  5
223
330
209
100
AcDbEntity
  8
AM_6
100
AcDbText
 10
6.28
 20
-8.5
 30
0.0
 40
0.5
  1
7.6300000
100
AcDbAttributeDefinition
  3

  2
DMIN1
 70
     8
280
     0
  0
ATTDEF
  5
224
330
209
100
AcDbEntity
  8
AM_6
100
AcDbText
 10
6.28
 20
-9.0
 30
0.0
 40
0.5
  1
7.88
100
AcDbAttributeDefinition
  3

  2
DMAX
 70
     8
280
     0
  0
ATTDEF
  5
225
330
209
100
AcDbEntity
  8
AM_6
100
AcDbText
 10
6.28
 20
-9.5
 30
0.0
 40
0.5
  1
7.8800000
100
AcDbAttributeDefinition
  3

  2
DMAX1
 70
     8
280
     0
  0
ATTDEF
  5
226
330
209
100
AcDbEntity
  8
AM_6
100
AcDbText
 10
6.28
 20
-10.0
 30
0.0
 40
0.5
  1
5/8
100
AcDbAttributeDefinition
  3

  2
F
 70
     8
280
     0
  0
ATTDEF
  5
227
330
209
100
AcDbEntity
  8
AM_6
100
AcDbText
 10
6.28
 20
-10.5
 30
0.0
 40
0.5
  1
0.6250000
100
AcDbAttributeDefinition
  3

  2
F1
 70
     8
280
     0
  0
ATTDEF
  5
228
330
209
100
AcDbEntity
  8
AM_6
100
AcDbText
 10
6.28
 20
-11.0
 30
0.0
 40
0.5
  1
0.88
100
AcDbAttributeDefinition
  3

  2
G
 70
     8
280
     0
  0
ATTDEF
  5
229
330
209
100
AcDbEntity
  8
AM_6
100
AcDbText
 10
6.28
 20
-11.5
 30
0.0
 40
0.5
  1
0.880000
100
AcDbAttributeDefinition
  3

  2
G1
 70
     8
280
     0
  0
ATTDEF
  5
22A
330
209
100
AcDbEntity
  8
AM_6
100
AcDbText
 10
6.28
 20
-12.0
 30
0.0
 40
0.5
  1
1.5
100
AcDbAttributeDefinition
  3

  2
H
 70
     8
280
     0
  0
ATTDEF
  5
22B
330
209
100
AcDbEntity
  8
AM_6
100
AcDbText
 10
6.28
 20
-12.5
 30
0.0
 40
0.5
  1
1.5000000
100
AcDbAttributeDefinition
  3

  2
H1
 70
     8
280
     0
  0
ATTDEF
  5
22C
330
209
100
AcDbEntity
  8
AM_6
100
AcDbText
 10
6.28
 20
-13.0
 30
0.0
 40
0.5
  1
5
100
AcDbAttributeDefinition
  3

  2
J
 70
     8
280
     0
  0
ATTDEF
  5
22D
330
209
100
AcDbEntity
  8
AM_6
100
AcDbText
 10
6.28
 20
-13.5
 30
0.0
 40
0.5
  1
5.000000
100
AcDbAttributeDefinition
  3

  2
J1
 70
     8
280
     0
  0
ATTDEF
  5
22E
330
209
100
AcDbEntity
  8
AM_6
100
AcDbText
 10
6.28
 20
-14.0
 30
0.0
 40
0.5
  1
3.50
100
AcDbAttributeDefinition
  3

  2
L
 70
     8
280
     0
  0
ATTDEF
  5
22F
330
209
100
AcDbEntity
  8
AM_6
100
AcDbText
 10
6.28
 20
-14.5
 30
0.0
 40
0.5
  1
3.5000000
100
AcDbAttributeDefinition
  3

  2
L1
 70
     8
280
     0
  0
ATTDEF
  5
230
330
209
100
AcDbEntity
  8
AM_6
100
AcDbText
 10
6.28
 20
-15.0
 30
0.0
 40
0.5
  1
2.50
100
AcDbAttributeDefinition
  3

  2
M
 70
     8
280
     0
  0
ATTDEF
  5
231
330
209
100
AcDbEntity
  8
AM_6
100
AcDbText
 10
6.28
 20
-15.5
 30
0.0
 40
0.5
  1
2.500000
100
AcDbAttributeDefinition
  3

  2
M1
 70
     8
280
     0
  0
ATTDEF
  5
232
330
209
100
AcDbEntity
  8
AM_6
100
AcDbText
 10
6.28
 20
-16.0
 30
0.0
 40
0.5
  1
1.06
100
AcDbAttributeDefinition
  3

  2
R
 70
     8
280
     0
  0
ATTDEF
  5
233
330
209
100
AcDbEntity
  8
AM_6
100
AcDbText
 10
6.28
 20
-16.5
 30
0.0
 40
0.5
  1
1.060000
100
AcDbAttributeDefinition
  3

  2
R1
 70
     8
280
     0
  0
ATTDEF
  5
234
330
209
100
AcDbEntity
  8
AM_6
100
AcDbText
 10
6.28
 20
-17.0
 30
0.0
 40
0.5
  1
1.97
100
AcDbAttributeDefinition
  3

  2
S
 70
     8
280
     0
  0
ATTDEF
  5
235
330
209
100
AcDbEntity
  8
AM_6
100
AcDbText
 10
6.28
 20
-17.5
 30
0.0
 40
0.5
  1
1.970000
100
AcDbAttributeDefinition
  3

  2
S1
 70
     8
280
     0
  0
ATTDEF
  5
236
330
209
100
AcDbEntity
  8
AM_6
100
AcDbText
 10
6.28
 20
-18.0
 30
0.0
 40
0.5
  1
0.25
100
AcDbAttributeDefinition
  3

  2
X
 70
     8
280
     0
  0
ATTDEF
  5
237
330
209
100
AcDbEntity
  8
AM_6
100
AcDbText
 10
6.28
 20
-18.5
 30
0.0
 40
0.5
  1
0.250000
100
AcDbAttributeDefinition
  3

  2
X1
 70
     8
280
     0
  0
ATTDEF
  5
238
330
209
100
AcDbEntity
  8
AM_6
100
AcDbText
 10
6.28
 20
-19.0
 30
0.0
 40
0.5
  1
0.025
100
AcDbAttributeDefinition
  3

  2
Y
 70
     8
280
     0
  0
ATTDEF
  5
239
330
209
100
AcDbEntity
  8
AM_6
100
AcDbText
 10
6.28
 20
-19.5
 30
0.0
 40
0.5
  1
2.6
100
AcDbAttributeDefinition
  3

  2
Z
 70
     8
280
     0
  0
ATTDEF
  5
23A
330
209
100
AcDbEntity
  8
AM_6
100
AcDbText
 10
6.28
 20
-20.0
 30
0.0
 40
0.5
  1
2.600000
100
AcDbAttributeDefinition
  3

  2
Z1
 70
     8
280
     0
  0
ATTDEF
  5
23B
330
209
100
AcDbEntity
  8
AM_6
100
AcDbText
 10
6.28
 20
-20.5
 30
0.0
 40
0.5
  1
3.9370
100
AcDbAttributeDefinition
  3

  2
BORE
 70
     8
280
     0
  0
ATTDEF
  5
23C
330
209
100
AcDbEntity
  8
AM_6
100
AcDbText
 10
6.28
 20
-21.0
 30
0.0
 40
0.5
  1
baldor
100
AcDbAttributeDefinition
  3

  2
COMPANY
 70
     8
280
     0
  0
LINE
  5
23D
330
209
100
AcDbEntity
  8
AM_9
100
AcDbLine
 10
-0.256948122401537
 20
2.425
 30
0.0
 11
0.2569651184558812
 21
2.425
 31
0.0
  0
LINE
  5
23E
330
209
100
AcDbEntity
  8
AM_9
100
AcDbLine
 10
-0.1342418679808861
 20
2.5
 30
0.0
 11
0.1342418679808863
 21
2.5
 31
0.0
  0
ELLIPSE
  5
23F
330
209
100
AcDbEntity
  8
AM_9
100
AcDbEllipse
 10
0.000000000000151
 20
2.165063509449619
 30
0.0
 11
0.5000000000001508
 21
0.0
 31
0.0
210
0.0
220
0.0
230
1.0
 40
0.5000000000001308
 41
3.12759204761598
 42
3.141592653589793
  0
ELLIPSE
  5
240
330
209
100
AcDbEntity
  8
AM_9
100
AcDbEllipse
 10
0.0000000000000001
 20
2.165063509461097
 30
0.0
 11
0.4999999999999997
 21
0.0
 31
0.0
210
0.0
220
0.0
230
1.0
 40
0.5000000000000616
 41
0.0
 42
3.127592047661871
  0
ELLIPSE
  5
241
330
209
100
AcDbEntity
  8
AM_9
100
AcDbEllipse
 10
-0.0000000000000012
 20
2.251666049839529
 30
0.0
 11
0.4000000000000059
 21
0.0
 31
0.0
210
0.0
220
0.0
230
1.0
 40
0.5000000000000231
 41
1.309208643565817
 42
1.832384010023971
  0
LWPOLYLINE
  5
242
330
209
100
AcDbEntity
  8
AM_9
100
AcDbPolyline
 90
        5
 70
     0
 43
0.0
 10
0.0000000000000001
 20
2.465063509461096
 10
-0.0175706747580378
 20
2.46489193360176
 10
-0.0503797854554566
 20
2.463649369153146
 10
-0.0829935953022856
 20
2.461206607283026
 10
-0.1113941105101224
 20
2.458070388050678
  0
LWPOLYLINE
  5
243
330
209
100
AcDbEntity
  8
AM_9
100
AcDbPolyline
 90
        5
 70
     0
 43
0.0
 10
0.1113987266637684
 20
2.458069799985159
 10
0.081606908385236
 20
2.461335399361883
 10
0.048949747399776
 20
2.463728727178598
 10
0.0161179794177402
 20
2.464919139638556
 10
0.0000000000000001
 20
2.465063509461096
  0
LINE
  5
244
330
209
100
AcDbEntity
  8
AM_9
100
AcDbLine
 10
-1.152
 20
-1.9685
 30
0.0
 11
1.152
 21
-1.9685
 31
0.0
  0
LINE
  5
245
330
209
100
AcDbEntity
  8
AM_9
100
AcDbLine
 10
1.152
 20
1.9685
 30
0.0
 11
-1.152
 21
1.9685
 31
0.0
  0
LINE
  5
246
330
209
100
AcDbEntity
  8
AM_9
100
AcDbLine
 10
-0.2909958081714223
 20
2.41235264950122
 30
0.0
 11
0.2910383809792295
 21
2.41235264950122
 31
0.0
  0
LINE
  5
247
330
209
100
AcDbEntity
  8
AM_9
100
AcDbLine
 10
-0.499982299407715
 20
2.167164028654824
 30
0.0
 11
-0.4999999999999998
 21
2.165063509461097
 31
0.0
  0
LWPOLYLINE
  5
248
330
209
100
AcDbEntity
  8
AM_9
100
AcDbPolyline
 90
       13
 70
     0
 43
0.0
 10
-0.1107846467449266
 20
2.367275014968583
 10
-0.1636170599390486
 20
2.362283308341956
 10
-0.2148074007134655
 20
2.355202673013206
 10
-0.2634779437595995
 20
2.346016553068313
 10
-0.3087578670261369
 20
2.334745935599773
 10
-0.3507042828296725
 20
2.321118477669586
 10
-0.3884006954873798
 20
2.305231286381974
 10
-0.4211602900434084
 20
2.287192118481827
 10
-0.4488229507557701
 20
2.266765572291701
 10
-0.4708791663677675
 20
2.244168417388178
 10
-0.4868882158055168
 20
2.219697862173166
 10
-0.49669812640604
 20
2.193124655488345
 10
-0.499982299407715
 20
2.167164028654824
  0
LWPOLYLINE
  5
249
330
209
100
AcDbEntity
  8
AM_9
100
AcDbPolyline
 90
        6
 70
     0
 43
0.0
 10
0.108080280016535
 20
2.367473786876561
 10
0.0631678931784016
 20
2.370019612791419
 10
0.0
 20
2.371320343559643
 10
-0.0554160083146454
 20
2.370316040943281
 10
-0.1103010373551007
 20
2.367303508278545
 10
-0.1107846467449266
 20
2.367275014968583
  0
LWPOLYLINE
  5
24A
330
209
100
AcDbEntity
  8
AM_9
100
AcDbPolyline
 90
       14
 70
     0
 43
0.0
 10
0.4999983180444999
 20
2.165711668728411
 10
0.497274452299664
 20
2.190507500823639
 10
0.48919318619102
 20
2.214828297739604
 10
0.4758992671626139
 20
2.237666880321836
 10
0.4561131693429734
 20
2.260158396526098
 10
0.4307698854210358
 20
2.28075831534994
 10
0.4003402780574397
 20
2.299238918725554
 10
0.3644267431314256
 20
2.315812761492323
 10
0.3238720394525871
 20
2.330226578367748
 10
0.279407925725332
 20
2.34239942696989
 10
0.2308587942749694
 20
2.352464906718863
 10
0.179160627507591
 20
2.360375349634892
 10
0.1252907384558902
 20
2.366117409025263
 10
0.108080280016535
 20
2.367473786876561
  0
LINE
  5
24B
330
209
100
AcDbEntity
  8
AM_9
100
AcDbLine
 10
-1.152
 20
-0.9214961038461505
 30
0.0
 11
-1.152
 21
-2.5
 31
0.0
  0
LINE
  5
24C
330
209
100
AcDbEntity
  8
AM_9
100
AcDbLine
 10
1.152
 20
-0.9214961038461548
 30
0.0
 11
1.152
 21
-2.5
 31
0.0
  0
LINE
  5
24D
330
209
100
AcDbEntity
  8
AM_9
100
AcDbLine
 10
-0.3124999999999997
 20
-1.0
 30
0.0
 11
-0.3124999999999997
 21
-2.5
 31
0.0
  0
LINE
  5
24E
330
209
100
AcDbEntity
  8
AM_9
100
AcDbLine
 10
0.3125000000000003
 20
-1.0
 30
0.0
 11
0.3125000000000003
 21
-2.5
 31
0.0
  0
LINE
  5
24F
330
209
100
AcDbEntity
  8
AM_4
100
AcDbLine
 10
0.2569651184558812
 20
2.425
 30
0.0
 11
1.152
 21
2.424999999999999
 31
0.0
  0
LINE
  5
250
330
209
100
AcDbEntity
  8
AM_4
100
AcDbLine
 10
-1.152
 20
2.425
 30
0.0
 11
-0.256948122401537
 21
2.425
 31
0.0
  0
LINE
  5
251
330
209
100
AcDbEntity
  8
AM_4
100
AcDbLine
 10
0.1342418679808863
 20
2.5
 30
0.0
 11
1.152
 21
2.5
 31
0.0
  0
LINE
  5
252
330
209
100
AcDbEntity
  8
AM_4
100
AcDbLine
 10
-1.152
 20
2.5
 30
0.0
 11
-0.1342418679808861
 21
2.5
 31
0.0
  0
ELLIPSE
  5
253
330
209
100
AcDbEntity
  8
AM_4
100
AcDbEllipse
 10
0.0
 20
2.165063509461097
 30
0.0
 11
0.4999999999999999
 21
0.0
 31
0.0
210
0.0
220
0.0
230
1.0
 40
0.500000000000001
 41
3.141592653589793
 42
6.283185307179586
  0
ELLIPSE
  5
254
330
209
100
AcDbEntity
  8
AM_4
100
AcDbEllipse
 10
-0.0000000000000007
 20
2.251666049839541
 30
0.0
 11
0.4000000000000004
 21
0.0
 31
0.0
210
0.0
220
0.0
230
1.0
 40
0.5
 41
1.888215877610993
 42
7.588369484404279
  0
ELLIPSE
  5
255
330
209
100
AcDbEntity
  8
AM_4
100
AcDbEllipse
 10
0.0000000000000662
 20
2.251666049840229
 30
0.0
 11
0.400000000000226
 21
0.0
 31
0.0
210
0.0
220
0.0
230
1.0
 40
0.4999999999980926
 41
-4.446776830814391
 42
-4.394969429568491
  0
LWPOLYLINE
  5
256
330
209
100
AcDbEntity
  8
AM_4
100
AcDbPolyline
 90
       22
 70
     0
 43
0.0
 10
-0.1113941105101224
 20
2.458070388050678
 10
-0.1152883217816656
 20
2.457565100434342
 10
-0.1471471751669842
 20
2.45272542317988
 10
-0.178456023589026
 20
2.446686597820344
 10
-0.2091035658904398
 20
2.439445080158325
 10
-0.2389809507708413
 20
2.430993563515074
 10
-0.2679805037123638
 20
2.421319772556967
 10
-0.2959930816560968
 20
2.4104056334902
 10
-0.3229034489452941
 20
2.398227599006857
 10
-0.3485831299915846
 20
2.384759525671316
 10
-0.372880879275315
 20
2.369980219672807
 10
-0.3955970585363894
 20
2.353900058188266
 10
-0.4164862719372125
 20
2.336587290694927
 10
-0.4353096664278412
 20
2.318160374856669
 10
-0.4518553099924345
 20
2.298794712109701
 10
-0.4659778339526519
 20
2.278695609097949
 10
-0.4776136610639953
 20
2.258063790553815
 10
-0.4867662190782381
 20
2.237075076854774
 10
-0.4934784321746164
 20
2.2158792486155
 10
-0.4978103346277357
 20
2.194607999158102
 10
-0.4998269778608658
 20
2.173381571067155
 10
-0.499999970049656
 20
2.164954055649162
  0
LWPOLYLINE
  5
257
330
209
100
AcDbEntity
  8
AM_4
100
AcDbPolyline
 90
       23
 70
     0
 43
0.0
 10
0.499999992557889
 20
2.16511806992575
 10
0.4999900895565731
 20
2.167054518247078
 10
0.4986805317586116
 20
2.188013472147652
 10
0.4952150836745265
 20
2.208649443243673
 10
0.4896553110582167
 20
2.228873888184037
 10
0.4820448648160224
 20
2.248637248278428
 10
0.4724047004498826
 20
2.267906079441966
 10
0.4607310652934259
 20
2.286656340067326
 10
0.446999603174983
 20
2.304862681330119
 10
0.4311786566632324
 20
2.322485167694189
 10
0.4132526098058192
 20
2.339457146729953
 10
0.3932502234328752
 20
2.355680475850815
 10
0.3712652865771174
 20
2.371033900271444
 10
0.3474558074285241
 20
2.385393757346108
 10
0.3220202412659871
 20
2.398656723400836
 10
0.2951869281883721
 20
2.410743463581656
 10
0.267151396486748
 20
2.421618206133056
 10
0.2380717890417681
 20
2.43127249181155
 10
0.2080881538001003
 20
2.439707357217818
 10
0.1773288287945346
 20
2.446927149875817
 10
0.1459158914123135
 20
2.452936349959856
 10
0.1139688722124937
 20
2.457738368271053
 10
0.1113987266637684
 20
2.458069799985159
  0
LINE
  5
258
330
209
100
AcDbEntity
  8
AM_4
100
AcDbLine
 10
0.2910383809792295
 20
2.41235264950122
 30
0.0
 11
1.152
 21
2.41235264950122
 31
0.0
  0
LINE
  5
259
330
209
100
AcDbEntity
  8
AM_4
100
AcDbLine
 10
-1.152
 20
2.41235264950122
 30
0.0
 11
-0.2909958081714223
 21
2.41235264950122
 31
0.0
  0
LINE
  5
25A
330
209
100
AcDbEntity
  8
AM_4
100
AcDbLine
 10
0.9142857142857145
 20
0.3861346915261554
 30
0.0
 11
-0.9142857142857141
 21
0.3861346915261554
 31
0.0
  0
LWPOLYLINE
  5
25B
330
209
100
AcDbEntity
  8
AM_4
100
AcDbPolyline
 90
       30
 70
     0
 43
0.0
 10
-0.4999999999999998
 20
2.165063509461097
 10
-0.4971692860290529
 20
2.138009999204766
 10
-0.4882692016767273
 20
2.109302801543719
 10
-0.4734371427999677
 20
2.080234154471979
 10
-0.4529625512028195
 20
2.051426142675563
 10
-0.4267926664653223
 20
2.023075282432735
 10
-0.3953625132390381
 20
1.995760986104772
 10
-0.3592437525834044
 20
1.970128106114168
 10
-0.3179525237329334
 20
1.946205318731765
 10
-0.2725078450626596
 20
1.924829878613696
 10
-0.2237396930883905
 20
1.906577744719566
 10
-0.1719350376026025
 20
1.891820392644587
 10
-0.1177181387964538
 20
1.880830637171474
 10
-0.0621331123573361
 20
1.873940456176693
 10
-0.0066834610905614
 20
1.871385362075044
 10
0.0490295558337667
 20
1.872984953312836
 10
0.1039391429080672
 20
1.87869058922115
 10
0.1569971179519989
 20
1.88834654947381
 10
0.2082707073641491
 20
1.901725623397526
 10
0.256837277040067
 20
1.918453332307334
 10
0.3028044292047158
 20
1.938554020376786
 10
0.3451591715885165
 20
1.961429550462616
 10
0.3831473111896408
 20
1.986492332828758
 10
0.4168428880850411
 20
2.013791979294168
 10
0.4453731719051964
 20
2.04251660053531
 10
0.4681876653231017
 20
2.071972064999476
 10
0.4848879517799093
 20
2.10156598708309
 10
0.4955302966782088
 20
2.131093016570222
 10
0.4998946470289526
 20
2.159913454214218
 10
0.4999999999999999
 20
2.165063509461097
  0
LINE
  5
25C
330
209
100
AcDbEntity
  8
AM_4
100
AcDbLine
 10
-0.9142857142857141
 20
-0.9249999999999997
 30
0.0
 11
0.9142857142857145
 21
-0.9249999999999997
 31
0.0
  0
LINE
  5
25D
330
209
100
AcDbEntity
  8
AM_4
100
AcDbLine
 10
0.9142857142857145
 20
0.320375395219383
 30
0.0
 11
1.152
 21
0.320375395219383
 31
0.0
  0
LINE
  5
25E
330
209
100
AcDbEntity
  8
AM_4
100
AcDbLine
 10
-1.152
 20
0.320375395219383
 30
0.0
 11
-0.9142857142857141
 21
0.320375395219383
 31
0.0
  0
LINE
  5
25F
330
209
100
AcDbEntity
  8
AM_4
100
AcDbLine
 10
-0.9142857142857141
 20
0.3861346915261554
 30
0.0
 11
-0.9142857142857141
 21
-1.0
 31
0.0
  0
LWPOLYLINE
  5
260
330
209
100
AcDbEntity
  8
AM_4
100
AcDbPolyline
 90
       14
 70
     0
 43
0.0
 10
-1.28
 20
-0.9999502045967344
 10
-1.266945685009338
 20
-0.9990427653447552
 10
-1.254020134170426
 20
-0.9970010206540203
 10
-1.241321718729808
 20
-0.9938405094344651
 10
-1.228947081296501
 20
-0.9895852850848393
 10
-1.216990400333383
 20
-0.9842677324318184
 10
-1.205542673402223
 20
-0.977928321261918
 10
-1.194691024617296
 20
-0.9706152983219819
 10
-1.184518041578258
 20
-0.9623843201323072
 10
-1.175101146828652
 20
-0.9532980294069179
 10
-1.166512008623599
 20
-0.9434255783046863
 10
-1.158815995491103
 20
-0.9328421021396496
 10
-1.152071678738082
 20
-0.9216281475559012
 10
-1.151999999999999
 20
-0.9214961038461522
  0
LINE
  5
261
330
209
100
AcDbEntity
  8
AM_4
100
AcDbLine
 10
-1.152
 20
-0.8692225237131628
 30
0.0
 11
-0.9142857142857141
 21
-0.8692225237131628
 31
0.0
  0
LINE
  5
262
330
209
100
AcDbEntity
  8
AM_4
100
AcDbLine
 10
-1.152
 20
-0.9214961038461505
 30
0.0
 11
-1.152
 21
2.5
 31
0.0
  0
LINE
  5
263
330
209
100
AcDbEntity
  8
AM_4
100
AcDbLine
 10
0.9142857142857145
 20
0.3861346915261554
 30
0.0
 11
0.9142857142857145
 21
-1.0
 31
0.0
  0
LINE
  5
264
330
209
100
AcDbEntity
  8
AM_4
100
AcDbLine
 10
1.152
 20
2.5
 30
0.0
 11
1.152
 21
-0.9214961038461548
 31
0.0
  0
LINE
  5
265
330
209
100
AcDbEntity
  8
AM_4
100
AcDbLine
 10
0.9142857142857145
 20
-0.8692225237131628
 30
0.0
 11
1.152
 21
-0.8692225237131628
 31
0.0
  0
LWPOLYLINE
  5
266
330
209
100
AcDbEntity
  8
AM_4
100
AcDbPolyline
 90
       14
 70
     0
 43
0.0
 10
1.152
 20
-0.9214961038461542
 10
1.158733081144662
 20
-0.9327168081097401
 10
1.16641848969704
 20
-0.9433079875178364
 10
1.174997735057475
 20
-0.9531890368000189
 10
1.184405523988482
 20
-0.9622847552049091
 10
1.19457025753572
 20
-0.9705259188233012
 10
1.20541457593926
 20
-0.9778498074239083
 10
1.216855947388072
 20
-0.984200681792195
 10
1.228807296136942
 20
-0.989530207939456
 10
1.241177665205469
 20
-0.9937978249536548
 10
1.253872908615609
 20
-0.9969710536924555
 10
1.266796407899413
 20
-0.999025743969108
 10
1.279849807423908
 20
-0.9999462583499512
 10
1.28
 20
-0.9999502045967344
  0
LINE
  5
267
330
209
100
AcDbEntity
  8
AM_4
100
AcDbLine
 10
-1.28
 20
-1.0
 30
0.0
 11
-1.28
 21
-2.5
 31
0.0
  0
LINE
  5
268
330
209
100
AcDbEntity
  8
AM_4
100
AcDbLine
 10
1.28
 20
-1.0
 30
0.0
 11
1.28
 21
-2.5
 31
0.0
  0
LINE
  5
269
330
209
100
AcDbEntity
  8
AM_4
100
AcDbLine
 10
-1.28
 20
-1.0
 30
0.0
 11
1.28
 21
-1.0
 31
0.0
  0
LWPOLYLINE
  5
26A
330
209
100
AcDbEntity
  8
AM_4
100
AcDbPolyline
 90
       10
 70
     0
 43
0.0
 10
-0.3606824596992466
 20
-0.9999999999999997
 10
-0.28793321497771
 20
-1.001127752662139
 10
-0.2140234407835346
 20
-1.003588205539953
 10
-0.1387000099738324
 20
-1.006213609918166
 10
-0.0626419197970264
 20
-1.008063873882249
 10
0.0425406837979102
 20
-1.008339154150445
 10
0.1481652151349239
 20
-1.005911567635867
 10
0.2548945619436805
 20
-1.002143707645242
 10
0.3080404631508959
 20
-1.00062533970998
 10
0.3606824596992471
 20
-0.9999999999999977
  0
LINE
  5
26B
330
209
100
AcDbEntity
  8
AM_4
100
AcDbLine
 10
1.024
 20
-1.75
 30
0.0
 11
1.024
 21
-2.5
 31
0.0
  0
LINE
  5
26C
330
209
100
AcDbEntity
  8
AM_4
100
AcDbLine
 10
-1.28
 20
-1.75
 30
0.0
 11
1.28
 21
-1.75
 31
0.0
  0
LINE
  5
26D
330
209
100
AcDbEntity
  8
AM_4
100
AcDbLine
 10
-1.28
 20
-2.5
 30
0.0
 11
1.28
 21
-2.5
 31
0.0
  0
LINE
  5
26E
330
209
100
AcDbEntity
  8
AM_4
100
AcDbLine
 10
-1.024
 20
-1.75
 30
0.0
 11
-1.024
 21
-2.5
 31
0.0
  0
ENDBLK
  5
20C
330
209
100
AcDbEntity
  8
0
100
AcDbBlockEnd
  0
ENDSEC
  0
SECTION
  2
ENTITIES
  0
INSERT
  5
6F
330
1F
100
AcDbEntity
  8
0
100
AcDbBlockReference
  2
1_071150_2
 10
0.0
 20
0.0
 30
0.0
  0
POINT
  5
270
330
1F
100
AcDbEntity
  8
ConnectionPoints
100
AcDbPoint
 10
-1.545
 20
1.482638888888889
 30
0.0000000000000001
  0
POINT
  5
271
330
1F
100
AcDbEntity
  8
ConnectionPoints
100
AcDbPoint
 10
-1.475
 20
0.0
 30
0.0000000000000001
  0
POINT
  5
272
330
1F
100
AcDbEntity
  8
ConnectionPoints
100
AcDbPoint
 10
-1.72
 20
0.0
 30
0.0000000000000001
  0
POINT
  5
273
330
1F
100
AcDbEntity
  8
ConnectionPoints
100
AcDbPoint
 10
-1.674
 20
0.0
 30
0.0000000000000001
  0
POINT
  5
274
330
1F
100
AcDbEntity
  8
ConnectionPoints
100
AcDbPoint
 10
-1.475
 20
1.482638888888889
 30
0.0000000000000001
  0
POINT
  5
275
330
1F
100
AcDbEntity
  8
ConnectionPoints
100
AcDbPoint
 10
-1.475
 20
-1.482638888888889
 30
0.0000000000000001
  0
POINT
  5
276
330
1F
100
AcDbEntity
  8
ConnectionPoints
100
AcDbPoint
 10
-1.475
 20
0.0
 30
0.0000000000000001
  0
POINT
  5
277
330
1F
100
AcDbEntity
  8
ConnectionPoints
100
AcDbPoint
 10
0.0000000000000001
 20
2.251666049839541
 30
1.3
  0
POINT
  5
278
330
1F
100
AcDbEntity
  8
ConnectionPoints
100
AcDbPoint
 10
0.0000000000000001
 20
2.251666049839541
 30
1.3
  0
POINT
  5
279
330
1F
100
AcDbEntity
  8
ConnectionPoints
100
AcDbPoint
 10
-1.72
 20
0.0
 30
0.0000000000000001
  0
POINT
  5
27A
330
1F
100
AcDbEntity
  8
ConnectionPoints
100
AcDbPoint
 10
-1.97
 20
0.0
 30
0.0000000000000001
  0
ENDSEC
  0
SECTION
  2
OBJECTS
  0
DICTIONARY
  5
C
330
0
100
AcDbDictionary
281
     1
  3
ACAD_DETAILVIEWSTYLE
350
282
  3
ACAD_GROUP
350
D
  3
ACAD_LAYOUT
350
1A
  3
ACAD_MATERIAL
350
43
  3
ACAD_MLEADERSTYLE
350
6B
  3
ACAD_MLINESTYLE
350
17
  3
ACAD_PLOTSETTINGS
350
19
  3
ACAD_PLOTSTYLENAME
350
E
  3
ACAD_SCALELIST
350
47
  3
ACAD_SECTIONVIEWSTYLE
350
283
  3
ACAD_TABLESTYLE
350
69
  3
ACAD_VISUALSTYLE
350
2A
  3
ACDB_RECOMPOSE_DATA
350
27F
  3
AcDbVariableDictionary
350
27B
  0
SUN
  5
6D
330
29
100
AcDbSun
 90
        1
290
     0
 63
     7
421
 16777215
 40
1.0
291
     1
 91
  2455826
 92
 54000000
292
     0
 70
     2
 71
   256
280
     1
  0
DICTIONARY
  5
282
102
{ACAD_REACTORS
330
C
102
}
330
C
100
AcDbDictionary
281
     1
  0
DICTIONARY
  5
D
102
{ACAD_REACTORS
330
C
102
}
330
C
100
AcDbDictionary
281
     1
  0
DICTIONARY
  5
1A
102
{ACAD_REACTORS
330
C
102
}
330
C
100
AcDbDictionary
281
     1
  3
Layout1
350
1E
  3
Layout2
350
26
  3
Model
350
22
  0
DICTIONARY
  5
43
102
{ACAD_REACTORS
330
C
102
}
330
C
100
AcDbDictionary
281
     1
  3
ByBlock
350
45
  3
ByLayer
350
44
  3
Global
350
46
  0
DICTIONARY
  5
6B
102
{ACAD_REACTORS
330
C
102
}
330
C
100
AcDbDictionary
281
     1
  3
Standard
350
6C
  0
DICTIONARY
  5
17
102
{ACAD_REACTORS
330
C
102
}
330
C
100
AcDbDictionary
281
     1
  3
Standard
350
18
  0
DICTIONARY
  5
19
102
{ACAD_REACTORS
330
C
102
}
330
C
100
AcDbDictionary
281
     1
  0
ACDBDICTIONARYWDFLT
  5
E
102
{ACAD_REACTORS
330
C
102
}
330
C
100
AcDbDictionary
281
     1
  3
Normal
350
F
100
AcDbDictionaryWithDefault
340
F
  0
DICTIONARY
  5
47
102
{ACAD_REACTORS
330
C
102
}
330
C
100
AcDbDictionary
281
     1
  3
A0
350
48
  3
A1
350
49
  3
A2
350
4A
  3
A3
350
4B
  3
A4
350
4C
  3
A5
350
4D
  3
A6
350
4E
  3
A7
350
4F
  3
A8
350
50
  3
A9
350
51
  3
B0
350
52
  3
B1
350
53
  3
B2
350
54
  3
B3
350
55
  3
B4
350
56
  3
B5
350
57
  3
B6
350
58
  3
B7
350
59
  3
B8
350
5A
  3
B9
350
5B
  3
C0
350
5C
  3
C1
350
5D
  3
C2
350
5E
  3
C3
350
5F
  3
C4
350
60
  3
C5
350
61
  3
C6
350
62
  3
C7
350
63
  3
C8
350
64
  3
C9
350
65
  3
D0
350
66
  3
D1
350
67
  3
D2
350
68
  0
DICTIONARY
  5
283
102
{ACAD_REACTORS
330
C
102
}
330
C
100
AcDbDictionary
281
     1
  0
DICTIONARY
  5
69
102
{ACAD_REACTORS
330
C
102
}
330
C
100
AcDbDictionary
281
     1
  3
Standard
350
6A
  0
DICTIONARY
  5
2A
102
{ACAD_REACTORS
330
C
102
}
330
C
100
AcDbDictionary
281
     1
  3
2dWireframe
350
2F
  3
Basic
350
32
  3
Brighten
350
36
  3
ColorChange
350
3A
  3
Conceptual
350
34
  3
Dim
350
35
  3
EdgeColorOff
350
3D
  3
Facepattern
350
39
  3
Flat
350
2B
  3
FlatWithEdges
350
2C
  3
Gouraud
350
2D
  3
GouraudWithEdges
350
2E
  3
Hidden
350
31
  3
JitterOff
350
3B
  3
Linepattern
350
38
  3
OverhangOff
350
3C
  3
Realistic
350
33
  3
Shaded
350
42
  3
Shaded with edges
350
41
  3
Shades of Gray
350
3E
  3
Sketchy
350
3F
  3
Thicken
350
37
  3
Wireframe
350
30
  3
X-Ray
350
40
  0
XRECORD
  5
27F
102
{ACAD_REACTORS
330
C
102
}
330
C
100
AcDbXrecord
280
     1
 90
        1
330
6A
  0
DICTIONARY
  5
27B
102
{ACAD_REACTORS
330
C
102
}
330
C
100
AcDbDictionary
281
     1
  3
CANNOSCALE
350
27C
  3
CMLEADERSTYLE
350
281
  3
CTABLESTYLE
350
280
  0
LAYOUT
  5
1E
102
{ACAD_REACTORS
330
1A
102
}
330
1A
100
AcDbPlotSettings
  1

  2
none_device
  4

  6

 40
0.0
 41
0.0
 42
0.0
 43
0.0
 44
0.0
 45
0.0
 46
0.0
 47
0.0
 48
0.0
 49
0.0
140
0.0
141
0.0
142
1.0
143
1.0
 70
   688
 72
     0
 73
     0
 74
     5
  7

 75
    16
 76
     0
 77
     2
 78
   300
147
1.0
148
0.0
149
0.0
100
AcDbLayout
  1
Layout1
 70
     1
 71
     1
 10
0.0
 20
0.0
 11
12.0
 21
9.0
 12
0.0
 22
0.0
 32
0.0
 14
1.000000000000000E+20
 24
1.000000000000000E+20
 34
1.000000000000000E+20
 15
-1.000000000000000E+20
 25
-1.000000000000000E+20
 35
-1.000000000000000E+20
146
0.0
 13
0.0
 23
0.0
 33
0.0
 16
1.0
 26
0.0
 36
0.0
 17
0.0
 27
1.0
 37
0.0
 76
     0
330
1B
  0
LAYOUT
  5
26
102
{ACAD_REACTORS
330
1A
102
}
330
1A
100
AcDbPlotSettings
  1

  2
none_device
  4

  6

 40
0.0
 41
0.0
 42
0.0
 43
0.0
 44
0.0
 45
0.0
 46
0.0
 47
0.0
 48
0.0
 49
0.0
140
0.0
141
0.0
142
1.0
143
1.0
 70
   688
 72
     0
 73
     0
 74
     5
  7

 75
    16
 76
     0
 77
     2
 78
   300
147
1.0
148
0.0
149
0.0
100
AcDbLayout
  1
Layout2
 70
     1
 71
     2
 10
0.0
 20
0.0
 11
0.0
 21
0.0
 12
0.0
 22
0.0
 32
0.0
 14
0.0
 24
0.0
 34
0.0
 15
0.0
 25
0.0
 35
0.0
146
0.0
 13
0.0
 23
0.0
 33
0.0
 16
1.0
 26
0.0
 36
0.0
 17
0.0
 27
1.0
 37
0.0
 76
     0
330
23
  0
LAYOUT
  5
22
102
{ACAD_REACTORS
330
1A
102
}
330
1A
100
AcDbPlotSettings
  1

  2
none_device
  4
Letter_(8.50_x_11.00_Inches)
  6

 40
6.35
 41
6.35
 42
6.35000508
 43
6.35000508
 44
215.9
 45
279.4
 46
0.0
 47
0.0
 48
0.0
 49
0.0
140
0.0
141
0.0
142
1.0
143
1.0
 70
  1712
 72
     0
 73
     0
 74
     0
  7

 75
     0
 76
     0
 77
     2
 78
   300
147
1.0
148
0.0
149
0.0
100
AcDbLayout
  1
Model
 70
     1
 71
     0
 10
0.0
 20
0.0
 11
12.0
 21
9.0
 12
0.0
 22
0.0
 32
0.0
 14
1.000000000000000E+20
 24
1.000000000000000E+20
 34
1.000000000000000E+20
 15
-1.000000000000000E+20
 25
-1.000000000000000E+20
 35
-1.000000000000000E+20
146
0.0
 13
0.0
 23
0.0
 33
0.0
 16
1.0
 26
0.0
 36
0.0
 17
0.0
 27
1.0
 37
0.0
 76
     0
330
1F
331
29
  0
MATERIAL
  5
45
102
{ACAD_REACTORS
330
43
102
}
330
43
100
AcDbMaterial
  1
ByBlock
 72
     1
 94
      127
  0
MATERIAL
  5
44
102
{ACAD_REACTORS
330
43
102
}
330
43
100
AcDbMaterial
  1
ByLayer
 72
     1
 94
      127
  0
MATERIAL
  5
46
102
{ACAD_REACTORS
330
43
102
}
330
43
100
AcDbMaterial
  1
Global
 72
     1
 94
      127
  0
MLEADERSTYLE
  5
6C
102
{ACAD_REACTORS
330
6B
102
}
330
6B
100
AcDbMLeaderStyle
179
     2
170
     2
171
     1
172
     0
 90
        2
 40
0.0
 41
0.0
173
     1
 91
-1056964608
340
14
 92
       -2
290
     1
 42
0.09
291
     1
 43
0.36
  3
Standard
341
0
 44
0.18
300

342
11
174
     1
178
     6
175
     1
176
     0
 93
-1056964608
 45
0.18
292
     0
297
     0
 46
0.18
343
0
 94
-1056964608
 47
1.0
 49
1.0
140
1.0
293
     1
141
0.0
294
     1
177
     0
142
1.0
295
     0
296
     0
143
0.125
271
     0
272
     9
273
     9
298
     0
  0
MLINESTYLE
  5
18
102
{ACAD_REACTORS
330
17
102
}
330
17
100
AcDbMlineStyle
  2
Standard
 70
     0
  3

 62
   256
 51
90.0
 52
90.0
 71
     2
 49
0.5
 62
   256
  6
BYLAYER
 49
-0.5
 62
   256
  6
BYLAYER
  0
ACDBPLACEHOLDER
  5
F
102
{ACAD_REACTORS
330
E
102
}
330
E
  0
SCALE
  5
48
102
{ACAD_REACTORS
330
47
102
}
330
47
100
AcDbScale
 70
     0
300
1:1
140
1.0
141
1.0
290
     1
  0
SCALE
  5
49
102
{ACAD_REACTORS
330
47
102
}
330
47
100
AcDbScale
 70
     0
300
1:2
140
1.0
141
2.0
290
     0
  0
SCALE
  5
4A
102
{ACAD_REACTORS
330
47
102
}
330
47
100
AcDbScale
 70
     0
300
1:4
140
1.0
141
4.0
290
     0
  0
SCALE
  5
4B
102
{ACAD_REACTORS
330
47
102
}
330
47
100
AcDbScale
 70
     0
300
1:5
140
1.0
141
5.0
290
     0
  0
SCALE
  5
4C
102
{ACAD_REACTORS
330
47
102
}
330
47
100
AcDbScale
 70
     0
300
1:8
140
1.0
141
8.0
290
     0
  0
SCALE
  5
4D
102
{ACAD_REACTORS
330
47
102
}
330
47
100
AcDbScale
 70
     0
300
1:10
140
1.0
141
10.0
290
     0
  0
SCALE
  5
4E
102
{ACAD_REACTORS
330
47
102
}
330
47
100
AcDbScale
 70
     0
300
1:16
140
1.0
141
16.0
290
     0
  0
SCALE
  5
4F
102
{ACAD_REACTORS
330
47
102
}
330
47
100
AcDbScale
 70
     0
300
1:20
140
1.0
141
20.0
290
     0
  0
SCALE
  5
50
102
{ACAD_REACTORS
330
47
102
}
330
47
100
AcDbScale
 70
     0
300
1:30
140
1.0
141
30.0
290
     0
  0
SCALE
  5
51
102
{ACAD_REACTORS
330
47
102
}
330
47
100
AcDbScale
 70
     0
300
1:40
140
1.0
141
40.0
290
     0
  0
SCALE
  5
52
102
{ACAD_REACTORS
330
47
102
}
330
47
100
AcDbScale
 70
     0
300
1:50
140
1.0
141
50.0
290
     0
  0
SCALE
  5
53
102
{ACAD_REACTORS
330
47
102
}
330
47
100
AcDbScale
 70
     0
300
1:100
140
1.0
141
100.0
290
     0
  0
SCALE
  5
54
102
{ACAD_REACTORS
330
47
102
}
330
47
100
AcDbScale
 70
     0
300
2:1
140
2.0
141
1.0
290
     0
  0
SCALE
  5
55
102
{ACAD_REACTORS
330
47
102
}
330
47
100
AcDbScale
 70
     0
300
4:1
140
4.0
141
1.0
290
     0
  0
SCALE
  5
56
102
{ACAD_REACTORS
330
47
102
}
330
47
100
AcDbScale
 70
     0
300
8:1
140
8.0
141
1.0
290
     0
  0
SCALE
  5
57
102
{ACAD_REACTORS
330
47
102
}
330
47
100
AcDbScale
 70
     0
300
10:1
140
10.0
141
1.0
290
     0
  0
SCALE
  5
58
102
{ACAD_REACTORS
330
47
102
}
330
47
100
AcDbScale
 70
     0
300
100:1
140
100.0
141
1.0
290
     0
  0
SCALE
  5
59
102
{ACAD_REACTORS
330
47
102
}
330
47
100
AcDbScale
 70
     0
300
1/128" = 1'-0"
140
0.0078125
141
12.0
290
     0
  0
SCALE
  5
5A
102
{ACAD_REACTORS
330
47
102
}
330
47
100
AcDbScale
 70
     0
300
1/64" = 1'-0"
140
0.015625
141
12.0
290
     0
  0
SCALE
  5
5B
102
{ACAD_REACTORS
330
47
102
}
330
47
100
AcDbScale
 70
     0
300
1/32" = 1'-0"
140
0.03125
141
12.0
290
     0
  0
SCALE
  5
5C
102
{ACAD_REACTORS
330
47
102
}
330
47
100
AcDbScale
 70
     0
300
1/16" = 1'-0"
140
0.0625
141
12.0
290
     0
  0
SCALE
  5
5D
102
{ACAD_REACTORS
330
47
102
}
330
47
100
AcDbScale
 70
     0
300
3/32" = 1'-0"
140
0.09375
141
12.0
290
     0
  0
SCALE
  5
5E
102
{ACAD_REACTORS
330
47
102
}
330
47
100
AcDbScale
 70
     0
300
1/8" = 1'-0"
140
0.125
141
12.0
290
     0
  0
SCALE
  5
5F
102
{ACAD_REACTORS
330
47
102
}
330
47
100
AcDbScale
 70
     0
300
3/16" = 1'-0"
140
0.1875
141
12.0
290
     0
  0
SCALE
  5
60
102
{ACAD_REACTORS
330
47
102
}
330
47
100
AcDbScale
 70
     0
300
1/4" = 1'-0"
140
0.25
141
12.0
290
     0
  0
SCALE
  5
61
102
{ACAD_REACTORS
330
47
102
}
330
47
100
AcDbScale
 70
     0
300
3/8" = 1'-0"
140
0.375
141
12.0
290
     0
  0
SCALE
  5
62
102
{ACAD_REACTORS
330
47
102
}
330
47
100
AcDbScale
 70
     0
300
1/2" = 1'-0"
140
0.5
141
12.0
290
     0
  0
SCALE
  5
63
102
{ACAD_REACTORS
330
47
102
}
330
47
100
AcDbScale
 70
     0
300
3/4" = 1'-0"
140
0.75
141
12.0
290
     0
  0
SCALE
  5
64
102
{ACAD_REACTORS
330
47
102
}
330
47
100
AcDbScale
 70
     0
300
1" = 1'-0"
140
1.0
141
12.0
290
     0
  0
SCALE
  5
65
102
{ACAD_REACTORS
330
47
102
}
330
47
100
AcDbScale
 70
     0
300
1-1/2" = 1'-0"
140
1.5
141
12.0
290
     0
  0
SCALE
  5
66
102
{ACAD_REACTORS
330
47
102
}
330
47
100
AcDbScale
 70
     0
300
3" = 1'-0"
140
3.0
141
12.0
290
     0
  0
SCALE
  5
67
102
{ACAD_REACTORS
330
47
102
}
330
47
100
AcDbScale
 70
     0
300
6" = 1'-0"
140
6.0
141
12.0
290
     0
  0
SCALE
  5
68
102
{ACAD_REACTORS
330
47
102
}
330
47
100
AcDbScale
 70
     0
300
1'-0" = 1'-0"
140
12.0
141
12.0
290
     0
  0
TABLESTYLE
  5
6A
102
{ACAD_REACTORS
330
69
102
}
102
{ACAD_XDICTIONARY
360
27D
102
}
330
69
100
AcDbTableStyle
  3
Standard
 70
     0
 71
     0
 40
0.06
 41
0.06
280
     0
281
     0
  7
Standard
140
0.18
170
     2
 62
     0
 63
   257
283
     0
 90
        4
 91
        0
  1

274
    -2
284
     1
 64
     0
275
    -2
285
     1
 65
     0
276
    -2
286
     1
 66
     0
277
    -2
287
     1
 67
     0
278
    -2
288
     1
 68
     0
279
    -2
289
     1
 69
     0
  7
Standard
140
0.25
170
     5
 62
     0
 63
   257
283
     0
 90
        4
 91
        0
  1

274
    -2
284
     1
 64
     0
275
    -2
285
     1
 65
     0
276
    -2
286
     1
 66
     0
277
    -2
287
     1
 67
     0
278
    -2
288
     1
 68
     0
279
    -2
289
     1
 69
     0
  7
Standard
140
0.18
170
     5
 62
     0
 63
   257
283
     0
 90
        4
 91
        0
  1

274
    -2
284
     1
 64
     0
275
    -2
285
     1
 65
     0
276
    -2
286
     1
 66
     0
277
    -2
287
     1
 67
     0
278
    -2
288
     1
 68
     0
279
    -2
289
     1
 69
     0
  0
VISUALSTYLE
  5
2F
102
{ACAD_REACTORS
330
2A
102
}
330
2A
100
AcDbVisualStyle
  2
2dWireframe
 70
     4
177
     3
291
     0
 70
    58
 90
        0
176
     1
 90
        2
176
     1
 90
        0
176
     1
 90
        0
176
     1
 40
0.6
176
     1
 40
30.0
176
     1
 62
     7
420
 16777215
176
     1
 90
        1
176
     1
 90
        4
176
     1
 62
     7
176
     1
 62
   257
176
     1
 90
        1
176
     1
 90
        1
176
     1
 40
1.0
176
     1
 90
        0
176
     1
 62
   257
176
     1
 40
1.0
176
     1
 90
        1
176
     1
 90
        6
176
     1
 90
        2
176
     1
 62
     7
176
     1
 90
        5
176
     1
 90
        0
176
     1
 90
        0
176
     1
290
     0
176
     1
 90
        1
176
     1
 40
0.0
176
     1
 90
        0
176
     1
290
     1
176
     1
290
     1
176
     1
290
     0
176
     1
290
     0
176
     1
290
     0
176
     1
290
     0
176
     1
290
     0
176
     1
290
     0
176
     1
290
     0
176
     1
 90
       50
176
     1
 40
0.0
176
     1
 40
1.0
176
     1
 90
        0
176
     1
 62
    18
420
        0
176
     1
 90
       50
176
     1
 90
        3
176
     1
 62
     5
420
      255
176
     1
290
     0
176
     1
 90
       50
176
     1
 90
       50
176
     1
 90
       50
176
     1
290
     0
176
     1
 90
       50
176
     1
 62
   256
176
     0
 40
1.0
176
     0
 90
        2
176
     1
  1
strokes_ogs.tif
176
     1
290
     0
176
     1
 40
1.0
176
     1
 40
1.0
176
     1
  0
VISUALSTYLE
  5
32
102
{ACAD_REACTORS
330
2A
102
}
330
2A
100
AcDbVisualStyle
  2
Basic
 70
     7
177
     3
291
     1
 70
    58
 90
        1
176
     1
 90
        0
176
     1
 90
        1
176
     1
 90
        0
176
     1
 40
0.6
176
     1
 40
30.0
176
     1
 62
     7
420
 16777215
176
     1
 90
        0
176
     1
 90
        4
176
     1
 62
     7
176
     1
 62
   257
176
     1
 90
        1
176
     1
 90
        1
176
     1
 40
1.0
176
     1
 90
        8
176
     1
 62
     7
176
     1
 40
1.0
176
     1
 90
        1
176
     1
 90
        6
176
     1
 90
        2
176
     1
 62
     7
176
     1
 90
        5
176
     1
 90
        0
176
     1
 90
        0
176
     1
290
     0
176
     1
 90
        1
176
     1
 40
0.0
176
     1
 90
        0
176
     1
290
     0
176
     1
290
     1
176
     1
290
     1
176
     1
290
     0
176
     1
290
     0
176
     1
290
     0
176
     1
290
     0
176
     1
290
     0
176
     1
290
     0
176
     1
 90
       50
176
     1
 40
0.0
176
     1
 40
1.0
176
     1
 90
        0
176
     1
 62
    18
420
        0
176
     1
 90
       50
176
     1
 90
        3
176
     1
 62
     5
420
      255
176
     1
290
     0
176
     1
 90
       50
176
     1
 90
       50
176
     1
 90
       50
176
     1
290
     0
176
     1
 90
       50
176
     1
 62
   256
176
     0
 40
1.0
176
     0
 90
        2
176
     1
  1
strokes_ogs.tif
176
     1
290
     0
176
     1
 40
1.0
176
     1
 40
1.0
176
     1
  0
VISUALSTYLE
  5
36
102
{ACAD_REACTORS
330
2A
102
}
330
2A
100
AcDbVisualStyle
  2
Brighten
 70
    12
177
     3
291
     1
 70
    58
 90
        2
176
     1
 90
        2
176
     1
 90
        0
176
     1
 90
        0
176
     1
 40
0.6
176
     1
 40
30.0
176
     1
 62
     7
420
 16777215
176
     1
 90
        1
176
     1
 90
        4
176
     1
 62
     7
176
     1
 62
   257
176
     1
 90
        1
176
     1
 90
        1
176
     1
 40
1.0
176
     1
 90
        8
176
     1
 62
     7
176
     1
 40
1.0
176
     1
 90
        1
176
     1
 90
        6
176
     1
 90
        2
176
     1
 62
     7
176
     1
 90
        5
176
     1
 90
        0
176
     1
 90
        0
176
     1
290
     0
176
     1
 90
        1
176
     1
 40
50.0
176
     1
 90
        0
176
     1
290
     0
176
     1
290
     1
176
     1
290
     1
176
     1
290
     0
176
     1
290
     0
176
     1
290
     0
176
     1
290
     0
176
     1
290
     0
176
     1
290
     0
176
     1
 90
       50
176
     1
 40
0.0
176
     1
 40
1.0
176
     1
 90
        0
176
     1
 62
    18
420
        0
176
     1
 90
       50
176
     1
 90
        3
176
     1
 62
     5
420
      255
176
     1
290
     0
176
     1
 90
       50
176
     1
 90
       50
176
     1
 90
       50
176
     1
290
     0
176
     1
 90
       50
176
     1
 62
   256
176
     0
 40
1.0
176
     0
 90
        2
176
     1
  1
strokes_ogs.tif
176
     1
290
     0
176
     1
 40
1.0
176
     1
 40
1.0
176
     1
  0
VISUALSTYLE
  5
3A
102
{ACAD_REACTORS
330
2A
102
}
330
2A
100
AcDbVisualStyle
  2
ColorChange
 70
    16
177
     3
291
     1
 70
    58
 90
        2
176
     1
 90
        2
176
     1
 90
        3
176
     1
 90
        0
176
     1
 40
0.6
176
     1
 40
30.0
176
     1
 62
     8
420
  8421504
176
     1
 90
        1
176
     1
 90
        4
176
     1
 62
     7
176
     1
 62
   257
176
     1
 90
        1
176
     1
 90
        1
176
     1
 40
1.0
176
     1
 90
        8
176
     1
 62
     8
420
  8421504
176
     1
 40
1.0
176
     1
 90
        1
176
     1
 90
        6
176
     1
 90
        2
176
     1
 62
     7
176
     1
 90
        5
176
     1
 90
        0
176
     1
 90
        0
176
     1
290
     0
176
     1
 90
        1
176
     1
 40
0.0
176
     1
 90
        0
176
     1
290
     0
176
     1
290
     1
176
     1
290
     1
176
     1
290
     0
176
     1
290
     0
176
     1
290
     0
176
     1
290
     0
176
     1
290
     0
176
     1
290
     0
176
     1
 90
       50
176
     1
 40
0.0
176
     1
 40
1.0
176
     1
 90
        0
176
     1
 62
    18
420
        0
176
     1
 90
       50
176
     1
 90
        3
176
     1
 62
     5
420
      255
176
     1
290
     0
176
     1
 90
       50
176
     1
 90
       50
176
     1
 90
       50
176
     1
290
     0
176
     1
 90
       50
176
     1
 62
   256
176
     0
 40
1.0
176
     0
 90
        2
176
     1
  1
strokes_ogs.tif
176
     1
290
     0
176
     1
 40
1.0
176
     1
 40
1.0
176
     1
  0
VISUALSTYLE
  5
34
102
{ACAD_REACTORS
330
2A
102
}
330
2A
100
AcDbVisualStyle
  2
Conceptual
 70
     9
177
     3
291
     0
 70
    58
 90
        3
176
     1
 90
        2
176
     1
 90
        0
176
     1
 90
        0
176
     1
 40
0.6
176
     1
 40
30.0
176
     1
 62
     7
420
 16777215
176
     1
 90
        2
176
     1
 90
        2
176
     1
 62
     7
176
     1
 62
   257
176
     1
 90
        1
176
     1
 90
        1
176
     1
 40
179.0
176
     1
 90
        8
176
     1
 62
     7
176
     1
 40
1.0
176
     1
 90
        1
176
     1
 90
        6
176
     1
 90
        2
176
     1
 62
     7
176
     1
 90
        3
176
     1
 90
        0
176
     1
 90
        0
176
     1
290
     0
176
     1
 90
        1
176
     1
 40
0.0
176
     1
 90
        0
176
     1
290
     0
176
     1
290
     1
176
     1
290
     1
176
     1
290
     0
176
     1
290
     0
176
     1
290
     0
176
     1
290
     0
176
     1
290
     0
176
     1
290
     0
176
     1
 90
       50
176
     1
 40
0.0
176
     1
 40
1.0
176
     1
 90
        0
176
     1
 62
    18
420
        0
176
     1
 90
       50
176
     1
 90
        3
176
     1
 62
     5
420
      255
176
     1
290
     0
176
     1
 90
       50
176
     1
 90
       50
176
     1
 90
       50
176
     1
290
     0
176
     1
 90
       50
176
     1
 62
   256
176
     0
 40
1.0
176
     0
 90
        2
176
     1
  1
strokes_ogs.tif
176
     1
290
     0
176
     1
 40
1.0
176
     1
 40
1.0
176
     1
  0
VISUALSTYLE
  5
35
102
{ACAD_REACTORS
330
2A
102
}
330
2A
100
AcDbVisualStyle
  2
Dim
 70
    11
177
     3
291
     1
 70
    58
 90
        2
176
     1
 90
        2
176
     1
 90
        0
176
     1
 90
        0
176
     1
 40
0.6
176
     1
 40
30.0
176
     1
 62
     7
420
 16777215
176
     1
 90
        1
176
     1
 90
        4
176
     1
 62
     7
176
     1
 62
   257
176
     1
 90
        1
176
     1
 90
        1
176
     1
 40
1.0
176
     1
 90
        8
176
     1
 62
     7
176
     1
 40
1.0
176
     1
 90
        1
176
     1
 90
        6
176
     1
 90
        2
176
     1
 62
     7
176
     1
 90
        5
176
     1
 90
        0
176
     1
 90
        0
176
     1
290
     0
176
     1
 90
        1
176
     1
 40
-50.0
176
     1
 90
        0
176
     1
290
     0
176
     1
290
     1
176
     1
290
     1
176
     1
290
     0
176
     1
290
     0
176
     1
290
     0
176
     1
290
     0
176
     1
290
     0
176
     1
290
     0
176
     1
 90
       50
176
     1
 40
0.0
176
     1
 40
1.0
176
     1
 90
        0
176
     1
 62
    18
420
        0
176
     1
 90
       50
176
     1
 90
        3
176
     1
 62
     5
420
      255
176
     1
290
     0
176
     1
 90
       50
176
     1
 90
       50
176
     1
 90
       50
176
     1
290
     0
176
     1
 90
       50
176
     1
 62
   256
176
     0
 40
1.0
176
     0
 90
        2
176
     1
  1
strokes_ogs.tif
176
     1
290
     0
176
     1
 40
1.0
176
     1
 40
1.0
176
     1
  0
VISUALSTYLE
  5
3D
102
{ACAD_REACTORS
330
2A
102
}
330
2A
100
AcDbVisualStyle
  2
EdgeColorOff
 70
    22
177
     3
291
     1
 70
    58
 90
        2
176
     0
 90
        2
176
     0
 90
        0
176
     0
 90
        0
176
     0
 40
0.6
176
     0
 40
30.0
176
     0
 62
     7
420
 16777215
176
     0
 90
        1
176
     0
 90
        4
176
     0
 62
     7
176
     0
 62
   257
176
     0
 90
        1
176
     0
 90
        1
176
     0
 40
1.0
176
     0
 90
        8
176
     2
 62
     7
176
     0
 40
1.0
176
     0
 90
        1
176
     0
 90
        6
176
     0
 90
        2
176
     0
 62
     7
176
     0
 90
        5
176
     0
 90
        0
176
     0
 90
        0
176
     0
290
     0
176
     0
 90
        1
176
     0
 40
0.0
176
     0
 90
        0
176
     0
290
     0
176
     0
290
     1
176
     0
290
     1
176
     0
290
     0
176
     0
290
     0
176
     0
290
     0
176
     0
290
     0
176
     0
290
     0
176
     0
290
     0
176
     0
 90
       50
176
     0
 40
0.0
176
     0
 40
1.0
176
     0
 90
        0
176
     0
 62
    18
420
        0
176
     0
 90
       50
176
     0
 90
        3
176
     0
 62
     5
420
      255
176
     0
290
     0
176
     0
 90
       50
176
     0
 90
       50
176
     0
 90
       50
176
     0
290
     0
176
     0
 90
       50
176
     0
 62
   256
176
     0
 40
1.0
176
     0
 90
        2
176
     0
  1
strokes_ogs.tif
176
     0
290
     0
176
     0
 40
1.0
176
     0
 40
1.0
176
     0
  0
VISUALSTYLE
  5
39
102
{ACAD_REACTORS
330
2A
102
}
330
2A
100
AcDbVisualStyle
  2
Facepattern
 70
    15
177
     3
291
     1
 70
    58
 90
        2
176
     1
 90
        2
176
     1
 90
        0
176
     1
 90
        0
176
     1
 40
0.6
176
     1
 40
30.0
176
     1
 62
     7
420
 16777215
176
     1
 90
        1
176
     1
 90
        4
176
     1
 62
     7
176
     1
 62
   257
176
     1
 90
        1
176
     1
 90
        1
176
     1
 40
1.0
176
     1
 90
        8
176
     1
 62
     7
176
     1
 40
1.0
176
     1
 90
        1
176
     1
 90
        6
176
     1
 90
        2
176
     1
 62
     7
176
     1
 90
        5
176
     1
 90
        0
176
     1
 90
        0
176
     1
290
     0
176
     1
 90
        1
176
     1
 40
0.0
176
     1
 90
        0
176
     1
290
     0
176
     1
290
     1
176
     1
290
     1
176
     1
290
     0
176
     1
290
     0
176
     1
290
     0
176
     1
290
     0
176
     1
290
     0
176
     1
290
     0
176
     1
 90
       50
176
     1
 40
0.0
176
     1
 40
1.0
176
     1
 90
        0
176
     1
 62
    18
420
        0
176
     1
 90
       50
176
     1
 90
        3
176
     1
 62
     5
420
      255
176
     1
290
     0
176
     1
 90
       50
176
     1
 90
       50
176
     1
 90
       50
176
     1
290
     0
176
     1
 90
       50
176
     1
 62
   256
176
     0
 40
1.0
176
     0
 90
        2
176
     1
  1
strokes_ogs.tif
176
     1
290
     0
176
     1
 40
1.0
176
     1
 40
1.0
176
     1
  0
VISUALSTYLE
  5
2B
102
{ACAD_REACTORS
330
2A
102
}
330
2A
100
AcDbVisualStyle
  2
Flat
 70
     0
177
     3
291
     1
 70
    58
 90
        2
176
     1
 90
        1
176
     1
 90
        1
176
     1
 90
        2
176
     1
 40
0.6
176
     1
 40
30.0
176
     1
 62
     7
420
 16777215
176
     1
 90
        0
176
     1
 90
        0
176
     1
 62
     7
176
     1
 62
   257
176
     1
 90
        1
176
     1
 90
        1
176
     1
 40
1.0
176
     1
 90
        8
176
     1
 62
     7
176
     1
 40
1.0
176
     1
 90
        1
176
     1
 90
        6
176
     1
 90
        2
176
     1
 62
     7
176
     1
 90
        5
176
     1
 90
        0
176
     1
 90
        0
176
     1
290
     0
176
     1
 90
       13
176
     1
 40
0.0
176
     1
 90
        0
176
     1
290
     0
176
     1
290
     1
176
     1
290
     1
176
     1
290
     0
176
     1
290
     0
176
     1
290
     0
176
     1
290
     0
176
     1
290
     0
176
     1
290
     0
176
     1
 90
       50
176
     1
 40
0.0
176
     1
 40
1.0
176
     1
 90
        0
176
     1
 62
    18
420
        0
176
     1
 90
       50
176
     1
 90
        3
176
     1
 62
     5
420
      255
176
     1
290
     0
176
     1
 90
       50
176
     1
 90
       50
176
     1
 90
       50
176
     1
290
     0
176
     1
 90
       50
176
     1
 62
   256
176
     0
 40
1.0
176
     0
 90
        2
176
     1
  1
strokes_ogs.tif
176
     1
290
     0
176
     1
 40
1.0
176
     1
 40
1.0
176
     1
  0
VISUALSTYLE
  5
2C
102
{ACAD_REACTORS
330
2A
102
}
330
2A
100
AcDbVisualStyle
  2
FlatWithEdges
 70
     1
177
     3
291
     1
 70
    58
 90
        2
176
     1
 90
        1
176
     1
 90
        1
176
     1
 90
        2
176
     1
 40
0.6
176
     1
 40
30.0
176
     1
 62
     7
420
 16777215
176
     1
 90
        1
176
     1
 90
        0
176
     1
 62
     7
176
     1
 62
   257
176
     1
 90
        1
176
     1
 90
        1
176
     1
 40
1.0
176
     1
 90
        0
176
     1
 62
   257
176
     1
 40
1.0
176
     1
 90
        1
176
     1
 90
        6
176
     1
 90
        2
176
     1
 62
     7
176
     1
 90
        5
176
     1
 90
        0
176
     1
 90
        0
176
     1
290
     0
176
     1
 90
       13
176
     1
 40
0.0
176
     1
 90
        0
176
     1
290
     0
176
     1
290
     1
176
     1
290
     1
176
     1
290
     0
176
     1
290
     0
176
     1
290
     0
176
     1
290
     0
176
     1
290
     0
176
     1
290
     0
176
     1
 90
       50
176
     1
 40
0.0
176
     1
 40
1.0
176
     1
 90
        0
176
     1
 62
    18
420
        0
176
     1
 90
       50
176
     1
 90
        3
176
     1
 62
     5
420
      255
176
     1
290
     0
176
     1
 90
       50
176
     1
 90
       50
176
     1
 90
       50
176
     1
290
     0
176
     1
 90
       50
176
     1
 62
   256
176
     0
 40
1.0
176
     0
 90
        2
176
     1
  1
strokes_ogs.tif
176
     1
290
     0
176
     1
 40
1.0
176
     1
 40
1.0
176
     1
  0
VISUALSTYLE
  5
2D
102
{ACAD_REACTORS
330
2A
102
}
330
2A
100
AcDbVisualStyle
  2
Gouraud
 70
     2
177
     3
291
     1
 70
    58
 90
        2
176
     1
 90
        2
176
     1
 90
        1
176
     1
 90
        2
176
     1
 40
0.6
176
     1
 40
30.0
176
     1
 62
     7
420
 16777215
176
     1
 90
        0
176
     1
 90
        0
176
     1
 62
     7
176
     1
 62
   257
176
     1
 90
        1
176
     1
 90
        1
176
     1
 40
1.0
176
     1
 90
        0
176
     1
 62
     7
176
     1
 40
1.0
176
     1
 90
        1
176
     1
 90
        6
176
     1
 90
        2
176
     1
 62
     7
176
     1
 90
        5
176
     1
 90
        0
176
     1
 90
        0
176
     1
290
     0
176
     1
 90
       13
176
     1
 40
0.0
176
     1
 90
        0
176
     1
290
     0
176
     1
290
     1
176
     1
290
     1
176
     1
290
     0
176
     1
290
     0
176
     1
290
     0
176
     1
290
     0
176
     1
290
     0
176
     1
290
     0
176
     1
 90
       50
176
     1
 40
0.0
176
     1
 40
1.0
176
     1
 90
        0
176
     1
 62
    18
420
        0
176
     1
 90
       50
176
     1
 90
        3
176
     1
 62
     5
420
      255
176
     1
290
     0
176
     1
 90
       50
176
     1
 90
       50
176
     1
 90
       50
176
     1
290
     0
176
     1
 90
       50
176
     1
 62
   256
176
     0
 40
1.0
176
     0
 90
        2
176
     1
  1
strokes_ogs.tif
176
     1
290
     0
176
     1
 40
1.0
176
     1
 40
1.0
176
     1
  0
VISUALSTYLE
  5
2E
102
{ACAD_REACTORS
330
2A
102
}
330
2A
100
AcDbVisualStyle
  2
GouraudWithEdges
 70
     3
177
     3
291
     1
 70
    58
 90
        2
176
     1
 90
        2
176
     1
 90
        1
176
     1
 90
        2
176
     1
 40
0.6
176
     1
 40
30.0
176
     1
 62
     7
420
 16777215
176
     1
 90
        1
176
     1
 90
        0
176
     1
 62
     7
176
     1
 62
   257
176
     1
 90
        1
176
     1
 90
        1
176
     1
 40
1.0
176
     1
 90
        0
176
     1
 62
   257
176
     1
 40
1.0
176
     1
 90
        1
176
     1
 90
        6
176
     1
 90
        2
176
     1
 62
     7
176
     1
 90
        5
176
     1
 90
        0
176
     1
 90
        0
176
     1
290
     0
176
     1
 90
       13
176
     1
 40
0.0
176
     1
 90
        0
176
     1
290
     0
176
     1
290
     1
176
     1
290
     1
176
     1
290
     0
176
     1
290
     0
176
     1
290
     0
176
     1
290
     0
176
     1
290
     0
176
     1
290
     0
176
     1
 90
       50
176
     1
 40
0.0
176
     1
 40
1.0
176
     1
 90
        0
176
     1
 62
    18
420
        0
176
     1
 90
       50
176
     1
 90
        3
176
     1
 62
     5
420
      255
176
     1
290
     0
176
     1
 90
       50
176
     1
 90
       50
176
     1
 90
       50
176
     1
290
     0
176
     1
 90
       50
176
     1
 62
   256
176
     0
 40
1.0
176
     0
 90
        2
176
     1
  1
strokes_ogs.tif
176
     1
290
     0
176
     1
 40
1.0
176
     1
 40
1.0
176
     1
  0
VISUALSTYLE
  5
31
102
{ACAD_REACTORS
330
2A
102
}
330
2A
100
AcDbVisualStyle
  2
Hidden
 70
     6
177
     3
291
     0
 70
    58
 90
        1
176
     1
 90
        2
176
     1
 90
        2
176
     1
 90
        0
176
     1
 40
0.6
176
     1
 40
30.0
176
     1
 62
     7
420
 16777215
176
     1
 90
        2
176
     1
 90
        2
176
     1
 62
     7
176
     1
 62
   257
176
     1
 90
        2
176
     1
 90
        1
176
     1
 40
40.0
176
     1
 90
        0
176
     1
 62
   257
176
     1
 40
1.0
176
     1
 90
        1
176
     1
 90
        6
176
     1
 90
        2
176
     1
 62
     7
176
     1
 90
        3
176
     1
 90
        0
176
     1
 90
        0
176
     1
290
     0
176
     1
 90
        1
176
     1
 40
0.0
176
     1
 90
        0
176
     1
290
     0
176
     1
290
     1
176
     1
290
     1
176
     1
290
     0
176
     1
290
     0
176
     1
290
     0
176
     1
290
     0
176
     1
290
     0
176
     1
290
     0
176
     1
 90
       50
176
     1
 40
0.0
176
     1
 40
1.0
176
     1
 90
        0
176
     1
 62
    18
420
        0
176
     1
 90
       50
176
     1
 90
        3
176
     1
 62
     5
420
      255
176
     1
290
     0
176
     1
 90
       50
176
     1
 90
       50
176
     1
 90
       50
176
     1
290
     0
176
     1
 90
       50
176
     1
 62
   256
176
     0
 40
1.0
176
     0
 90
        2
176
     1
  1
strokes_ogs.tif
176
     1
290
     0
176
     1
 40
1.0
176
     1
 40
1.0
176
     1
  0
VISUALSTYLE
  5
3B
102
{ACAD_REACTORS
330
2A
102
}
330
2A
100
AcDbVisualStyle
  2
JitterOff
 70
    20
177
     3
291
     1
 70
    58
 90
        2
176
     0
 90
        2
176
     0
 90
        0
176
     0
 90
        0
176
     0
 40
0.6
176
     0
 40
30.0
176
     0
 62
     7
420
 16777215
176
     0
 90
        1
176
     0
 90
        4
176
     0
 62
     7
176
     0
 62
   257
176
     0
 90
        1
176
     0
 90
        1
176
     0
 40
1.0
176
     0
 90
       10
176
     2
 62
     7
176
     0
 40
1.0
176
     0
 90
        1
176
     0
 90
        6
176
     0
 90
        2
176
     0
 62
     7
176
     0
 90
        5
176
     0
 90
        0
176
     0
 90
        0
176
     0
290
     0
176
     0
 90
        1
176
     0
 40
0.0
176
     0
 90
        0
176
     0
290
     0
176
     0
290
     1
176
     0
290
     1
176
     0
290
     0
176
     0
290
     0
176
     0
290
     0
176
     0
290
     0
176
     0
290
     0
176
     0
290
     0
176
     0
 90
       50
176
     0
 40
0.0
176
     0
 40
1.0
176
     0
 90
        0
176
     0
 62
    18
420
        0
176
     0
 90
       50
176
     0
 90
        3
176
     0
 62
     5
420
      255
176
     0
290
     0
176
     0
 90
       50
176
     0
 90
       50
176
     0
 90
       50
176
     0
290
     0
176
     0
 90
       50
176
     0
 62
   256
176
     0
 40
1.0
176
     0
 90
        2
176
     0
  1
strokes_ogs.tif
176
     0
290
     0
176
     0
 40
1.0
176
     0
 40
1.0
176
     0
  0
VISUALSTYLE
  5
38
102
{ACAD_REACTORS
330
2A
102
}
330
2A
100
AcDbVisualStyle
  2
Linepattern
 70
    14
177
     3
291
     1
 70
    58
 90
        2
176
     1
 90
        2
176
     1
 90
        0
176
     1
 90
        0
176
     1
 40
0.6
176
     1
 40
30.0
176
     1
 62
     7
420
 16777215
176
     1
 90
        1
176
     1
 90
        4
176
     1
 62
     7
176
     1
 62
   257
176
     1
 90
        7
176
     1
 90
        7
176
     1
 40
1.0
176
     1
 90
        8
176
     1
 62
     7
176
     1
 40
1.0
176
     1
 90
        1
176
     1
 90
        6
176
     1
 90
        2
176
     1
 62
     7
176
     1
 90
        5
176
     1
 90
        0
176
     1
 90
        0
176
     1
290
     0
176
     1
 90
        1
176
     1
 40
0.0
176
     1
 90
        0
176
     1
290
     0
176
     1
290
     1
176
     1
290
     1
176
     1
290
     0
176
     1
290
     0
176
     1
290
     0
176
     1
290
     0
176
     1
290
     0
176
     1
290
     0
176
     1
 90
       50
176
     1
 40
0.0
176
     1
 40
1.0
176
     1
 90
        0
176
     1
 62
    18
420
        0
176
     1
 90
       50
176
     1
 90
        3
176
     1
 62
     5
420
      255
176
     1
290
     0
176
     1
 90
       50
176
     1
 90
       50
176
     1
 90
       50
176
     1
290
     0
176
     1
 90
       50
176
     1
 62
   256
176
     0
 40
1.0
176
     0
 90
        2
176
     1
  1
strokes_ogs.tif
176
     1
290
     0
176
     1
 40
1.0
176
     1
 40
1.0
176
     1
  0
VISUALSTYLE
  5
3C
102
{ACAD_REACTORS
330
2A
102
}
330
2A
100
AcDbVisualStyle
  2
OverhangOff
 70
    21
177
     3
291
     1
 70
    58
 90
        2
176
     0
 90
        2
176
     0
 90
        0
176
     0
 90
        0
176
     0
 40
0.6
176
     0
 40
30.0
176
     0
 62
     7
420
 16777215
176
     0
 90
        1
176
     0
 90
        4
176
     0
 62
     7
176
     0
 62
   257
176
     0
 90
        1
176
     0
 90
        1
176
     0
 40
1.0
176
     0
 90
        9
176
     2
 62
     7
176
     0
 40
1.0
176
     0
 90
        1
176
     0
 90
        6
176
     0
 90
        2
176
     0
 62
     7
176
     0
 90
        5
176
     0
 90
        0
176
     0
 90
        0
176
     0
290
     0
176
     0
 90
        1
176
     0
 40
0.0
176
     0
 90
        0
176
     0
290
     0
176
     0
290
     1
176
     0
290
     1
176
     0
290
     0
176
     0
290
     0
176
     0
290
     0
176
     0
290
     0
176
     0
290
     0
176
     0
290
     0
176
     0
 90
       50
176
     0
 40
0.0
176
     0
 40
1.0
176
     0
 90
        0
176
     0
 62
    18
420
        0
176
     0
 90
       50
176
     0
 90
        3
176
     0
 62
     5
420
      255
176
     0
290
     0
176
     0
 90
       50
176
     0
 90
       50
176
     0
 90
       50
176
     0
290
     0
176
     0
 90
       50
176
     0
 62
   256
176
     0
 40
1.0
176
     0
 90
        2
176
     0
  1
strokes_ogs.tif
176
     0
290
     0
176
     0
 40
1.0
176
     0
 40
1.0
176
     0
  0
VISUALSTYLE
  5
33
102
{ACAD_REACTORS
330
2A
102
}
330
2A
100
AcDbVisualStyle
  2
Realistic
 70
     8
177
     3
291
     0
 70
    58
 90
        2
176
     1
 90
        3
176
     1
 90
        0
176
     1
 90
        2
176
     1
 40
0.6
176
     1
 40
30.0
176
     1
 62
     7
420
 16777215
176
     1
 90
        0
176
     1
 90
        0
176
     1
 62
     7
176
     1
 62
   257
176
     1
 90
        1
176
     1
 90
        1
176
     1
 40
1.0
176
     1
 90
        8
176
     1
 62
   257
176
     1
 40
1.0
176
     1
 90
        1
176
     1
 90
        6
176
     1
 90
        2
176
     1
 62
     7
176
     1
 90
        3
176
     1
 90
        0
176
     1
 90
        0
176
     1
290
     0
176
     1
 90
       13
176
     1
 40
0.0
176
     1
 90
        0
176
     1
290
     0
176
     1
290
     1
176
     1
290
     1
176
     1
290
     0
176
     1
290
     0
176
     1
290
     0
176
     1
290
     0
176
     1
290
     0
176
     1
290
     0
176
     1
 90
       50
176
     1
 40
0.0
176
     1
 40
1.0
176
     1
 90
        0
176
     1
 62
    18
420
        0
176
     1
 90
       50
176
     1
 90
        3
176
     1
 62
     5
420
      255
176
     1
290
     0
176
     1
 90
       50
176
     1
 90
       50
176
     1
 90
       50
176
     1
290
     0
176
     1
 90
       50
176
     1
 62
   256
176
     0
 40
1.0
176
     0
 90
        2
176
     1
  1
strokes_ogs.tif
176
     1
290
     0
176
     1
 40
1.0
176
     1
 40
1.0
176
     1
  0
VISUALSTYLE
  5
42
102
{ACAD_REACTORS
330
2A
102
}
330
2A
100
AcDbVisualStyle
  2
Shaded
 70
    27
177
     3
291
     0
 70
    58
 90
        2
176
     1
 90
        2
176
     1
 90
        1
176
     1
 90
        2
176
     1
 40
0.6
176
     1
 40
30.0
176
     1
 62
     7
420
 16777215
176
     1
 90
        0
176
     1
 90
        4
176
     1
 62
     7
176
     1
 62
   257
176
     1
 90
        1
176
     1
 90
        1
176
     1
 40
1.0
176
     1
 90
        8
176
     1
 62
   257
176
     1
 40
1.0
176
     1
 90
        1
176
     1
 90
        6
176
     1
 90
        2
176
     1
 62
     8
420
  7895160
176
     1
 90
        3
176
     1
 90
        0
176
     1
 90
        0
176
     1
290
     0
176
     1
 90
        5
176
     1
 40
0.0
176
     1
 90
        0
176
     1
290
     0
176
     1
290
     1
176
     1
290
     1
176
     1
290
     0
176
     1
290
     0
176
     1
290
     0
176
     1
290
     0
176
     1
290
     0
176
     1
290
     0
176
     1
 90
       50
176
     1
 40
0.0
176
     1
 40
1.0
176
     1
 90
        0
176
     1
 62
    18
420
        0
176
     1
 90
       50
176
     1
 90
        3
176
     1
 62
     5
420
      255
176
     1
290
     0
176
     1
 90
       50
176
     1
 90
       50
176
     1
 90
       50
176
     1
290
     0
176
     1
 90
       50
176
     1
 62
   256
176
     0
 40
1.0
176
     0
 90
        2
176
     1
  1
strokes_ogs.tif
176
     1
290
     0
176
     1
 40
1.0
176
     1
 40
1.0
176
     1
  0
VISUALSTYLE
  5
41
102
{ACAD_REACTORS
330
2A
102
}
330
2A
100
AcDbVisualStyle
  2
Shaded with edges
 70
    26
177
     3
291
     0
 70
    58
 90
        2
176
     1
 90
        2
176
     1
 90
        1
176
     1
 90
        2
176
     1
 40
0.6
176
     1
 40
30.0
176
     1
 62
     7
420
 16777215
176
     1
 90
        1
176
     1
 90
       10
176
     1
 62
     7
176
     1
 62
   257
176
     1
 90
        2
176
     1
 90
        1
176
     1
 40
1.0
176
     1
 90
        8
176
     1
 62
   257
176
     1
 40
1.0
176
     1
 90
        1
176
     1
 90
        6
176
     1
 90
        2
176
     1
 62
     7
176
     1
 90
        3
176
     1
 90
        0
176
     1
 90
        0
176
     1
290
     0
176
     1
 90
        5
176
     1
 40
0.0
176
     1
 90
        0
176
     1
290
     0
176
     1
290
     1
176
     1
290
     1
176
     1
290
     0
176
     1
290
     0
176
     1
290
     0
176
     1
290
     0
176
     1
290
     0
176
     1
290
     0
176
     1
 90
       50
176
     1
 40
0.0
176
     1
 40
1.0
176
     1
 90
        0
176
     1
 62
    18
420
        0
176
     1
 90
       50
176
     1
 90
        3
176
     1
 62
     5
420
      255
176
     1
290
     0
176
     1
 90
       50
176
     1
 90
       50
176
     1
 90
       50
176
     1
290
     0
176
     1
 90
       50
176
     1
 62
   256
176
     0
 40
1.0
176
     0
 90
        2
176
     1
  1
strokes_ogs.tif
176
     1
290
     0
176
     1
 40
1.0
176
     1
 40
1.0
176
     1
  0
VISUALSTYLE
  5
3E
102
{ACAD_REACTORS
330
2A
102
}
330
2A
100
AcDbVisualStyle
  2
Shades of Gray
 70
    23
177
     3
291
     0
 70
    58
 90
        2
176
     1
 90
        2
176
     1
 90
        3
176
     1
 90
        0
176
     1
 40
0.6
176
     1
 40
30.0
176
     1
 62
     7
420
 16777215
176
     1
 90
        2
176
     1
 90
        2
176
     1
 62
     7
176
     1
 62
     7
176
     1
 90
        1
176
     1
 90
        1
176
     1
 40
40.0
176
     1
 90
        8
176
     1
 62
     7
176
     1
 40
1.0
176
     1
 90
        1
176
     1
 90
        6
176
     1
 90
        2
176
     1
 62
     7
176
     1
 90
        3
176
     1
 90
        0
176
     1
 90
        0
176
     1
290
     0
176
     1
 90
        1
176
     1
 40
0.0
176
     1
 90
        0
176
     1
290
     0
176
     1
290
     1
176
     1
290
     1
176
     1
290
     0
176
     1
290
     0
176
     1
290
     0
176
     1
290
     0
176
     1
290
     0
176
     1
290
     0
176
     1
 90
       50
176
     1
 40
0.0
176
     1
 40
1.0
176
     1
 90
        0
176
     1
 62
    18
420
        0
176
     1
 90
       50
176
     1
 90
        3
176
     1
 62
     5
420
      255
176
     1
290
     0
176
     1
 90
       50
176
     1
 90
       50
176
     1
 90
       50
176
     1
290
     0
176
     1
 90
       50
176
     1
 62
   256
176
     0
 40
1.0
176
     0
 90
        2
176
     1
  1
strokes_ogs.tif
176
     1
290
     0
176
     1
 40
1.0
176
     1
 40
1.0
176
     1
  0
VISUALSTYLE
  5
3F
102
{ACAD_REACTORS
330
2A
102
}
330
2A
100
AcDbVisualStyle
  2
Sketchy
 70
    24
177
     3
291
     0
 70
    58
 90
        1
176
     1
 90
        2
176
     1
 90
        2
176
     1
 90
        0
176
     1
 40
0.6
176
     1
 40
30.0
176
     1
 62
     7
420
 16777215
176
     1
 90
        2
176
     1
 90
        2
176
     1
 62
     7
176
     1
 62
     7
176
     1
 90
        1
176
     1
 90
        1
176
     1
 40
40.0
176
     1
 90
       11
176
     1
 62
     7
176
     1
 40
1.0
176
     1
 90
        1
176
     1
 90
        6
176
     1
 90
        2
176
     1
 62
     7
176
     1
 90
        6
176
     1
 90
        0
176
     1
 90
        0
176
     1
290
     0
176
     1
 90
        1
176
     1
 40
0.0
176
     1
 90
        0
176
     1
290
     0
176
     1
290
     1
176
     1
290
     1
176
     1
290
     0
176
     1
290
     0
176
     1
290
     0
176
     1
290
     0
176
     1
290
     0
176
     1
290
     0
176
     1
 90
       50
176
     1
 40
0.0
176
     1
 40
1.0
176
     1
 90
        0
176
     1
 62
    18
420
        0
176
     1
 90
       50
176
     1
 90
        3
176
     1
 62
     5
420
      255
176
     1
290
     0
176
     1
 90
       50
176
     1
 90
       50
176
     1
 90
       50
176
     1
290
     0
176
     1
 90
       50
176
     1
 62
   256
176
     0
 40
1.0
176
     0
 90
        2
176
     1
  1
strokes_ogs.tif
176
     1
290
     0
176
     1
 40
1.0
176
     1
 40
1.0
176
     1
  0
VISUALSTYLE
  5
37
102
{ACAD_REACTORS
330
2A
102
}
330
2A
100
AcDbVisualStyle
  2
Thicken
 70
    13
177
     3
291
     1
 70
    58
 90
        2
176
     1
 90
        2
176
     1
 90
        0
176
     1
 90
        0
176
     1
 40
0.6
176
     1
 40
30.0
176
     1
 62
     7
420
 16777215
176
     1
 90
        1
176
     1
 90
        4
176
     1
 62
     7
176
     1
 62
   257
176
     1
 90
        1
176
     1
 90
        1
176
     1
 40
1.0
176
     1
 90
       12
176
     1
 62
     7
176
     1
 40
1.0
176
     1
 90
        1
176
     1
 90
        6
176
     1
 90
        2
176
     1
 62
     7
176
     1
 90
        5
176
     1
 90
        0
176
     1
 90
        0
176
     1
290
     0
176
     1
 90
        1
176
     1
 40
0.0
176
     1
 90
        0
176
     1
290
     0
176
     1
290
     1
176
     1
290
     1
176
     1
290
     0
176
     1
290
     0
176
     1
290
     0
176
     1
290
     0
176
     1
290
     0
176
     1
290
     0
176
     1
 90
       50
176
     1
 40
0.0
176
     1
 40
1.0
176
     1
 90
        0
176
     1
 62
    18
420
        0
176
     1
 90
       50
176
     1
 90
        3
176
     1
 62
     5
420
      255
176
     1
290
     0
176
     1
 90
       50
176
     1
 90
       50
176
     1
 90
       50
176
     1
290
     0
176
     1
 90
       50
176
     1
 62
   256
176
     0
 40
1.0
176
     0
 90
        2
176
     1
  1
strokes_ogs.tif
176
     1
290
     0
176
     1
 40
1.0
176
     1
 40
1.0
176
     1
  0
VISUALSTYLE
  5
30
102
{ACAD_REACTORS
330
2A
102
}
330
2A
100
AcDbVisualStyle
  2
Wireframe
 70
     5
177
     3
291
     0
 70
    58
 90
        0
176
     1
 90
        2
176
     1
 90
        0
176
     1
 90
        0
176
     1
 40
0.6
176
     1
 40
30.0
176
     1
 62
     7
420
 16777215
176
     1
 90
        1
176
     1
 90
        4
176
     1
 62
     7
176
     1
 62
   257
176
     1
 90
        1
176
     1
 90
        1
176
     1
 40
1.0
176
     1
 90
        0
176
     1
 62
   257
176
     1
 40
1.0
176
     1
 90
        1
176
     1
 90
        6
176
     1
 90
        2
176
     1
 62
     7
176
     1
 90
        3
176
     1
 90
        0
176
     1
 90
        0
176
     1
290
     0
176
     1
 90
        1
176
     1
 40
0.0
176
     1
 90
        0
176
     1
290
     0
176
     1
290
     1
176
     1
290
     1
176
     1
290
     0
176
     1
290
     0
176
     1
290
     0
176
     1
290
     0
176
     1
290
     0
176
     1
290
     0
176
     1
 90
       50
176
     1
 40
0.0
176
     1
 40
1.0
176
     1
 90
        0
176
     1
 62
    18
420
        0
176
     1
 90
       50
176
     1
 90
        3
176
     1
 62
     5
420
      255
176
     1
290
     0
176
     1
 90
       50
176
     1
 90
       50
176
     1
 90
       50
176
     1
290
     0
176
     1
 90
       50
176
     1
 62
   256
176
     0
 40
1.0
176
     0
 90
        2
176
     1
  1
strokes_ogs.tif
176
     1
290
     0
176
     1
 40
1.0
176
     1
 40
1.0
176
     1
  0
VISUALSTYLE
  5
40
102
{ACAD_REACTORS
330
2A
102
}
330
2A
100
AcDbVisualStyle
  2
X-Ray
 70
    25
177
     3
291
     0
 70
    58
 90
        2
176
     1
 90
        2
176
     1
 90
        1
176
     1
 90
        1
176
     1
 40
0.5
176
     1
 40
30.0
176
     1
 62
     7
420
 16777215
176
     1
 90
        1
176
     1
 90
        0
176
     1
 62
     7
176
     1
 62
   257
176
     1
 90
        1
176
     1
 90
        1
176
     1
 40
1.0
176
     1
 90
        8
176
     1
 62
     7
176
     1
 40
1.0
176
     1
 90
        1
176
     1
 90
        6
176
     1
 90
        2
176
     1
 62
     7
176
     1
 90
        3
176
     1
 90
        0
176
     1
 90
        0
176
     1
290
     0
176
     1
 90
       13
176
     1
 40
0.0
176
     1
 90
        0
176
     1
290
     0
176
     1
290
     1
176
     1
290
     1
176
     1
290
     0
176
     1
290
     0
176
     1
290
     0
176
     1
290
     0
176
     1
290
     0
176
     1
290
     0
176
     1
 90
       50
176
     1
 40
0.0
176
     1
 40
1.0
176
     1
 90
        0
176
     1
 62
    18
420
        0
176
     1
 90
       50
176
     1
 90
        3
176
     1
 62
     5
420
      255
176
     1
290
     0
176
     1
 90
       50
176
     1
 90
       50
176
     1
 90
       50
176
     1
290
     0
176
     1
 90
       50
176
     1
 62
   256
176
     0
 40
1.0
176
     0
 90
        2
176
     1
  1
strokes_ogs.tif
176
     1
290
     0
176
     1
 40
1.0
176
     1
 40
1.0
176
     1
  0
DICTIONARYVAR
  5
27C
102
{ACAD_REACTORS
330
27B
102
}
330
27B
100
DictionaryVariables
280
     0
  1
1:1
  0
DICTIONARYVAR
  5
281
102
{ACAD_REACTORS
330
27B
102
}
330
27B
100
DictionaryVariables
280
     0
  1
Standard
  0
DICTIONARYVAR
  5
280
102
{ACAD_REACTORS
330
27B
102
}
330
27B
100
DictionaryVariables
280
     0
  1
Standard
  0
DICTIONARY
  5
27D
330
6A
100
AcDbDictionary
280
     1
281
     1
  3
ACAD_ROUNDTRIP_2008_TABLESTYLE_CELLSTYLEMAP
360
27E
  0
CELLSTYLEMAP
  5
27E
102
{ACAD_REACTORS
330
27D
102
}
330
27D
100
AcDbCellStyleMap
 90
        3
300
CELLSTYLE
  1
TABLEFORMAT_BEGIN
 90
        5
170
     1
 91
        0
 92
    32768
 62
   257
 93
        1
300
CONTENTFORMAT
  1
CONTENTFORMAT_BEGIN
 90
        0
 91
        0
 92
        4
 93
        0
300

 40
0.0
140
1.0
 94
        5
 62
     0
340
11
144
0.25
309
CONTENTFORMAT_END
171
     1
301
MARGIN
  1
CELLMARGIN_BEGIN
 40
0.06
 40
0.06
 40
0.06
 40
0.06
 40
0.06
 40
0.06
309
CELLMARGIN_END
 94
        6
 95
        1
302
GRIDFORMAT
  1
GRIDFORMAT_BEGIN
 90
        0
 91
        1
 62
     0
 92
       -2
340
14
 93
        0
 40
0.045
309
GRIDFORMAT_END
 95
        2
302
GRIDFORMAT
  1
GRIDFORMAT_BEGIN
 90
        0
 91
        1
 62
     0
 92
       -2
340
14
 93
        0
 40
0.045
309
GRIDFORMAT_END
 95
        4
302
GRIDFORMAT
  1
GRIDFORMAT_BEGIN
 90
        0
 91
        1
 62
     0
 92
       -2
340
14
 93
        0
 40
0.045
309
GRIDFORMAT_END
 95
        8
302
GRIDFORMAT
  1
GRIDFORMAT_BEGIN
 90
        0
 91
        1
 62
     0
 92
       -2
340
14
 93
        0
 40
0.045
309
GRIDFORMAT_END
 95
       16
302
GRIDFORMAT
  1
GRIDFORMAT_BEGIN
 90
        0
 91
        1
 62
     0
 92
       -2
340
14
 93
        0
 40
0.045
309
GRIDFORMAT_END
 95
       32
302
GRIDFORMAT
  1
GRIDFORMAT_BEGIN
 90
        0
 91
        1
 62
     0
 92
       -2
340
14
 93
        0
 40
0.045
309
GRIDFORMAT_END
309
TABLEFORMAT_END
  1
CELLSTYLE_BEGIN
 90
        1
 91
        1
300
_TITLE
309
CELLSTYLE_END
300
CELLSTYLE
  1
TABLEFORMAT_BEGIN
 90
        5
170
     1
 91
        0
 92
        0
 62
   257
 93
        1
300
CONTENTFORMAT
  1
CONTENTFORMAT_BEGIN
 90
        0
 91
        0
 92
        4
 93
        0
300

 40
0.0
140
1.0
 94
        5
 62
     0
340
11
144
0.18
309
CONTENTFORMAT_END
171
     1
301
MARGIN
  1
CELLMARGIN_BEGIN
 40
0.06
 40
0.06
 40
0.06
 40
0.06
 40
0.06
 40
0.06
309
CELLMARGIN_END
 94
        6
 95
        1
302
GRIDFORMAT
  1
GRIDFORMAT_BEGIN
 90
        0
 91
        1
 62
     0
 92
       -2
340
14
 93
        0
 40
0.045
309
GRIDFORMAT_END
 95
        2
302
GRIDFORMAT
  1
GRIDFORMAT_BEGIN
 90
        0
 91
        1
 62
     0
 92
       -2
340
14
 93
        0
 40
0.045
309
GRIDFORMAT_END
 95
        4
302
GRIDFORMAT
  1
GRIDFORMAT_BEGIN
 90
        0
 91
        1
 62
     0
 92
       -2
340
14
 93
        0
 40
0.045
309
GRIDFORMAT_END
 95
        8
302
GRIDFORMAT
  1
GRIDFORMAT_BEGIN
 90
        0
 91
        1
 62
     0
 92
       -2
340
14
 93
        0
 40
0.045
309
GRIDFORMAT_END
 95
       16
302
GRIDFORMAT
  1
GRIDFORMAT_BEGIN
 90
        0
 91
        1
 62
     0
 92
       -2
340
14
 93
        0
 40
0.045
309
GRIDFORMAT_END
 95
       32
302
GRIDFORMAT
  1
GRIDFORMAT_BEGIN
 90
        0
 91
        1
 62
     0
 92
       -2
340
14
 93
        0
 40
0.045
309
GRIDFORMAT_END
309
TABLEFORMAT_END
  1
CELLSTYLE_BEGIN
 90
        2
 91
        1
300
_HEADER
309
CELLSTYLE_END
300
CELLSTYLE
  1
TABLEFORMAT_BEGIN
 90
        5
170
     1
 91
        0
 92
        0
 62
   257
 93
        1
300
CONTENTFORMAT
  1
CONTENTFORMAT_BEGIN
 90
        0
 91
        0
 92
        4
 93
        0
300

 40
0.0
140
1.0
 94
        2
 62
     0
340
11
144
0.18
309
CONTENTFORMAT_END
171
     1
301
MARGIN
  1
CELLMARGIN_BEGIN
 40
0.06
 40
0.06
 40
0.06
 40
0.06
 40
0.06
 40
0.06
309
CELLMARGIN_END
 94
        6
 95
        1
302
GRIDFORMAT
  1
GRIDFORMAT_BEGIN
 90
        0
 91
        1
 62
     0
 92
       -2
340
14
 93
        0
 40
0.045
309
GRIDFORMAT_END
 95
        2
302
GRIDFORMAT
  1
GRIDFORMAT_BEGIN
 90
        0
 91
        1
 62
     0
 92
       -2
340
14
 93
        0
 40
0.045
309
GRIDFORMAT_END
 95
        4
302
GRIDFORMAT
  1
GRIDFORMAT_BEGIN
 90
        0
 91
        1
 62
     0
 92
       -2
340
14
 93
        0
 40
0.045
309
GRIDFORMAT_END
 95
        8
302
GRIDFORMAT
  1
GRIDFORMAT_BEGIN
 90
        0
 91
        1
 62
     0
 92
       -2
340
14
 93
        0
 40
0.045
309
GRIDFORMAT_END
 95
       16
302
GRIDFORMAT
  1
GRIDFORMAT_BEGIN
 90
        0
 91
        1
 62
     0
 92
       -2
340
14
 93
        0
 40
0.045
309
GRIDFORMAT_END
 95
       32
302
GRIDFORMAT
  1
GRIDFORMAT_BEGIN
 90
        0
 91
        1
 62
     0
 92
       -2
340
14
 93
        0
 40
0.045
309
GRIDFORMAT_END
309
TABLEFORMAT_END
  1
CELLSTYLE_BEGIN
 90
        3
 91
        2
300
_DATA
309
CELLSTYLE_END
  0
ENDSEC
  0
EOF