0
SECTION
  2
HEADER
  9
$ACADVER
  1
AC1027
  9
$ACADMAINTVER
 70
     8
  9
$DWGCODEPAGE
  3
ANSI_1252
  9
$REQUIREDVERSIONS
160
                 0
  9
$COMMENTS
  1
File was created by Cadenas
  9
$CUSTOMPROPERTYTAG
  1
NN
  9
$CUSTOMPROPERTY
  1
Imperial - IP Pillow Block with Type E Dimensions 1-3/8 thru 2-3/16 inch 2-Bolt Trident Seal Expansion
  9
$CUSTOMPROPERTYTAG
  1
NT
  9
$CUSTOMPROPERTY
  1
Imperial/E 2 Bolt Piliow Block Bearings
  9
$CUSTOMPROPERTYTAG
  1
NB
  9
$CUSTOMPROPERTY
  1
071127
  9
$CUSTOMPROPERTYTAG
  1
NBSYN
  9
$CUSTOMPROPERTY
  1
$PN.
  9
$CUSTOMPROPERTYTAG
  1
LINA
  9
$CUSTOMPROPERTY
  1
071127
  9
$CUSTOMPROPERTYTAG
  1
SS
  9
$CUSTOMPROPERTY
  1
1-15/16
  9
$CUSTOMPROPERTYTAG
  1
TYPE
  9
$CUSTOMPROPERTY
  1
Non-Expansion
  9
$CUSTOMPROPERTYTAG
  1
PN
  9
$CUSTOMPROPERTY
  1
071127
  9
$CUSTOMPROPERTYTAG
  1
DESCRIPTION
  9
$CUSTOMPROPERTY
  1
EP2B-IP-115R
  9
$CUSTOMPROPERTYTAG
  1
ST
  9
$CUSTOMPROPERTY
  1
Contact Seal
  9
$CUSTOMPROPERTYTAG
  1
A
  9
$CUSTOMPROPERTY
  1
2.86
  9
$CUSTOMPROPERTYTAG
  1
B
  9
$CUSTOMPROPERTY
  1
8.87
  9
$CUSTOMPROPERTYTAG
  1
C
  9
$CUSTOMPROPERTY
  1
2.49
  9
$CUSTOMPROPERTYTAG
  1
DMIN
  9
$CUSTOMPROPERTY
  1
6.88
  9
$CUSTOMPROPERTYTAG
  1
DMAX
  9
$CUSTOMPROPERTY
  1
7.12
  9
$CUSTOMPROPERTYTAG
  1
F
  9
$CUSTOMPROPERTY
  1
5/8
  9
$CUSTOMPROPERTYTAG
  1
G
  9
$CUSTOMPROPERTY
  1
0.88
  9
$CUSTOMPROPERTYTAG
  1
H
  9
$CUSTOMPROPERTY
  1
1.31
  9
$CUSTOMPROPERTYTAG
  1
J
  9
$CUSTOMPROPERTY
  1
4.47
  9
$CUSTOMPROPERTYTAG
  1
L
  9
$CUSTOMPROPERTY
  1
3.28
  9
$CUSTOMPROPERTYTAG
  1
M
  9
$CUSTOMPROPERTY
  1
2.25
  9
$CUSTOMPROPERTYTAG
  1
R
  9
$CUSTOMPROPERTY
  1
1.1
  9
$CUSTOMPROPERTYTAG
  1
S
  9
$CUSTOMPROPERTY
  1
1.76
  9
$CUSTOMPROPERTYTAG
  1
X
  9
$CUSTOMPROPERTY
  1
0.22
  9
$CUSTOMPROPERTYTAG
  1
Y
  9
$CUSTOMPROPERTY
  1
0.020
  9
$CUSTOMPROPERTYTAG
  1
Z
  9
$CUSTOMPROPERTY
  1
2.3
  9
$CUSTOMPROPERTYTAG
  1
COMPANY
  9
$CUSTOMPROPERTY
  1
baldor
  9
$INSBASE
 10
0.0
 20
0.0
 30
0.0
  9
$EXTMIN
 10
1.000000000000000E+20
 20
1.000000000000000E+20
 30
1.000000000000000E+20
  9
$EXTMAX
 10
-1.000000000000000E+20
 20
-1.000000000000000E+20
 30
-1.000000000000000E+20
  9
$LIMMIN
 10
0.0
 20
0.0
  9
$LIMMAX
 10
12.0
 20
9.0
  9
$ORTHOMODE
 70
     0
  9
$REGENMODE
 70
     1
  9
$FILLMODE
 70
     1
  9
$QTEXTMODE
 70
     0
  9
$MIRRTEXT
 70
     1
  9
$LTSCALE
 40
1.0
  9
$ATTMODE
 70
     1
  9
$TEXTSIZE
 40
0.2
  9
$TRACEWID
 40
0.05
  9
$TEXTSTYLE
  7
Standard
  9
$CLAYER
  8
0
  9
$CELTYPE
  6
ByLayer
  9
$CECOLOR
 62
   256
  9
$CELTSCALE
 40
1.0
  9
$DISPSILH
 70
     0
  9
$DIMSCALE
 40
1.0
  9
$DIMASZ
 40
0.18
  9
$DIMEXO
 40
0.0625
  9
$DIMDLI
 40
0.38
  9
$DIMRND
 40
0.0
  9
$DIMDLE
 40
0.0
  9
$DIMEXE
 40
0.18
  9
$DIMTP
 40
0.0
  9
$DIMTM
 40
0.0
  9
$DIMTXT
 40
0.18
  9
$DIMCEN
 40
0.09
  9
$DIMTSZ
 40
0.0
  9
$DIMTOL
 70
     0
  9
$DIMLIM
 70
     0
  9
$DIMTIH
 70
     1
  9
$DIMTOH
 70
     1
  9
$DIMSE1
 70
     0
  9
$DIMSE2
 70
     0
  9
$DIMTAD
 70
     0
  9
$DIMZIN
 70
     0
  9
$DIMBLK
  1

  9
$DIMASO
 70
     1
  9
$DIMSHO
 70
     1
  9
$DIMPOST
  1

  9
$DIMAPOST
  1

  9
$DIMALT
 70
     0
  9
$DIMALTD
 70
     2
  9
$DIMALTF
 40
25.4
  9
$DIMLFAC
 40
1.0
  9
$DIMTOFL
 70
     0
  9
$DIMTVP
 40
0.0
  9
$DIMTIX
 70
     0
  9
$DIMSOXD
 70
     0
  9
$DIMSAH
 70
     0
  9
$DIMBLK1
  1

  9
$DIMBLK2
  1

  9
$DIMSTYLE
  2
Standard
  9
$DIMCLRD
 70
     0
  9
$DIMCLRE
 70
     0
  9
$DIMCLRT
 70
     0
  9
$DIMTFAC
 40
1.0
  9
$DIMGAP
 40
0.09
  9
$DIMJUST
 70
     0
  9
$DIMSD1
 70
     0
  9
$DIMSD2
 70
     0
  9
$DIMTOLJ
 70
     1
  9
$DIMTZIN
 70
     0
  9
$DIMALTZ
 70
     0
  9
$DIMALTTZ
 70
     0
  9
$DIMUPT
 70
     0
  9
$DIMDEC
 70
     4
  9
$DIMTDEC
 70
     4
  9
$DIMALTU
 70
     2
  9
$DIMALTTD
 70
     2
  9
$DIMTXSTY
  7
Standard
  9
$DIMAUNIT
 70
     0
  9
$DIMADEC
 70
     0
  9
$DIMALTRND
 40
0.0
  9
$DIMAZIN
 70
     0
  9
$DIMDSEP
 70
    46
  9
$DIMATFIT
 70
     3
  9
$DIMFRAC
 70
     0
  9
$DIMLDRBLK
  1

  9
$DIMLUNIT
 70
     2
  9
$DIMLWD
 70
    -2
  9
$DIMLWE
 70
    -2
  9
$DIMTMOVE
 70
     0
  9
$DIMFXL
 40
1.0
  9
$DIMFXLON
 70
     0
  9
$DIMJOGANG
 40
0.7853981633974483
  9
$DIMTFILL
 70
     0
  9
$DIMTFILLCLR
 70
     0
  9
$DIMARCSYM
 70
     0
  9
$DIMLTYPE
  6

  9
$DIMLTEX1
  6

  9
$DIMLTEX2
  6

  9
$DIMTXTDIRECTION
 70
     0
  9
$LUNITS
 70
     2
  9
$LUPREC
 70
     4
  9
$SKETCHINC
 40
0.1
  9
$FILLETRAD
 40
0.5
  9
$AUNITS
 70
     0
  9
$AUPREC
 70
     0
  9
$MENU
  1
.
  9
$ELEVATION
 40
0.0
  9
$PELEVATION
 40
0.0
  9
$THICKNESS
 40
0.0
  9
$LIMCHECK
 70
     0
  9
$CHAMFERA
 40
0.0
  9
$CHAMFERB
 40
0.0
  9
$CHAMFERC
 40
0.0
  9
$CHAMFERD
 40
0.0
  9
$SKPOLY
 70
     0
  9
$TDCREATE
 40
2458168.983263484
  9
$TDUCREATE
 40
2458168.941596817
  9
$TDUPDATE
 40
2458168.983263669
  9
$TDUUPDATE
 40
2458168.941597002
  9
$TDINDWG
 40
0.0000000116
  9
$TDUSRTIMER
 40
0.0000000116
  9
$USRTIMER
 70
     1
  9
$ANGBASE
 50
0.0
  9
$ANGDIR
 70
     0
  9
$PDMODE
 70
     0
  9
$PDSIZE
 40
0.0
  9
$PLINEWID
 40
0.0
  9
$SPLFRAME
 70
     0
  9
$SPLINETYPE
 70
     6
  9
$SPLINESEGS
 70
     8
  9
$HANDSEED
  5
235
  9
$SURFTAB1
 70
     6
  9
$SURFTAB2
 70
     6
  9
$SURFTYPE
 70
     6
  9
$SURFU
 70
     6
  9
$SURFV
 70
     6
  9
$UCSBASE
  2

  9
$UCSNAME
  2

  9
$UCSORG
 10
0.0
 20
0.0
 30
0.0
  9
$UCSXDIR
 10
1.0
 20
0.0
 30
0.0
  9
$UCSYDIR
 10
0.0
 20
1.0
 30
0.0
  9
$UCSORTHOREF
  2

  9
$UCSORTHOVIEW
 70
     0
  9
$UCSORGTOP
 10
0.0
 20
0.0
 30
0.0
  9
$UCSORGBOTTOM
 10
0.0
 20
0.0
 30
0.0
  9
$UCSORGLEFT
 10
0.0
 20
0.0
 30
0.0
  9
$UCSORGRIGHT
 10
0.0
 20
0.0
 30
0.0
  9
$UCSORGFRONT
 10
0.0
 20
0.0
 30
0.0
  9
$UCSORGBACK
 10
0.0
 20
0.0
 30
0.0
  9
$PUCSBASE
  2

  9
$PUCSNAME
  2

  9
$PUCSORG
 10
0.0
 20
0.0
 30
0.0
  9
$PUCSXDIR
 10
1.0
 20
0.0
 30
0.0
  9
$PUCSYDIR
 10
0.0
 20
1.0
 30
0.0
  9
$PUCSORTHOREF
  2

  9
$PUCSORTHOVIEW
 70
     0
  9
$PUCSORGTOP
 10
0.0
 20
0.0
 30
0.0
  9
$PUCSORGBOTTOM
 10
0.0
 20
0.0
 30
0.0
  9
$PUCSORGLEFT
 10
0.0
 20
0.0
 30
0.0
  9
$PUCSORGRIGHT
 10
0.0
 20
0.0
 30
0.0
  9
$PUCSORGFRONT
 10
0.0
 20
0.0
 30
0.0
  9
$PUCSORGBACK
 10
0.0
 20
0.0
 30
0.0
  9
$USERI1
 70
     0
  9
$USERI2
 70
     0
  9
$USERI3
 70
     0
  9
$USERI4
 70
     0
  9
$USERI5
 70
     0
  9
$USERR1
 40
0.0
  9
$USERR2
 40
0.0
  9
$USERR3
 40
0.0
  9
$USERR4
 40
0.0
  9
$USERR5
 40
0.0
  9
$WORLDVIEW
 70
     1
  9
$SHADEDGE
 70
     3
  9
$SHADEDIF
 70
    70
  9
$TILEMODE
 70
     1
  9
$MAXACTVP
 70
    64
  9
$PINSBASE
 10
0.0
 20
0.0
 30
0.0
  9
$PLIMCHECK
 70
     0
  9
$PEXTMIN
 10
1.000000000000000E+20
 20
1.000000000000000E+20
 30
1.000000000000000E+20
  9
$PEXTMAX
 10
-1.000000000000000E+20
 20
-1.000000000000000E+20
 30
-1.000000000000000E+20
  9
$PLIMMIN
 10
0.0
 20
0.0
  9
$PLIMMAX
 10
12.0
 20
9.0
  9
$UNITMODE
 70
     0
  9
$VISRETAIN
 70
     1
  9
$PLINEGEN
 70
     0
  9
$PSLTSCALE
 70
     1
  9
$TREEDEPTH
 70
  3020
  9
$CMLSTYLE
  2
Standard
  9
$CMLJUST
 70
     0
  9
$CMLSCALE
 40
1.0
  9
$PROXYGRAPHICS
 70
     1
  9
$MEASUREMENT
 70
     0
  9
$CELWEIGHT
370
    -1
  9
$ENDCAPS
280
     0
  9
$JOINSTYLE
280
     0
  9
$LWDISPLAY
290
     0
  9
$INSUNITS
 70
     1
  9
$HYPERLINKBASE
  1

  9
$STYLESHEET
  1

  9
$XEDIT
290
     1
  9
$CEPSNTYPE
380
     0
  9
$PSTYLEMODE
290
     1
  9
$FINGERPRINTGUID
  2
{68FA2C07-98AB-4B82-9AF5-AE1831BEEFED}
  9
$VERSIONGUID
  2
{FAEB1C32-E019-11D5-929B-00C0DF256EC4}
  9
$EXTNAMES
290
     1
  9
$PSVPSCALE
 40
0.0
  9
$OLESTARTUP
290
     0
  9
$SORTENTS
280
   127
  9
$INDEXCTL
280
     0
  9
$HIDETEXT
280
     1
  9
$XCLIPFRAME
280
     2
  9
$HALOGAP
280
     0
  9
$OBSCOLOR
 70
   257
  9
$OBSLTYPE
280
     0
  9
$INTERSECTIONDISPLAY
280
     0
  9
$INTERSECTIONCOLOR
 70
   257
  9
$DIMASSOC
280
     2
  9
$PROJECTNAME
  1

  9
$CAMERADISPLAY
290
     0
  9
$LENSLENGTH
 40
50.0
  9
$CAMERAHEIGHT
 40
0.0
  9
$STEPSPERSEC
 40
2.0
  9
$STEPSIZE
 40
6.0
  9
$3DDWFPREC
 40
2.0
  9
$PSOLWIDTH
 40
0.25
  9
$PSOLHEIGHT
 40
4.0
  9
$LOFTANG1
 40
1.570796326794897
  9
$LOFTANG2
 40
1.570796326794897
  9
$LOFTMAG1
 40
0.0
  9
$LOFTMAG2
 40
0.0
  9
$LOFTPARAM
 70
     7
  9
$LOFTNORMALS
280
     1
  9
$LATITUDE
 40
37.795
  9
$LONGITUDE
 40
-122.394
  9
$NORTHDIRECTION
 40
0.0
  9
$TIMEZONE
 70
 -8000
  9
$LIGHTGLYPHDISPLAY
280
     1
  9
$TILEMODELIGHTSYNCH
280
     1
  9
$CMATERIAL
347
44
  9
$SOLIDHIST
280
     0
  9
$SHOWHIST
280
     1
  9
$DWFFRAME
280
     2
  9
$DGNFRAME
280
     2
  9
$REALWORLDSCALE
290
     1
  9
$INTERFERECOLOR
 62
   256
  9
$CSHADOW
280
     0
  9
$SHADOWPLANELOCATION
 40
0.0
  0
ENDSEC
  0
SECTION
  2
CLASSES
  0
CLASS
  1
ACDBDICTIONARYWDFLT
  2
AcDbDictionaryWithDefault
  3
ObjectDBX Classes
 90
        0
 91
        4
280
     0
281
     0
  0
CLASS
  1
VISUALSTYLE
  2
AcDbVisualStyle
  3
ObjectDBX Classes
 90
     4095
 91
        4
280
     0
281
     0
  0
CLASS
  1
MATERIAL
  2
AcDbMaterial
  3
ObjectDBX Classes
 90
     1153
 91
        4
280
     0
281
     0
  0
CLASS
  1
SCALE
  2
AcDbScale
  3
ObjectDBX Classes
 90
     1153
 91
        4
280
     0
281
     0
  0
CLASS
  1
TABLESTYLE
  2
AcDbTableStyle
  3
ObjectDBX Classes
 90
     4095
 91
        4
280
     0
281
     0
  0
CLASS
  1
MLEADERSTYLE
  2
AcDbMLeaderStyle
  3
ACDB_MLEADERSTYLE_CLASS
 90
     4095
 91
        4
280
     0
281
     0
  0
CLASS
  1
SUN
  2
AcDbSun
  3
SCENEOE
 90
     1153
 91
        4
280
     0
281
     0
  0
CLASS
  1
DICTIONARYVAR
  2
AcDbDictionaryVar
  3
ObjectDBX Classes
 90
        0
 91
        4
280
     0
281
     0
  0
CLASS
  1
CELLSTYLEMAP
  2
AcDbCellStyleMap
  3
ObjectDBX Classes
 90
     1152
 91
        4
280
     0
281
     0
  0
ENDSEC
  0
SECTION
  2
TABLES
  0
TABLE
  2
VPORT
  5
8
330
0
100
AcDbSymbolTable
 70
     1
  0
VPORT
  5
29
330
8
100
AcDbSymbolTableRecord
100
AcDbViewportTableRecord
  2
*Active
 70
     0
 10
0.0
 20
0.0
 11
1.0
 21
1.0
 12
0.0
 22
0.0676387070828284
 13
0.0
 23
0.0
 14
0.5
 24
0.5
 15
0.5
 25
0.5
 16
0.0
 26
0.0
 36
1.0
 17
0.0
 27
0.0
 37
0.0
 40
4.72798296244897
 41
1.913585575890842
 42
50.0
 43
0.0
 44
0.0
 50
0.0
 51
0.0
 71
     0
 72
   100
 73
     1
 74
     3
 75
     0
 76
     0
 77
     0
 78
     0
281
     0
 65
     1
110
0.0
120
0.0
130
0.0
111
1.0
121
0.0
131
0.0
112
0.0
122
1.0
132
0.0
 79
     0
146
0.0
348
2F
 60
     3
 61
     5
292
     1
282
     1
141
0.0
142
0.0
 63
   250
361
6D
  0
ENDTAB
  0
TABLE
  2
LTYPE
  5
5
330
0
100
AcDbSymbolTable
 70
     3
  0
LTYPE
  5
14
330
5
100
AcDbSymbolTableRecord
100
AcDbLinetypeTableRecord
  2
ByBlock
 70
     0
  3

 72
    65
 73
     0
 40
0.0
  0
LTYPE
  5
15
330
5
100
AcDbSymbolTableRecord
100
AcDbLinetypeTableRecord
  2
ByLayer
 70
     0
  3

 72
    65
 73
     0
 40
0.0
  0
LTYPE
  5
16
330
5
100
AcDbSymbolTableRecord
100
AcDbLinetypeTableRecord
  2
Continuous
 70
     0
  3
Solid line
 72
    65
 73
     0
 40
0.0
  0
LTYPE
  5
A0
330
5
100
AcDbSymbolTableRecord
100
AcDbLinetypeTableRecord
  2
Center
 70
     0
  3

 72
    65
 73
     4
 40
1.5
 49
0.45
 74
     0
 49
-0.5
 74
     0
 49
0.05
 74
     0
 49
-0.5
 74
     0
  0
LTYPE
  5
E7
330
5
100
AcDbSymbolTableRecord
100
AcDbLinetypeTableRecord
  2
Dashed
 70
     0
  3

 72
    65
 73
     2
 40
2.0
 49
1.0
 74
     0
 49
-1.0
 74
     0
  0
ENDTAB
  0
TABLE
  2
LAYER
  5
2
330
0
100
AcDbSymbolTable
 70
     7
  0
LAYER
  5
10
330
2
100
AcDbSymbolTableRecord
100
AcDbLayerTableRecord
  2
0
 70
     0
 62
     7
  6
Continuous
370
    -3
390
F
347
46
348
0
  0
LAYER
  5
72
330
2
100
AcDbSymbolTableRecord
100
AcDbLayerTableRecord
  2
AM_6
 70
     0
 62
    -2
  6
Continuous
370
    35
390
F
347
46
348
0
  0
LAYER
  5
9E
330
2
100
AcDbSymbolTableRecord
100
AcDbLayerTableRecord
  2
AM_5
 70
     0
 62
     3
  6
Continuous
370
    25
390
F
347
46
348
0
  0
LAYER
  5
A1
330
2
100
AcDbSymbolTableRecord
100
AcDbLayerTableRecord
  2
AM_7
 70
     0
 62
     7
  6
Center
370
    25
390
F
347
46
348
0
  0
LAYER
  5
A3
330
2
100
AcDbSymbolTableRecord
100
AcDbLayerTableRecord
  2
AM_4
 70
     0
 62
     7
  6
Continuous
370
    50
390
F
347
46
348
0
  0
LAYER
  5
E8
330
2
100
AcDbSymbolTableRecord
100
AcDbLayerTableRecord
  2
AM_9
 70
     0
 62
     6
  6
Dashed
370
    25
390
F
347
46
348
0
  0
LAYER
  5
220
330
2
100
AcDbSymbolTableRecord
100
AcDbLayerTableRecord
  2
ConnectionPoints
 70
     0
 62
     7
  6
Continuous
370
    50
390
F
347
46
348
0
  0
ENDTAB
  0
TABLE
  2
STYLE
  5
3
330
0
100
AcDbSymbolTable
 70
     1
  0
STYLE
  5
11
330
3
100
AcDbSymbolTableRecord
100
AcDbTextStyleTableRecord
  2
Standard
 70
     0
 40
0.0
 41
1.0
 50
0.0
 71
     0
 42
0.2
  3
txt
  4

  0
ENDTAB
  0
TABLE
  2
VIEW
  5
6
330
0
100
AcDbSymbolTable
 70
     0
  0
ENDTAB
  0
TABLE
  2
UCS
  5
7
330
0
100
AcDbSymbolTable
 70
     0
  0
ENDTAB
  0
TABLE
  2
APPID
  5
9
330
0
100
AcDbSymbolTable
 70
     1
  0
APPID
  5
12
330
9
100
AcDbSymbolTableRecord
100
AcDbRegAppTableRecord
  2
ACAD
 70
     0
  0
ENDTAB
  0
TABLE
  2
DIMSTYLE
  5
A
330
0
100
AcDbSymbolTable
 70
     1
100
AcDbDimStyleTable
  0
DIMSTYLE
105
27
330
A
100
AcDbSymbolTableRecord
100
AcDbDimStyleTableRecord
  2
Standard
 70
     0
178
     0
340
11
  0
ENDTAB
  0
TABLE
  2
BLOCK_RECORD
  5
1
330
0
100
AcDbSymbolTable
 70
     8
  0
BLOCK_RECORD
  5
1F
330
1
100
AcDbSymbolTableRecord
100
AcDbBlockTableRecord
  2
*Model_Space
340
22
 70
     0
280
     1
281
     0
  0
BLOCK_RECORD
  5
1B
330
1
100
AcDbSymbolTableRecord
100
AcDbBlockTableRecord
  2
*Paper_Space
340
1E
 70
     0
280
     1
281
     0
  0
BLOCK_RECORD
  5
23
330
1
100
AcDbSymbolTableRecord
100
AcDbBlockTableRecord
  2
*Paper_Space0
340
26
 70
     0
280
     1
281
     0
  0
BLOCK_RECORD
  5
6E
330
1
100
AcDbSymbolTableRecord
100
AcDbBlockTableRecord
  2
1_071127_0
340
0
102
{BLKREFS
331
6F
102
}
 70
     0
280
     1
281
     0
  0
BLOCK_RECORD
  5
8E
330
1
100
AcDbSymbolTableRecord
100
AcDbBlockTableRecord
  2
2_ASME_B18_3_10_1_0_in_071127_0
340
0
102
{BLKREFS
331
8F
102
}
 70
     0
280
     1
281
     0
  0
BLOCK_RECORD
  5
AE
330
1
100
AcDbSymbolTableRecord
100
AcDbBlockTableRecord
  2
3_ASME_B18_3_10_2_0_in_071127_0
340
0
102
{BLKREFS
331
AF
102
}
 70
     0
280
     1
281
     0
  0
BLOCK_RECORD
  5
CB
330
1
100
AcDbSymbolTableRecord
100
AcDbBlockTableRecord
  2
4_070890LWE_0_in_071127_0
340
0
102
{BLKREFS
331
CC
102
}
 70
     0
280
     1
281
     0
  0
BLOCK_RECORD
  5
11D
330
1
100
AcDbSymbolTableRecord
100
AcDbBlockTableRecord
  2
5_070890E_0_in_071127_0
340
0
102
{BLKREFS
331
11E
102
}
 70
     0
280
     1
281
     0
  0
BLOCK_RECORD
  5
17F
330
1
100
AcDbSymbolTableRecord
100
AcDbBlockTableRecord
  2
6_405015E_Inch_0_in_071127_0
340
0
102
{BLKREFS
331
180
102
}
 70
     0
280
     1
281
     0
  0
BLOCK_RECORD
  5
1B4
330
1
100
AcDbSymbolTableRecord
100
AcDbBlockTableRecord
  2
7_071127H_0_in_071127_0
340
0
102
{BLKREFS
331
1B5
102
}
 70
     0
280
     1
281
     0
  0
ENDTAB
  0
ENDSEC
  0
SECTION
  2
BLOCKS
  0
BLOCK
  5
20
330
1F
100
AcDbEntity
  8
0
100
AcDbBlockBegin
  2
*Model_Space
 70
     0
 10
0.0
 20
0.0
 30
0.0
  3
*Model_Space
  1

  0
ENDBLK
  5
21
330
1F
100
AcDbEntity
  8
0
100
AcDbBlockEnd
  0
BLOCK
  5
1C
330
1B
100
AcDbEntity
 67
     1
  8
0
100
AcDbBlockBegin
  2
*Paper_Space
 70
     0
 10
0.0
 20
0.0
 30
0.0
  3
*Paper_Space
  1

  0
ENDBLK
  5
1D
330
1B
100
AcDbEntity
 67
     1
  8
0
100
AcDbBlockEnd
  0
BLOCK
  5
24
330
23
100
AcDbEntity
  8
0
100
AcDbBlockBegin
  2
*Paper_Space0
 70
     0
 10
0.0
 20
0.0
 30
0.0
  3
*Paper_Space0
  1

  0
ENDBLK
  5
25
330
23
100
AcDbEntity
  8
0
100
AcDbBlockEnd
  0
BLOCK
  5
70
330
6E
100
AcDbEntity
  8
0
100
AcDbBlockBegin
  2
1_071127_0
 70
     2
 10
0.0
 20
0.0
 30
0.0
  3
1_071127_0
  1

  0
ATTDEF
  5
73
330
6E
100
AcDbEntity
  8
AM_6
100
AcDbText
 10
9.435
 20
2.385277414165656
 30
0.0
 40
0.5
  1
Imperial - IP Pillow Block with Type E Dimensions 1-3/8 thru 2-3/16 inch 2-Bolt Trident Seal Expansion
100
AcDbAttributeDefinition
  3

  2
NN
 70
     8
280
     0
  0
ATTDEF
  5
74
330
6E
100
AcDbEntity
  8
AM_6
100
AcDbText
 10
9.435
 20
1.885277414165656
 30
0.0
 40
0.5
  1
Imperial/E 2 Bolt Piliow Block Bearings
100
AcDbAttributeDefinition
  3

  2
NT
 70
     8
280
     0
  0
ATTDEF
  5
75
330
6E
100
AcDbEntity
  8
AM_6
100
AcDbText
 10
9.435
 20
1.385277414165656
 30
0.0
 40
0.5
  1
071127
100
AcDbAttributeDefinition
  3

  2
NB
 70
     8
280
     0
  0
ATTDEF
  5
76
330
6E
100
AcDbEntity
  8
AM_6
100
AcDbText
 10
9.435
 20
0.8852774141656559
 30
0.0
 40
0.5
  1
$PN.
100
AcDbAttributeDefinition
  3

  2
NBSYN
 70
     8
280
     0
  0
ATTDEF
  5
77
330
6E
100
AcDbEntity
  8
AM_6
100
AcDbText
 10
9.435
 20
0.3852774141656559
 30
0.0
 40
0.5
  1
071127
100
AcDbAttributeDefinition
  3

  2
LINA
 70
     8
280
     0
  0
ATTDEF
  5
78
330
6E
100
AcDbEntity
  8
AM_6
100
AcDbText
 10
9.435
 20
-0.1147225858343441
 30
0.0
 40
0.5
  1
1-15/16
100
AcDbAttributeDefinition
  3

  2
SS
 70
     8
280
     0
  0
ATTDEF
  5
79
330
6E
100
AcDbEntity
  8
AM_6
100
AcDbText
 10
9.435
 20
-0.6147225858343441
 30
0.0
 40
0.5
  1
Non-Expansion
100
AcDbAttributeDefinition
  3

  2
TYPE
 70
     8
280
     0
  0
ATTDEF
  5
7A
330
6E
100
AcDbEntity
  8
AM_6
100
AcDbText
 10
9.435
 20
-1.114722585834344
 30
0.0
 40
0.5
  1
071127
100
AcDbAttributeDefinition
  3

  2
PN
 70
     8
280
     0
  0
ATTDEF
  5
7B
330
6E
100
AcDbEntity
  8
AM_6
100
AcDbText
 10
9.435
 20
-1.614722585834344
 30
0.0
 40
0.5
  1
EP2B-IP-115R
100
AcDbAttributeDefinition
  3

  2
DESCRIPTION
 70
     8
280
     0
  0
ATTDEF
  5
7C
330
6E
100
AcDbEntity
  8
AM_6
100
AcDbText
 10
9.435
 20
-2.114722585834344
 30
0.0
 40
0.5
  1
Contact Seal
100
AcDbAttributeDefinition
  3

  2
ST
 70
     8
280
     0
  0
ATTDEF
  5
7D
330
6E
100
AcDbEntity
  8
AM_6
100
AcDbText
 10
9.435
 20
-2.614722585834344
 30
0.0
 40
0.5
  1
2.86
100
AcDbAttributeDefinition
  3

  2
A
 70
     8
280
     0
  0
ATTDEF
  5
7E
330
6E
100
AcDbEntity
  8
AM_6
100
AcDbText
 10
9.435
 20
-3.114722585834344
 30
0.0
 40
0.5
  1
8.87
100
AcDbAttributeDefinition
  3

  2
B
 70
     8
280
     0
  0
ATTDEF
  5
7F
330
6E
100
AcDbEntity
  8
AM_6
100
AcDbText
 10
9.435
 20
-3.614722585834344
 30
0.0
 40
0.5
  1
2.49
100
AcDbAttributeDefinition
  3

  2
C
 70
     8
280
     0
  0
ATTDEF
  5
80
330
6E
100
AcDbEntity
  8
AM_6
100
AcDbText
 10
9.435
 20
-4.114722585834344
 30
0.0
 40
0.5
  1
6.88
100
AcDbAttributeDefinition
  3

  2
DMIN
 70
     8
280
     0
  0
ATTDEF
  5
81
330
6E
100
AcDbEntity
  8
AM_6
100
AcDbText
 10
9.435
 20
-4.614722585834344
 30
0.0
 40
0.5
  1
7.12
100
AcDbAttributeDefinition
  3

  2
DMAX
 70
     8
280
     0
  0
ATTDEF
  5
82
330
6E
100
AcDbEntity
  8
AM_6
100
AcDbText
 10
9.435
 20
-5.114722585834344
 30
0.0
 40
0.5
  1
5/8
100
AcDbAttributeDefinition
  3

  2
F
 70
     8
280
     0
  0
ATTDEF
  5
83
330
6E
100
AcDbEntity
  8
AM_6
100
AcDbText
 10
9.435
 20
-5.614722585834344
 30
0.0
 40
0.5
  1
0.88
100
AcDbAttributeDefinition
  3

  2
G
 70
     8
280
     0
  0
ATTDEF
  5
84
330
6E
100
AcDbEntity
  8
AM_6
100
AcDbText
 10
9.435
 20
-6.114722585834344
 30
0.0
 40
0.5
  1
1.31
100
AcDbAttributeDefinition
  3

  2
H
 70
     8
280
     0
  0
ATTDEF
  5
85
330
6E
100
AcDbEntity
  8
AM_6
100
AcDbText
 10
9.435
 20
-6.614722585834344
 30
0.0
 40
0.5
  1
4.47
100
AcDbAttributeDefinition
  3

  2
J
 70
     8
280
     0
  0
ATTDEF
  5
86
330
6E
100
AcDbEntity
  8
AM_6
100
AcDbText
 10
9.435
 20
-7.114722585834344
 30
0.0
 40
0.5
  1
3.28
100
AcDbAttributeDefinition
  3

  2
L
 70
     8
280
     0
  0
ATTDEF
  5
87
330
6E
100
AcDbEntity
  8
AM_6
100
AcDbText
 10
9.435
 20
-7.614722585834344
 30
0.0
 40
0.5
  1
2.25
100
AcDbAttributeDefinition
  3

  2
M
 70
     8
280
     0
  0
ATTDEF
  5
88
330
6E
100
AcDbEntity
  8
AM_6
100
AcDbText
 10
9.435
 20
-8.114722585834343
 30
0.0
 40
0.5
  1
1.1
100
AcDbAttributeDefinition
  3

  2
R
 70
     8
280
     0
  0
ATTDEF
  5
89
330
6E
100
AcDbEntity
  8
AM_6
100
AcDbText
 10
9.435
 20
-8.614722585834343
 30
0.0
 40
0.5
  1
1.76
100
AcDbAttributeDefinition
  3

  2
S
 70
     8
280
     0
  0
ATTDEF
  5
8A
330
6E
100
AcDbEntity
  8
AM_6
100
AcDbText
 10
9.435
 20
-9.114722585834343
 30
0.0
 40
0.5
  1
0.22
100
AcDbAttributeDefinition
  3

  2
X
 70
     8
280
     0
  0
ATTDEF
  5
8B
330
6E
100
AcDbEntity
  8
AM_6
100
AcDbText
 10
9.435
 20
-9.614722585834343
 30
0.0
 40
0.5
  1
0.020
100
AcDbAttributeDefinition
  3

  2
Y
 70
     8
280
     0
  0
ATTDEF
  5
8C
330
6E
100
AcDbEntity
  8
AM_6
100
AcDbText
 10
9.435
 20
-10.11472258583434
 30
0.0
 40
0.5
  1
2.3
100
AcDbAttributeDefinition
  3

  2
Z
 70
     8
280
     0
  0
ATTDEF
  5
8D
330
6E
100
AcDbEntity
  8
AM_6
100
AcDbText
 10
9.435
 20
-10.61472258583434
 30
0.0
 40
0.5
  1
baldor
100
AcDbAttributeDefinition
  3

  2
COMPANY
 70
     8
280
     0
  0
INSERT
  5
8F
330
6E
100
AcDbEntity
  8
0
100
AcDbBlockReference
  2
2_ASME_B18_3_10_1_0_in_071127_0
 10
0.0
 20
0.0
 30
0.0
  0
INSERT
  5
AF
330
6E
100
AcDbEntity
  8
0
100
AcDbBlockReference
  2
3_ASME_B18_3_10_2_0_in_071127_0
 10
0.0
 20
0.0
 30
0.0
  0
INSERT
  5
CC
330
6E
100
AcDbEntity
  8
0
100
AcDbBlockReference
  2
4_070890LWE_0_in_071127_0
 10
0.0
 20
0.0
 30
0.0
  0
INSERT
  5
11E
330
6E
100
AcDbEntity
  8
0
100
AcDbBlockReference
  2
5_070890E_0_in_071127_0
 10
0.0
 20
0.0
 30
0.0
  0
INSERT
  5
180
330
6E
100
AcDbEntity
  8
0
100
AcDbBlockReference
  2
6_405015E_Inch_0_in_071127_0
 10
0.0
 20
0.0
 30
0.0
  0
INSERT
  5
1B5
330
6E
100
AcDbEntity
  8
0
100
AcDbBlockReference
  2
7_071127H_0_in_071127_0
 10
0.0
 20
0.0
 30
0.0
  0
ENDBLK
  5
71
330
6E
100
AcDbEntity
  8
0
100
AcDbBlockEnd
  0
BLOCK
  5
90
330
8E
100
AcDbEntity
  8
0
100
AcDbBlockBegin
  2
2_ASME_B18_3_10_1_0_in_071127_0
 70
     2
 10
0.0
 20
0.0
 30
0.0
  3
2_ASME_B18_3_10_1_0_in_071127_0
  1

  0
ATTDEF
  5
92
330
8E
100
AcDbEntity
  8
AM_6
100
AcDbText
 10
5.189525
 20
-1.178006944444444
 30
0.0
 40
0.5
  1
ANSI/ASME B18.3-1998
100
AcDbAttributeDefinition
  3

  2
NN
 70
     8
280
     0
  0
ATTDEF
  5
93
330
8E
100
AcDbEntity
  8
AM_6
100
AcDbText
 10
5.189525
 20
-1.678006944444444
 30
0.0
 40
0.5
  1
Socket Button Head Cap Screws
100
AcDbAttributeDefinition
  3

  2
NT
 70
     8
280
     0
  0
ATTDEF
  5
94
330
8E
100
AcDbEntity
  8
AM_6
100
AcDbText
 10
5.189525
 20
-2.178006944444444
 30
0.0
 40
0.5
  1
ASME B18.3-10
100
AcDbAttributeDefinition
  3

  2
NB
 70
     8
280
     0
  0
ATTDEF
  5
95
330
8E
100
AcDbEntity
  8
AM_6
100
AcDbText
 10
5.189525
 20
-2.678006944444444
 30
0.0
 40
0.5
  1
ASME B18.3-$NS.
100
AcDbAttributeDefinition
  3

  2
NBSYN
 70
     8
280
     0
  0
ATTDEF
  5
96
330
8E
100
AcDbEntity
  8
AM_6
100
AcDbText
 10
5.189525
 20
-3.178006944444444
 30
0.0
 40
0.5
  1
ASME B18.3-10
100
AcDbAttributeDefinition
  3

  2
LINA
 70
     8
280
     0
  0
ATTDEF
  5
97
330
8E
100
AcDbEntity
  8
AM_6
100
AcDbText
 10
5.189525
 20
-3.678006944444444
 30
0.0
 40
0.5
  1
10
100
AcDbAttributeDefinition
  3

  2
NS
 70
     8
280
     0
  0
ATTDEF
  5
98
330
8E
100
AcDbEntity
  8
AM_6
100
AcDbText
 10
5.189525
 20
-4.178006944444444
 30
0.0
 40
0.5
  1
0.361
100
AcDbAttributeDefinition
  3

  2
A
 70
     8
280
     0
  0
ATTDEF
  5
99
330
8E
100
AcDbEntity
  8
AM_6
100
AcDbText
 10
5.189525
 20
-4.678006944444444
 30
0.0
 40
0.5
  1
0.101
100
AcDbAttributeDefinition
  3

  2
H
 70
     8
280
     0
  0
ATTDEF
  5
9A
330
8E
100
AcDbEntity
  8
AM_6
100
AcDbText
 10
5.189525
 20
-5.178006944444444
 30
0.0
 40
0.5
  1
0.800
100
AcDbAttributeDefinition
  3

  2
L
 70
     8
280
     0
  0
ATTDEF
  5
9B
330
8E
100
AcDbEntity
  8
AM_6
100
AcDbText
 10
5.189525
 20
-5.678006944444444
 30
0.0
 40
0.5
  1
0.020
100
AcDbAttributeDefinition
  3

  2
S
 70
     8
280
     0
  0
ATTDEF
  5
9C
330
8E
100
AcDbEntity
  8
AM_6
100
AcDbText
 10
5.189525
 20
-6.178006944444444
 30
0.0
 40
0.5
  1
0.125000
100
AcDbAttributeDefinition
  3

  2
J
 70
     8
280
     0
  0
ATTDEF
  5
9D
330
8E
100
AcDbEntity
  8
AM_6
100
AcDbText
 10
5.189525
 20
-6.678006944444444
 30
0.0
 40
0.5
  1
baldor
100
AcDbAttributeDefinition
  3

  2
COMPANY
 70
     8
280
     0
  0
ARC
  5
9F
330
8E
100
AcDbEntity
  8
AM_5
100
AcDbCircle
 10
0.0000000000000001
 20
-1.358506944444445
 30
0.0
 40
0.0702000000000001
100
AcDbArc
 50
75.00000000000006
 51
15.00000000000019
  0
LINE
  5
A2
330
8E
100
AcDbEntity
  8
AM_7
100
AcDbLine
 10
-0.1895250000000001
 20
-1.358506944444444
 30
0.0
 11
0.1895250000000001
 21
-1.358506944444444
 31
0.0
  0
LINE
  5
A4
330
8E
100
AcDbEntity
  8
AM_4
100
AcDbLine
 10
0.0625
 20
-1.322422552620093
 30
0.0
 11
0.0625
 21
-1.394591336268796
 31
0.0
  0
LINE
  5
A5
330
8E
100
AcDbEntity
  8
AM_4
100
AcDbLine
 10
-0.0625
 20
-1.394591336268796
 30
0.0
 11
-0.0625
 21
-1.322422552620093
 31
0.0
  0
LINE
  5
A6
330
8E
100
AcDbEntity
  8
AM_4
100
AcDbLine
 10
-0.0625
 20
-1.322422552620093
 30
0.0
 11
0.0
 21
-1.286338160795741
 31
0.0
  0
LINE
  5
A7
330
8E
100
AcDbEntity
  8
AM_4
100
AcDbLine
 10
0.0
 20
-1.286338160795741
 30
0.0
 11
0.0625
 21
-1.322422552620093
 31
0.0
  0
LINE
  5
A8
330
8E
100
AcDbEntity
  8
AM_4
100
AcDbLine
 10
0.0625
 20
-1.394591336268796
 30
0.0
 11
0.0
 21
-1.430675728093148
 31
0.0
  0
LINE
  5
A9
330
8E
100
AcDbEntity
  8
AM_4
100
AcDbLine
 10
0.0
 20
-1.430675728093148
 30
0.0
 11
-0.0625
 21
-1.394591336268796
 31
0.0
  0
CIRCLE
  5
AA
330
8E
100
AcDbEntity
  8
AM_4
100
AcDbCircle
 10
0.0
 20
-1.358506944444444
 30
0.0
 40
0.0995
  0
ARC
  5
AB
330
8E
100
AcDbEntity
  8
AM_5
100
AcDbCircle
 10
-0.0000000000000002
 20
-1.358506944444444
 30
0.0
 40
0.0702000000000002
100
AcDbArc
 50
345.0000000000001
 51
285.0000000000002
  0
CIRCLE
  5
AC
330
8E
100
AcDbEntity
  8
AM_4
100
AcDbCircle
 10
0.0
 20
-1.358506944444444
 30
0.0
 40
0.1805000000000001
  0
CIRCLE
  5
AD
330
8E
100
AcDbEntity
  8
AM_5
100
AcDbCircle
 10
0.0
 20
-1.358506944444444
 30
0.0
 40
0.0764000000000002
  0
ENDBLK
  5
91
330
8E
100
AcDbEntity
  8
0
100
AcDbBlockEnd
  0
BLOCK
  5
B0
330
AE
100
AcDbEntity
  8
0
100
AcDbBlockBegin
  2
3_ASME_B18_3_10_2_0_in_071127_0
 70
     2
 10
0.0
 20
0.0
 30
0.0
  3
3_ASME_B18_3_10_2_0_in_071127_0
  1

  0
ATTDEF
  5
B2
330
AE
100
AcDbEntity
  8
AM_6
100
AcDbText
 10
5.189525
 20
1.539006944444444
 30
0.0
 40
0.5
  1
ANSI/ASME B18.3-1998
100
AcDbAttributeDefinition
  3

  2
NN
 70
     8
280
     0
  0
ATTDEF
  5
B3
330
AE
100
AcDbEntity
  8
AM_6
100
AcDbText
 10
5.189525
 20
1.039006944444444
 30
0.0
 40
0.5
  1
Socket Button Head Cap Screws
100
AcDbAttributeDefinition
  3

  2
NT
 70
     8
280
     0
  0
ATTDEF
  5
B4
330
AE
100
AcDbEntity
  8
AM_6
100
AcDbText
 10
5.189525
 20
0.5390069444444443
 30
0.0
 40
0.5
  1
ASME B18.3-10
100
AcDbAttributeDefinition
  3

  2
NB
 70
     8
280
     0
  0
ATTDEF
  5
B5
330
AE
100
AcDbEntity
  8
AM_6
100
AcDbText
 10
5.189525
 20
0.0390069444444443
 30
0.0
 40
0.5
  1
ASME B18.3-$NS.
100
AcDbAttributeDefinition
  3

  2
NBSYN
 70
     8
280
     0
  0
ATTDEF
  5
B6
330
AE
100
AcDbEntity
  8
AM_6
100
AcDbText
 10
5.189525
 20
-0.4609930555555557
 30
0.0
 40
0.5
  1
ASME B18.3-10
100
AcDbAttributeDefinition
  3

  2
LINA
 70
     8
280
     0
  0
ATTDEF
  5
B7
330
AE
100
AcDbEntity
  8
AM_6
100
AcDbText
 10
5.189525
 20
-0.9609930555555557
 30
0.0
 40
0.5
  1
10
100
AcDbAttributeDefinition
  3

  2
NS
 70
     8
280
     0
  0
ATTDEF
  5
B8
330
AE
100
AcDbEntity
  8
AM_6
100
AcDbText
 10
5.189525
 20
-1.460993055555556
 30
0.0
 40
0.5
  1
0.361
100
AcDbAttributeDefinition
  3

  2
A
 70
     8
280
     0
  0
ATTDEF
  5
B9
330
AE
100
AcDbEntity
  8
AM_6
100
AcDbText
 10
5.189525
 20
-1.960993055555556
 30
0.0
 40
0.5
  1
0.101
100
AcDbAttributeDefinition
  3

  2
H
 70
     8
280
     0
  0
ATTDEF
  5
BA
330
AE
100
AcDbEntity
  8
AM_6
100
AcDbText
 10
5.189525
 20
-2.460993055555556
 30
0.0
 40
0.5
  1
0.800
100
AcDbAttributeDefinition
  3

  2
L
 70
     8
280
     0
  0
ATTDEF
  5
BB
330
AE
100
AcDbEntity
  8
AM_6
100
AcDbText
 10
5.189525
 20
-2.960993055555556
 30
0.0
 40
0.5
  1
0.020
100
AcDbAttributeDefinition
  3

  2
S
 70
     8
280
     0
  0
ATTDEF
  5
BC
330
AE
100
AcDbEntity
  8
AM_6
100
AcDbText
 10
5.189525
 20
-3.460993055555556
 30
0.0
 40
0.5
  1
0.125000
100
AcDbAttributeDefinition
  3

  2
J
 70
     8
280
     0
  0
ATTDEF
  5
BD
330
AE
100
AcDbEntity
  8
AM_6
100
AcDbText
 10
5.189525
 20
-3.960993055555556
 30
0.0
 40
0.5
  1
baldor
100
AcDbAttributeDefinition
  3

  2
COMPANY
 70
     8
280
     0
  0
ARC
  5
BE
330
AE
100
AcDbEntity
  8
AM_5
100
AcDbCircle
 10
-0.0000000000000001
 20
1.358506944444444
 30
0.0
 40
0.0702000000000003
100
AcDbArc
 50
75.0000000000001
 51
15.00000000000019
  0
LINE
  5
BF
330
AE
100
AcDbEntity
  8
AM_7
100
AcDbLine
 10
-0.1895249999999999
 20
1.358506944444444
 30
0.0
 11
0.1895249999999999
 21
1.358506944444444
 31
0.0
  0
LINE
  5
C0
330
AE
100
AcDbEntity
  8
AM_4
100
AcDbLine
 10
0.0625
 20
1.322422552620093
 30
0.0
 11
0.0
 21
1.286338160795741
 31
0.0
  0
LINE
  5
C1
330
AE
100
AcDbEntity
  8
AM_4
100
AcDbLine
 10
-0.0625
 20
1.394591336268796
 30
0.0
 11
0.0
 21
1.430675728093148
 31
0.0
  0
LINE
  5
C2
330
AE
100
AcDbEntity
  8
AM_4
100
AcDbLine
 10
0.0
 20
1.430675728093148
 30
0.0
 11
0.0625
 21
1.394591336268796
 31
0.0
  0
LINE
  5
C3
330
AE
100
AcDbEntity
  8
AM_4
100
AcDbLine
 10
0.0625
 20
1.394591336268796
 30
0.0
 11
0.0625
 21
1.322422552620093
 31
0.0
  0
LINE
  5
C4
330
AE
100
AcDbEntity
  8
AM_4
100
AcDbLine
 10
-0.0625
 20
1.322422552620093
 30
0.0
 11
-0.0625
 21
1.394591336268796
 31
0.0
  0
LINE
  5
C5
330
AE
100
AcDbEntity
  8
AM_4
100
AcDbLine
 10
0.0
 20
1.286338160795741
 30
0.0
 11
-0.0625
 21
1.322422552620093
 31
0.0
  0
CIRCLE
  5
C6
330
AE
100
AcDbEntity
  8
AM_4
100
AcDbCircle
 10
0.0
 20
1.358506944444444
 30
0.0
 40
0.0995
  0
ARC
  5
C7
330
AE
100
AcDbEntity
  8
AM_5
100
AcDbCircle
 10
0.0000000000000001
 20
1.358506944444445
 30
0.0
 40
0.0763999999999999
100
AcDbArc
 50
75.00000000000006
 51
14.9999999999999
  0
ARC
  5
C8
330
AE
100
AcDbEntity
  8
AM_5
100
AcDbCircle
 10
-0.0000000000000001
 20
1.358506944444445
 30
0.0
 40
0.0764
100
AcDbArc
 50
14.9999999999999
 51
195.0000000000003
  0
ARC
  5
C9
330
AE
100
AcDbEntity
  8
AM_5
100
AcDbCircle
 10
-0.0000000000000002
 20
1.358506944444444
 30
0.0
 40
0.0702000000000002
100
AcDbArc
 50
345.0000000000001
 51
285.0000000000002
  0
CIRCLE
  5
CA
330
AE
100
AcDbEntity
  8
AM_4
100
AcDbCircle
 10
0.0
 20
1.358506944444444
 30
0.0
 40
0.1804999999999999
  0
ENDBLK
  5
B1
330
AE
100
AcDbEntity
  8
0
100
AcDbBlockEnd
  0
BLOCK
  5
CD
330
CB
100
AcDbEntity
  8
0
100
AcDbBlockBegin
  2
4_070890LWE_0_in_071127_0
 70
     2
 10
0.0
 20
0.0
 30
0.0
  3
4_070890LWE_0_in_071127_0
  1

  0
ATTDEF
  5
CF
330
CB
100
AcDbEntity
  8
AM_6
100
AcDbText
 10
6.64
 20
1.64
 30
0.0
 40
0.5
  1
Imperial/E Insert Lockwasher -Inch
100
AcDbAttributeDefinition
  3

  2
NN
 70
     8
280
     0
  0
ATTDEF
  5
D0
330
CB
100
AcDbEntity
  8
AM_6
100
AcDbText
 10
6.64
 20
1.14
 30
0.0
 40
0.5
  1
Imperial/E Bearings
100
AcDbAttributeDefinition
  3

  2
NT
 70
     8
280
     0
  0
ATTDEF
  5
D1
330
CB
100
AcDbEntity
  8
AM_6
100
AcDbText
 10
6.64
 20
0.6399999999999999
 30
0.0
 40
0.5
  1
070890LWE
100
AcDbAttributeDefinition
  3

  2
NB
 70
     8
280
     0
  0
ATTDEF
  5
D2
330
CB
100
AcDbEntity
  8
AM_6
100
AcDbText
 10
6.64
 20
0.1399999999999999
 30
0.0
 40
0.5
  1
$PN.LWE
100
AcDbAttributeDefinition
  3

  2
NBSYN
 70
     8
280
     0
  0
ATTDEF
  5
D3
330
CB
100
AcDbEntity
  8
AM_6
100
AcDbText
 10
6.64
 20
-0.3600000000000001
 30
0.0
 40
0.5
  1
070890
100
AcDbAttributeDefinition
  3

  2
LINA
 70
     8
280
     0
  0
ATTDEF
  5
D4
330
CB
100
AcDbEntity
  8
AM_6
100
AcDbText
 10
6.64
 20
-0.8600000000000001
 30
0.0
 40
0.5
  1
1-15/16
100
AcDbAttributeDefinition
  3

  2
SS
 70
     8
280
     0
  0
ATTDEF
  5
D5
330
CB
100
AcDbEntity
  8
AM_6
100
AcDbText
 10
6.64
 20
-1.36
 30
0.0
 40
0.5
  1
3.280000
100
AcDbAttributeDefinition
  3

  2
E1
 70
     8
280
     0
  0
ATTDEF
  5
D6
330
CB
100
AcDbEntity
  8
AM_6
100
AcDbText
 10
6.64
 20
-1.86
 30
0.0
 40
0.5
  1
1.937500
100
AcDbAttributeDefinition
  3

  2
SS1
 70
     8
280
     0
  0
ATTDEF
  5
D7
330
CB
100
AcDbEntity
  8
AM_6
100
AcDbText
 10
6.64
 20
-2.36
 30
0.0
 40
0.5
  1
070890
100
AcDbAttributeDefinition
  3

  2
PN
 70
     8
280
     0
  0
ATTDEF
  5
D8
330
CB
100
AcDbEntity
  8
AM_6
100
AcDbText
 10
6.64
 20
-2.86
 30
0.0
 40
0.5
  1
INS-IP-115R
100
AcDbAttributeDefinition
  3

  2
DESCRIPTION
 70
     8
280
     0
  0
ATTDEF
  5
D9
330
CB
100
AcDbEntity
  8
AM_6
100
AcDbText
 10
6.64
 20
-3.36
 30
0.0
 40
0.5
  1
3.5433
100
AcDbAttributeDefinition
  3

  2
A
 70
     8
280
     0
  0
ATTDEF
  5
DA
330
CB
100
AcDbEntity
  8
AM_6
100
AcDbText
 10
6.64
 20
-3.86
 30
0.0
 40
0.5
  1
61/64
100
AcDbAttributeDefinition
  3

  2
B
 70
     8
280
     0
  0
ATTDEF
  5
DB
330
CB
100
AcDbEntity
  8
AM_6
100
AcDbText
 10
6.64
 20
-4.36
 30
0.0
 40
0.5
  1
0.953125
100
AcDbAttributeDefinition
  3

  2
B1
 70
     8
280
     0
  0
ATTDEF
  5
DC
330
CB
100
AcDbEntity
  8
AM_6
100
AcDbText
 10
6.64
 20
-4.86
 30
0.0
 40
0.5
  1
2-55/64
100
AcDbAttributeDefinition
  3

  2
C
 70
     8
280
     0
  0
ATTDEF
  5
DD
330
CB
100
AcDbEntity
  8
AM_6
100
AcDbText
 10
6.64
 20
-5.36
 30
0.0
 40
0.5
  1
2.859375
100
AcDbAttributeDefinition
  3

  2
C1
 70
     8
280
     0
  0
ATTDEF
  5
DE
330
CB
100
AcDbEntity
  8
AM_6
100
AcDbText
 10
6.64
 20
-5.86
 30
0.0
 40
0.5
  1
0.977
100
AcDbAttributeDefinition
  3

  2
D
 70
     8
280
     0
  0
ATTDEF
  5
DF
330
CB
100
AcDbEntity
  8
AM_6
100
AcDbText
 10
6.64
 20
-6.36
 30
0.0
 40
0.5
  1
3-9/32
100
AcDbAttributeDefinition
  3

  2
E
 70
     8
280
     0
  0
ATTDEF
  5
E0
330
CB
100
AcDbEntity
  8
AM_6
100
AcDbText
 10
6.64
 20
-6.86
 30
0.0
 40
0.5
  1
0.1900
100
AcDbAttributeDefinition
  3

  2
NDM
 70
     8
280
     0
  0
ATTDEF
  5
E1
330
CB
100
AcDbEntity
  8
AM_6
100
AcDbText
 10
6.64
 20
-7.36
 30
0.0
 40
0.5
  1
0.1450
100
AcDbAttributeDefinition
  3

  2
KDM
 70
     8
280
     0
  0
ATTDEF
  5
E2
330
CB
100
AcDbEntity
  8
AM_6
100
AcDbText
 10
6.64
 20
-7.86
 30
0.0
 40
0.5
  1
2.67
100
AcDbAttributeDefinition
  3

  2
AL
 70
     8
280
     0
  0
ATTDEF
  5
E3
330
CB
100
AcDbEntity
  8
AM_6
100
AcDbText
 10
6.64
 20
-8.36
 30
0.0
 40
0.5
  1
0.38
100
AcDbAttributeDefinition
  3

  2
BL
 70
     8
280
     0
  0
ATTDEF
  5
E4
330
CB
100
AcDbEntity
  8
AM_6
100
AcDbText
 10
6.64
 20
-8.86
 30
0.0
 40
0.5
  1
0.07
100
AcDbAttributeDefinition
  3

  2
CL
 70
     8
280
     0
  0
ATTDEF
  5
E5
330
CB
100
AcDbEntity
  8
AM_6
100
AcDbText
 10
6.64
 20
-9.36
 30
0.0
 40
0.5
  1
0.44
100
AcDbAttributeDefinition
  3

  2
DL
 70
     8
280
     0
  0
ATTDEF
  5
E6
330
CB
100
AcDbEntity
  8
AM_6
100
AcDbText
 10
6.64
 20
-9.86
 30
0.0
 40
0.5
  1
baldor
100
AcDbAttributeDefinition
  3

  2
COMPANY
 70
     8
280
     0
  0
ARC
  5
E9
330
CB
100
AcDbEntity
  8
AM_9
100
AcDbCircle
 10
0.0000000000000182
 20
-0.0000000000000467
 30
0.0
 40
1.019736842105313
100
AcDbArc
 50
107.1544998619623
 51
117.8455001380375
  0
LINE
  5
EA
330
CB
100
AcDbEntity
  8
AM_9
100
AcDbLine
 10
-0.0949999999999995
 20
-1.358194444444444
 30
0.0
 11
-0.0949999999999999
 21
-1.205029747441111
 31
0.0
  0
LINE
  5
EB
330
CB
100
AcDbEntity
  8
AM_9
100
AcDbLine
 10
0.0950000000000001
 20
-1.205029747441111
 30
0.0
 11
0.0950000000000001
 21
-1.358194444444444
 31
0.0
  0
LINE
  5
EC
330
CB
100
AcDbEntity
  8
AM_9
100
AcDbLine
 10
-0.0949999999999999
 20
1.205029747441111
 30
0.0
 11
-0.0950000000000001
 21
1.358194444444444
 31
0.0
  0
LINE
  5
ED
330
CB
100
AcDbEntity
  8
AM_9
100
AcDbLine
 10
0.0950000000000002
 20
1.358194444444444
 30
0.0
 11
0.0950000000000002
 21
1.205029747441111
 31
0.0
  0
LINE
  5
EE
330
CB
100
AcDbEntity
  8
AM_7
100
AcDbLine
 10
-0.0997500187217311
 20
-1.3582526487586
 30
0.0
 11
0.0997500187217316
 21
-1.3582526487586
 31
0.0
  0
LINE
  5
EF
330
CB
100
AcDbEntity
  8
AM_7
100
AcDbLine
 10
0.8606796397800649
 20
-0.9604296585017962
 30
0.0
 11
1.060179677223528
 21
-0.9604296585017962
 31
0.0
  0
LINE
  5
F0
330
CB
100
AcDbEntity
  8
AM_7
100
AcDbLine
 10
0.9604296585017963
 20
-1.060179677223528
 30
0.0
 11
0.9604296585017963
 21
-0.8606796397800648
 31
0.0
  0
LINE
  5
F1
330
CB
100
AcDbEntity
  8
AM_7
100
AcDbLine
 10
-1.060179677223527
 20
0.9604296585017963
 30
0.0
 11
-0.8606796397800646
 21
0.9604296585017963
 31
0.0
  0
LINE
  5
F2
330
CB
100
AcDbEntity
  8
AM_7
100
AcDbLine
 10
-0.960429658501796
 20
0.8606796397800649
 30
0.0
 11
-0.960429658501796
 21
1.060179677223528
 31
0.0
  0
LINE
  5
F3
330
CB
100
AcDbEntity
  8
AM_7
100
AcDbLine
 10
-1.060179677223527
 20
-0.9604296585017964
 30
0.0
 11
-0.8606796397800649
 21
-0.9604296585017964
 31
0.0
  0
LINE
  5
F4
330
CB
100
AcDbEntity
  8
AM_7
100
AcDbLine
 10
-0.9604296585017962
 20
-1.060179677223528
 30
0.0
 11
-0.9604296585017962
 21
-0.8606796397800651
 31
0.0
  0
LINE
  5
F5
330
CB
100
AcDbEntity
  8
AM_7
100
AcDbLine
 10
-1.358252648758601
 20
-0.0997500187217318
 30
0.0
 11
-1.358252648758601
 21
0.0997500187217309
 31
0.0
  0
LINE
  5
F6
330
CB
100
AcDbEntity
  8
AM_7
100
AcDbLine
 10
1.358252648758601
 20
-0.0997500187217314
 30
0.0
 11
1.358252648758601
 21
0.0997500187217314
 31
0.0
  0
LINE
  5
F7
330
CB
100
AcDbEntity
  8
AM_7
100
AcDbLine
 10
0.8606796397800651
 20
0.9604296585017962
 30
0.0
 11
1.060179677223528
 21
0.9604296585017962
 31
0.0
  0
LINE
  5
F8
330
CB
100
AcDbEntity
  8
AM_7
100
AcDbLine
 10
0.9604296585017964
 20
0.8606796397800649
 30
0.0
 11
0.9604296585017964
 21
1.060179677223527
 31
0.0
  0
LINE
  5
F9
330
CB
100
AcDbEntity
  8
AM_7
100
AcDbLine
 10
-0.0997500187217313
 20
1.358252648758601
 30
0.0
 11
0.0997500187217314
 21
1.358252648758601
 31
0.0
  0
LINE
  5
FA
330
CB
100
AcDbEntity
  8
AM_4
100
AcDbLine
 10
-0.0949999999999999
 20
-1.205029747441111
 30
0.0
 11
-0.0949999999999997
 21
-1.042979687686306
 31
0.0
  0
ARC
  5
FB
330
CB
100
AcDbEntity
  8
AM_4
100
AcDbCircle
 10
0.0000000000000029
 20
0.0000000000000058
 30
0.0
 40
1.047297297297303
100
AcDbArc
 50
230.2044356162022
 51
264.7955643837978
  0
ARC
  5
FC
330
CB
100
AcDbEntity
  8
AM_4
100
AcDbCircle
 10
0.9604296585017963
 20
0.9604296585017961
 30
0.0
 40
0.0950000178302204
100
AcDbArc
 50
314.9648961985968
 51
135.0351038014032
  0
LINE
  5
FD
330
CB
100
AcDbEntity
  8
AM_4
100
AcDbLine
 10
0.0950000000000014
 20
-1.042979687686305
 30
0.0
 11
0.0950000000000001
 21
-1.205029747441111
 31
0.0
  0
ARC
  5
FE
330
CB
100
AcDbEntity
  8
AM_4
100
AcDbCircle
 10
-0.9604296585017958
 20
0.9604296585017962
 30
0.0
 40
0.0950000178302204
100
AcDbArc
 50
44.96489619859502
 51
225.035103801403
  0
LINE
  5
FF
330
CB
100
AcDbEntity
  8
AM_4
100
AcDbLine
 10
-0.3007707129705935
 20
0.9743716977447444
 30
0.0
 11
-0.3113624911822921
 21
0.9999425123530751
 31
0.0
  0
CIRCLE
  5
100
330
CB
100
AcDbEntity
  8
AM_4
100
AcDbCircle
 10
0.0
 20
0.0
 30
0.0
 40
1.64
  0
LINE
  5
101
330
CB
100
AcDbEntity
  8
AM_4
100
AcDbLine
 10
-0.6703228655900919
 20
-0.804673154015536
 30
0.0
 11
-0.8932133576238402
 21
-1.027563646049285
 31
0.0
  0
LINE
  5
102
330
CB
100
AcDbEntity
  8
AM_4
100
AcDbLine
 10
-0.8932133576238379
 20
1.027563646049282
 30
0.0
 11
-0.6703228655900919
 21
0.8046731540155361
 31
0.0
  0
ARC
  5
103
330
CB
100
AcDbEntity
  8
AM_4
100
AcDbCircle
 10
0.0
 20
0.0000000000000011
 30
0.0
 40
1.047297297297298
100
AcDbArc
 50
275.2044356162021
 51
309.7955643837979
  0
LINE
  5
104
330
CB
100
AcDbEntity
  8
AM_4
100
AcDbLine
 10
0.8932133576238381
 20
-1.027563646049282
 30
0.0
 11
0.6703228655900922
 21
-0.804673154015536
 31
0.0
  0
ARC
  5
105
330
CB
100
AcDbEntity
  8
AM_4
100
AcDbCircle
 10
0.0000000000000002
 20
-0.0000000000000009
 30
0.0
 40
1.047297297297298
100
AcDbArc
 50
5.204435616202079
 51
39.79556438379795
  0
LINE
  5
106
330
CB
100
AcDbEntity
  8
AM_4
100
AcDbLine
 10
1.027563646049285
 20
0.8932133576238402
 30
0.0
 11
0.8046731540155361
 21
0.6703228655900921
 31
0.0
  0
ARC
  5
107
330
CB
100
AcDbEntity
  8
AM_4
100
AcDbCircle
 10
-0.0000000000000157
 20
0.0000000000000249
 30
0.0
 40
1.047297297297268
100
AcDbArc
 50
117.7044356162019
 51
129.7955643837981
  0
ARC
  5
108
330
CB
100
AcDbEntity
  8
AM_4
100
AcDbCircle
 10
-0.000000000000001
 20
0.0000000000000009
 30
0.0
 40
1.047297297297299
100
AcDbArc
 50
320.2044356162021
 51
354.7955643837979
  0
ARC
  5
109
330
CB
100
AcDbEntity
  8
AM_4
100
AcDbCircle
 10
-0.0000000000000002
 20
-0.0000000000000008
 30
0.0
 40
1.047297297297296
100
AcDbArc
 50
185.204435616202
 51
219.7955643837979
  0
LINE
  5
10A
330
CB
100
AcDbEntity
  8
AM_4
100
AcDbLine
 10
1.042979687686306
 20
0.0949999999999999
 30
0.0
 11
1.358194444444444
 21
0.0950000000000001
 31
0.0
  0
ARC
  5
10B
330
CB
100
AcDbEntity
  8
AM_4
100
AcDbCircle
 10
-0.0000000000000001
 20
-0.0000000000000022
 30
0.0
 40
0.9687500000000021
100
AcDbArc
 50
106.8722724262614
 51
118.1277275737384
  0
ARC
  5
10C
330
CB
100
AcDbEntity
  8
AM_4
100
AcDbCircle
 10
0.9604296585017963
 20
-0.9604296585017962
 30
0.0
 40
0.0950000178302204
100
AcDbArc
 50
224.9648961985948
 51
45.03510380140318
  0
LINE
  5
10D
330
CB
100
AcDbEntity
  8
AM_4
100
AcDbLine
 10
0.8046731540155363
 20
-0.6703228655900919
 30
0.0
 11
1.027563646049285
 21
-0.8932133576238404
 31
0.0
  0
LINE
  5
10E
330
CB
100
AcDbEntity
  8
AM_4
100
AcDbLine
 10
0.6703228655900927
 20
0.8046731540155359
 30
0.0
 11
0.8932133576238405
 21
1.027563646049284
 31
0.0
  0
LINE
  5
10F
330
CB
100
AcDbEntity
  8
AM_4
100
AcDbLine
 10
-0.8046731540155361
 20
0.6703228655900921
 30
0.0
 11
-1.027563646049284
 21
0.8932133576238406
 31
0.0
  0
ARC
  5
110
330
CB
100
AcDbEntity
  8
AM_4
100
AcDbCircle
 10
-0.9604296585017961
 20
-0.9604296585017964
 30
0.0
 40
0.0950000178302205
100
AcDbArc
 50
134.9648961985968
 51
315.0351038014032
  0
LINE
  5
111
330
CB
100
AcDbEntity
  8
AM_4
100
AcDbLine
 10
-0.095
 20
1.042979687686306
 30
0.0
 11
-0.0949999999999999
 21
1.205029747441111
 31
0.0
  0
ARC
  5
112
330
CB
100
AcDbEntity
  8
AM_4
100
AcDbCircle
 10
0.0000000000000012
 20
0.0000000000000044
 30
0.0
 40
1.047297297297293
100
AcDbArc
 50
95.20443561620219
 51
107.295564383798
  0
ARC
  5
113
330
CB
100
AcDbEntity
  8
AM_4
100
AcDbCircle
 10
1.358252648758601
 20
0.0
 30
0.0
 40
0.0950000178302205
100
AcDbArc
 50
269.9648961985965
 51
90.03510380140347
  0
LINE
  5
114
330
CB
100
AcDbEntity
  8
AM_4
100
AcDbLine
 10
1.358194444444444
 20
-0.0950000000000001
 30
0.0
 11
1.042979687686306
 21
-0.0949999999999999
 31
0.0
  0
LINE
  5
115
330
CB
100
AcDbEntity
  8
AM_4
100
AcDbLine
 10
-1.027563646049284
 20
-0.8932133576238405
 30
0.0
 11
-0.8046731540155359
 21
-0.6703228655900924
 31
0.0
  0
LINE
  5
116
330
CB
100
AcDbEntity
  8
AM_4
100
AcDbLine
 10
-1.042979687686305
 20
-0.0950000000000004
 30
0.0
 11
-1.358194444444444
 21
-0.0950000000000006
 31
0.0
  0
ARC
  5
117
330
CB
100
AcDbEntity
  8
AM_4
100
AcDbCircle
 10
-1.358252648758601
 20
-0.0000000000000005
 30
0.0
 40
0.0950000178302205
100
AcDbArc
 50
89.96489619859653
 51
270.0351038014034
  0
LINE
  5
118
330
CB
100
AcDbEntity
  8
AM_4
100
AcDbLine
 10
-1.358194444444444
 20
0.0949999999999997
 30
0.0
 11
-1.042979687686305
 21
0.0949999999999996
 31
0.0
  0
ARC
  5
119
330
CB
100
AcDbEntity
  8
AM_4
100
AcDbCircle
 10
0.0000000000000012
 20
-0.0000000000000001
 30
0.0
 40
1.047297297297298
100
AcDbArc
 50
140.2044356162021
 51
174.795564383798
  0
LINE
  5
11A
330
CB
100
AcDbEntity
  8
AM_4
100
AcDbLine
 10
-0.4868996023594367
 20
0.9272326602037084
 30
0.0
 11
-0.476307824147738
 21
0.9016618455953772
 31
0.0
  0
LINE
  5
11B
330
CB
100
AcDbEntity
  8
AM_4
100
AcDbLine
 10
0.0950000000000002
 20
1.205029747441111
 30
0.0
 11
0.0950000000000002
 21
1.042979687686306
 31
0.0
  0
ARC
  5
11C
330
CB
100
AcDbEntity
  8
AM_4
100
AcDbCircle
 10
0.0000000000000021
 20
0.0000000000000046
 30
0.0
 40
1.047297297297292
100
AcDbArc
 50
50.20443561620197
 51
84.795564383798
  0
ENDBLK
  5
CE
330
CB
100
AcDbEntity
  8
0
100
AcDbBlockEnd
  0
BLOCK
  5
11F
330
11D
100
AcDbEntity
  8
0
100
AcDbBlockBegin
  2
5_070890E_0_in_071127_0
 70
     2
 10
0.0
 20
0.0
 30
0.0
  3
5_070890E_0_in_071127_0
  1

  0
ATTDEF
  5
121
330
11D
100
AcDbEntity
  8
AM_6
100
AcDbText
 10
6.761649999999999
 20
1.76165
 30
0.0
 40
0.5
  1
Imperial/E Insert -Inch
100
AcDbAttributeDefinition
  3

  2
NN
 70
     8
280
     0
  0
ATTDEF
  5
122
330
11D
100
AcDbEntity
  8
AM_6
100
AcDbText
 10
6.761649999999999
 20
1.26165
 30
0.0
 40
0.5
  1
Imperial Bearings
100
AcDbAttributeDefinition
  3

  2
NT
 70
     8
280
     0
  0
ATTDEF
  5
123
330
11D
100
AcDbEntity
  8
AM_6
100
AcDbText
 10
6.761649999999999
 20
0.7616499999999999
 30
0.0
 40
0.5
  1
070890E
100
AcDbAttributeDefinition
  3

  2
NB
 70
     8
280
     0
  0
ATTDEF
  5
124
330
11D
100
AcDbEntity
  8
AM_6
100
AcDbText
 10
6.761649999999999
 20
0.2616499999999999
 30
0.0
 40
0.5
  1
$PN.
100
AcDbAttributeDefinition
  3

  2
NBSYN
 70
     8
280
     0
  0
ATTDEF
  5
125
330
11D
100
AcDbEntity
  8
AM_6
100
AcDbText
 10
6.761649999999999
 20
-0.2383500000000001
 30
0.0
 40
0.5
  1
070890E
100
AcDbAttributeDefinition
  3

  2
LINA
 70
     8
280
     0
  0
ATTDEF
  5
126
330
11D
100
AcDbEntity
  8
AM_6
100
AcDbText
 10
6.761649999999999
 20
-0.7383500000000001
 30
0.0
 40
0.5
  1
1-15/16
100
AcDbAttributeDefinition
  3

  2
SS
 70
     8
280
     0
  0
ATTDEF
  5
127
330
11D
100
AcDbEntity
  8
AM_6
100
AcDbText
 10
6.761649999999999
 20
-1.23835
 30
0.0
 40
0.5
  1
1.937500
100
AcDbAttributeDefinition
  3

  2
SS1
 70
     8
280
     0
  0
ATTDEF
  5
128
330
11D
100
AcDbEntity
  8
AM_6
100
AcDbText
 10
6.761649999999999
 20
-1.73835
 30
0.0
 40
0.5
  1
070890E
100
AcDbAttributeDefinition
  3

  2
PN
 70
     8
280
     0
  0
ATTDEF
  5
129
330
11D
100
AcDbEntity
  8
AM_6
100
AcDbText
 10
6.761649999999999
 20
-2.23835
 30
0.0
 40
0.5
  1
INS-IP-115R
100
AcDbAttributeDefinition
  3

  2
DESCRIPTION
 70
     8
280
     0
  0
ATTDEF
  5
12A
330
11D
100
AcDbEntity
  8
AM_6
100
AcDbText
 10
6.761649999999999
 20
-2.73835
 30
0.0
 40
0.5
  1
Contact Seal
100
AcDbAttributeDefinition
  3

  2
ST
 70
     8
280
     0
  0
ATTDEF
  5
12B
330
11D
100
AcDbEntity
  8
AM_6
100
AcDbText
 10
6.761649999999999
 20
-3.23835
 30
0.0
 40
0.5
  1
1
100
AcDbAttributeDefinition
  3

  2
ST1
 70
     8
280
     0
  0
ATTDEF
  5
12C
330
11D
100
AcDbEntity
  8
AM_6
100
AcDbText
 10
6.761649999999999
 20
-3.73835
 30
0.0
 40
0.5
  1
3.5433
100
AcDbAttributeDefinition
  3

  2
A
 70
     8
280
     0
  0
ATTDEF
  5
12D
330
11D
100
AcDbEntity
  8
AM_6
100
AcDbText
 10
6.761649999999999
 20
-4.238350000000001
 30
0.0
 40
0.5
  1
61/64
100
AcDbAttributeDefinition
  3

  2
B
 70
     8
280
     0
  0
ATTDEF
  5
12E
330
11D
100
AcDbEntity
  8
AM_6
100
AcDbText
 10
6.761649999999999
 20
-4.738350000000001
 30
0.0
 40
0.5
  1
0.953125
100
AcDbAttributeDefinition
  3

  2
B1
 70
     8
280
     0
  0
ATTDEF
  5
12F
330
11D
100
AcDbEntity
  8
AM_6
100
AcDbText
 10
6.761649999999999
 20
-5.238350000000001
 30
0.0
 40
0.5
  1
2-55/64
100
AcDbAttributeDefinition
  3

  2
C
 70
     8
280
     0
  0
ATTDEF
  5
130
330
11D
100
AcDbEntity
  8
AM_6
100
AcDbText
 10
6.761649999999999
 20
-5.738350000000001
 30
0.0
 40
0.5
  1
2.860000
100
AcDbAttributeDefinition
  3

  2
C1
 70
     8
280
     0
  0
ATTDEF
  5
131
330
11D
100
AcDbEntity
  8
AM_6
100
AcDbText
 10
6.761649999999999
 20
-6.238350000000001
 30
0.0
 40
0.5
  1
3.64000
100
AcDbAttributeDefinition
  3

  2
CR
 70
     8
280
     0
  0
ATTDEF
  5
132
330
11D
100
AcDbEntity
  8
AM_6
100
AcDbText
 10
6.761649999999999
 20
-6.738350000000001
 30
0.0
 40
0.5
  1
0.977
100
AcDbAttributeDefinition
  3

  2
D
 70
     8
280
     0
  0
ATTDEF
  5
133
330
11D
100
AcDbEntity
  8
AM_6
100
AcDbText
 10
6.761649999999999
 20
-7.238350000000001
 30
0.0
 40
0.5
  1
3-9/32
100
AcDbAttributeDefinition
  3

  2
E
 70
     8
280
     0
  0
ATTDEF
  5
134
330
11D
100
AcDbEntity
  8
AM_6
100
AcDbText
 10
6.761649999999999
 20
-7.738350000000001
 30
0.0
 40
0.5
  1
3.281250
100
AcDbAttributeDefinition
  3

  2
E1
 70
     8
280
     0
  0
ATTDEF
  5
135
330
11D
100
AcDbEntity
  8
AM_6
100
AcDbText
 10
6.761649999999999
 20
-8.23835
 30
0.0
 40
0.5
  1
0.1900
100
AcDbAttributeDefinition
  3

  2
NDM
 70
     8
280
     0
  0
ATTDEF
  5
136
330
11D
100
AcDbEntity
  8
AM_6
100
AcDbText
 10
6.761649999999999
 20
-8.73835
 30
0.0
 40
0.5
  1
0.1450
100
AcDbAttributeDefinition
  3

  2
KDM
 70
     8
280
     0
  0
ATTDEF
  5
137
330
11D
100
AcDbEntity
  8
AM_6
100
AcDbText
 10
6.761649999999999
 20
-9.23835
 30
0.0
 40
0.5
  1
2.67
100
AcDbAttributeDefinition
  3

  2
AL
 70
     8
280
     0
  0
ATTDEF
  5
138
330
11D
100
AcDbEntity
  8
AM_6
100
AcDbText
 10
6.761649999999999
 20
-9.73835
 30
0.0
 40
0.5
  1
0.38
100
AcDbAttributeDefinition
  3

  2
BL
 70
     8
280
     0
  0
ATTDEF
  5
139
330
11D
100
AcDbEntity
  8
AM_6
100
AcDbText
 10
6.761649999999999
 20
-10.23835
 30
0.0
 40
0.5
  1
0.07
100
AcDbAttributeDefinition
  3

  2
CL
 70
     8
280
     0
  0
ATTDEF
  5
13A
330
11D
100
AcDbEntity
  8
AM_6
100
AcDbText
 10
6.761649999999999
 20
-10.73835
 30
0.0
 40
0.5
  1
0.44
100
AcDbAttributeDefinition
  3

  2
DL
 70
     8
280
     0
  0
ATTDEF
  5
13B
330
11D
100
AcDbEntity
  8
AM_6
100
AcDbText
 10
6.761649999999999
 20
-11.23835
 30
0.0
 40
0.5
  1
0.8000
100
AcDbAttributeDefinition
  3

  2
LL
 70
     8
280
     0
  0
ATTDEF
  5
13C
330
11D
100
AcDbEntity
  8
AM_6
100
AcDbText
 10
6.761649999999999
 20
-11.73835
 30
0.0
 40
0.5
  1
0.020
100
AcDbAttributeDefinition
  3

  2
Y
 70
     8
280
     0
  0
ATTDEF
  5
13D
330
11D
100
AcDbEntity
  8
AM_6
100
AcDbText
 10
6.761649999999999
 20
-12.23835
 30
0.0
 40
0.5
  1
0.020000
100
AcDbAttributeDefinition
  3

  2
Y1
 70
     8
280
     0
  0
ATTDEF
  5
13E
330
11D
100
AcDbEntity
  8
AM_6
100
AcDbText
 10
6.761649999999999
 20
-12.73835
 30
0.0
 40
0.5
  1
2-19/64
100
AcDbAttributeDefinition
  3

  2
Z
 70
     8
280
     0
  0
ATTDEF
  5
13F
330
11D
100
AcDbEntity
  8
AM_6
100
AcDbText
 10
6.761649999999999
 20
-13.23835
 30
0.0
 40
0.5
  1
2.296875
100
AcDbAttributeDefinition
  3

  2
Z1
 70
     8
280
     0
  0
ATTDEF
  5
140
330
11D
100
AcDbEntity
  8
AM_6
100
AcDbText
 10
6.761649999999999
 20
-13.73835
 30
0.0
 40
0.5
  1
0.79000
100
AcDbAttributeDefinition
  3

  2
P1
 70
     8
280
     0
  0
ATTDEF
  5
141
330
11D
100
AcDbEntity
  8
AM_6
100
AcDbText
 10
6.761649999999999
 20
-14.23835
 30
0.0
 40
0.5
  1
1.18000
100
AcDbAttributeDefinition
  3

  2
H1
 70
     8
280
     0
  0
ATTDEF
  5
142
330
11D
100
AcDbEntity
  8
AM_6
100
AcDbText
 10
6.761649999999999
 20
-14.73835
 30
0.0
 40
0.5
  1
0.65000
100
AcDbAttributeDefinition
  3

  2
G1
 70
     8
280
     0
  0
ATTDEF
  5
143
330
11D
100
AcDbEntity
  8
AM_6
100
AcDbText
 10
6.761649999999999
 20
-15.23835
 30
0.0
 40
0.5
  1
0.10100
100
AcDbAttributeDefinition
  3

  2
CW
 70
     8
280
     0
  0
ATTDEF
  5
144
330
11D
100
AcDbEntity
  8
AM_6
100
AcDbText
 10
6.761649999999999
 20
-15.73835
 30
0.0
 40
0.5
  1
3.28000
100
AcDbAttributeDefinition
  3

  2
L1
 70
     8
280
     0
  0
ATTDEF
  5
145
330
11D
100
AcDbEntity
  8
AM_6
100
AcDbText
 10
6.761649999999999
 20
-16.23835
 30
0.0
 40
0.5
  1
baldor
100
AcDbAttributeDefinition
  3

  2
COMPANY
 70
     8
280
     0
  0
CIRCLE
  5
146
330
11D
100
AcDbEntity
  8
AM_9
100
AcDbCircle
 10
0.0
 20
0.0
 30
0.0
 40
1.1484375
  0
CIRCLE
  5
147
330
11D
100
AcDbEntity
  8
AM_9
100
AcDbCircle
 10
0.0
 20
0.0
 30
0.0
 40
1.490460118395209
  0
CIRCLE
  5
148
330
11D
100
AcDbEntity
  8
AM_9
100
AcDbCircle
 10
0.0
 20
0.0
 30
0.0
 40
1.57165
  0
CIRCLE
  5
149
330
11D
100
AcDbEntity
  8
AM_9
100
AcDbCircle
 10
0.0
 20
0.0
 30
0.0
 40
1.72165
  0
CIRCLE
  5
14A
330
11D
100
AcDbEntity
  8
AM_9
100
AcDbCircle
 10
0.0
 20
0.0
 30
0.0
 40
1.72399375
  0
CIRCLE
  5
14B
330
11D
100
AcDbEntity
  8
AM_9
100
AcDbCircle
 10
0.0
 20
-1.358506944444444
 30
0.0
 40
0.0724499999999997
  0
LINE
  5
14C
330
11D
100
AcDbEntity
  8
AM_9
100
AcDbLine
 10
1.011162697096763
 20
-0.8768124086713187
 30
0.0
 11
1.078337841309485
 21
-0.8096372644585969
 31
0.0
  0
LINE
  5
14D
330
11D
100
AcDbEntity
  8
AM_9
100
AcDbLine
 10
0.8096372644585971
 20
-1.078337841309485
 30
0.0
 11
0.8768124086713192
 21
-1.011162697096763
 31
0.0
  0
LINE
  5
14E
330
11D
100
AcDbEntity
  8
AM_9
100
AcDbLine
 10
0.876812408671319
 20
1.011162697096763
 30
0.0
 11
0.8096372644585971
 21
1.078337841309485
 31
0.0
  0
LINE
  5
14F
330
11D
100
AcDbEntity
  8
AM_9
100
AcDbLine
 10
1.078337841309485
 20
0.8096372644585967
 30
0.0
 11
1.011162697096763
 21
0.8768124086713187
 31
0.0
  0
LINE
  5
150
330
11D
100
AcDbEntity
  8
AM_9
100
AcDbLine
 10
0.8096372644585971
 20
1.078337841309485
 30
0.0
 11
1.017496055493744
 21
1.286196632344632
 31
0.0
  0
LINE
  5
151
330
11D
100
AcDbEntity
  8
AM_9
100
AcDbLine
 10
1.017496055493744
 20
-1.286196632344632
 30
0.0
 11
0.8096372644585971
 21
-1.078337841309485
 31
0.0
  0
LINE
  5
152
330
11D
100
AcDbEntity
  8
AM_9
100
AcDbLine
 10
1.078337841309485
 20
-0.8096372644585969
 30
0.0
 11
1.286196632344632
 21
-1.017496055493744
 31
0.0
  0
LINE
  5
153
330
11D
100
AcDbEntity
  8
AM_9
100
AcDbLine
 10
-1.017496055493744
 20
1.286196632344632
 30
0.0
 11
-0.8096372644585971
 21
1.078337841309485
 31
0.0
  0
LINE
  5
154
330
11D
100
AcDbEntity
  8
AM_9
100
AcDbLine
 10
-1.011162697096763
 20
0.8768124086713192
 30
0.0
 11
-1.078337841309485
 21
0.8096372644585971
 31
0.0
  0
LINE
  5
155
330
11D
100
AcDbEntity
  8
AM_9
100
AcDbLine
 10
-0.8096372644585971
 20
1.078337841309485
 30
0.0
 11
-0.876812408671319
 21
1.011162697096763
 31
0.0
  0
LINE
  5
156
330
11D
100
AcDbEntity
  8
AM_9
100
AcDbLine
 10
-1.078337841309485
 20
0.8096372644585971
 30
0.0
 11
-1.286196632344632
 21
1.017496055493744
 31
0.0
  0
LINE
  5
157
330
11D
100
AcDbEntity
  8
AM_9
100
AcDbLine
 10
-1.286196632344632
 20
-1.017496055493744
 30
0.0
 11
-1.078337841309485
 21
-0.8096372644585967
 31
0.0
  0
LINE
  5
158
330
11D
100
AcDbEntity
  8
AM_9
100
AcDbLine
 10
-0.8768124086713187
 20
-1.011162697096763
 30
0.0
 11
-0.8096372644585971
 21
-1.078337841309485
 31
0.0
  0
LINE
  5
159
330
11D
100
AcDbEntity
  8
AM_9
100
AcDbLine
 10
-1.078337841309485
 20
-0.8096372644585967
 30
0.0
 11
-1.011162697096763
 21
-0.8768124086713189
 31
0.0
  0
LINE
  5
15A
330
11D
100
AcDbEntity
  8
AM_9
100
AcDbLine
 10
-0.8096372644585971
 20
-1.078337841309485
 30
0.0
 11
-1.017496055493744
 21
-1.286196632344632
 31
0.0
  0
LINE
  5
15B
330
11D
100
AcDbEntity
  8
AM_9
100
AcDbLine
 10
1.286196632344632
 20
1.017496055493744
 30
0.0
 11
1.078337841309485
 21
0.8096372644585967
 31
0.0
  0
ARC
  5
15C
330
11D
100
AcDbEntity
  8
AM_9
100
AcDbCircle
 10
0.0000000000000157
 20
-0.0000000000000392
 30
0.0
 40
1.022427440633287
100
AcDbArc
 50
107.1686077623614
 51
117.8313922376386
  0
CIRCLE
  5
15D
330
11D
100
AcDbEntity
  8
AM_9
100
AcDbCircle
 10
0.0
 20
1.358506944444444
 30
0.0
 40
0.0724499999999997
  0
ARC
  5
15E
330
11D
100
AcDbEntity
  8
AM_5
100
AcDbCircle
 10
0.0
 20
-1.358506944444444
 30
0.0
 40
0.0949999999999997
100
AcDbArc
 50
74.99999999999989
 51
14.9999999999998
  0
CIRCLE
  5
15F
330
11D
100
AcDbEntity
  8
AM_9
100
AcDbCircle
 10
0.0000000000001417
 20
0.0000000000001159
 30
0.0
 40
1.403857578016582
  0
CIRCLE
  5
160
330
11D
100
AcDbEntity
  8
AM_9
100
AcDbCircle
 10
-0.0000000000000019
 20
-0.0000000000000067
 30
0.0
 40
1.531250000000007
  0
CIRCLE
  5
161
330
11D
100
AcDbEntity
  8
AM_4
100
AcDbCircle
 10
0.0
 20
0.0
 30
0.0
 40
1.76165
  0
CIRCLE
  5
162
330
11D
100
AcDbEntity
  8
AM_4
100
AcDbCircle
 10
0.0
 20
0.0
 30
0.0
 40
1.710245200084978
  0
LINE
  5
163
330
11D
100
AcDbEntity
  8
AM_4
100
AcDbLine
 10
1.017940992159679
 20
1.286641569010567
 30
0.0
 11
1.023408349315165
 21
1.292108926166053
 31
0.0
  0
LINE
  5
164
330
11D
100
AcDbEntity
  8
AM_4
100
AcDbLine
 10
1.023408349315164
 20
-1.292108926166053
 30
0.0
 11
1.017940992159678
 21
-1.286641569010567
 31
0.0
  0
LINE
  5
165
330
11D
100
AcDbEntity
  8
AM_4
100
AcDbLine
 10
1.286641569010567
 20
-1.017940992159679
 30
0.0
 11
1.292108926166053
 21
-1.023408349315165
 31
0.0
  0
LINE
  5
166
330
11D
100
AcDbEntity
  8
AM_4
100
AcDbLine
 10
1.292108926166053
 20
1.023408349315164
 30
0.0
 11
1.286641569010567
 21
1.017940992159678
 31
0.0
  0
CIRCLE
  5
167
330
11D
100
AcDbEntity
  8
AM_4
100
AcDbCircle
 10
0.0
 20
0.0
 30
0.0
 40
1.660252815327159
  0
ARC
  5
168
330
11D
100
AcDbEntity
  8
AM_4
100
AcDbCircle
 10
-0.0000000000000084
 20
0.0000000000000102
 30
0.0
 40
1.64830522856843
100
AcDbArc
 50
308.3808065536752
 51
321.6191934463247
  0
LINE
  5
169
330
11D
100
AcDbEntity
  8
AM_4
100
AcDbLine
 10
-1.017940992159679
 20
-1.286641569010567
 30
0.0
 11
-1.023408349315165
 21
-1.292108926166053
 31
0.0
  0
ARC
  5
16A
330
11D
100
AcDbEntity
  8
AM_4
100
AcDbCircle
 10
0.0000000000000018
 20
-0.0000000000000004
 30
0.0
 40
1.648305228568417
100
AcDbArc
 50
218.3808065536751
 51
231.6191934463247
  0
LINE
  5
16B
330
11D
100
AcDbEntity
  8
AM_4
100
AcDbLine
 10
-1.292108926166053
 20
-1.023408349315164
 30
0.0
 11
-1.286641569010567
 21
-1.017940992159678
 31
0.0
  0
LINE
  5
16C
330
11D
100
AcDbEntity
  8
AM_4
100
AcDbLine
 10
-1.286641569010567
 20
1.017940992159679
 30
0.0
 11
-1.292108926166053
 21
1.023408349315165
 31
0.0
  0
ARC
  5
16D
330
11D
100
AcDbEntity
  8
AM_4
100
AcDbCircle
 10
-0.0000000000000169
 20
0.0000000000000144
 30
0.0
 40
1.648305228568395
100
AcDbArc
 50
128.3808065536751
 51
141.6191934463248
  0
LINE
  5
16E
330
11D
100
AcDbEntity
  8
AM_4
100
AcDbLine
 10
-1.023408349315164
 20
1.292108926166053
 30
0.0
 11
-1.017940992159678
 21
1.286641569010567
 31
0.0
  0
ARC
  5
16F
330
11D
100
AcDbEntity
  8
AM_4
100
AcDbCircle
 10
-0.0000000000000018
 20
0.0000000000000004
 30
0.0
 40
1.648305228568417
100
AcDbArc
 50
38.38080655367516
 51
51.61919344632471
  0
LINE
  5
170
330
11D
100
AcDbEntity
  8
AM_4
100
AcDbLine
 10
0.8768124086713192
 20
-1.011162697096763
 30
0.0
 11
1.011162697096763
 21
-0.8768124086713187
 31
0.0
  0
LINE
  5
171
330
11D
100
AcDbEntity
  8
AM_4
100
AcDbLine
 10
1.011162697096763
 20
0.8768124086713187
 30
0.0
 11
0.876812408671319
 21
1.011162697096763
 31
0.0
  0
ARC
  5
172
330
11D
100
AcDbEntity
  8
AM_4
100
AcDbCircle
 10
0.0000000000000002
 20
-0.0000000000000004
 30
0.0
 40
1.640625000000002
100
AcDbArc
 50
51.65031933331812
 51
128.3496806666819
  0
LINE
  5
173
330
11D
100
AcDbEntity
  8
AM_4
100
AcDbLine
 10
-0.876812408671319
 20
1.011162697096763
 30
0.0
 11
-1.011162697096763
 21
0.8768124086713192
 31
0.0
  0
ARC
  5
174
330
11D
100
AcDbEntity
  8
AM_4
100
AcDbCircle
 10
0.0000000000000002
 20
0.0000000000000003
 30
0.0
 40
1.640625000000002
100
AcDbArc
 50
141.6503193333181
 51
218.3496806666818
  0
LINE
  5
175
330
11D
100
AcDbEntity
  8
AM_4
100
AcDbLine
 10
-1.011162697096763
 20
-0.8768124086713189
 30
0.0
 11
-0.8768124086713187
 21
-1.011162697096763
 31
0.0
  0
ARC
  5
176
330
11D
100
AcDbEntity
  8
AM_4
100
AcDbCircle
 10
-0.0000000000000003
 20
0.0000000000000002
 30
0.0
 40
1.640625000000002
100
AcDbArc
 50
231.6503193333181
 51
308.3496806666819
  0
ARC
  5
177
330
11D
100
AcDbEntity
  8
AM_4
100
AcDbCircle
 10
0.0
 20
-0.0000000000000001
 30
0.0
 40
1.640625000000001
100
AcDbArc
 50
321.6503193333181
 51
38.3496806666819
  0
LINE
  5
178
330
11D
100
AcDbEntity
  8
AM_4
100
AcDbLine
 10
-0.2811691490932737
 20
0.9270493363883957
 30
0.0
 11
-0.3007707129705938
 21
0.9743716977447444
 31
0.0
  0
ARC
  5
179
330
11D
100
AcDbEntity
  8
AM_4
100
AcDbCircle
 10
0.0000000000000017
 20
0.0000000000000007
 30
0.0
 40
0.9687500000000002
100
AcDbArc
 50
118.1277275737386
 51
106.8722724262616
  0
LINE
  5
17A
330
11D
100
AcDbEntity
  8
AM_4
100
AcDbLine
 10
-0.4763078241477383
 20
0.9016618455953773
 30
0.0
 11
-0.4567062602704181
 21
0.8543394842390284
 31
0.0
  0
ARC
  5
17B
330
11D
100
AcDbEntity
  8
AM_4
100
AcDbCircle
 10
-0.0000000000000005
 20
-0.0000000000000002
 30
0.0
 40
1.019736842105263
100
AcDbArc
 50
117.8455001380378
 51
107.1544998619622
  0
ARC
  5
17C
330
11D
100
AcDbEntity
  8
AM_5
100
AcDbCircle
 10
0.0
 20
-1.358506944444444
 30
0.0
 40
0.095
100
AcDbArc
 50
165.0000000000001
 51
105.0
  0
ARC
  5
17D
330
11D
100
AcDbEntity
  8
AM_5
100
AcDbCircle
 10
0.0000000000000001
 20
-1.358506944444444
 30
0.0
 40
0.0949999999999999
100
AcDbArc
 50
105.0000000000001
 51
14.99999999999985
  0
CIRCLE
  5
17E
330
11D
100
AcDbEntity
  8
AM_5
100
AcDbCircle
 10
0.0000000000000002
 20
1.358506944444445
 30
0.0
 40
0.0950000000000001
  0
ENDBLK
  5
120
330
11D
100
AcDbEntity
  8
0
100
AcDbBlockEnd
  0
BLOCK
  5
181
330
17F
100
AcDbEntity
  8
0
100
AcDbBlockBegin
  2
6_405015E_Inch_0_in_071127_0
 70
     2
 10
0.0
 20
0.0
 30
0.0
  3
6_405015E_Inch_0_in_071127_0
  1

  0
ATTDEF
  5
183
330
17F
100
AcDbEntity
  8
AM_6
100
AcDbText
 10
6.436421671481428
 20
2.385277414165656
 30
0.0
 40
0.5
  1
405015E -Inch
100
AcDbAttributeDefinition
  3

  2
NN
 70
     8
280
     0
  0
ATTDEF
  5
184
330
17F
100
AcDbEntity
  8
AM_6
100
AcDbText
 10
6.436421671481428
 20
1.885277414165656
 30
0.0
 40
0.5
  1
Grease Fitting
100
AcDbAttributeDefinition
  3

  2
NT
 70
     8
280
     0
  0
ATTDEF
  5
185
330
17F
100
AcDbEntity
  8
AM_6
100
AcDbText
 10
6.436421671481428
 20
1.385277414165656
 30
0.0
 40
0.5
  1
405015E-Inch
100
AcDbAttributeDefinition
  3

  2
NB
 70
     8
280
     0
  0
ATTDEF
  5
186
330
17F
100
AcDbEntity
  8
AM_6
100
AcDbText
 10
6.436421671481428
 20
0.8852774141656559
 30
0.0
 40
0.5
  1
$MN.-Inch
100
AcDbAttributeDefinition
  3

  2
NBSYN
 70
     8
280
     0
  0
ATTDEF
  5
187
330
17F
100
AcDbEntity
  8
AM_6
100
AcDbText
 10
6.436421671481428
 20
0.3852774141656559
 30
0.0
 40
0.5
  1
405015E
100
AcDbAttributeDefinition
  3

  2
LINA
 70
     8
280
     0
  0
ATTDEF
  5
188
330
17F
100
AcDbEntity
  8
AM_6
100
AcDbText
 10
6.436421671481428
 20
-0.1147225858343441
 30
0.0
 40
0.5
  1
405015E
100
AcDbAttributeDefinition
  3

  2
MN
 70
     8
280
     0
  0
ATTDEF
  5
189
330
17F
100
AcDbEntity
  8
AM_6
100
AcDbText
 10
6.436421671481428
 20
-0.6147225858343441
 30
0.0
 40
0.5
  1
1/8 x 27PTF
100
AcDbAttributeDefinition
  3

  2
T
 70
     8
280
     0
  0
ATTDEF
  5
18A
330
17F
100
AcDbEntity
  8
AM_6
100
AcDbText
 10
6.436421671481428
 20
-1.114722585834344
 30
0.0
 40
0.5
  1
baldor
100
AcDbAttributeDefinition
  3

  2
COMPANY
 70
     8
280
     0
  0
LINE
  5
18B
330
17F
100
AcDbEntity
  8
AM_9
100
AcDbLine
 10
1.167712000506657
 20
1.698730768540887
 30
0.0
 11
1.217865287586382
 21
1.712169301311665
 31
0.0
  0
LINE
  5
18C
330
17F
100
AcDbEntity
  8
AM_9
100
AcDbLine
 10
0.8738494667225637
 20
1.910786928092881
 30
0.0
 11
0.8872879994933425
 21
1.860633641013156
 31
0.0
  0
LINE
  5
18D
330
17F
100
AcDbEntity
  8
AM_9
100
AcDbLine
 10
0.8872879994933425
 20
1.860633641013156
 30
0.0
 11
1.167712000506657
 21
1.698730768540887
 31
0.0
  0
LINE
  5
18E
330
17F
100
AcDbEntity
  8
AM_9
100
AcDbLine
 10
1.217865287586382
 20
1.712169301311665
 30
0.0
 11
1.338186369872023
 21
1.906302988168363
 31
0.0
  0
LINE
  5
18F
330
17F
100
AcDbEntity
  8
AM_9
100
AcDbLine
 10
0.9818136301279765
 20
2.112054885391432
 30
0.0
 11
0.8738494667225637
 21
1.910786928092881
 31
0.0
  0
LINE
  5
190
330
17F
100
AcDbEntity
  8
AM_9
100
AcDbLine
 10
0.8738494667225637
 20
1.910786928092881
 30
0.0
 11
1.217865287586382
 21
1.712169301311665
 31
0.0
  0
LINE
  5
191
330
17F
100
AcDbEntity
  8
AM_5
100
AcDbLine
 10
1.273056457620486
 20
1.868700215797641
 30
0.0
 11
1.167712000506657
 21
1.698730768540887
 31
0.0
  0
LINE
  5
192
330
17F
100
AcDbEntity
  8
AM_5
100
AcDbLine
 10
1.338186369872023
 20
1.906302988168363
 30
0.0
 11
1.273056457620486
 21
1.868700215797641
 31
0.0
  0
LINE
  5
193
330
17F
100
AcDbEntity
  8
AM_5
100
AcDbLine
 10
0.9510113920436924
 20
2.054633021099594
 30
0.0
 11
1.30385869570477
 21
1.850916535348037
 31
0.0
  0
LINE
  5
194
330
17F
100
AcDbEntity
  8
AM_5
100
AcDbLine
 10
0.9818136301279765
 20
2.036849340649989
 30
0.0
 11
0.8872879994933424
 21
1.860633641013156
 31
0.0
  0
LINE
  5
195
330
17F
100
AcDbEntity
  8
AM_5
100
AcDbLine
 10
0.9818136301279764
 20
2.112054885391432
 30
0.0
 11
0.9818136301279765
 21
2.036849340649989
 31
0.0
  0
LINE
  5
196
330
17F
100
AcDbEntity
  8
AM_4
100
AcDbLine
 10
1.353432667397366
 20
2.134214144555707
 30
0.0
 11
1.368432667397366
 21
2.16019490666924
 31
0.0
  0
LINE
  5
197
330
17F
100
AcDbEntity
  8
AM_4
100
AcDbLine
 10
1.186567332602634
 20
2.265194906669241
 30
0.0
 11
1.171567332602633
 21
2.239214144555708
 31
0.0
  0
LINE
  5
198
330
17F
100
AcDbEntity
  8
AM_4
100
AcDbLine
 10
1.171567332602633
 20
2.239214144555708
 30
0.0
 11
1.143475343752893
 21
2.218197574052093
 31
0.0
  0
LINE
  5
199
330
17F
100
AcDbEntity
  8
AM_4
100
AcDbLine
 10
1.349277777865679
 20
2.099377483317195
 30
0.0
 11
1.353432667397366
 21
2.134214144555707
 31
0.0
  0
LINE
  5
19A
330
17F
100
AcDbEntity
  8
AM_4
100
AcDbLine
 10
1.171567332602633
 20
2.239214144555708
 30
0.0
 11
1.353432667397366
 21
2.134214144555707
 31
0.0
  0
LINE
  5
19B
330
17F
100
AcDbEntity
  8
AM_4
100
AcDbLine
 10
1.258578328518572
 20
2.385277414165656
 30
0.0
 11
1.190586570489101
 21
2.332156430896307
 31
0.0
  0
LINE
  5
19C
330
17F
100
AcDbEntity
  8
AM_4
100
AcDbLine
 10
1.424413429510899
 20
2.197156430896307
 30
0.0
 11
1.436421671481428
 21
2.282599512232468
 31
0.0
  0
LINE
  5
19D
330
17F
100
AcDbEntity
  8
AM_4
100
AcDbLine
 10
1.258578328518572
 20
2.385277414165656
 30
0.0
 11
1.436421671481428
 21
2.282599512232468
 31
0.0
  0
LINE
  5
19E
330
17F
100
AcDbEntity
  8
AM_4
100
AcDbLine
 10
1.368432667397366
 20
2.16019490666924
 30
0.0
 11
1.424413429510899
 21
2.197156430896307
 31
0.0
  0
LINE
  5
19F
330
17F
100
AcDbEntity
  8
AM_4
100
AcDbLine
 10
1.190586570489101
 20
2.332156430896307
 30
0.0
 11
1.186567332602634
 21
2.265194906669241
 31
0.0
  0
LINE
  5
1A0
330
17F
100
AcDbEntity
  8
AM_4
100
AcDbLine
 10
1.190586570489101
 20
2.332156430896307
 30
0.0
 11
1.424413429510899
 21
2.197156430896307
 31
0.0
  0
LINE
  5
1A1
330
17F
100
AcDbEntity
  8
AM_4
100
AcDbLine
 10
1.186567332602634
 20
2.265194906669241
 30
0.0
 11
1.368432667397366
 21
2.16019490666924
 31
0.0
  0
LINE
  5
1A2
330
17F
100
AcDbEntity
  8
AM_4
100
AcDbLine
 10
1.143475343752893
 20
2.218197574052093
 30
0.0
 11
1.069740226109451
 21
2.19791252908782
 31
0.0
  0
LINE
  5
1A3
330
17F
100
AcDbEntity
  8
AM_4
100
AcDbLine
 10
1.36857797243143
 20
2.025378475804804
 30
0.0
 11
1.349277777865679
 21
2.099377483317195
 31
0.0
  0
LINE
  5
1A4
330
17F
100
AcDbEntity
  8
AM_4
100
AcDbLine
 10
1.143475343752893
 20
2.218197574052093
 30
0.0
 11
1.349277777865679
 21
2.099377483317195
 31
0.0
  0
LINE
  5
1A5
330
17F
100
AcDbEntity
  8
AM_4
100
AcDbLine
 10
1.020556942922154
 20
2.205156477158341
 30
0.0
 11
1.399443057077846
 21
1.986406477158341
 31
0.0
  0
LINE
  5
1A6
330
17F
100
AcDbEntity
  8
AM_4
100
AcDbLine
 10
1.349443057077846
 20
1.899803936779898
 30
0.0
 11
1.399443057077846
 21
1.986406477158341
 31
0.0
  0
LINE
  5
1A7
330
17F
100
AcDbEntity
  8
AM_4
100
AcDbLine
 10
1.020556942922154
 20
2.205156477158341
 30
0.0
 11
0.9705569429221538
 21
2.118553936779898
 31
0.0
  0
LINE
  5
1A8
330
17F
100
AcDbEntity
  8
AM_4
100
AcDbLine
 10
1.069740226109451
 20
2.19791252908782
 30
0.0
 11
1.024887069941076
 21
2.202656477158341
 31
0.0
  0
LINE
  5
1A9
330
17F
100
AcDbEntity
  8
AM_4
100
AcDbLine
 10
1.395112930058924
 20
1.988906477158341
 30
0.0
 11
1.36857797243143
 21
2.025378475804804
 31
0.0
  0
LINE
  5
1AA
330
17F
100
AcDbEntity
  8
AM_4
100
AcDbLine
 10
1.069740226109451
 20
2.19791252908782
 30
0.0
 11
1.36857797243143
 21
2.025378475804804
 31
0.0
  0
LWPOLYLINE
  5
1AB
330
17F
100
AcDbEntity
  8
AM_4
100
AcDbPolyline
 90
        3
 70
     0
 43
0.0
 10
1.304721528538922
 20
2.041093977158341
 10
1.350885602415867
 20
2.011677498597572
 10
1.394909257229538
 20
1.978553705469725
  0
LWPOLYLINE
  5
1AC
330
17F
100
AcDbEntity
  8
AM_4
100
AcDbPolyline
 90
        3
 70
     0
 43
0.0
 10
1.353976856926153
 20
1.907656708468514
 10
1.30350250203231
 20
1.929115781861415
 10
1.254721528538923
 20
1.954491436779898
  0
LWPOLYLINE
  5
1AD
330
17F
100
AcDbEntity
  8
AM_4
100
AcDbPolyline
 90
        3
 70
     0
 43
0.0
 10
1.205466200151692
 20
2.087928705469725
 10
1.255940555045535
 20
2.066469632076824
 10
1.304721528538922
 20
2.041093977158341
  0
LWPOLYLINE
  5
1AE
330
17F
100
AcDbEntity
  8
AM_4
100
AcDbPolyline
 90
        3
 70
     0
 43
0.0
 10
1.254721528538923
 20
1.954491436779898
 10
1.208557454661978
 20
1.983907915340667
 10
1.164533799848307
 20
2.017031708468514
  0
LINE
  5
1AF
330
17F
100
AcDbEntity
  8
AM_4
100
AcDbLine
 10
1.205466200151692
 20
2.087928705469725
 30
0.0
 11
1.164533799848307
 21
2.017031708468514
 31
0.0
  0
LWPOLYLINE
  5
1B0
330
17F
100
AcDbEntity
  8
AM_4
100
AcDbPolyline
 90
        3
 70
     0
 43
0.0
 10
1.115278471461077
 20
2.150468977158341
 10
1.161442545338021
 20
2.121052498597572
 10
1.205466200151692
 20
2.087928705469725
  0
LWPOLYLINE
  5
1B1
330
17F
100
AcDbEntity
  8
AM_4
100
AcDbPolyline
 90
        3
 70
     0
 43
0.0
 10
1.016023143073846
 20
2.197303705469726
 10
1.066497497967689
 20
2.175844632076824
 10
1.115278471461077
 20
2.150468977158341
  0
LWPOLYLINE
  5
1B2
330
17F
100
AcDbEntity
  8
AM_4
100
AcDbPolyline
 90
        3
 70
     0
 43
0.0
 10
1.065278471461077
 20
2.063866436779898
 10
1.019114397584132
 20
2.093282915340667
 10
0.975090742770461
 20
2.126406708468514
  0
LWPOLYLINE
  5
1B3
330
17F
100
AcDbEntity
  8
AM_4
100
AcDbPolyline
 90
        3
 70
     0
 43
0.0
 10
1.164533799848307
 20
2.017031708468514
 10
1.114059444954464
 20
2.038490781861415
 10
1.065278471461077
 20
2.063866436779898
  0
ENDBLK
  5
182
330
17F
100
AcDbEntity
  8
0
100
AcDbBlockEnd
  0
BLOCK
  5
1B6
330
1B4
100
AcDbEntity
  8
0
100
AcDbBlockBegin
  2
7_071127H_0_in_071127_0
 70
     2
 10
0.0
 20
0.0
 30
0.0
  3
7_071127H_0_in_071127_0
  1

  0
ATTDEF
  5
1B8
330
1B4
100
AcDbEntity
  8
AM_6
100
AcDbText
 10
9.435
 20
2.361651276120164
 30
0.0
 40
0.5
  1
EP2B-IP -(Contact Seal)-Housing -Inch
100
AcDbAttributeDefinition
  3

  2
NN
 70
     8
280
     0
  0
ATTDEF
  5
1B9
330
1B4
100
AcDbEntity
  8
AM_6
100
AcDbText
 10
9.435
 20
1.861651276120164
 30
0.0
 40
0.5
  1
Imperial 2 Bolt Piliow Block Bearings
100
AcDbAttributeDefinition
  3

  2
NT
 70
     8
280
     0
  0
ATTDEF
  5
1BA
330
1B4
100
AcDbEntity
  8
AM_6
100
AcDbText
 10
9.435
 20
1.361651276120164
 30
0.0
 40
0.5
  1
071127H
100
AcDbAttributeDefinition
  3

  2
NB
 70
     8
280
     0
  0
ATTDEF
  5
1BB
330
1B4
100
AcDbEntity
  8
AM_6
100
AcDbText
 10
9.435
 20
0.8616512761201642
 30
0.0
 40
0.5
  1
$PN.H
100
AcDbAttributeDefinition
  3

  2
NBSYN
 70
     8
280
     0
  0
ATTDEF
  5
1BC
330
1B4
100
AcDbEntity
  8
AM_6
100
AcDbText
 10
9.435
 20
0.3616512761201642
 30
0.0
 40
0.5
  1
071127
100
AcDbAttributeDefinition
  3

  2
LINA
 70
     8
280
     0
  0
ATTDEF
  5
1BD
330
1B4
100
AcDbEntity
  8
AM_6
100
AcDbText
 10
9.435
 20
-0.1383487238798358
 30
0.0
 40
0.5
  1
1-15/16
100
AcDbAttributeDefinition
  3

  2
SS
 70
     8
280
     0
  0
ATTDEF
  5
1BE
330
1B4
100
AcDbEntity
  8
AM_6
100
AcDbText
 10
9.435
 20
-0.6383487238798358
 30
0.0
 40
0.5
  1
1.937500
100
AcDbAttributeDefinition
  3

  2
SS1
 70
     8
280
     0
  0
ATTDEF
  5
1BF
330
1B4
100
AcDbEntity
  8
AM_6
100
AcDbText
 10
9.435
 20
-1.138348723879836
 30
0.0
 40
0.5
  1
Non-Expansion
100
AcDbAttributeDefinition
  3

  2
TYPE
 70
     8
280
     0
  0
ATTDEF
  5
1C0
330
1B4
100
AcDbEntity
  8
AM_6
100
AcDbText
 10
9.435
 20
-1.638348723879836
 30
0.0
 40
0.5
  1
071127
100
AcDbAttributeDefinition
  3

  2
PN1
 70
     8
280
     0
  0
ATTDEF
  5
1C1
330
1B4
100
AcDbEntity
  8
AM_6
100
AcDbText
 10
9.435
 20
-2.138348723879836
 30
0.0
 40
0.5
  1
071148
100
AcDbAttributeDefinition
  3

  2
PN2
 70
     8
280
     0
  0
ATTDEF
  5
1C2
330
1B4
100
AcDbEntity
  8
AM_6
100
AcDbText
 10
9.435
 20
-2.638348723879836
 30
0.0
 40
0.5
  1
EP2B-IP-115R
100
AcDbAttributeDefinition
  3

  2
DES1
 70
     8
280
     0
  0
ATTDEF
  5
1C3
330
1B4
100
AcDbEntity
  8
AM_6
100
AcDbText
 10
9.435
 20
-3.138348723879836
 30
0.0
 40
0.5
  1
Non-Expansion Type
100
AcDbAttributeDefinition
  3

  2
EF
 70
     8
280
     0
  0
ATTDEF
  5
1C4
330
1B4
100
AcDbEntity
  8
AM_6
100
AcDbText
 10
9.435
 20
-3.638348723879836
 30
0.0
 40
0.5
  1
1
100
AcDbAttributeDefinition
  3

  2
EF1
 70
     8
280
     0
  0
ATTDEF
  5
1C5
330
1B4
100
AcDbEntity
  8
AM_6
100
AcDbText
 10
9.435
 20
-4.138348723879836
 30
0.0
 40
0.5
  1
Contact Seal
100
AcDbAttributeDefinition
  3

  2
ST
 70
     8
280
     0
  0
ATTDEF
  5
1C6
330
1B4
100
AcDbEntity
  8
AM_6
100
AcDbText
 10
9.435
 20
-4.638348723879836
 30
0.0
 40
0.5
  1
1
100
AcDbAttributeDefinition
  3

  2
ST1
 70
     8
280
     0
  0
ATTDEF
  5
1C7
330
1B4
100
AcDbEntity
  8
AM_6
100
AcDbText
 10
9.435
 20
-5.138348723879836
 30
0.0
 40
0.5
  1
2.86
100
AcDbAttributeDefinition
  3

  2
A
 70
     8
280
     0
  0
ATTDEF
  5
1C8
330
1B4
100
AcDbEntity
  8
AM_6
100
AcDbText
 10
9.435
 20
-5.638348723879836
 30
0.0
 40
0.5
  1
2.8600000
100
AcDbAttributeDefinition
  3

  2
A1
 70
     8
280
     0
  0
ATTDEF
  5
1C9
330
1B4
100
AcDbEntity
  8
AM_6
100
AcDbText
 10
9.435
 20
-6.138348723879836
 30
0.0
 40
0.5
  1
8.87
100
AcDbAttributeDefinition
  3

  2
B
 70
     8
280
     0
  0
ATTDEF
  5
1CA
330
1B4
100
AcDbEntity
  8
AM_6
100
AcDbText
 10
9.435
 20
-6.638348723879836
 30
0.0
 40
0.5
  1
8.8700000
100
AcDbAttributeDefinition
  3

  2
B1
 70
     8
280
     0
  0
ATTDEF
  5
1CB
330
1B4
100
AcDbEntity
  8
AM_6
100
AcDbText
 10
9.435
 20
-7.138348723879836
 30
0.0
 40
0.5
  1
2.49
100
AcDbAttributeDefinition
  3

  2
C
 70
     8
280
     0
  0
ATTDEF
  5
1CC
330
1B4
100
AcDbEntity
  8
AM_6
100
AcDbText
 10
9.435
 20
-7.638348723879836
 30
0.0
 40
0.5
  1
2.4900000
100
AcDbAttributeDefinition
  3

  2
C1
 70
     8
280
     0
  0
ATTDEF
  5
1CD
330
1B4
100
AcDbEntity
  8
AM_6
100
AcDbText
 10
9.435
 20
-8.138348723879837
 30
0.0
 40
0.5
  1
6.88
100
AcDbAttributeDefinition
  3

  2
DMIN
 70
     8
280
     0
  0
ATTDEF
  5
1CE
330
1B4
100
AcDbEntity
  8
AM_6
100
AcDbText
 10
9.435
 20
-8.638348723879837
 30
0.0
 40
0.5
  1
6.8800000
100
AcDbAttributeDefinition
  3

  2
DMIN1
 70
     8
280
     0
  0
ATTDEF
  5
1CF
330
1B4
100
AcDbEntity
  8
AM_6
100
AcDbText
 10
9.435
 20
-9.138348723879837
 30
0.0
 40
0.5
  1
7.12
100
AcDbAttributeDefinition
  3

  2
DMAX
 70
     8
280
     0
  0
ATTDEF
  5
1D0
330
1B4
100
AcDbEntity
  8
AM_6
100
AcDbText
 10
9.435
 20
-9.638348723879837
 30
0.0
 40
0.5
  1
7.1200000
100
AcDbAttributeDefinition
  3

  2
DMAX1
 70
     8
280
     0
  0
ATTDEF
  5
1D1
330
1B4
100
AcDbEntity
  8
AM_6
100
AcDbText
 10
9.435
 20
-10.13834872387984
 30
0.0
 40
0.5
  1
5/8
100
AcDbAttributeDefinition
  3

  2
F
 70
     8
280
     0
  0
ATTDEF
  5
1D2
330
1B4
100
AcDbEntity
  8
AM_6
100
AcDbText
 10
9.435
 20
-10.63834872387984
 30
0.0
 40
0.5
  1
0.6250000
100
AcDbAttributeDefinition
  3

  2
F1
 70
     8
280
     0
  0
ATTDEF
  5
1D3
330
1B4
100
AcDbEntity
  8
AM_6
100
AcDbText
 10
9.435
 20
-11.13834872387984
 30
0.0
 40
0.5
  1
0.88
100
AcDbAttributeDefinition
  3

  2
G
 70
     8
280
     0
  0
ATTDEF
  5
1D4
330
1B4
100
AcDbEntity
  8
AM_6
100
AcDbText
 10
9.435
 20
-11.63834872387984
 30
0.0
 40
0.5
  1
0.880000
100
AcDbAttributeDefinition
  3

  2
G1
 70
     8
280
     0
  0
ATTDEF
  5
1D5
330
1B4
100
AcDbEntity
  8
AM_6
100
AcDbText
 10
9.435
 20
-12.13834872387984
 30
0.0
 40
0.5
  1
1.31
100
AcDbAttributeDefinition
  3

  2
H
 70
     8
280
     0
  0
ATTDEF
  5
1D6
330
1B4
100
AcDbEntity
  8
AM_6
100
AcDbText
 10
9.435
 20
-12.63834872387984
 30
0.0
 40
0.5
  1
1.3100000
100
AcDbAttributeDefinition
  3

  2
H1
 70
     8
280
     0
  0
ATTDEF
  5
1D7
330
1B4
100
AcDbEntity
  8
AM_6
100
AcDbText
 10
9.435
 20
-13.13834872387984
 30
0.0
 40
0.5
  1
4.47
100
AcDbAttributeDefinition
  3

  2
J
 70
     8
280
     0
  0
ATTDEF
  5
1D8
330
1B4
100
AcDbEntity
  8
AM_6
100
AcDbText
 10
9.435
 20
-13.63834872387984
 30
0.0
 40
0.5
  1
4.470000
100
AcDbAttributeDefinition
  3

  2
J1
 70
     8
280
     0
  0
ATTDEF
  5
1D9
330
1B4
100
AcDbEntity
  8
AM_6
100
AcDbText
 10
9.435
 20
-14.13834872387984
 30
0.0
 40
0.5
  1
3.28
100
AcDbAttributeDefinition
  3

  2
L
 70
     8
280
     0
  0
ATTDEF
  5
1DA
330
1B4
100
AcDbEntity
  8
AM_6
100
AcDbText
 10
9.435
 20
-14.63834872387984
 30
0.0
 40
0.5
  1
3.2800000
100
AcDbAttributeDefinition
  3

  2
L1
 70
     8
280
     0
  0
ATTDEF
  5
1DB
330
1B4
100
AcDbEntity
  8
AM_6
100
AcDbText
 10
9.435
 20
-15.13834872387984
 30
0.0
 40
0.5
  1
2.25
100
AcDbAttributeDefinition
  3

  2
M
 70
     8
280
     0
  0
ATTDEF
  5
1DC
330
1B4
100
AcDbEntity
  8
AM_6
100
AcDbText
 10
9.435
 20
-15.63834872387984
 30
0.0
 40
0.5
  1
2.250000
100
AcDbAttributeDefinition
  3

  2
M1
 70
     8
280
     0
  0
ATTDEF
  5
1DD
330
1B4
100
AcDbEntity
  8
AM_6
100
AcDbText
 10
9.435
 20
-16.13834872387984
 30
0.0
 40
0.5
  1
1.1
100
AcDbAttributeDefinition
  3

  2
R
 70
     8
280
     0
  0
ATTDEF
  5
1DE
330
1B4
100
AcDbEntity
  8
AM_6
100
AcDbText
 10
9.435
 20
-16.63834872387984
 30
0.0
 40
0.5
  1
1.100000
100
AcDbAttributeDefinition
  3

  2
R1
 70
     8
280
     0
  0
ATTDEF
  5
1DF
330
1B4
100
AcDbEntity
  8
AM_6
100
AcDbText
 10
9.435
 20
-17.13834872387984
 30
0.0
 40
0.5
  1
1.76
100
AcDbAttributeDefinition
  3

  2
S
 70
     8
280
     0
  0
ATTDEF
  5
1E0
330
1B4
100
AcDbEntity
  8
AM_6
100
AcDbText
 10
9.435
 20
-17.63834872387984
 30
0.0
 40
0.5
  1
1.760000
100
AcDbAttributeDefinition
  3

  2
S1
 70
     8
280
     0
  0
ATTDEF
  5
1E1
330
1B4
100
AcDbEntity
  8
AM_6
100
AcDbText
 10
9.435
 20
-18.13834872387984
 30
0.0
 40
0.5
  1
0.22
100
AcDbAttributeDefinition
  3

  2
X
 70
     8
280
     0
  0
ATTDEF
  5
1E2
330
1B4
100
AcDbEntity
  8
AM_6
100
AcDbText
 10
9.435
 20
-18.63834872387984
 30
0.0
 40
0.5
  1
0.220000
100
AcDbAttributeDefinition
  3

  2
X1
 70
     8
280
     0
  0
ATTDEF
  5
1E3
330
1B4
100
AcDbEntity
  8
AM_6
100
AcDbText
 10
9.435
 20
-19.13834872387984
 30
0.0
 40
0.5
  1
0.020
100
AcDbAttributeDefinition
  3

  2
Y
 70
     8
280
     0
  0
ATTDEF
  5
1E4
330
1B4
100
AcDbEntity
  8
AM_6
100
AcDbText
 10
9.435
 20
-19.63834872387984
 30
0.0
 40
0.5
  1
2.3
100
AcDbAttributeDefinition
  3

  2
Z
 70
     8
280
     0
  0
ATTDEF
  5
1E5
330
1B4
100
AcDbEntity
  8
AM_6
100
AcDbText
 10
9.435
 20
-20.13834872387984
 30
0.0
 40
0.5
  1
2.300000
100
AcDbAttributeDefinition
  3

  2
Z1
 70
     8
280
     0
  0
ATTDEF
  5
1E6
330
1B4
100
AcDbEntity
  8
AM_6
100
AcDbText
 10
9.435
 20
-20.63834872387984
 30
0.0
 40
0.5
  1
3.5433
100
AcDbAttributeDefinition
  3

  2
BORE
 70
     8
280
     0
  0
ATTDEF
  5
1E7
330
1B4
100
AcDbEntity
  8
AM_6
100
AcDbText
 10
9.435
 20
-21.13834872387984
 30
0.0
 40
0.5
  1
baldor
100
AcDbAttributeDefinition
  3

  2
COMPANY
 70
     8
280
     0
  0
LINE
  5
1E8
330
1B4
100
AcDbEntity
  8
AM_9
100
AcDbLine
 10
-3.44
 20
-0.94
 30
0.0
 11
-3.44
 21
-2.25
 31
0.0
  0
LINE
  5
1E9
330
1B4
100
AcDbEntity
  8
AM_9
100
AcDbLine
 10
-3.1275
 20
-2.25
 30
0.0
 11
-3.1275
 21
-0.9400000000000001
 31
0.0
  0
LINE
  5
1EA
330
1B4
100
AcDbEntity
  8
AM_9
100
AcDbLine
 10
-3.56
 20
-0.9400000000000001
 30
0.0
 11
-3.56
 21
-2.25
 31
0.0
  0
LINE
  5
1EB
330
1B4
100
AcDbEntity
  8
AM_9
100
AcDbLine
 10
-3.8725
 20
-0.9400000000000001
 30
0.0
 11
-3.8725
 21
-2.25
 31
0.0
  0
LINE
  5
1EC
330
1B4
100
AcDbEntity
  8
AM_9
100
AcDbLine
 10
3.56
 20
-0.94
 30
0.0
 11
3.56
 21
-2.25
 31
0.0
  0
LINE
  5
1ED
330
1B4
100
AcDbEntity
  8
AM_9
100
AcDbLine
 10
3.8725
 20
-2.25
 30
0.0
 11
3.8725
 21
-0.9400000000000001
 31
0.0
  0
LINE
  5
1EE
330
1B4
100
AcDbEntity
  8
AM_9
100
AcDbLine
 10
3.44
 20
-0.9400000000000001
 30
0.0
 11
3.44
 21
-2.25
 31
0.0
  0
LINE
  5
1EF
330
1B4
100
AcDbEntity
  8
AM_9
100
AcDbLine
 10
3.1275
 20
-0.9400000000000001
 30
0.0
 11
3.1275
 21
-2.25
 31
0.0
  0
ARC
  5
1F0
330
1B4
100
AcDbEntity
  8
AM_9
100
AcDbCircle
 10
-2.259299999999999
 20
-0.8745000000000014
 30
0.0
 40
0.0654999999999993
100
AcDbArc
 50
270.0
 51
0.0
  0
ARC
  5
1F1
330
1B4
100
AcDbEntity
  8
AM_9
100
AcDbCircle
 10
2.259299999999999
 20
-0.8745000000000002
 30
0.0
 40
0.0654999999999997
100
AcDbArc
 50
180.0
 51
270.0
  0
LINE
  5
1F2
330
1B4
100
AcDbEntity
  8
AM_9
100
AcDbLine
 10
2.1938
 20
0.3400611121548603
 30
0.0
 11
2.1938
 21
-0.8745
 31
0.0
  0
LINE
  5
1F3
330
1B4
100
AcDbEntity
  8
AM_9
100
AcDbLine
 10
-2.467002658318899
 20
-0.9400000000000007
 30
0.0
 11
-2.2593
 21
-0.9400000000000007
 31
0.0
  0
LINE
  5
1F4
330
1B4
100
AcDbEntity
  8
AM_9
100
AcDbLine
 10
-2.1938
 20
-0.874500000000001
 30
0.0
 11
-2.1938
 21
0.3400611121548616
 31
0.0
  0
LINE
  5
1F5
330
1B4
100
AcDbEntity
  8
AM_9
100
AcDbLine
 10
2.259299999999999
 20
-0.94
 30
0.0
 11
2.467002658318899
 21
-0.94
 31
0.0
  0
LINE
  5
1F6
330
1B4
100
AcDbEntity
  8
AM_7
100
AcDbLine
 10
-1.8602325
 20
0.0
 30
0.0
 11
1.8602325
 21
0.0
 31
0.0
  0
LINE
  5
1F7
330
1B4
100
AcDbEntity
  8
AM_7
100
AcDbLine
 10
0.0
 20
-1.8602325
 30
0.0
 11
0.0
 21
1.8602325
 31
0.0
  0
LINE
  5
1F8
330
1B4
100
AcDbEntity
  8
AM_7
100
AcDbLine
 10
0.8317139752249092
 20
1.440570862454625
 30
0.0
 11
1.3635
 21
2.361651276120164
 31
0.0
  0
LINE
  5
1F9
330
1B4
100
AcDbEntity
  8
AM_4
100
AcDbLine
 10
1.514639995938083
 20
1.623433428140678
 30
0.0
 11
1.54301270189222
 21
1.672576396401454
 31
0.0
  0
LINE
  5
1FA
330
1B4
100
AcDbEntity
  8
AM_4
100
AcDbLine
 10
0.6769872981077804
 20
2.172576396401454
 30
0.0
 11
1.54301270189222
 21
1.672576396401454
 31
0.0
  0
LINE
  5
1FB
330
1B4
100
AcDbEntity
  8
AM_4
100
AcDbLine
 10
0.8135898384862239
 20
2.209178936779898
 30
0.0
 11
1.506410161220461
 21
1.809178936949243
 31
0.0
  0
ARC
  5
1FC
330
1B4
100
AcDbEntity
  8
AM_4
100
AcDbCircle
 10
1.456410161513775
 20
1.722576396401454
 30
0.0
 40
0.1000000000000004
100
AcDbArc
 50
330.0000000000004
 51
60.00000000000004
  0
ARC
  5
1FD
330
1B4
100
AcDbEntity
  8
AM_4
100
AcDbCircle
 10
0.7635898384862244
 20
2.122576396401453
 30
0.0
 40
0.1000000000000008
100
AcDbArc
 50
60.00000000000023
 51
149.9999999999995
  0
LINE
  5
1FE
330
1B4
100
AcDbEntity
  8
AM_4
100
AcDbLine
 10
0.6769872981077804
 20
2.172576396401454
 30
0.0
 11
0.648467764875442
 21
2.123179115834894
 31
0.0
  0
ARC
  5
1FF
330
1B4
100
AcDbEntity
  8
AM_4
100
AcDbCircle
 10
2.467002658318886
 20
-0.8090000000000038
 30
0.0
 40
0.1309999999999872
100
AcDbArc
 50
186.949162194642
 51
207.684853872393
  0
ARC
  5
200
330
1B4
100
AcDbEntity
  8
AM_4
100
AcDbCircle
 10
-2.467002658318874
 20
-0.809000000000006
 30
0.0
 40
0.1309999999999745
100
AcDbArc
 50
332.3151461276059
 51
353.0508378053581
  0
CIRCLE
  5
201
330
1B4
100
AcDbEntity
  8
AM_4
100
AcDbCircle
 10
0.0
 20
0.0
 30
0.0
 40
1.77165
  0
ARC
  5
202
330
1B4
100
AcDbEntity
  8
AM_4
100
AcDbCircle
 10
0.0000000000000009
 20
0.0000000000000008
 30
0.0
 40
2.219999999999998
100
AcDbArc
 50
6.949162194643042
 51
74.57281537144259
  0
LINE
  5
203
330
1B4
100
AcDbEntity
  8
AM_4
100
AcDbLine
 10
-0.5250499999999991
 20
2.22
 30
0.0
 11
0.5250500000000001
 21
2.22
 31
0.0
  0
ARC
  5
204
330
1B4
100
AcDbEntity
  8
AM_4
100
AcDbCircle
 10
0.5250500000000005
 20
2.1545
 30
0.0
 40
0.0654999999999996
100
AcDbArc
 50
0.0
 51
90.0
  0
LINE
  5
205
330
1B4
100
AcDbEntity
  8
AM_4
100
AcDbLine
 10
-2.336964998202682
 20
-0.8248495095034312
 30
0.0
 11
-2.203691644717562
 21
0.2685947412031813
 31
0.0
  0
LINE
  5
206
330
1B4
100
AcDbEntity
  8
AM_4
100
AcDbLine
 10
2.203691644717562
 20
0.2685947412031821
 30
0.0
 11
2.336964998202682
 21
-0.8248495095034308
 31
0.0
  0
LINE
  5
207
330
1B4
100
AcDbEntity
  8
AM_4
100
AcDbLine
 10
0.59055
 20
2.1545
 30
0.0
 11
0.59055
 21
2.140011845177498
 31
0.0
  0
ARC
  5
208
330
1B4
100
AcDbEntity
  8
AM_4
100
AcDbCircle
 10
-0.5250500000000001
 20
2.1545
 30
0.0
 40
0.0654999999999997
100
AcDbArc
 50
90.0
 51
180.0
  0
LINE
  5
209
330
1B4
100
AcDbEntity
  8
AM_4
100
AcDbLine
 10
-0.59055
 20
2.140011845177498
 30
0.0
 11
-0.59055
 21
2.154499999999999
 31
0.0
  0
ARC
  5
20A
330
1B4
100
AcDbEntity
  8
AM_4
100
AcDbCircle
 10
0.000000000000002
 20
-0.0000000000000016
 30
0.0
 40
2.220000000000002
100
AcDbArc
 50
105.4271846285575
 51
173.0508378053568
  0
LINE
  5
20B
330
1B4
100
AcDbEntity
  8
AM_4
100
AcDbLine
 10
-4.335000000000001
 20
-0.943613035179137
 30
0.0
 11
-4.335000000000001
 21
-1.595
 31
0.0
  0
LWPOLYLINE
  5
20C
330
1B4
100
AcDbEntity
  8
AM_4
100
AcDbPolyline
 90
        5
 70
     0
 43
0.0
 10
-4.334999999986603
 20
-0.9437207793831566
 10
-4.333809735889661
 20
-0.9434175798327944
 10
-4.328387373483422
 20
-0.9422900314094513
 10
-4.318422267731058
 20
-0.9407795226333879
 10
-4.303999999999999
 20
-0.94
  0
LWPOLYLINE
  5
20D
330
1B4
100
AcDbEntity
  8
AM_4
100
AcDbPolyline
 90
        4
 70
     0
 43
0.0
 10
4.303999999999998
 20
-0.94
 10
4.326015321968638
 20
-0.9418631516622108
 10
4.33484603119772
 20
-0.9436833775214359
 10
4.334999999986602
 20
-0.9437207793831565
  0
LINE
  5
20E
330
1B4
100
AcDbEntity
  8
AM_4
100
AcDbLine
 10
4.335
 20
-1.595
 30
0.0
 11
4.335
 21
-0.9436130351791369
 31
0.0
  0
LINE
  5
20F
330
1B4
100
AcDbEntity
  8
AM_4
100
AcDbLine
 10
2.467002658318899
 20
-0.94
 30
0.0
 11
4.303999999999998
 21
-0.94
 31
0.0
  0
LWPOLYLINE
  5
210
330
1B4
100
AcDbEntity
  8
AM_4
100
AcDbPolyline
 90
       14
 70
     0
 43
0.0
 10
2.467002658318899
 20
-0.94
 10
2.455585256018955
 20
-0.9395015054500188
 10
2.444254747044531
 20
-0.9380098156445993
 10
2.433097363410468
 20
-0.9355362832438681
 10
2.422198019543236
 20
-0.932099733322954
 10
2.411639666030867
 20
-0.9277263201018011
 10
2.401502658318899
 20
-0.9224493278957615
 10
2.391864145156912
 20
-0.916308917801858
 10
2.382797481449962
 20
-0.9093518220485862
 10
2.374371669983461
 20
-0.9016309883354378
 10
2.366650836270312
 20
-0.8932051768689367
 10
2.359693740517041
 20
-0.8841385131619871
 10
2.353553330423138
 20
-0.8745
 10
2.351
 20
-0.8698636448378569
  0
LINE
  5
211
330
1B4
100
AcDbEntity
  8
AM_4
100
AcDbLine
 10
2.351
 20
-0.869863644837857
 30
0.0
 11
2.351
 21
-2.25
 31
0.0
  0
LINE
  5
212
330
1B4
100
AcDbEntity
  8
AM_4
100
AcDbLine
 10
-3.393000000000019
 20
-0.94
 30
0.0
 11
-3.393000000000019
 21
-1.595
 31
0.0
  0
LINE
  5
213
330
1B4
100
AcDbEntity
  8
AM_4
100
AcDbLine
 10
-4.435
 20
-1.594999999999999
 30
0.0
 11
-3.393000000000019
 21
-1.595
 31
0.0
  0
LINE
  5
214
330
1B4
100
AcDbEntity
  8
AM_4
100
AcDbLine
 10
-4.303999999999999
 20
-0.94
 30
0.0
 11
-2.467002658318899
 21
-0.94
 31
0.0
  0
LWPOLYLINE
  5
215
330
1B4
100
AcDbEntity
  8
AM_4
100
AcDbPolyline
 90
       14
 70
     0
 43
0.0
 10
-2.351
 20
-0.8698636448378568
 10
-2.356746041309236
 20
-0.8797423381404984
 10
-2.363331202048682
 20
-0.8890826395344992
 10
-2.370705365168881
 20
-0.8978134636864227
 10
-2.378812408835847
 20
-0.9058683637526568
 10
-2.387590633552107
 20
-0.9131860370800159
 10
-2.396973231727134
 20
-0.919710791755947
 10
-2.406888796123449
 20
-0.9253929704576117
 10
-2.417261863308813
 20
-0.9301893283740967
 10
-2.428013487978517
 20
-0.9340633623255377
 10
-2.439061843776817
 20
-0.9369855885743584
 10
-2.450322846044906
 20
-0.9389337672143172
 10
-2.461710791755947
 20
-0.9398930714296211
 10
-2.467002658318899
 20
-0.94
  0
LINE
  5
216
330
1B4
100
AcDbEntity
  8
AM_4
100
AcDbLine
 10
-2.4755
 20
-0.94
 30
0.0
 11
-2.4755
 21
-2.25
 31
0.0
  0
LINE
  5
217
330
1B4
100
AcDbEntity
  8
AM_4
100
AcDbLine
 10
-2.351
 20
-0.8698636448378556
 30
0.0
 11
-2.351
 21
-2.25
 31
0.0
  0
LINE
  5
218
330
1B4
100
AcDbEntity
  8
AM_4
100
AcDbLine
 10
3.393000000000001
 20
-0.94
 30
0.0
 11
3.393000000000001
 21
-1.595
 31
0.0
  0
LINE
  5
219
330
1B4
100
AcDbEntity
  8
AM_4
100
AcDbLine
 10
2.4755
 20
-2.25
 30
0.0
 11
2.4755
 21
-0.939999999999999
 31
0.0
  0
LINE
  5
21A
330
1B4
100
AcDbEntity
  8
AM_4
100
AcDbLine
 10
3.393000000000001
 20
-1.595
 30
0.0
 11
4.435
 21
-1.595
 31
0.0
  0
LINE
  5
21B
330
1B4
100
AcDbEntity
  8
AM_4
100
AcDbLine
 10
4.185999999999998
 20
-1.595
 30
0.0
 11
4.186
 21
-2.25
 31
0.0
  0
LINE
  5
21C
330
1B4
100
AcDbEntity
  8
AM_4
100
AcDbLine
 10
-4.435
 20
-2.25
 30
0.0
 11
4.435
 21
-2.25
 31
0.0
  0
LINE
  5
21D
330
1B4
100
AcDbEntity
  8
AM_4
100
AcDbLine
 10
4.435
 20
-1.595
 30
0.0
 11
4.435
 21
-2.25
 31
0.0
  0
LINE
  5
21E
330
1B4
100
AcDbEntity
  8
AM_4
100
AcDbLine
 10
-4.435
 20
-1.594999999999999
 30
0.0
 11
-4.435
 21
-2.25
 31
0.0
  0
LINE
  5
21F
330
1B4
100
AcDbEntity
  8
AM_4
100
AcDbLine
 10
-4.186
 20
-2.25
 30
0.0
 11
-4.186000000000005
 21
-1.595
 31
0.0
  0
ENDBLK
  5
1B7
330
1B4
100
AcDbEntity
  8
0
100
AcDbBlockEnd
  0
ENDSEC
  0
SECTION
  2
ENTITIES
  0
INSERT
  5
6F
330
1F
100
AcDbEntity
  8
0
100
AcDbBlockReference
  2
1_071127_0
 10
0.0
 20
0.0
 30
0.0
  0
POINT
  5
221
330
1F
100
AcDbEntity
  8
ConnectionPoints
100
AcDbPoint
 10
0.0
 20
1.358506944444444
 30
1.597166666666667
  0
POINT
  5
222
330
1F
100
AcDbEntity
  8
ConnectionPoints
100
AcDbPoint
 10
0.0
 20
0.0
 30
1.527166666666667
  0
POINT
  5
223
330
1F
100
AcDbEntity
  8
ConnectionPoints
100
AcDbPoint
 10
0.0
 20
0.0
 30
1.76
  0
POINT
  5
224
330
1F
100
AcDbEntity
  8
ConnectionPoints
100
AcDbPoint
 10
0.0
 20
0.0
 30
1.726166666666667
  0
POINT
  5
225
330
1F
100
AcDbEntity
  8
ConnectionPoints
100
AcDbPoint
 10
0.0
 20
1.358506944444444
 30
1.527166666666667
  0
POINT
  5
226
330
1F
100
AcDbEntity
  8
ConnectionPoints
100
AcDbPoint
 10
0.0
 20
-1.358506944444444
 30
1.527166666666667
  0
POINT
  5
227
330
1F
100
AcDbEntity
  8
ConnectionPoints
100
AcDbPoint
 10
0.0
 20
0.0
 30
1.527166666666667
  0
POINT
  5
228
330
1F
100
AcDbEntity
  8
ConnectionPoints
100
AcDbPoint
 10
1.16
 20
2.009178936779898
 30
0.0
  0
POINT
  5
229
330
1F
100
AcDbEntity
  8
ConnectionPoints
100
AcDbPoint
 10
1.16
 20
2.009178936779898
 30
0.0
  0
POINT
  5
22A
330
1F
100
AcDbEntity
  8
ConnectionPoints
100
AcDbPoint
 10
0.0
 20
0.0
 30
1.54
  0
POINT
  5
22B
330
1F
100
AcDbEntity
  8
ConnectionPoints
100
AcDbPoint
 10
0.0
 20
0.0
 30
1.76
  0
ENDSEC
  0
SECTION
  2
OBJECTS
  0
DICTIONARY
  5
C
330
0
100
AcDbDictionary
281
     1
  3
ACAD_DETAILVIEWSTYLE
350
233
  3
ACAD_GROUP
350
D
  3
ACAD_LAYOUT
350
1A
  3
ACAD_MATERIAL
350
43
  3
ACAD_MLEADERSTYLE
350
6B
  3
ACAD_MLINESTYLE
350
17
  3
ACAD_PLOTSETTINGS
350
19
  3
ACAD_PLOTSTYLENAME
350
E
  3
ACAD_SCALELIST
350
47
  3
ACAD_SECTIONVIEWSTYLE
350
234
  3
ACAD_TABLESTYLE
350
69
  3
ACAD_VISUALSTYLE
350
2A
  3
ACDB_RECOMPOSE_DATA
350
230
  3
AcDbVariableDictionary
350
22C
  0
SUN
  5
6D
330
29
100
AcDbSun
 90
        1
290
     0
 63
     7
421
 16777215
 40
1.0
291
     1
 91
  2455826
 92
 54000000
292
     0
 70
     2
 71
   256
280
     1
  0
DICTIONARY
  5
233
102
{ACAD_REACTORS
330
C
102
}
330
C
100
AcDbDictionary
281
     1
  0
DICTIONARY
  5
D
102
{ACAD_REACTORS
330
C
102
}
330
C
100
AcDbDictionary
281
     1
  0
DICTIONARY
  5
1A
102
{ACAD_REACTORS
330
C
102
}
330
C
100
AcDbDictionary
281
     1
  3
Layout1
350
1E
  3
Layout2
350
26
  3
Model
350
22
  0
DICTIONARY
  5
43
102
{ACAD_REACTORS
330
C
102
}
330
C
100
AcDbDictionary
281
     1
  3
ByBlock
350
45
  3
ByLayer
350
44
  3
Global
350
46
  0
DICTIONARY
  5
6B
102
{ACAD_REACTORS
330
C
102
}
330
C
100
AcDbDictionary
281
     1
  3
Standard
350
6C
  0
DICTIONARY
  5
17
102
{ACAD_REACTORS
330
C
102
}
330
C
100
AcDbDictionary
281
     1
  3
Standard
350
18
  0
DICTIONARY
  5
19
102
{ACAD_REACTORS
330
C
102
}
330
C
100
AcDbDictionary
281
     1
  0
ACDBDICTIONARYWDFLT
  5
E
102
{ACAD_REACTORS
330
C
102
}
330
C
100
AcDbDictionary
281
     1
  3
Normal
350
F
100
AcDbDictionaryWithDefault
340
F
  0
DICTIONARY
  5
47
102
{ACAD_REACTORS
330
C
102
}
330
C
100
AcDbDictionary
281
     1
  3
A0
350
48
  3
A1
350
49
  3
A2
350
4A
  3
A3
350
4B
  3
A4
350
4C
  3
A5
350
4D
  3
A6
350
4E
  3
A7
350
4F
  3
A8
350
50
  3
A9
350
51
  3
B0
350
52
  3
B1
350
53
  3
B2
350
54
  3
B3
350
55
  3
B4
350
56
  3
B5
350
57
  3
B6
350
58
  3
B7
350
59
  3
B8
350
5A
  3
B9
350
5B
  3
C0
350
5C
  3
C1
350
5D
  3
C2
350
5E
  3
C3
350
5F
  3
C4
350
60
  3
C5
350
61
  3
C6
350
62
  3
C7
350
63
  3
C8
350
64
  3
C9
350
65
  3
D0
350
66
  3
D1
350
67
  3
D2
350
68
  0
DICTIONARY
  5
234
102
{ACAD_REACTORS
330
C
102
}
330
C
100
AcDbDictionary
281
     1
  0
DICTIONARY
  5
69
102
{ACAD_REACTORS
330
C
102
}
330
C
100
AcDbDictionary
281
     1
  3
Standard
350
6A
  0
DICTIONARY
  5
2A
102
{ACAD_REACTORS
330
C
102
}
330
C
100
AcDbDictionary
281
     1
  3
2dWireframe
350
2F
  3
Basic
350
32
  3
Brighten
350
36
  3
ColorChange
350
3A
  3
Conceptual
350
34
  3
Dim
350
35
  3
EdgeColorOff
350
3D
  3
Facepattern
350
39
  3
Flat
350
2B
  3
FlatWithEdges
350
2C
  3
Gouraud
350
2D
  3
GouraudWithEdges
350
2E
  3
Hidden
350
31
  3
JitterOff
350
3B
  3
Linepattern
350
38
  3
OverhangOff
350
3C
  3
Realistic
350
33
  3
Shaded
350
42
  3
Shaded with edges
350
41
  3
Shades of Gray
350
3E
  3
Sketchy
350
3F
  3
Thicken
350
37
  3
Wireframe
350
30
  3
X-Ray
350
40
  0
XRECORD
  5
230
102
{ACAD_REACTORS
330
C
102
}
330
C
100
AcDbXrecord
280
     1
 90
        1
330
6A
  0
DICTIONARY
  5
22C
102
{ACAD_REACTORS
330
C
102
}
330
C
100
AcDbDictionary
281
     1
  3
CANNOSCALE
350
22D
  3
CMLEADERSTYLE
350
232
  3
CTABLESTYLE
350
231
  0
LAYOUT
  5
1E
102
{ACAD_REACTORS
330
1A
102
}
330
1A
100
AcDbPlotSettings
  1

  2
none_device
  4

  6

 40
0.0
 41
0.0
 42
0.0
 43
0.0
 44
0.0
 45
0.0
 46
0.0
 47
0.0
 48
0.0
 49
0.0
140
0.0
141
0.0
142
1.0
143
1.0
 70
   688
 72
     0
 73
     0
 74
     5
  7

 75
    16
 76
     0
 77
     2
 78
   300
147
1.0
148
0.0
149
0.0
100
AcDbLayout
  1
Layout1
 70
     1
 71
     1
 10
0.0
 20
0.0
 11
12.0
 21
9.0
 12
0.0
 22
0.0
 32
0.0
 14
1.000000000000000E+20
 24
1.000000000000000E+20
 34
1.000000000000000E+20
 15
-1.000000000000000E+20
 25
-1.000000000000000E+20
 35
-1.000000000000000E+20
146
0.0
 13
0.0
 23
0.0
 33
0.0
 16
1.0
 26
0.0
 36
0.0
 17
0.0
 27
1.0
 37
0.0
 76
     0
330
1B
  0
LAYOUT
  5
26
102
{ACAD_REACTORS
330
1A
102
}
330
1A
100
AcDbPlotSettings
  1

  2
none_device
  4

  6

 40
0.0
 41
0.0
 42
0.0
 43
0.0
 44
0.0
 45
0.0
 46
0.0
 47
0.0
 48
0.0
 49
0.0
140
0.0
141
0.0
142
1.0
143
1.0
 70
   688
 72
     0
 73
     0
 74
     5
  7

 75
    16
 76
     0
 77
     2
 78
   300
147
1.0
148
0.0
149
0.0
100
AcDbLayout
  1
Layout2
 70
     1
 71
     2
 10
0.0
 20
0.0
 11
0.0
 21
0.0
 12
0.0
 22
0.0
 32
0.0
 14
0.0
 24
0.0
 34
0.0
 15
0.0
 25
0.0
 35
0.0
146
0.0
 13
0.0
 23
0.0
 33
0.0
 16
1.0
 26
0.0
 36
0.0
 17
0.0
 27
1.0
 37
0.0
 76
     0
330
23
  0
LAYOUT
  5
22
102
{ACAD_REACTORS
330
1A
102
}
330
1A
100
AcDbPlotSettings
  1

  2
none_device
  4
Letter_(8.50_x_11.00_Inches)
  6

 40
6.35
 41
6.35
 42
6.35000508
 43
6.35000508
 44
215.9
 45
279.4
 46
0.0
 47
0.0
 48
0.0
 49
0.0
140
0.0
141
0.0
142
1.0
143
1.0
 70
  1712
 72
     0
 73
     0
 74
     0
  7

 75
     0
 76
     0
 77
     2
 78
   300
147
1.0
148
0.0
149
0.0
100
AcDbLayout
  1
Model
 70
     1
 71
     0
 10
0.0
 20
0.0
 11
12.0
 21
9.0
 12
0.0
 22
0.0
 32
0.0
 14
1.000000000000000E+20
 24
1.000000000000000E+20
 34
1.000000000000000E+20
 15
-1.000000000000000E+20
 25
-1.000000000000000E+20
 35
-1.000000000000000E+20
146
0.0
 13
0.0
 23
0.0
 33
0.0
 16
1.0
 26
0.0
 36
0.0
 17
0.0
 27
1.0
 37
0.0
 76
     0
330
1F
331
29
  0
MATERIAL
  5
45
102
{ACAD_REACTORS
330
43
102
}
330
43
100
AcDbMaterial
  1
ByBlock
 72
     1
 94
      127
  0
MATERIAL
  5
44
102
{ACAD_REACTORS
330
43
102
}
330
43
100
AcDbMaterial
  1
ByLayer
 72
     1
 94
      127
  0
MATERIAL
  5
46
102
{ACAD_REACTORS
330
43
102
}
330
43
100
AcDbMaterial
  1
Global
 72
     1
 94
      127
  0
MLEADERSTYLE
  5
6C
102
{ACAD_REACTORS
330
6B
102
}
330
6B
100
AcDbMLeaderStyle
179
     2
170
     2
171
     1
172
     0
 90
        2
 40
0.0
 41
0.0
173
     1
 91
-1056964608
340
14
 92
       -2
290
     1
 42
0.09
291
     1
 43
0.36
  3
Standard
341
0
 44
0.18
300

342
11
174
     1
178
     6
175
     1
176
     0
 93
-1056964608
 45
0.18
292
     0
297
     0
 46
0.18
343
0
 94
-1056964608
 47
1.0
 49
1.0
140
1.0
293
     1
141
0.0
294
     1
177
     0
142
1.0
295
     0
296
     0
143
0.125
271
     0
272
     9
273
     9
298
     0
  0
MLINESTYLE
  5
18
102
{ACAD_REACTORS
330
17
102
}
330
17
100
AcDbMlineStyle
  2
Standard
 70
     0
  3

 62
   256
 51
90.0
 52
90.0
 71
     2
 49
0.5
 62
   256
  6
BYLAYER
 49
-0.5
 62
   256
  6
BYLAYER
  0
ACDBPLACEHOLDER
  5
F
102
{ACAD_REACTORS
330
E
102
}
330
E
  0
SCALE
  5
48
102
{ACAD_REACTORS
330
47
102
}
330
47
100
AcDbScale
 70
     0
300
1:1
140
1.0
141
1.0
290
     1
  0
SCALE
  5
49
102
{ACAD_REACTORS
330
47
102
}
330
47
100
AcDbScale
 70
     0
300
1:2
140
1.0
141
2.0
290
     0
  0
SCALE
  5
4A
102
{ACAD_REACTORS
330
47
102
}
330
47
100
AcDbScale
 70
     0
300
1:4
140
1.0
141
4.0
290
     0
  0
SCALE
  5
4B
102
{ACAD_REACTORS
330
47
102
}
330
47
100
AcDbScale
 70
     0
300
1:5
140
1.0
141
5.0
290
     0
  0
SCALE
  5
4C
102
{ACAD_REACTORS
330
47
102
}
330
47
100
AcDbScale
 70
     0
300
1:8
140
1.0
141
8.0
290
     0
  0
SCALE
  5
4D
102
{ACAD_REACTORS
330
47
102
}
330
47
100
AcDbScale
 70
     0
300
1:10
140
1.0
141
10.0
290
     0
  0
SCALE
  5
4E
102
{ACAD_REACTORS
330
47
102
}
330
47
100
AcDbScale
 70
     0
300
1:16
140
1.0
141
16.0
290
     0
  0
SCALE
  5
4F
102
{ACAD_REACTORS
330
47
102
}
330
47
100
AcDbScale
 70
     0
300
1:20
140
1.0
141
20.0
290
     0
  0
SCALE
  5
50
102
{ACAD_REACTORS
330
47
102
}
330
47
100
AcDbScale
 70
     0
300
1:30
140
1.0
141
30.0
290
     0
  0
SCALE
  5
51
102
{ACAD_REACTORS
330
47
102
}
330
47
100
AcDbScale
 70
     0
300
1:40
140
1.0
141
40.0
290
     0
  0
SCALE
  5
52
102
{ACAD_REACTORS
330
47
102
}
330
47
100
AcDbScale
 70
     0
300
1:50
140
1.0
141
50.0
290
     0
  0
SCALE
  5
53
102
{ACAD_REACTORS
330
47
102
}
330
47
100
AcDbScale
 70
     0
300
1:100
140
1.0
141
100.0
290
     0
  0
SCALE
  5
54
102
{ACAD_REACTORS
330
47
102
}
330
47
100
AcDbScale
 70
     0
300
2:1
140
2.0
141
1.0
290
     0
  0
SCALE
  5
55
102
{ACAD_REACTORS
330
47
102
}
330
47
100
AcDbScale
 70
     0
300
4:1
140
4.0
141
1.0
290
     0
  0
SCALE
  5
56
102
{ACAD_REACTORS
330
47
102
}
330
47
100
AcDbScale
 70
     0
300
8:1
140
8.0
141
1.0
290
     0
  0
SCALE
  5
57
102
{ACAD_REACTORS
330
47
102
}
330
47
100
AcDbScale
 70
     0
300
10:1
140
10.0
141
1.0
290
     0
  0
SCALE
  5
58
102
{ACAD_REACTORS
330
47
102
}
330
47
100
AcDbScale
 70
     0
300
100:1
140
100.0
141
1.0
290
     0
  0
SCALE
  5
59
102
{ACAD_REACTORS
330
47
102
}
330
47
100
AcDbScale
 70
     0
300
1/128" = 1'-0"
140
0.0078125
141
12.0
290
     0
  0
SCALE
  5
5A
102
{ACAD_REACTORS
330
47
102
}
330
47
100
AcDbScale
 70
     0
300
1/64" = 1'-0"
140
0.015625
141
12.0
290
     0
  0
SCALE
  5
5B
102
{ACAD_REACTORS
330
47
102
}
330
47
100
AcDbScale
 70
     0
300
1/32" = 1'-0"
140
0.03125
141
12.0
290
     0
  0
SCALE
  5
5C
102
{ACAD_REACTORS
330
47
102
}
330
47
100
AcDbScale
 70
     0
300
1/16" = 1'-0"
140
0.0625
141
12.0
290
     0
  0
SCALE
  5
5D
102
{ACAD_REACTORS
330
47
102
}
330
47
100
AcDbScale
 70
     0
300
3/32" = 1'-0"
140
0.09375
141
12.0
290
     0
  0
SCALE
  5
5E
102
{ACAD_REACTORS
330
47
102
}
330
47
100
AcDbScale
 70
     0
300
1/8" = 1'-0"
140
0.125
141
12.0
290
     0
  0
SCALE
  5
5F
102
{ACAD_REACTORS
330
47
102
}
330
47
100
AcDbScale
 70
     0
300
3/16" = 1'-0"
140
0.1875
141
12.0
290
     0
  0
SCALE
  5
60
102
{ACAD_REACTORS
330
47
102
}
330
47
100
AcDbScale
 70
     0
300
1/4" = 1'-0"
140
0.25
141
12.0
290
     0
  0
SCALE
  5
61
102
{ACAD_REACTORS
330
47
102
}
330
47
100
AcDbScale
 70
     0
300
3/8" = 1'-0"
140
0.375
141
12.0
290
     0
  0
SCALE
  5
62
102
{ACAD_REACTORS
330
47
102
}
330
47
100
AcDbScale
 70
     0
300
1/2" = 1'-0"
140
0.5
141
12.0
290
     0
  0
SCALE
  5
63
102
{ACAD_REACTORS
330
47
102
}
330
47
100
AcDbScale
 70
     0
300
3/4" = 1'-0"
140
0.75
141
12.0
290
     0
  0
SCALE
  5
64
102
{ACAD_REACTORS
330
47
102
}
330
47
100
AcDbScale
 70
     0
300
1" = 1'-0"
140
1.0
141
12.0
290
     0
  0
SCALE
  5
65
102
{ACAD_REACTORS
330
47
102
}
330
47
100
AcDbScale
 70
     0
300
1-1/2" = 1'-0"
140
1.5
141
12.0
290
     0
  0
SCALE
  5
66
102
{ACAD_REACTORS
330
47
102
}
330
47
100
AcDbScale
 70
     0
300
3" = 1'-0"
140
3.0
141
12.0
290
     0
  0
SCALE
  5
67
102
{ACAD_REACTORS
330
47
102
}
330
47
100
AcDbScale
 70
     0
300
6" = 1'-0"
140
6.0
141
12.0
290
     0
  0
SCALE
  5
68
102
{ACAD_REACTORS
330
47
102
}
330
47
100
AcDbScale
 70
     0
300
1'-0" = 1'-0"
140
12.0
141
12.0
290
     0
  0
TABLESTYLE
  5
6A
102
{ACAD_REACTORS
330
69
102
}
102
{ACAD_XDICTIONARY
360
22E
102
}
330
69
100
AcDbTableStyle
  3
Standard
 70
     0
 71
     0
 40
0.06
 41
0.06
280
     0
281
     0
  7
Standard
140
0.18
170
     2
 62
     0
 63
   257
283
     0
 90
        4
 91
        0
  1

274
    -2
284
     1
 64
     0
275
    -2
285
     1
 65
     0
276
    -2
286
     1
 66
     0
277
    -2
287
     1
 67
     0
278
    -2
288
     1
 68
     0
279
    -2
289
     1
 69
     0
  7
Standard
140
0.25
170
     5
 62
     0
 63
   257
283
     0
 90
        4
 91
        0
  1

274
    -2
284
     1
 64
     0
275
    -2
285
     1
 65
     0
276
    -2
286
     1
 66
     0
277
    -2
287
     1
 67
     0
278
    -2
288
     1
 68
     0
279
    -2
289
     1
 69
     0
  7
Standard
140
0.18
170
     5
 62
     0
 63
   257
283
     0
 90
        4
 91
        0
  1

274
    -2
284
     1
 64
     0
275
    -2
285
     1
 65
     0
276
    -2
286
     1
 66
     0
277
    -2
287
     1
 67
     0
278
    -2
288
     1
 68
     0
279
    -2
289
     1
 69
     0
  0
VISUALSTYLE
  5
2F
102
{ACAD_REACTORS
330
2A
102
}
330
2A
100
AcDbVisualStyle
  2
2dWireframe
 70
     4
177
     3
291
     0
 70
    58
 90
        0
176
     1
 90
        2
176
     1
 90
        0
176
     1
 90
        0
176
     1
 40
0.6
176
     1
 40
30.0
176
     1
 62
     7
420
 16777215
176
     1
 90
        1
176
     1
 90
        4
176
     1
 62
     7
176
     1
 62
   257
176
     1
 90
        1
176
     1
 90
        1
176
     1
 40
1.0
176
     1
 90
        0
176
     1
 62
   257
176
     1
 40
1.0
176
     1
 90
        1
176
     1
 90
        6
176
     1
 90
        2
176
     1
 62
     7
176
     1
 90
        5
176
     1
 90
        0
176
     1
 90
        0
176
     1
290
     0
176
     1
 90
        1
176
     1
 40
0.0
176
     1
 90
        0
176
     1
290
     1
176
     1
290
     1
176
     1
290
     0
176
     1
290
     0
176
     1
290
     0
176
     1
290
     0
176
     1
290
     0
176
     1
290
     0
176
     1
290
     0
176
     1
 90
       50
176
     1
 40
0.0
176
     1
 40
1.0
176
     1
 90
        0
176
     1
 62
    18
420
        0
176
     1
 90
       50
176
     1
 90
        3
176
     1
 62
     5
420
      255
176
     1
290
     0
176
     1
 90
       50
176
     1
 90
       50
176
     1
 90
       50
176
     1
290
     0
176
     1
 90
       50
176
     1
 62
   256
176
     0
 40
1.0
176
     0
 90
        2
176
     1
  1
strokes_ogs.tif
176
     1
290
     0
176
     1
 40
1.0
176
     1
 40
1.0
176
     1
  0
VISUALSTYLE
  5
32
102
{ACAD_REACTORS
330
2A
102
}
330
2A
100
AcDbVisualStyle
  2
Basic
 70
     7
177
     3
291
     1
 70
    58
 90
        1
176
     1
 90
        0
176
     1
 90
        1
176
     1
 90
        0
176
     1
 40
0.6
176
     1
 40
30.0
176
     1
 62
     7
420
 16777215
176
     1
 90
        0
176
     1
 90
        4
176
     1
 62
     7
176
     1
 62
   257
176
     1
 90
        1
176
     1
 90
        1
176
     1
 40
1.0
176
     1
 90
        8
176
     1
 62
     7
176
     1
 40
1.0
176
     1
 90
        1
176
     1
 90
        6
176
     1
 90
        2
176
     1
 62
     7
176
     1
 90
        5
176
     1
 90
        0
176
     1
 90
        0
176
     1
290
     0
176
     1
 90
        1
176
     1
 40
0.0
176
     1
 90
        0
176
     1
290
     0
176
     1
290
     1
176
     1
290
     1
176
     1
290
     0
176
     1
290
     0
176
     1
290
     0
176
     1
290
     0
176
     1
290
     0
176
     1
290
     0
176
     1
 90
       50
176
     1
 40
0.0
176
     1
 40
1.0
176
     1
 90
        0
176
     1
 62
    18
420
        0
176
     1
 90
       50
176
     1
 90
        3
176
     1
 62
     5
420
      255
176
     1
290
     0
176
     1
 90
       50
176
     1
 90
       50
176
     1
 90
       50
176
     1
290
     0
176
     1
 90
       50
176
     1
 62
   256
176
     0
 40
1.0
176
     0
 90
        2
176
     1
  1
strokes_ogs.tif
176
     1
290
     0
176
     1
 40
1.0
176
     1
 40
1.0
176
     1
  0
VISUALSTYLE
  5
36
102
{ACAD_REACTORS
330
2A
102
}
330
2A
100
AcDbVisualStyle
  2
Brighten
 70
    12
177
     3
291
     1
 70
    58
 90
        2
176
     1
 90
        2
176
     1
 90
        0
176
     1
 90
        0
176
     1
 40
0.6
176
     1
 40
30.0
176
     1
 62
     7
420
 16777215
176
     1
 90
        1
176
     1
 90
        4
176
     1
 62
     7
176
     1
 62
   257
176
     1
 90
        1
176
     1
 90
        1
176
     1
 40
1.0
176
     1
 90
        8
176
     1
 62
     7
176
     1
 40
1.0
176
     1
 90
        1
176
     1
 90
        6
176
     1
 90
        2
176
     1
 62
     7
176
     1
 90
        5
176
     1
 90
        0
176
     1
 90
        0
176
     1
290
     0
176
     1
 90
        1
176
     1
 40
50.0
176
     1
 90
        0
176
     1
290
     0
176
     1
290
     1
176
     1
290
     1
176
     1
290
     0
176
     1
290
     0
176
     1
290
     0
176
     1
290
     0
176
     1
290
     0
176
     1
290
     0
176
     1
 90
       50
176
     1
 40
0.0
176
     1
 40
1.0
176
     1
 90
        0
176
     1
 62
    18
420
        0
176
     1
 90
       50
176
     1
 90
        3
176
     1
 62
     5
420
      255
176
     1
290
     0
176
     1
 90
       50
176
     1
 90
       50
176
     1
 90
       50
176
     1
290
     0
176
     1
 90
       50
176
     1
 62
   256
176
     0
 40
1.0
176
     0
 90
        2
176
     1
  1
strokes_ogs.tif
176
     1
290
     0
176
     1
 40
1.0
176
     1
 40
1.0
176
     1
  0
VISUALSTYLE
  5
3A
102
{ACAD_REACTORS
330
2A
102
}
330
2A
100
AcDbVisualStyle
  2
ColorChange
 70
    16
177
     3
291
     1
 70
    58
 90
        2
176
     1
 90
        2
176
     1
 90
        3
176
     1
 90
        0
176
     1
 40
0.6
176
     1
 40
30.0
176
     1
 62
     8
420
  8421504
176
     1
 90
        1
176
     1
 90
        4
176
     1
 62
     7
176
     1
 62
   257
176
     1
 90
        1
176
     1
 90
        1
176
     1
 40
1.0
176
     1
 90
        8
176
     1
 62
     8
420
  8421504
176
     1
 40
1.0
176
     1
 90
        1
176
     1
 90
        6
176
     1
 90
        2
176
     1
 62
     7
176
     1
 90
        5
176
     1
 90
        0
176
     1
 90
        0
176
     1
290
     0
176
     1
 90
        1
176
     1
 40
0.0
176
     1
 90
        0
176
     1
290
     0
176
     1
290
     1
176
     1
290
     1
176
     1
290
     0
176
     1
290
     0
176
     1
290
     0
176
     1
290
     0
176
     1
290
     0
176
     1
290
     0
176
     1
 90
       50
176
     1
 40
0.0
176
     1
 40
1.0
176
     1
 90
        0
176
     1
 62
    18
420
        0
176
     1
 90
       50
176
     1
 90
        3
176
     1
 62
     5
420
      255
176
     1
290
     0
176
     1
 90
       50
176
     1
 90
       50
176
     1
 90
       50
176
     1
290
     0
176
     1
 90
       50
176
     1
 62
   256
176
     0
 40
1.0
176
     0
 90
        2
176
     1
  1
strokes_ogs.tif
176
     1
290
     0
176
     1
 40
1.0
176
     1
 40
1.0
176
     1
  0
VISUALSTYLE
  5
34
102
{ACAD_REACTORS
330
2A
102
}
330
2A
100
AcDbVisualStyle
  2
Conceptual
 70
     9
177
     3
291
     0
 70
    58
 90
        3
176
     1
 90
        2
176
     1
 90
        0
176
     1
 90
        0
176
     1
 40
0.6
176
     1
 40
30.0
176
     1
 62
     7
420
 16777215
176
     1
 90
        2
176
     1
 90
        2
176
     1
 62
     7
176
     1
 62
   257
176
     1
 90
        1
176
     1
 90
        1
176
     1
 40
179.0
176
     1
 90
        8
176
     1
 62
     7
176
     1
 40
1.0
176
     1
 90
        1
176
     1
 90
        6
176
     1
 90
        2
176
     1
 62
     7
176
     1
 90
        3
176
     1
 90
        0
176
     1
 90
        0
176
     1
290
     0
176
     1
 90
        1
176
     1
 40
0.0
176
     1
 90
        0
176
     1
290
     0
176
     1
290
     1
176
     1
290
     1
176
     1
290
     0
176
     1
290
     0
176
     1
290
     0
176
     1
290
     0
176
     1
290
     0
176
     1
290
     0
176
     1
 90
       50
176
     1
 40
0.0
176
     1
 40
1.0
176
     1
 90
        0
176
     1
 62
    18
420
        0
176
     1
 90
       50
176
     1
 90
        3
176
     1
 62
     5
420
      255
176
     1
290
     0
176
     1
 90
       50
176
     1
 90
       50
176
     1
 90
       50
176
     1
290
     0
176
     1
 90
       50
176
     1
 62
   256
176
     0
 40
1.0
176
     0
 90
        2
176
     1
  1
strokes_ogs.tif
176
     1
290
     0
176
     1
 40
1.0
176
     1
 40
1.0
176
     1
  0
VISUALSTYLE
  5
35
102
{ACAD_REACTORS
330
2A
102
}
330
2A
100
AcDbVisualStyle
  2
Dim
 70
    11
177
     3
291
     1
 70
    58
 90
        2
176
     1
 90
        2
176
     1
 90
        0
176
     1
 90
        0
176
     1
 40
0.6
176
     1
 40
30.0
176
     1
 62
     7
420
 16777215
176
     1
 90
        1
176
     1
 90
        4
176
     1
 62
     7
176
     1
 62
   257
176
     1
 90
        1
176
     1
 90
        1
176
     1
 40
1.0
176
     1
 90
        8
176
     1
 62
     7
176
     1
 40
1.0
176
     1
 90
        1
176
     1
 90
        6
176
     1
 90
        2
176
     1
 62
     7
176
     1
 90
        5
176
     1
 90
        0
176
     1
 90
        0
176
     1
290
     0
176
     1
 90
        1
176
     1
 40
-50.0
176
     1
 90
        0
176
     1
290
     0
176
     1
290
     1
176
     1
290
     1
176
     1
290
     0
176
     1
290
     0
176
     1
290
     0
176
     1
290
     0
176
     1
290
     0
176
     1
290
     0
176
     1
 90
       50
176
     1
 40
0.0
176
     1
 40
1.0
176
     1
 90
        0
176
     1
 62
    18
420
        0
176
     1
 90
       50
176
     1
 90
        3
176
     1
 62
     5
420
      255
176
     1
290
     0
176
     1
 90
       50
176
     1
 90
       50
176
     1
 90
       50
176
     1
290
     0
176
     1
 90
       50
176
     1
 62
   256
176
     0
 40
1.0
176
     0
 90
        2
176
     1
  1
strokes_ogs.tif
176
     1
290
     0
176
     1
 40
1.0
176
     1
 40
1.0
176
     1
  0
VISUALSTYLE
  5
3D
102
{ACAD_REACTORS
330
2A
102
}
330
2A
100
AcDbVisualStyle
  2
EdgeColorOff
 70
    22
177
     3
291
     1
 70
    58
 90
        2
176
     0
 90
        2
176
     0
 90
        0
176
     0
 90
        0
176
     0
 40
0.6
176
     0
 40
30.0
176
     0
 62
     7
420
 16777215
176
     0
 90
        1
176
     0
 90
        4
176
     0
 62
     7
176
     0
 62
   257
176
     0
 90
        1
176
     0
 90
        1
176
     0
 40
1.0
176
     0
 90
        8
176
     2
 62
     7
176
     0
 40
1.0
176
     0
 90
        1
176
     0
 90
        6
176
     0
 90
        2
176
     0
 62
     7
176
     0
 90
        5
176
     0
 90
        0
176
     0
 90
        0
176
     0
290
     0
176
     0
 90
        1
176
     0
 40
0.0
176
     0
 90
        0
176
     0
290
     0
176
     0
290
     1
176
     0
290
     1
176
     0
290
     0
176
     0
290
     0
176
     0
290
     0
176
     0
290
     0
176
     0
290
     0
176
     0
290
     0
176
     0
 90
       50
176
     0
 40
0.0
176
     0
 40
1.0
176
     0
 90
        0
176
     0
 62
    18
420
        0
176
     0
 90
       50
176
     0
 90
        3
176
     0
 62
     5
420
      255
176
     0
290
     0
176
     0
 90
       50
176
     0
 90
       50
176
     0
 90
       50
176
     0
290
     0
176
     0
 90
       50
176
     0
 62
   256
176
     0
 40
1.0
176
     0
 90
        2
176
     0
  1
strokes_ogs.tif
176
     0
290
     0
176
     0
 40
1.0
176
     0
 40
1.0
176
     0
  0
VISUALSTYLE
  5
39
102
{ACAD_REACTORS
330
2A
102
}
330
2A
100
AcDbVisualStyle
  2
Facepattern
 70
    15
177
     3
291
     1
 70
    58
 90
        2
176
     1
 90
        2
176
     1
 90
        0
176
     1
 90
        0
176
     1
 40
0.6
176
     1
 40
30.0
176
     1
 62
     7
420
 16777215
176
     1
 90
        1
176
     1
 90
        4
176
     1
 62
     7
176
     1
 62
   257
176
     1
 90
        1
176
     1
 90
        1
176
     1
 40
1.0
176
     1
 90
        8
176
     1
 62
     7
176
     1
 40
1.0
176
     1
 90
        1
176
     1
 90
        6
176
     1
 90
        2
176
     1
 62
     7
176
     1
 90
        5
176
     1
 90
        0
176
     1
 90
        0
176
     1
290
     0
176
     1
 90
        1
176
     1
 40
0.0
176
     1
 90
        0
176
     1
290
     0
176
     1
290
     1
176
     1
290
     1
176
     1
290
     0
176
     1
290
     0
176
     1
290
     0
176
     1
290
     0
176
     1
290
     0
176
     1
290
     0
176
     1
 90
       50
176
     1
 40
0.0
176
     1
 40
1.0
176
     1
 90
        0
176
     1
 62
    18
420
        0
176
     1
 90
       50
176
     1
 90
        3
176
     1
 62
     5
420
      255
176
     1
290
     0
176
     1
 90
       50
176
     1
 90
       50
176
     1
 90
       50
176
     1
290
     0
176
     1
 90
       50
176
     1
 62
   256
176
     0
 40
1.0
176
     0
 90
        2
176
     1
  1
strokes_ogs.tif
176
     1
290
     0
176
     1
 40
1.0
176
     1
 40
1.0
176
     1
  0
VISUALSTYLE
  5
2B
102
{ACAD_REACTORS
330
2A
102
}
330
2A
100
AcDbVisualStyle
  2
Flat
 70
     0
177
     3
291
     1
 70
    58
 90
        2
176
     1
 90
        1
176
     1
 90
        1
176
     1
 90
        2
176
     1
 40
0.6
176
     1
 40
30.0
176
     1
 62
     7
420
 16777215
176
     1
 90
        0
176
     1
 90
        0
176
     1
 62
     7
176
     1
 62
   257
176
     1
 90
        1
176
     1
 90
        1
176
     1
 40
1.0
176
     1
 90
        8
176
     1
 62
     7
176
     1
 40
1.0
176
     1
 90
        1
176
     1
 90
        6
176
     1
 90
        2
176
     1
 62
     7
176
     1
 90
        5
176
     1
 90
        0
176
     1
 90
        0
176
     1
290
     0
176
     1
 90
       13
176
     1
 40
0.0
176
     1
 90
        0
176
     1
290
     0
176
     1
290
     1
176
     1
290
     1
176
     1
290
     0
176
     1
290
     0
176
     1
290
     0
176
     1
290
     0
176
     1
290
     0
176
     1
290
     0
176
     1
 90
       50
176
     1
 40
0.0
176
     1
 40
1.0
176
     1
 90
        0
176
     1
 62
    18
420
        0
176
     1
 90
       50
176
     1
 90
        3
176
     1
 62
     5
420
      255
176
     1
290
     0
176
     1
 90
       50
176
     1
 90
       50
176
     1
 90
       50
176
     1
290
     0
176
     1
 90
       50
176
     1
 62
   256
176
     0
 40
1.0
176
     0
 90
        2
176
     1
  1
strokes_ogs.tif
176
     1
290
     0
176
     1
 40
1.0
176
     1
 40
1.0
176
     1
  0
VISUALSTYLE
  5
2C
102
{ACAD_REACTORS
330
2A
102
}
330
2A
100
AcDbVisualStyle
  2
FlatWithEdges
 70
     1
177
     3
291
     1
 70
    58
 90
        2
176
     1
 90
        1
176
     1
 90
        1
176
     1
 90
        2
176
     1
 40
0.6
176
     1
 40
30.0
176
     1
 62
     7
420
 16777215
176
     1
 90
        1
176
     1
 90
        0
176
     1
 62
     7
176
     1
 62
   257
176
     1
 90
        1
176
     1
 90
        1
176
     1
 40
1.0
176
     1
 90
        0
176
     1
 62
   257
176
     1
 40
1.0
176
     1
 90
        1
176
     1
 90
        6
176
     1
 90
        2
176
     1
 62
     7
176
     1
 90
        5
176
     1
 90
        0
176
     1
 90
        0
176
     1
290
     0
176
     1
 90
       13
176
     1
 40
0.0
176
     1
 90
        0
176
     1
290
     0
176
     1
290
     1
176
     1
290
     1
176
     1
290
     0
176
     1
290
     0
176
     1
290
     0
176
     1
290
     0
176
     1
290
     0
176
     1
290
     0
176
     1
 90
       50
176
     1
 40
0.0
176
     1
 40
1.0
176
     1
 90
        0
176
     1
 62
    18
420
        0
176
     1
 90
       50
176
     1
 90
        3
176
     1
 62
     5
420
      255
176
     1
290
     0
176
     1
 90
       50
176
     1
 90
       50
176
     1
 90
       50
176
     1
290
     0
176
     1
 90
       50
176
     1
 62
   256
176
     0
 40
1.0
176
     0
 90
        2
176
     1
  1
strokes_ogs.tif
176
     1
290
     0
176
     1
 40
1.0
176
     1
 40
1.0
176
     1
  0
VISUALSTYLE
  5
2D
102
{ACAD_REACTORS
330
2A
102
}
330
2A
100
AcDbVisualStyle
  2
Gouraud
 70
     2
177
     3
291
     1
 70
    58
 90
        2
176
     1
 90
        2
176
     1
 90
        1
176
     1
 90
        2
176
     1
 40
0.6
176
     1
 40
30.0
176
     1
 62
     7
420
 16777215
176
     1
 90
        0
176
     1
 90
        0
176
     1
 62
     7
176
     1
 62
   257
176
     1
 90
        1
176
     1
 90
        1
176
     1
 40
1.0
176
     1
 90
        0
176
     1
 62
     7
176
     1
 40
1.0
176
     1
 90
        1
176
     1
 90
        6
176
     1
 90
        2
176
     1
 62
     7
176
     1
 90
        5
176
     1
 90
        0
176
     1
 90
        0
176
     1
290
     0
176
     1
 90
       13
176
     1
 40
0.0
176
     1
 90
        0
176
     1
290
     0
176
     1
290
     1
176
     1
290
     1
176
     1
290
     0
176
     1
290
     0
176
     1
290
     0
176
     1
290
     0
176
     1
290
     0
176
     1
290
     0
176
     1
 90
       50
176
     1
 40
0.0
176
     1
 40
1.0
176
     1
 90
        0
176
     1
 62
    18
420
        0
176
     1
 90
       50
176
     1
 90
        3
176
     1
 62
     5
420
      255
176
     1
290
     0
176
     1
 90
       50
176
     1
 90
       50
176
     1
 90
       50
176
     1
290
     0
176
     1
 90
       50
176
     1
 62
   256
176
     0
 40
1.0
176
     0
 90
        2
176
     1
  1
strokes_ogs.tif
176
     1
290
     0
176
     1
 40
1.0
176
     1
 40
1.0
176
     1
  0
VISUALSTYLE
  5
2E
102
{ACAD_REACTORS
330
2A
102
}
330
2A
100
AcDbVisualStyle
  2
GouraudWithEdges
 70
     3
177
     3
291
     1
 70
    58
 90
        2
176
     1
 90
        2
176
     1
 90
        1
176
     1
 90
        2
176
     1
 40
0.6
176
     1
 40
30.0
176
     1
 62
     7
420
 16777215
176
     1
 90
        1
176
     1
 90
        0
176
     1
 62
     7
176
     1
 62
   257
176
     1
 90
        1
176
     1
 90
        1
176
     1
 40
1.0
176
     1
 90
        0
176
     1
 62
   257
176
     1
 40
1.0
176
     1
 90
        1
176
     1
 90
        6
176
     1
 90
        2
176
     1
 62
     7
176
     1
 90
        5
176
     1
 90
        0
176
     1
 90
        0
176
     1
290
     0
176
     1
 90
       13
176
     1
 40
0.0
176
     1
 90
        0
176
     1
290
     0
176
     1
290
     1
176
     1
290
     1
176
     1
290
     0
176
     1
290
     0
176
     1
290
     0
176
     1
290
     0
176
     1
290
     0
176
     1
290
     0
176
     1
 90
       50
176
     1
 40
0.0
176
     1
 40
1.0
176
     1
 90
        0
176
     1
 62
    18
420
        0
176
     1
 90
       50
176
     1
 90
        3
176
     1
 62
     5
420
      255
176
     1
290
     0
176
     1
 90
       50
176
     1
 90
       50
176
     1
 90
       50
176
     1
290
     0
176
     1
 90
       50
176
     1
 62
   256
176
     0
 40
1.0
176
     0
 90
        2
176
     1
  1
strokes_ogs.tif
176
     1
290
     0
176
     1
 40
1.0
176
     1
 40
1.0
176
     1
  0
VISUALSTYLE
  5
31
102
{ACAD_REACTORS
330
2A
102
}
330
2A
100
AcDbVisualStyle
  2
Hidden
 70
     6
177
     3
291
     0
 70
    58
 90
        1
176
     1
 90
        2
176
     1
 90
        2
176
     1
 90
        0
176
     1
 40
0.6
176
     1
 40
30.0
176
     1
 62
     7
420
 16777215
176
     1
 90
        2
176
     1
 90
        2
176
     1
 62
     7
176
     1
 62
   257
176
     1
 90
        2
176
     1
 90
        1
176
     1
 40
40.0
176
     1
 90
        0
176
     1
 62
   257
176
     1
 40
1.0
176
     1
 90
        1
176
     1
 90
        6
176
     1
 90
        2
176
     1
 62
     7
176
     1
 90
        3
176
     1
 90
        0
176
     1
 90
        0
176
     1
290
     0
176
     1
 90
        1
176
     1
 40
0.0
176
     1
 90
        0
176
     1
290
     0
176
     1
290
     1
176
     1
290
     1
176
     1
290
     0
176
     1
290
     0
176
     1
290
     0
176
     1
290
     0
176
     1
290
     0
176
     1
290
     0
176
     1
 90
       50
176
     1
 40
0.0
176
     1
 40
1.0
176
     1
 90
        0
176
     1
 62
    18
420
        0
176
     1
 90
       50
176
     1
 90
        3
176
     1
 62
     5
420
      255
176
     1
290
     0
176
     1
 90
       50
176
     1
 90
       50
176
     1
 90
       50
176
     1
290
     0
176
     1
 90
       50
176
     1
 62
   256
176
     0
 40
1.0
176
     0
 90
        2
176
     1
  1
strokes_ogs.tif
176
     1
290
     0
176
     1
 40
1.0
176
     1
 40
1.0
176
     1
  0
VISUALSTYLE
  5
3B
102
{ACAD_REACTORS
330
2A
102
}
330
2A
100
AcDbVisualStyle
  2
JitterOff
 70
    20
177
     3
291
     1
 70
    58
 90
        2
176
     0
 90
        2
176
     0
 90
        0
176
     0
 90
        0
176
     0
 40
0.6
176
     0
 40
30.0
176
     0
 62
     7
420
 16777215
176
     0
 90
        1
176
     0
 90
        4
176
     0
 62
     7
176
     0
 62
   257
176
     0
 90
        1
176
     0
 90
        1
176
     0
 40
1.0
176
     0
 90
       10
176
     2
 62
     7
176
     0
 40
1.0
176
     0
 90
        1
176
     0
 90
        6
176
     0
 90
        2
176
     0
 62
     7
176
     0
 90
        5
176
     0
 90
        0
176
     0
 90
        0
176
     0
290
     0
176
     0
 90
        1
176
     0
 40
0.0
176
     0
 90
        0
176
     0
290
     0
176
     0
290
     1
176
     0
290
     1
176
     0
290
     0
176
     0
290
     0
176
     0
290
     0
176
     0
290
     0
176
     0
290
     0
176
     0
290
     0
176
     0
 90
       50
176
     0
 40
0.0
176
     0
 40
1.0
176
     0
 90
        0
176
     0
 62
    18
420
        0
176
     0
 90
       50
176
     0
 90
        3
176
     0
 62
     5
420
      255
176
     0
290
     0
176
     0
 90
       50
176
     0
 90
       50
176
     0
 90
       50
176
     0
290
     0
176
     0
 90
       50
176
     0
 62
   256
176
     0
 40
1.0
176
     0
 90
        2
176
     0
  1
strokes_ogs.tif
176
     0
290
     0
176
     0
 40
1.0
176
     0
 40
1.0
176
     0
  0
VISUALSTYLE
  5
38
102
{ACAD_REACTORS
330
2A
102
}
330
2A
100
AcDbVisualStyle
  2
Linepattern
 70
    14
177
     3
291
     1
 70
    58
 90
        2
176
     1
 90
        2
176
     1
 90
        0
176
     1
 90
        0
176
     1
 40
0.6
176
     1
 40
30.0
176
     1
 62
     7
420
 16777215
176
     1
 90
        1
176
     1
 90
        4
176
     1
 62
     7
176
     1
 62
   257
176
     1
 90
        7
176
     1
 90
        7
176
     1
 40
1.0
176
     1
 90
        8
176
     1
 62
     7
176
     1
 40
1.0
176
     1
 90
        1
176
     1
 90
        6
176
     1
 90
        2
176
     1
 62
     7
176
     1
 90
        5
176
     1
 90
        0
176
     1
 90
        0
176
     1
290
     0
176
     1
 90
        1
176
     1
 40
0.0
176
     1
 90
        0
176
     1
290
     0
176
     1
290
     1
176
     1
290
     1
176
     1
290
     0
176
     1
290
     0
176
     1
290
     0
176
     1
290
     0
176
     1
290
     0
176
     1
290
     0
176
     1
 90
       50
176
     1
 40
0.0
176
     1
 40
1.0
176
     1
 90
        0
176
     1
 62
    18
420
        0
176
     1
 90
       50
176
     1
 90
        3
176
     1
 62
     5
420
      255
176
     1
290
     0
176
     1
 90
       50
176
     1
 90
       50
176
     1
 90
       50
176
     1
290
     0
176
     1
 90
       50
176
     1
 62
   256
176
     0
 40
1.0
176
     0
 90
        2
176
     1
  1
strokes_ogs.tif
176
     1
290
     0
176
     1
 40
1.0
176
     1
 40
1.0
176
     1
  0
VISUALSTYLE
  5
3C
102
{ACAD_REACTORS
330
2A
102
}
330
2A
100
AcDbVisualStyle
  2
OverhangOff
 70
    21
177
     3
291
     1
 70
    58
 90
        2
176
     0
 90
        2
176
     0
 90
        0
176
     0
 90
        0
176
     0
 40
0.6
176
     0
 40
30.0
176
     0
 62
     7
420
 16777215
176
     0
 90
        1
176
     0
 90
        4
176
     0
 62
     7
176
     0
 62
   257
176
     0
 90
        1
176
     0
 90
        1
176
     0
 40
1.0
176
     0
 90
        9
176
     2
 62
     7
176
     0
 40
1.0
176
     0
 90
        1
176
     0
 90
        6
176
     0
 90
        2
176
     0
 62
     7
176
     0
 90
        5
176
     0
 90
        0
176
     0
 90
        0
176
     0
290
     0
176
     0
 90
        1
176
     0
 40
0.0
176
     0
 90
        0
176
     0
290
     0
176
     0
290
     1
176
     0
290
     1
176
     0
290
     0
176
     0
290
     0
176
     0
290
     0
176
     0
290
     0
176
     0
290
     0
176
     0
290
     0
176
     0
 90
       50
176
     0
 40
0.0
176
     0
 40
1.0
176
     0
 90
        0
176
     0
 62
    18
420
        0
176
     0
 90
       50
176
     0
 90
        3
176
     0
 62
     5
420
      255
176
     0
290
     0
176
     0
 90
       50
176
     0
 90
       50
176
     0
 90
       50
176
     0
290
     0
176
     0
 90
       50
176
     0
 62
   256
176
     0
 40
1.0
176
     0
 90
        2
176
     0
  1
strokes_ogs.tif
176
     0
290
     0
176
     0
 40
1.0
176
     0
 40
1.0
176
     0
  0
VISUALSTYLE
  5
33
102
{ACAD_REACTORS
330
2A
102
}
330
2A
100
AcDbVisualStyle
  2
Realistic
 70
     8
177
     3
291
     0
 70
    58
 90
        2
176
     1
 90
        3
176
     1
 90
        0
176
     1
 90
        2
176
     1
 40
0.6
176
     1
 40
30.0
176
     1
 62
     7
420
 16777215
176
     1
 90
        0
176
     1
 90
        0
176
     1
 62
     7
176
     1
 62
   257
176
     1
 90
        1
176
     1
 90
        1
176
     1
 40
1.0
176
     1
 90
        8
176
     1
 62
   257
176
     1
 40
1.0
176
     1
 90
        1
176
     1
 90
        6
176
     1
 90
        2
176
     1
 62
     7
176
     1
 90
        3
176
     1
 90
        0
176
     1
 90
        0
176
     1
290
     0
176
     1
 90
       13
176
     1
 40
0.0
176
     1
 90
        0
176
     1
290
     0
176
     1
290
     1
176
     1
290
     1
176
     1
290
     0
176
     1
290
     0
176
     1
290
     0
176
     1
290
     0
176
     1
290
     0
176
     1
290
     0
176
     1
 90
       50
176
     1
 40
0.0
176
     1
 40
1.0
176
     1
 90
        0
176
     1
 62
    18
420
        0
176
     1
 90
       50
176
     1
 90
        3
176
     1
 62
     5
420
      255
176
     1
290
     0
176
     1
 90
       50
176
     1
 90
       50
176
     1
 90
       50
176
     1
290
     0
176
     1
 90
       50
176
     1
 62
   256
176
     0
 40
1.0
176
     0
 90
        2
176
     1
  1
strokes_ogs.tif
176
     1
290
     0
176
     1
 40
1.0
176
     1
 40
1.0
176
     1
  0
VISUALSTYLE
  5
42
102
{ACAD_REACTORS
330
2A
102
}
330
2A
100
AcDbVisualStyle
  2
Shaded
 70
    27
177
     3
291
     0
 70
    58
 90
        2
176
     1
 90
        2
176
     1
 90
        1
176
     1
 90
        2
176
     1
 40
0.6
176
     1
 40
30.0
176
     1
 62
     7
420
 16777215
176
     1
 90
        0
176
     1
 90
        4
176
     1
 62
     7
176
     1
 62
   257
176
     1
 90
        1
176
     1
 90
        1
176
     1
 40
1.0
176
     1
 90
        8
176
     1
 62
   257
176
     1
 40
1.0
176
     1
 90
        1
176
     1
 90
        6
176
     1
 90
        2
176
     1
 62
     8
420
  7895160
176
     1
 90
        3
176
     1
 90
        0
176
     1
 90
        0
176
     1
290
     0
176
     1
 90
        5
176
     1
 40
0.0
176
     1
 90
        0
176
     1
290
     0
176
     1
290
     1
176
     1
290
     1
176
     1
290
     0
176
     1
290
     0
176
     1
290
     0
176
     1
290
     0
176
     1
290
     0
176
     1
290
     0
176
     1
 90
       50
176
     1
 40
0.0
176
     1
 40
1.0
176
     1
 90
        0
176
     1
 62
    18
420
        0
176
     1
 90
       50
176
     1
 90
        3
176
     1
 62
     5
420
      255
176
     1
290
     0
176
     1
 90
       50
176
     1
 90
       50
176
     1
 90
       50
176
     1
290
     0
176
     1
 90
       50
176
     1
 62
   256
176
     0
 40
1.0
176
     0
 90
        2
176
     1
  1
strokes_ogs.tif
176
     1
290
     0
176
     1
 40
1.0
176
     1
 40
1.0
176
     1
  0
VISUALSTYLE
  5
41
102
{ACAD_REACTORS
330
2A
102
}
330
2A
100
AcDbVisualStyle
  2
Shaded with edges
 70
    26
177
     3
291
     0
 70
    58
 90
        2
176
     1
 90
        2
176
     1
 90
        1
176
     1
 90
        2
176
     1
 40
0.6
176
     1
 40
30.0
176
     1
 62
     7
420
 16777215
176
     1
 90
        1
176
     1
 90
       10
176
     1
 62
     7
176
     1
 62
   257
176
     1
 90
        2
176
     1
 90
        1
176
     1
 40
1.0
176
     1
 90
        8
176
     1
 62
   257
176
     1
 40
1.0
176
     1
 90
        1
176
     1
 90
        6
176
     1
 90
        2
176
     1
 62
     7
176
     1
 90
        3
176
     1
 90
        0
176
     1
 90
        0
176
     1
290
     0
176
     1
 90
        5
176
     1
 40
0.0
176
     1
 90
        0
176
     1
290
     0
176
     1
290
     1
176
     1
290
     1
176
     1
290
     0
176
     1
290
     0
176
     1
290
     0
176
     1
290
     0
176
     1
290
     0
176
     1
290
     0
176
     1
 90
       50
176
     1
 40
0.0
176
     1
 40
1.0
176
     1
 90
        0
176
     1
 62
    18
420
        0
176
     1
 90
       50
176
     1
 90
        3
176
     1
 62
     5
420
      255
176
     1
290
     0
176
     1
 90
       50
176
     1
 90
       50
176
     1
 90
       50
176
     1
290
     0
176
     1
 90
       50
176
     1
 62
   256
176
     0
 40
1.0
176
     0
 90
        2
176
     1
  1
strokes_ogs.tif
176
     1
290
     0
176
     1
 40
1.0
176
     1
 40
1.0
176
     1
  0
VISUALSTYLE
  5
3E
102
{ACAD_REACTORS
330
2A
102
}
330
2A
100
AcDbVisualStyle
  2
Shades of Gray
 70
    23
177
     3
291
     0
 70
    58
 90
        2
176
     1
 90
        2
176
     1
 90
        3
176
     1
 90
        0
176
     1
 40
0.6
176
     1
 40
30.0
176
     1
 62
     7
420
 16777215
176
     1
 90
        2
176
     1
 90
        2
176
     1
 62
     7
176
     1
 62
     7
176
     1
 90
        1
176
     1
 90
        1
176
     1
 40
40.0
176
     1
 90
        8
176
     1
 62
     7
176
     1
 40
1.0
176
     1
 90
        1
176
     1
 90
        6
176
     1
 90
        2
176
     1
 62
     7
176
     1
 90
        3
176
     1
 90
        0
176
     1
 90
        0
176
     1
290
     0
176
     1
 90
        1
176
     1
 40
0.0
176
     1
 90
        0
176
     1
290
     0
176
     1
290
     1
176
     1
290
     1
176
     1
290
     0
176
     1
290
     0
176
     1
290
     0
176
     1
290
     0
176
     1
290
     0
176
     1
290
     0
176
     1
 90
       50
176
     1
 40
0.0
176
     1
 40
1.0
176
     1
 90
        0
176
     1
 62
    18
420
        0
176
     1
 90
       50
176
     1
 90
        3
176
     1
 62
     5
420
      255
176
     1
290
     0
176
     1
 90
       50
176
     1
 90
       50
176
     1
 90
       50
176
     1
290
     0
176
     1
 90
       50
176
     1
 62
   256
176
     0
 40
1.0
176
     0
 90
        2
176
     1
  1
strokes_ogs.tif
176
     1
290
     0
176
     1
 40
1.0
176
     1
 40
1.0
176
     1
  0
VISUALSTYLE
  5
3F
102
{ACAD_REACTORS
330
2A
102
}
330
2A
100
AcDbVisualStyle
  2
Sketchy
 70
    24
177
     3
291
     0
 70
    58
 90
        1
176
     1
 90
        2
176
     1
 90
        2
176
     1
 90
        0
176
     1
 40
0.6
176
     1
 40
30.0
176
     1
 62
     7
420
 16777215
176
     1
 90
        2
176
     1
 90
        2
176
     1
 62
     7
176
     1
 62
     7
176
     1
 90
        1
176
     1
 90
        1
176
     1
 40
40.0
176
     1
 90
       11
176
     1
 62
     7
176
     1
 40
1.0
176
     1
 90
        1
176
     1
 90
        6
176
     1
 90
        2
176
     1
 62
     7
176
     1
 90
        6
176
     1
 90
        0
176
     1
 90
        0
176
     1
290
     0
176
     1
 90
        1
176
     1
 40
0.0
176
     1
 90
        0
176
     1
290
     0
176
     1
290
     1
176
     1
290
     1
176
     1
290
     0
176
     1
290
     0
176
     1
290
     0
176
     1
290
     0
176
     1
290
     0
176
     1
290
     0
176
     1
 90
       50
176
     1
 40
0.0
176
     1
 40
1.0
176
     1
 90
        0
176
     1
 62
    18
420
        0
176
     1
 90
       50
176
     1
 90
        3
176
     1
 62
     5
420
      255
176
     1
290
     0
176
     1
 90
       50
176
     1
 90
       50
176
     1
 90
       50
176
     1
290
     0
176
     1
 90
       50
176
     1
 62
   256
176
     0
 40
1.0
176
     0
 90
        2
176
     1
  1
strokes_ogs.tif
176
     1
290
     0
176
     1
 40
1.0
176
     1
 40
1.0
176
     1
  0
VISUALSTYLE
  5
37
102
{ACAD_REACTORS
330
2A
102
}
330
2A
100
AcDbVisualStyle
  2
Thicken
 70
    13
177
     3
291
     1
 70
    58
 90
        2
176
     1
 90
        2
176
     1
 90
        0
176
     1
 90
        0
176
     1
 40
0.6
176
     1
 40
30.0
176
     1
 62
     7
420
 16777215
176
     1
 90
        1
176
     1
 90
        4
176
     1
 62
     7
176
     1
 62
   257
176
     1
 90
        1
176
     1
 90
        1
176
     1
 40
1.0
176
     1
 90
       12
176
     1
 62
     7
176
     1
 40
1.0
176
     1
 90
        1
176
     1
 90
        6
176
     1
 90
        2
176
     1
 62
     7
176
     1
 90
        5
176
     1
 90
        0
176
     1
 90
        0
176
     1
290
     0
176
     1
 90
        1
176
     1
 40
0.0
176
     1
 90
        0
176
     1
290
     0
176
     1
290
     1
176
     1
290
     1
176
     1
290
     0
176
     1
290
     0
176
     1
290
     0
176
     1
290
     0
176
     1
290
     0
176
     1
290
     0
176
     1
 90
       50
176
     1
 40
0.0
176
     1
 40
1.0
176
     1
 90
        0
176
     1
 62
    18
420
        0
176
     1
 90
       50
176
     1
 90
        3
176
     1
 62
     5
420
      255
176
     1
290
     0
176
     1
 90
       50
176
     1
 90
       50
176
     1
 90
       50
176
     1
290
     0
176
     1
 90
       50
176
     1
 62
   256
176
     0
 40
1.0
176
     0
 90
        2
176
     1
  1
strokes_ogs.tif
176
     1
290
     0
176
     1
 40
1.0
176
     1
 40
1.0
176
     1
  0
VISUALSTYLE
  5
30
102
{ACAD_REACTORS
330
2A
102
}
330
2A
100
AcDbVisualStyle
  2
Wireframe
 70
     5
177
     3
291
     0
 70
    58
 90
        0
176
     1
 90
        2
176
     1
 90
        0
176
     1
 90
        0
176
     1
 40
0.6
176
     1
 40
30.0
176
     1
 62
     7
420
 16777215
176
     1
 90
        1
176
     1
 90
        4
176
     1
 62
     7
176
     1
 62
   257
176
     1
 90
        1
176
     1
 90
        1
176
     1
 40
1.0
176
     1
 90
        0
176
     1
 62
   257
176
     1
 40
1.0
176
     1
 90
        1
176
     1
 90
        6
176
     1
 90
        2
176
     1
 62
     7
176
     1
 90
        3
176
     1
 90
        0
176
     1
 90
        0
176
     1
290
     0
176
     1
 90
        1
176
     1
 40
0.0
176
     1
 90
        0
176
     1
290
     0
176
     1
290
     1
176
     1
290
     1
176
     1
290
     0
176
     1
290
     0
176
     1
290
     0
176
     1
290
     0
176
     1
290
     0
176
     1
290
     0
176
     1
 90
       50
176
     1
 40
0.0
176
     1
 40
1.0
176
     1
 90
        0
176
     1
 62
    18
420
        0
176
     1
 90
       50
176
     1
 90
        3
176
     1
 62
     5
420
      255
176
     1
290
     0
176
     1
 90
       50
176
     1
 90
       50
176
     1
 90
       50
176
     1
290
     0
176
     1
 90
       50
176
     1
 62
   256
176
     0
 40
1.0
176
     0
 90
        2
176
     1
  1
strokes_ogs.tif
176
     1
290
     0
176
     1
 40
1.0
176
     1
 40
1.0
176
     1
  0
VISUALSTYLE
  5
40
102
{ACAD_REACTORS
330
2A
102
}
330
2A
100
AcDbVisualStyle
  2
X-Ray
 70
    25
177
     3
291
     0
 70
    58
 90
        2
176
     1
 90
        2
176
     1
 90
        1
176
     1
 90
        1
176
     1
 40
0.5
176
     1
 40
30.0
176
     1
 62
     7
420
 16777215
176
     1
 90
        1
176
     1
 90
        0
176
     1
 62
     7
176
     1
 62
   257
176
     1
 90
        1
176
     1
 90
        1
176
     1
 40
1.0
176
     1
 90
        8
176
     1
 62
     7
176
     1
 40
1.0
176
     1
 90
        1
176
     1
 90
        6
176
     1
 90
        2
176
     1
 62
     7
176
     1
 90
        3
176
     1
 90
        0
176
     1
 90
        0
176
     1
290
     0
176
     1
 90
       13
176
     1
 40
0.0
176
     1
 90
        0
176
     1
290
     0
176
     1
290
     1
176
     1
290
     1
176
     1
290
     0
176
     1
290
     0
176
     1
290
     0
176
     1
290
     0
176
     1
290
     0
176
     1
290
     0
176
     1
 90
       50
176
     1
 40
0.0
176
     1
 40
1.0
176
     1
 90
        0
176
     1
 62
    18
420
        0
176
     1
 90
       50
176
     1
 90
        3
176
     1
 62
     5
420
      255
176
     1
290
     0
176
     1
 90
       50
176
     1
 90
       50
176
     1
 90
       50
176
     1
290
     0
176
     1
 90
       50
176
     1
 62
   256
176
     0
 40
1.0
176
     0
 90
        2
176
     1
  1
strokes_ogs.tif
176
     1
290
     0
176
     1
 40
1.0
176
     1
 40
1.0
176
     1
  0
DICTIONARYVAR
  5
22D
102
{ACAD_REACTORS
330
22C
102
}
330
22C
100
DictionaryVariables
280
     0
  1
1:1
  0
DICTIONARYVAR
  5
232
102
{ACAD_REACTORS
330
22C
102
}
330
22C
100
DictionaryVariables
280
     0
  1
Standard
  0
DICTIONARYVAR
  5
231
102
{ACAD_REACTORS
330
22C
102
}
330
22C
100
DictionaryVariables
280
     0
  1
Standard
  0
DICTIONARY
  5
22E
330
6A
100
AcDbDictionary
280
     1
281
     1
  3
ACAD_ROUNDTRIP_2008_TABLESTYLE_CELLSTYLEMAP
360
22F
  0
CELLSTYLEMAP
  5
22F
102
{ACAD_REACTORS
330
22E
102
}
330
22E
100
AcDbCellStyleMap
 90
        3
300
CELLSTYLE
  1
TABLEFORMAT_BEGIN
 90
        5
170
     1
 91
        0
 92
    32768
 62
   257
 93
        1
300
CONTENTFORMAT
  1
CONTENTFORMAT_BEGIN
 90
        0
 91
        0
 92
        4
 93
        0
300

 40
0.0
140
1.0
 94
        5
 62
     0
340
11
144
0.25
309
CONTENTFORMAT_END
171
     1
301
MARGIN
  1
CELLMARGIN_BEGIN
 40
0.06
 40
0.06
 40
0.06
 40
0.06
 40
0.06
 40
0.06
309
CELLMARGIN_END
 94
        6
 95
        1
302
GRIDFORMAT
  1
GRIDFORMAT_BEGIN
 90
        0
 91
        1
 62
     0
 92
       -2
340
14
 93
        0
 40
0.045
309
GRIDFORMAT_END
 95
        2
302
GRIDFORMAT
  1
GRIDFORMAT_BEGIN
 90
        0
 91
        1
 62
     0
 92
       -2
340
14
 93
        0
 40
0.045
309
GRIDFORMAT_END
 95
        4
302
GRIDFORMAT
  1
GRIDFORMAT_BEGIN
 90
        0
 91
        1
 62
     0
 92
       -2
340
14
 93
        0
 40
0.045
309
GRIDFORMAT_END
 95
        8
302
GRIDFORMAT
  1
GRIDFORMAT_BEGIN
 90
        0
 91
        1
 62
     0
 92
       -2
340
14
 93
        0
 40
0.045
309
GRIDFORMAT_END
 95
       16
302
GRIDFORMAT
  1
GRIDFORMAT_BEGIN
 90
        0
 91
        1
 62
     0
 92
       -2
340
14
 93
        0
 40
0.045
309
GRIDFORMAT_END
 95
       32
302
GRIDFORMAT
  1
GRIDFORMAT_BEGIN
 90
        0
 91
        1
 62
     0
 92
       -2
340
14
 93
        0
 40
0.045
309
GRIDFORMAT_END
309
TABLEFORMAT_END
  1
CELLSTYLE_BEGIN
 90
        1
 91
        1
300
_TITLE
309
CELLSTYLE_END
300
CELLSTYLE
  1
TABLEFORMAT_BEGIN
 90
        5
170
     1
 91
        0
 92
        0
 62
   257
 93
        1
300
CONTENTFORMAT
  1
CONTENTFORMAT_BEGIN
 90
        0
 91
        0
 92
        4
 93
        0
300

 40
0.0
140
1.0
 94
        5
 62
     0
340
11
144
0.18
309
CONTENTFORMAT_END
171
     1
301
MARGIN
  1
CELLMARGIN_BEGIN
 40
0.06
 40
0.06
 40
0.06
 40
0.06
 40
0.06
 40
0.06
309
CELLMARGIN_END
 94
        6
 95
        1
302
GRIDFORMAT
  1
GRIDFORMAT_BEGIN
 90
        0
 91
        1
 62
     0
 92
       -2
340
14
 93
        0
 40
0.045
309
GRIDFORMAT_END
 95
        2
302
GRIDFORMAT
  1
GRIDFORMAT_BEGIN
 90
        0
 91
        1
 62
     0
 92
       -2
340
14
 93
        0
 40
0.045
309
GRIDFORMAT_END
 95
        4
302
GRIDFORMAT
  1
GRIDFORMAT_BEGIN
 90
        0
 91
        1
 62
     0
 92
       -2
340
14
 93
        0
 40
0.045
309
GRIDFORMAT_END
 95
        8
302
GRIDFORMAT
  1
GRIDFORMAT_BEGIN
 90
        0
 91
        1
 62
     0
 92
       -2
340
14
 93
        0
 40
0.045
309
GRIDFORMAT_END
 95
       16
302
GRIDFORMAT
  1
GRIDFORMAT_BEGIN
 90
        0
 91
        1
 62
     0
 92
       -2
340
14
 93
        0
 40
0.045
309
GRIDFORMAT_END
 95
       32
302
GRIDFORMAT
  1
GRIDFORMAT_BEGIN
 90
        0
 91
        1
 62
     0
 92
       -2
340
14
 93
        0
 40
0.045
309
GRIDFORMAT_END
309
TABLEFORMAT_END
  1
CELLSTYLE_BEGIN
 90
        2
 91
        1
300
_HEADER
309
CELLSTYLE_END
300
CELLSTYLE
  1
TABLEFORMAT_BEGIN
 90
        5
170
     1
 91
        0
 92
        0
 62
   257
 93
        1
300
CONTENTFORMAT
  1
CONTENTFORMAT_BEGIN
 90
        0
 91
        0
 92
        4
 93
        0
300

 40
0.0
140
1.0
 94
        2
 62
     0
340
11
144
0.18
309
CONTENTFORMAT_END
171
     1
301
MARGIN
  1
CELLMARGIN_BEGIN
 40
0.06
 40
0.06
 40
0.06
 40
0.06
 40
0.06
 40
0.06
309
CELLMARGIN_END
 94
        6
 95
        1
302
GRIDFORMAT
  1
GRIDFORMAT_BEGIN
 90
        0
 91
        1
 62
     0
 92
       -2
340
14
 93
        0
 40
0.045
309
GRIDFORMAT_END
 95
        2
302
GRIDFORMAT
  1
GRIDFORMAT_BEGIN
 90
        0
 91
        1
 62
     0
 92
       -2
340
14
 93
        0
 40
0.045
309
GRIDFORMAT_END
 95
        4
302
GRIDFORMAT
  1
GRIDFORMAT_BEGIN
 90
        0
 91
        1
 62
     0
 92
       -2
340
14
 93
        0
 40
0.045
309
GRIDFORMAT_END
 95
        8
302
GRIDFORMAT
  1
GRIDFORMAT_BEGIN
 90
        0
 91
        1
 62
     0
 92
       -2
340
14
 93
        0
 40
0.045
309
GRIDFORMAT_END
 95
       16
302
GRIDFORMAT
  1
GRIDFORMAT_BEGIN
 90
        0
 91
        1
 62
     0
 92
       -2
340
14
 93
        0
 40
0.045
309
GRIDFORMAT_END
 95
       32
302
GRIDFORMAT
  1
GRIDFORMAT_BEGIN
 90
        0
 91
        1
 62
     0
 92
       -2
340
14
 93
        0
 40
0.045
309
GRIDFORMAT_END
309
TABLEFORMAT_END
  1
CELLSTYLE_BEGIN
 90
        3
 91
        2
300
_DATA
309
CELLSTYLE_END
  0
ENDSEC
  0
EOF