0
SECTION
  2
HEADER
  9
$ACADVER
  1
AC1027
  9
$ACADMAINTVER
 70
     8
  9
$DWGCODEPAGE
  3
ANSI_1252
  9
$REQUIREDVERSIONS
160
                 0
  9
$COMMENTS
  1
File was created by Cadenas
  9
$CUSTOMPROPERTYTAG
  1
NN
  9
$CUSTOMPROPERTY
  1
S-2000 Flange Bearing - Square Labyrinth Seal
  9
$CUSTOMPROPERTYTAG
  1
NT
  9
$CUSTOMPROPERTY
  1
S-2000 4 Bolt Square Flange Bearing -Inch
  9
$CUSTOMPROPERTYTAG
  1
NB
  9
$CUSTOMPROPERTY
  1
070871
  9
$CUSTOMPROPERTYTAG
  1
NBSYN
  9
$CUSTOMPROPERTY
  1
$PN.
  9
$CUSTOMPROPERTYTAG
  1
LINA
  9
$CUSTOMPROPERTY
  1
070871
  9
$CUSTOMPROPERTYTAG
  1
SS
  9
$CUSTOMPROPERTY
  1
3-15/16
  9
$CUSTOMPROPERTYTAG
  1
PN
  9
$CUSTOMPROPERTY
  1
070871
  9
$CUSTOMPROPERTYTAG
  1
DESCRIPTION
  9
$CUSTOMPROPERTY
  1
F4S-S2-315LE
  9
$CUSTOMPROPERTYTAG
  1
EF
  9
$CUSTOMPROPERTY
  1
Expansion Type
  9
$CUSTOMPROPERTYTAG
  1
ST
  9
$CUSTOMPROPERTY
  1
Labyrinth Seal
  9
$CUSTOMPROPERTYTAG
  1
A
  9
$CUSTOMPROPERTY
  1
4-15/32
  9
$CUSTOMPROPERTYTAG
  1
B
  9
$CUSTOMPROPERTY
  1
9-1/4
  9
$CUSTOMPROPERTYTAG
  1
C
  9
$CUSTOMPROPERTY
  1
4-27/32
  9
$CUSTOMPROPERTYTAG
  1
D
  9
$CUSTOMPROPERTY
  1
7-39/64
  9
$CUSTOMPROPERTYTAG
  1
F
  9
$CUSTOMPROPERTY
  1
7/8
  9
$CUSTOMPROPERTYTAG
  1
G
  9
$CUSTOMPROPERTY
  1
1-35/64
  9
$CUSTOMPROPERTYTAG
  1
H
  9
$CUSTOMPROPERTY
  1
1-1/16
  9
$CUSTOMPROPERTYTAG
  1
J
  9
$CUSTOMPROPERTY
  1
8-7/32
  9
$CUSTOMPROPERTYTAG
  1
K
  9
$CUSTOMPROPERTY
  1
10-3/4
  9
$CUSTOMPROPERTYTAG
  1
L
  9
$CUSTOMPROPERTY
  1
6
  9
$CUSTOMPROPERTYTAG
  1
N
  9
$CUSTOMPROPERTY
  1
4-45/64
  9
$CUSTOMPROPERTYTAG
  1
P
  9
$CUSTOMPROPERTY
  1
3/8
  9
$CUSTOMPROPERTYTAG
  1
X
  9
$CUSTOMPROPERTY
  1
5/16
  9
$CUSTOMPROPERTYTAG
  1
Y
  9
$CUSTOMPROPERTY
  1
0.025
  9
$CUSTOMPROPERTYTAG
  1
Z
  9
$CUSTOMPROPERTY
  1
4-1/2
  9
$CUSTOMPROPERTYTAG
  1
COMPANY
  9
$CUSTOMPROPERTY
  1
baldor
  9
$INSBASE
 10
0.0
 20
0.0
 30
0.0
  9
$EXTMIN
 10
1.000000000000000E+20
 20
1.000000000000000E+20
 30
1.000000000000000E+20
  9
$EXTMAX
 10
-1.000000000000000E+20
 20
-1.000000000000000E+20
 30
-1.000000000000000E+20
  9
$LIMMIN
 10
0.0
 20
0.0
  9
$LIMMAX
 10
12.0
 20
9.0
  9
$ORTHOMODE
 70
     0
  9
$REGENMODE
 70
     1
  9
$FILLMODE
 70
     1
  9
$QTEXTMODE
 70
     0
  9
$MIRRTEXT
 70
     1
  9
$LTSCALE
 40
1.0
  9
$ATTMODE
 70
     1
  9
$TEXTSIZE
 40
0.2
  9
$TRACEWID
 40
0.05
  9
$TEXTSTYLE
  7
Standard
  9
$CLAYER
  8
0
  9
$CELTYPE
  6
ByLayer
  9
$CECOLOR
 62
   256
  9
$CELTSCALE
 40
1.0
  9
$DISPSILH
 70
     0
  9
$DIMSCALE
 40
1.0
  9
$DIMASZ
 40
0.18
  9
$DIMEXO
 40
0.0625
  9
$DIMDLI
 40
0.38
  9
$DIMRND
 40
0.0
  9
$DIMDLE
 40
0.0
  9
$DIMEXE
 40
0.18
  9
$DIMTP
 40
0.0
  9
$DIMTM
 40
0.0
  9
$DIMTXT
 40
0.18
  9
$DIMCEN
 40
0.09
  9
$DIMTSZ
 40
0.0
  9
$DIMTOL
 70
     0
  9
$DIMLIM
 70
     0
  9
$DIMTIH
 70
     1
  9
$DIMTOH
 70
     1
  9
$DIMSE1
 70
     0
  9
$DIMSE2
 70
     0
  9
$DIMTAD
 70
     0
  9
$DIMZIN
 70
     0
  9
$DIMBLK
  1

  9
$DIMASO
 70
     1
  9
$DIMSHO
 70
     1
  9
$DIMPOST
  1

  9
$DIMAPOST
  1

  9
$DIMALT
 70
     0
  9
$DIMALTD
 70
     2
  9
$DIMALTF
 40
25.4
  9
$DIMLFAC
 40
1.0
  9
$DIMTOFL
 70
     0
  9
$DIMTVP
 40
0.0
  9
$DIMTIX
 70
     0
  9
$DIMSOXD
 70
     0
  9
$DIMSAH
 70
     0
  9
$DIMBLK1
  1

  9
$DIMBLK2
  1

  9
$DIMSTYLE
  2
Standard
  9
$DIMCLRD
 70
     0
  9
$DIMCLRE
 70
     0
  9
$DIMCLRT
 70
     0
  9
$DIMTFAC
 40
1.0
  9
$DIMGAP
 40
0.09
  9
$DIMJUST
 70
     0
  9
$DIMSD1
 70
     0
  9
$DIMSD2
 70
     0
  9
$DIMTOLJ
 70
     1
  9
$DIMTZIN
 70
     0
  9
$DIMALTZ
 70
     0
  9
$DIMALTTZ
 70
     0
  9
$DIMUPT
 70
     0
  9
$DIMDEC
 70
     4
  9
$DIMTDEC
 70
     4
  9
$DIMALTU
 70
     2
  9
$DIMALTTD
 70
     2
  9
$DIMTXSTY
  7
Standard
  9
$DIMAUNIT
 70
     0
  9
$DIMADEC
 70
     0
  9
$DIMALTRND
 40
0.0
  9
$DIMAZIN
 70
     0
  9
$DIMDSEP
 70
    46
  9
$DIMATFIT
 70
     3
  9
$DIMFRAC
 70
     0
  9
$DIMLDRBLK
  1

  9
$DIMLUNIT
 70
     2
  9
$DIMLWD
 70
    -2
  9
$DIMLWE
 70
    -2
  9
$DIMTMOVE
 70
     0
  9
$DIMFXL
 40
1.0
  9
$DIMFXLON
 70
     0
  9
$DIMJOGANG
 40
0.7853981633974483
  9
$DIMTFILL
 70
     0
  9
$DIMTFILLCLR
 70
     0
  9
$DIMARCSYM
 70
     0
  9
$DIMLTYPE
  6

  9
$DIMLTEX1
  6

  9
$DIMLTEX2
  6

  9
$DIMTXTDIRECTION
 70
     0
  9
$LUNITS
 70
     2
  9
$LUPREC
 70
     4
  9
$SKETCHINC
 40
0.1
  9
$FILLETRAD
 40
0.5
  9
$AUNITS
 70
     0
  9
$AUPREC
 70
     0
  9
$MENU
  1
.
  9
$ELEVATION
 40
0.0
  9
$PELEVATION
 40
0.0
  9
$THICKNESS
 40
0.0
  9
$LIMCHECK
 70
     0
  9
$CHAMFERA
 40
0.0
  9
$CHAMFERB
 40
0.0
  9
$CHAMFERC
 40
0.0
  9
$CHAMFERD
 40
0.0
  9
$SKPOLY
 70
     0
  9
$TDCREATE
 40
2458168.984261088
  9
$TDUCREATE
 40
2458168.942594421
  9
$TDUPDATE
 40
2458168.984261273
  9
$TDUUPDATE
 40
2458168.942594606
  9
$TDINDWG
 40
0.0000000116
  9
$TDUSRTIMER
 40
0.0000000116
  9
$USRTIMER
 70
     1
  9
$ANGBASE
 50
0.0
  9
$ANGDIR
 70
     0
  9
$PDMODE
 70
     0
  9
$PDSIZE
 40
0.0
  9
$PLINEWID
 40
0.0
  9
$SPLFRAME
 70
     0
  9
$SPLINETYPE
 70
     6
  9
$SPLINESEGS
 70
     8
  9
$HANDSEED
  5
1E9
  9
$SURFTAB1
 70
     6
  9
$SURFTAB2
 70
     6
  9
$SURFTYPE
 70
     6
  9
$SURFU
 70
     6
  9
$SURFV
 70
     6
  9
$UCSBASE
  2

  9
$UCSNAME
  2

  9
$UCSORG
 10
0.0
 20
0.0
 30
0.0
  9
$UCSXDIR
 10
1.0
 20
0.0
 30
0.0
  9
$UCSYDIR
 10
0.0
 20
1.0
 30
0.0
  9
$UCSORTHOREF
  2

  9
$UCSORTHOVIEW
 70
     0
  9
$UCSORGTOP
 10
0.0
 20
0.0
 30
0.0
  9
$UCSORGBOTTOM
 10
0.0
 20
0.0
 30
0.0
  9
$UCSORGLEFT
 10
0.0
 20
0.0
 30
0.0
  9
$UCSORGRIGHT
 10
0.0
 20
0.0
 30
0.0
  9
$UCSORGFRONT
 10
0.0
 20
0.0
 30
0.0
  9
$UCSORGBACK
 10
0.0
 20
0.0
 30
0.0
  9
$PUCSBASE
  2

  9
$PUCSNAME
  2

  9
$PUCSORG
 10
0.0
 20
0.0
 30
0.0
  9
$PUCSXDIR
 10
1.0
 20
0.0
 30
0.0
  9
$PUCSYDIR
 10
0.0
 20
1.0
 30
0.0
  9
$PUCSORTHOREF
  2

  9
$PUCSORTHOVIEW
 70
     0
  9
$PUCSORGTOP
 10
0.0
 20
0.0
 30
0.0
  9
$PUCSORGBOTTOM
 10
0.0
 20
0.0
 30
0.0
  9
$PUCSORGLEFT
 10
0.0
 20
0.0
 30
0.0
  9
$PUCSORGRIGHT
 10
0.0
 20
0.0
 30
0.0
  9
$PUCSORGFRONT
 10
0.0
 20
0.0
 30
0.0
  9
$PUCSORGBACK
 10
0.0
 20
0.0
 30
0.0
  9
$USERI1
 70
     0
  9
$USERI2
 70
     0
  9
$USERI3
 70
     0
  9
$USERI4
 70
     0
  9
$USERI5
 70
     0
  9
$USERR1
 40
0.0
  9
$USERR2
 40
0.0
  9
$USERR3
 40
0.0
  9
$USERR4
 40
0.0
  9
$USERR5
 40
0.0
  9
$WORLDVIEW
 70
     1
  9
$SHADEDGE
 70
     3
  9
$SHADEDIF
 70
    70
  9
$TILEMODE
 70
     1
  9
$MAXACTVP
 70
    64
  9
$PINSBASE
 10
0.0
 20
0.0
 30
0.0
  9
$PLIMCHECK
 70
     0
  9
$PEXTMIN
 10
1.000000000000000E+20
 20
1.000000000000000E+20
 30
1.000000000000000E+20
  9
$PEXTMAX
 10
-1.000000000000000E+20
 20
-1.000000000000000E+20
 30
-1.000000000000000E+20
  9
$PLIMMIN
 10
0.0
 20
0.0
  9
$PLIMMAX
 10
12.0
 20
9.0
  9
$UNITMODE
 70
     0
  9
$VISRETAIN
 70
     1
  9
$PLINEGEN
 70
     0
  9
$PSLTSCALE
 70
     1
  9
$TREEDEPTH
 70
  3020
  9
$CMLSTYLE
  2
Standard
  9
$CMLJUST
 70
     0
  9
$CMLSCALE
 40
1.0
  9
$PROXYGRAPHICS
 70
     1
  9
$MEASUREMENT
 70
     0
  9
$CELWEIGHT
370
    -1
  9
$ENDCAPS
280
     0
  9
$JOINSTYLE
280
     0
  9
$LWDISPLAY
290
     0
  9
$INSUNITS
 70
     1
  9
$HYPERLINKBASE
  1

  9
$STYLESHEET
  1

  9
$XEDIT
290
     1
  9
$CEPSNTYPE
380
     0
  9
$PSTYLEMODE
290
     1
  9
$FINGERPRINTGUID
  2
{9D58B036-00C9-4A9F-9FF2-89677AAB59E4}
  9
$VERSIONGUID
  2
{FAEB1C32-E019-11D5-929B-00C0DF256EC4}
  9
$EXTNAMES
290
     1
  9
$PSVPSCALE
 40
0.0
  9
$OLESTARTUP
290
     0
  9
$SORTENTS
280
   127
  9
$INDEXCTL
280
     0
  9
$HIDETEXT
280
     1
  9
$XCLIPFRAME
280
     2
  9
$HALOGAP
280
     0
  9
$OBSCOLOR
 70
   257
  9
$OBSLTYPE
280
     0
  9
$INTERSECTIONDISPLAY
280
     0
  9
$INTERSECTIONCOLOR
 70
   257
  9
$DIMASSOC
280
     2
  9
$PROJECTNAME
  1

  9
$CAMERADISPLAY
290
     0
  9
$LENSLENGTH
 40
50.0
  9
$CAMERAHEIGHT
 40
0.0
  9
$STEPSPERSEC
 40
2.0
  9
$STEPSIZE
 40
6.0
  9
$3DDWFPREC
 40
2.0
  9
$PSOLWIDTH
 40
0.25
  9
$PSOLHEIGHT
 40
4.0
  9
$LOFTANG1
 40
1.570796326794897
  9
$LOFTANG2
 40
1.570796326794897
  9
$LOFTMAG1
 40
0.0
  9
$LOFTMAG2
 40
0.0
  9
$LOFTPARAM
 70
     7
  9
$LOFTNORMALS
280
     1
  9
$LATITUDE
 40
37.795
  9
$LONGITUDE
 40
-122.394
  9
$NORTHDIRECTION
 40
0.0
  9
$TIMEZONE
 70
 -8000
  9
$LIGHTGLYPHDISPLAY
280
     1
  9
$TILEMODELIGHTSYNCH
280
     1
  9
$CMATERIAL
347
44
  9
$SOLIDHIST
280
     0
  9
$SHOWHIST
280
     1
  9
$DWFFRAME
280
     2
  9
$DGNFRAME
280
     2
  9
$REALWORLDSCALE
290
     1
  9
$INTERFERECOLOR
 62
   256
  9
$CSHADOW
280
     0
  9
$SHADOWPLANELOCATION
 40
0.0
  0
ENDSEC
  0
SECTION
  2
CLASSES
  0
CLASS
  1
ACDBDICTIONARYWDFLT
  2
AcDbDictionaryWithDefault
  3
ObjectDBX Classes
 90
        0
 91
        4
280
     0
281
     0
  0
CLASS
  1
VISUALSTYLE
  2
AcDbVisualStyle
  3
ObjectDBX Classes
 90
     4095
 91
        4
280
     0
281
     0
  0
CLASS
  1
MATERIAL
  2
AcDbMaterial
  3
ObjectDBX Classes
 90
     1153
 91
        4
280
     0
281
     0
  0
CLASS
  1
SCALE
  2
AcDbScale
  3
ObjectDBX Classes
 90
     1153
 91
        4
280
     0
281
     0
  0
CLASS
  1
TABLESTYLE
  2
AcDbTableStyle
  3
ObjectDBX Classes
 90
     4095
 91
        4
280
     0
281
     0
  0
CLASS
  1
MLEADERSTYLE
  2
AcDbMLeaderStyle
  3
ACDB_MLEADERSTYLE_CLASS
 90
     4095
 91
        4
280
     0
281
     0
  0
CLASS
  1
SUN
  2
AcDbSun
  3
SCENEOE
 90
     1153
 91
        4
280
     0
281
     0
  0
CLASS
  1
DICTIONARYVAR
  2
AcDbDictionaryVar
  3
ObjectDBX Classes
 90
        0
 91
        4
280
     0
281
     0
  0
CLASS
  1
CELLSTYLEMAP
  2
AcDbCellStyleMap
  3
ObjectDBX Classes
 90
     1152
 91
        4
280
     0
281
     0
  0
ENDSEC
  0
SECTION
  2
TABLES
  0
TABLE
  2
VPORT
  5
8
330
0
100
AcDbSymbolTable
 70
     1
  0
VPORT
  5
29
330
8
100
AcDbSymbolTableRecord
100
AcDbViewportTableRecord
  2
*Active
 70
     0
 10
0.0
 20
0.0
 11
1.0
 21
1.0
 12
-1.849125000000001
 22
0.0
 13
0.0
 23
0.0
 14
0.5
 24
0.5
 15
0.5
 25
0.5
 16
0.0
 26
0.0
 36
1.0
 17
0.0
 27
0.0
 37
0.0
 40
9.435
 41
0.6474864864864863
 42
50.0
 43
0.0
 44
0.0
 50
0.0
 51
0.0
 71
     0
 72
   100
 73
     1
 74
     3
 75
     0
 76
     0
 77
     0
 78
     0
281
     0
 65
     1
110
0.0
120
0.0
130
0.0
111
1.0
121
0.0
131
0.0
112
0.0
122
1.0
132
0.0
 79
     0
146
0.0
348
2F
 60
     3
 61
     5
292
     1
282
     1
141
0.0
142
0.0
 63
   250
361
6D
  0
ENDTAB
  0
TABLE
  2
LTYPE
  5
5
330
0
100
AcDbSymbolTable
 70
     3
  0
LTYPE
  5
14
330
5
100
AcDbSymbolTableRecord
100
AcDbLinetypeTableRecord
  2
ByBlock
 70
     0
  3

 72
    65
 73
     0
 40
0.0
  0
LTYPE
  5
15
330
5
100
AcDbSymbolTableRecord
100
AcDbLinetypeTableRecord
  2
ByLayer
 70
     0
  3

 72
    65
 73
     0
 40
0.0
  0
LTYPE
  5
16
330
5
100
AcDbSymbolTableRecord
100
AcDbLinetypeTableRecord
  2
Continuous
 70
     0
  3
Solid line
 72
    65
 73
     0
 40
0.0
  0
LTYPE
  5
A6
330
5
100
AcDbSymbolTableRecord
100
AcDbLinetypeTableRecord
  2
Dashed
 70
     0
  3

 72
    65
 73
     2
 40
2.0
 49
1.0
 74
     0
 49
-1.0
 74
     0
  0
LTYPE
  5
139
330
5
100
AcDbSymbolTableRecord
100
AcDbLinetypeTableRecord
  2
Center
 70
     0
  3

 72
    65
 73
     4
 40
1.5
 49
0.45
 74
     0
 49
-0.5
 74
     0
 49
0.05
 74
     0
 49
-0.5
 74
     0
  0
ENDTAB
  0
TABLE
  2
LAYER
  5
2
330
0
100
AcDbSymbolTable
 70
     7
  0
LAYER
  5
10
330
2
100
AcDbSymbolTableRecord
100
AcDbLayerTableRecord
  2
0
 70
     0
 62
     7
  6
Continuous
370
    -3
390
F
347
46
348
0
  0
LAYER
  5
72
330
2
100
AcDbSymbolTableRecord
100
AcDbLayerTableRecord
  2
AM_6
 70
     0
 62
    -2
  6
Continuous
370
    35
390
F
347
46
348
0
  0
LAYER
  5
A7
330
2
100
AcDbSymbolTableRecord
100
AcDbLayerTableRecord
  2
AM_9
 70
     0
 62
     6
  6
Dashed
370
    25
390
F
347
46
348
0
  0
LAYER
  5
BB
330
2
100
AcDbSymbolTableRecord
100
AcDbLayerTableRecord
  2
AM_5
 70
     0
 62
     3
  6
Continuous
370
    25
390
F
347
46
348
0
  0
LAYER
  5
C0
330
2
100
AcDbSymbolTableRecord
100
AcDbLayerTableRecord
  2
AM_4
 70
     0
 62
     7
  6
Continuous
370
    50
390
F
347
46
348
0
  0
LAYER
  5
13A
330
2
100
AcDbSymbolTableRecord
100
AcDbLayerTableRecord
  2
AM_7
 70
     0
 62
     7
  6
Center
370
    25
390
F
347
46
348
0
  0
LAYER
  5
1D8
330
2
100
AcDbSymbolTableRecord
100
AcDbLayerTableRecord
  2
ConnectionPoints
 70
     0
 62
     7
  6
Continuous
370
    50
390
F
347
46
348
0
  0
ENDTAB
  0
TABLE
  2
STYLE
  5
3
330
0
100
AcDbSymbolTable
 70
     1
  0
STYLE
  5
11
330
3
100
AcDbSymbolTableRecord
100
AcDbTextStyleTableRecord
  2
Standard
 70
     0
 40
0.0
 41
1.0
 50
0.0
 71
     0
 42
0.2
  3
txt
  4

  0
ENDTAB
  0
TABLE
  2
VIEW
  5
6
330
0
100
AcDbSymbolTable
 70
     0
  0
ENDTAB
  0
TABLE
  2
UCS
  5
7
330
0
100
AcDbSymbolTable
 70
     0
  0
ENDTAB
  0
TABLE
  2
APPID
  5
9
330
0
100
AcDbSymbolTable
 70
     1
  0
APPID
  5
12
330
9
100
AcDbSymbolTableRecord
100
AcDbRegAppTableRecord
  2
ACAD
 70
     0
  0
ENDTAB
  0
TABLE
  2
DIMSTYLE
  5
A
330
0
100
AcDbSymbolTable
 70
     1
100
AcDbDimStyleTable
  0
DIMSTYLE
105
27
330
A
100
AcDbSymbolTableRecord
100
AcDbDimStyleTableRecord
  2
Standard
 70
     0
178
     0
340
11
  0
ENDTAB
  0
TABLE
  2
BLOCK_RECORD
  5
1
330
0
100
AcDbSymbolTable
 70
     6
  0
BLOCK_RECORD
  5
1F
330
1
100
AcDbSymbolTableRecord
100
AcDbBlockTableRecord
  2
*Model_Space
340
22
 70
     0
280
     1
281
     0
  0
BLOCK_RECORD
  5
1B
330
1
100
AcDbSymbolTableRecord
100
AcDbBlockTableRecord
  2
*Paper_Space
340
1E
 70
     0
280
     1
281
     0
  0
BLOCK_RECORD
  5
23
330
1
100
AcDbSymbolTableRecord
100
AcDbBlockTableRecord
  2
*Paper_Space0
340
26
 70
     0
280
     1
281
     0
  0
BLOCK_RECORD
  5
6E
330
1
100
AcDbSymbolTableRecord
100
AcDbBlockTableRecord
  2
1_070871_2
340
0
102
{BLKREFS
331
6F
102
}
 70
     0
280
     1
281
     0
  0
BLOCK_RECORD
  5
8D
330
1
100
AcDbSymbolTableRecord
100
AcDbBlockTableRecord
  2
2_3_15_16CS2i_0_in_070871_2
340
0
102
{BLKREFS
331
8E
102
}
 70
     0
280
     1
281
     0
  0
BLOCK_RECORD
  5
DB
330
1
100
AcDbSymbolTableRecord
100
AcDbBlockTableRecord
  2
3_070029i_0_in_070871_2
340
0
102
{BLKREFS
331
DC
102
}
 70
     0
280
     1
281
     0
  0
BLOCK_RECORD
  5
140
330
1
100
AcDbSymbolTableRecord
100
AcDbBlockTableRecord
  2
4_405015E_Inch_0_in_070871_2
340
0
102
{BLKREFS
331
141
102
}
 70
     0
280
     1
281
     0
  0
BLOCK_RECORD
  5
17E
330
1
100
AcDbSymbolTableRecord
100
AcDbBlockTableRecord
  2
5_070871H_0_in_070871_2
340
0
102
{BLKREFS
331
17F
102
}
 70
     0
280
     1
281
     0
  0
ENDTAB
  0
ENDSEC
  0
SECTION
  2
BLOCKS
  0
BLOCK
  5
20
330
1F
100
AcDbEntity
  8
0
100
AcDbBlockBegin
  2
*Model_Space
 70
     0
 10
0.0
 20
0.0
 30
0.0
  3
*Model_Space
  1

  0
ENDBLK
  5
21
330
1F
100
AcDbEntity
  8
0
100
AcDbBlockEnd
  0
BLOCK
  5
1C
330
1B
100
AcDbEntity
 67
     1
  8
0
100
AcDbBlockBegin
  2
*Paper_Space
 70
     0
 10
0.0
 20
0.0
 30
0.0
  3
*Paper_Space
  1

  0
ENDBLK
  5
1D
330
1B
100
AcDbEntity
 67
     1
  8
0
100
AcDbBlockEnd
  0
BLOCK
  5
24
330
23
100
AcDbEntity
  8
0
100
AcDbBlockBegin
  2
*Paper_Space0
 70
     0
 10
0.0
 20
0.0
 30
0.0
  3
*Paper_Space0
  1

  0
ENDBLK
  5
25
330
23
100
AcDbEntity
  8
0
100
AcDbBlockEnd
  0
BLOCK
  5
70
330
6E
100
AcDbEntity
  8
0
100
AcDbBlockBegin
  2
1_070871_2
 70
     2
 10
0.0
 20
0.0
 30
0.0
  3
1_070871_2
  1

  0
ATTDEF
  5
73
330
6E
100
AcDbEntity
  8
AM_6
100
AcDbText
 10
5.17734375
 20
4.625
 30
0.0
 40
0.5
  1
S-2000 Flange Bearing - Square Labyrinth Seal
100
AcDbAttributeDefinition
  3

  2
NN
 70
     8
280
     0
  0
ATTDEF
  5
74
330
6E
100
AcDbEntity
  8
AM_6
100
AcDbText
 10
5.17734375
 20
4.125
 30
0.0
 40
0.5
  1
S-2000 4 Bolt Square Flange Bearing -Inch
100
AcDbAttributeDefinition
  3

  2
NT
 70
     8
280
     0
  0
ATTDEF
  5
75
330
6E
100
AcDbEntity
  8
AM_6
100
AcDbText
 10
5.17734375
 20
3.625
 30
0.0
 40
0.5
  1
070871
100
AcDbAttributeDefinition
  3

  2
NB
 70
     8
280
     0
  0
ATTDEF
  5
76
330
6E
100
AcDbEntity
  8
AM_6
100
AcDbText
 10
5.17734375
 20
3.125
 30
0.0
 40
0.5
  1
$PN.
100
AcDbAttributeDefinition
  3

  2
NBSYN
 70
     8
280
     0
  0
ATTDEF
  5
77
330
6E
100
AcDbEntity
  8
AM_6
100
AcDbText
 10
5.17734375
 20
2.625
 30
0.0
 40
0.5
  1
070871
100
AcDbAttributeDefinition
  3

  2
LINA
 70
     8
280
     0
  0
ATTDEF
  5
78
330
6E
100
AcDbEntity
  8
AM_6
100
AcDbText
 10
5.17734375
 20
2.125
 30
0.0
 40
0.5
  1
3-15/16
100
AcDbAttributeDefinition
  3

  2
SS
 70
     8
280
     0
  0
ATTDEF
  5
79
330
6E
100
AcDbEntity
  8
AM_6
100
AcDbText
 10
5.17734375
 20
1.625
 30
0.0
 40
0.5
  1
070871
100
AcDbAttributeDefinition
  3

  2
PN
 70
     8
280
     0
  0
ATTDEF
  5
7A
330
6E
100
AcDbEntity
  8
AM_6
100
AcDbText
 10
5.17734375
 20
1.125
 30
0.0
 40
0.5
  1
F4S-S2-315LE
100
AcDbAttributeDefinition
  3

  2
DESCRIPTION
 70
     8
280
     0
  0
ATTDEF
  5
7B
330
6E
100
AcDbEntity
  8
AM_6
100
AcDbText
 10
5.17734375
 20
0.625
 30
0.0
 40
0.5
  1
Expansion Type
100
AcDbAttributeDefinition
  3

  2
EF
 70
     8
280
     0
  0
ATTDEF
  5
7C
330
6E
100
AcDbEntity
  8
AM_6
100
AcDbText
 10
5.17734375
 20
0.125
 30
0.0
 40
0.5
  1
Labyrinth Seal
100
AcDbAttributeDefinition
  3

  2
ST
 70
     8
280
     0
  0
ATTDEF
  5
7D
330
6E
100
AcDbEntity
  8
AM_6
100
AcDbText
 10
5.17734375
 20
-0.375
 30
0.0
 40
0.5
  1
4-15/32
100
AcDbAttributeDefinition
  3

  2
A
 70
     8
280
     0
  0
ATTDEF
  5
7E
330
6E
100
AcDbEntity
  8
AM_6
100
AcDbText
 10
5.17734375
 20
-0.875
 30
0.0
 40
0.5
  1
9-1/4
100
AcDbAttributeDefinition
  3

  2
B
 70
     8
280
     0
  0
ATTDEF
  5
7F
330
6E
100
AcDbEntity
  8
AM_6
100
AcDbText
 10
5.17734375
 20
-1.375
 30
0.0
 40
0.5
  1
4-27/32
100
AcDbAttributeDefinition
  3

  2
C
 70
     8
280
     0
  0
ATTDEF
  5
80
330
6E
100
AcDbEntity
  8
AM_6
100
AcDbText
 10
5.17734375
 20
-1.875
 30
0.0
 40
0.5
  1
7-39/64
100
AcDbAttributeDefinition
  3

  2
D
 70
     8
280
     0
  0
ATTDEF
  5
81
330
6E
100
AcDbEntity
  8
AM_6
100
AcDbText
 10
5.17734375
 20
-2.375
 30
0.0
 40
0.5
  1
7/8
100
AcDbAttributeDefinition
  3

  2
F
 70
     8
280
     0
  0
ATTDEF
  5
82
330
6E
100
AcDbEntity
  8
AM_6
100
AcDbText
 10
5.17734375
 20
-2.875
 30
0.0
 40
0.5
  1
1-35/64
100
AcDbAttributeDefinition
  3

  2
G
 70
     8
280
     0
  0
ATTDEF
  5
83
330
6E
100
AcDbEntity
  8
AM_6
100
AcDbText
 10
5.17734375
 20
-3.375
 30
0.0
 40
0.5
  1
1-1/16
100
AcDbAttributeDefinition
  3

  2
H
 70
     8
280
     0
  0
ATTDEF
  5
84
330
6E
100
AcDbEntity
  8
AM_6
100
AcDbText
 10
5.17734375
 20
-3.875
 30
0.0
 40
0.5
  1
8-7/32
100
AcDbAttributeDefinition
  3

  2
J
 70
     8
280
     0
  0
ATTDEF
  5
85
330
6E
100
AcDbEntity
  8
AM_6
100
AcDbText
 10
5.17734375
 20
-4.375
 30
0.0
 40
0.5
  1
10-3/4
100
AcDbAttributeDefinition
  3

  2
K
 70
     8
280
     0
  0
ATTDEF
  5
86
330
6E
100
AcDbEntity
  8
AM_6
100
AcDbText
 10
5.17734375
 20
-4.875
 30
0.0
 40
0.5
  1
6
100
AcDbAttributeDefinition
  3

  2
L
 70
     8
280
     0
  0
ATTDEF
  5
87
330
6E
100
AcDbEntity
  8
AM_6
100
AcDbText
 10
5.17734375
 20
-5.375
 30
0.0
 40
0.5
  1
4-45/64
100
AcDbAttributeDefinition
  3

  2
N
 70
     8
280
     0
  0
ATTDEF
  5
88
330
6E
100
AcDbEntity
  8
AM_6
100
AcDbText
 10
5.17734375
 20
-5.875
 30
0.0
 40
0.5
  1
3/8
100
AcDbAttributeDefinition
  3

  2
P
 70
     8
280
     0
  0
ATTDEF
  5
89
330
6E
100
AcDbEntity
  8
AM_6
100
AcDbText
 10
5.17734375
 20
-6.375
 30
0.0
 40
0.5
  1
5/16
100
AcDbAttributeDefinition
  3

  2
X
 70
     8
280
     0
  0
ATTDEF
  5
8A
330
6E
100
AcDbEntity
  8
AM_6
100
AcDbText
 10
5.17734375
 20
-6.875
 30
0.0
 40
0.5
  1
0.025
100
AcDbAttributeDefinition
  3

  2
Y
 70
     8
280
     0
  0
ATTDEF
  5
8B
330
6E
100
AcDbEntity
  8
AM_6
100
AcDbText
 10
5.17734375
 20
-7.375
 30
0.0
 40
0.5
  1
4-1/2
100
AcDbAttributeDefinition
  3

  2
Z
 70
     8
280
     0
  0
ATTDEF
  5
8C
330
6E
100
AcDbEntity
  8
AM_6
100
AcDbText
 10
5.17734375
 20
-7.875
 30
0.0
 40
0.5
  1
baldor
100
AcDbAttributeDefinition
  3

  2
COMPANY
 70
     8
280
     0
  0
INSERT
  5
8E
330
6E
100
AcDbEntity
  8
0
100
AcDbBlockReference
  2
2_3_15_16CS2i_0_in_070871_2
 10
0.0
 20
0.0
 30
0.0
  0
INSERT
  5
DC
330
6E
100
AcDbEntity
  8
0
100
AcDbBlockReference
  2
3_070029i_0_in_070871_2
 10
0.0
 20
0.0
 30
0.0
  0
INSERT
  5
141
330
6E
100
AcDbEntity
  8
0
100
AcDbBlockReference
  2
4_405015E_Inch_0_in_070871_2
 10
0.0
 20
0.0
 30
0.0
  0
INSERT
  5
17F
330
6E
100
AcDbEntity
  8
0
100
AcDbBlockReference
  2
5_070871H_0_in_070871_2
 10
0.0
 20
0.0
 30
0.0
  0
ENDBLK
  5
71
330
6E
100
AcDbEntity
  8
0
100
AcDbBlockEnd
  0
BLOCK
  5
8F
330
8D
100
AcDbEntity
  8
0
100
AcDbBlockBegin
  2
2_3_15_16CS2i_0_in_070871_2
 70
     2
 10
0.0
 20
0.0
 30
0.0
  3
2_3_15_16CS2i_0_in_070871_2
  1

  0
ATTDEF
  5
91
330
8D
100
AcDbEntity
  8
AM_6
100
AcDbText
 10
1.47875
 20
3.0
 30
0.0
 40
0.5
  1
S-2000 Collar -Inch
100
AcDbAttributeDefinition
  3

  2
NN
 70
     8
280
     0
  0
ATTDEF
  5
92
330
8D
100
AcDbEntity
  8
AM_6
100
AcDbText
 10
1.47875
 20
2.5
 30
0.0
 40
0.5
  1
S-2000 Bearings
100
AcDbAttributeDefinition
  3

  2
NT
 70
     8
280
     0
  0
ATTDEF
  5
93
330
8D
100
AcDbEntity
  8
AM_6
100
AcDbText
 10
1.47875
 20
2.0
 30
0.0
 40
0.5
  1
3-15/16CS2i
100
AcDbAttributeDefinition
  3

  2
NB
 70
     8
280
     0
  0
ATTDEF
  5
94
330
8D
100
AcDbEntity
  8
AM_6
100
AcDbText
 10
1.47875
 20
1.5
 30
0.0
 40
0.5
  1
$BORE.CS2i
100
AcDbAttributeDefinition
  3

  2
NBSYN
 70
     8
280
     0
  0
ATTDEF
  5
95
330
8D
100
AcDbEntity
  8
AM_6
100
AcDbText
 10
1.47875
 20
0.9999999999999996
 30
0.0
 40
0.5
  1
3-15/16CS2i
100
AcDbAttributeDefinition
  3

  2
LINA
 70
     8
280
     0
  0
ATTDEF
  5
96
330
8D
100
AcDbEntity
  8
AM_6
100
AcDbText
 10
1.47875
 20
0.4999999999999996
 30
0.0
 40
0.5
  1
3-15/16
100
AcDbAttributeDefinition
  3

  2
BORE
 70
     8
280
     0
  0
ATTDEF
  5
97
330
8D
100
AcDbEntity
  8
AM_6
100
AcDbText
 10
1.47875
 20
-0.0000000000000004
 30
0.0
 40
0.5
  1
3.937500
100
AcDbAttributeDefinition
  3

  2
BORE1
 70
     8
280
     0
  0
ATTDEF
  5
98
330
8D
100
AcDbEntity
  8
AM_6
100
AcDbText
 10
1.47875
 20
-0.5000000000000004
 30
0.0
 40
0.5
  1
6
100
AcDbAttributeDefinition
  3

  2
L1
 70
     8
280
     0
  0
ATTDEF
  5
99
330
8D
100
AcDbEntity
  8
AM_6
100
AcDbText
 10
1.47875
 20
-1.0
 30
0.0
 40
0.5
  1
6.00000
100
AcDbAttributeDefinition
  3

  2
L
 70
     8
280
     0
  0
ATTDEF
  5
9A
330
8D
100
AcDbEntity
  8
AM_6
100
AcDbText
 10
1.47875
 20
-1.5
 30
0.0
 40
0.5
  1
6.00000
100
AcDbAttributeDefinition
  3

  2
L2
 70
     8
280
     0
  0
ATTDEF
  5
9B
330
8D
100
AcDbEntity
  8
AM_6
100
AcDbText
 10
1.47875
 20
-2.0
 30
0.0
 40
0.5
  1
6.25
100
AcDbAttributeDefinition
  3

  2
A
 70
     8
280
     0
  0
ATTDEF
  5
9C
330
8D
100
AcDbEntity
  8
AM_6
100
AcDbText
 10
1.47875
 20
-2.5
 30
0.0
 40
0.5
  1
3.12
100
AcDbAttributeDefinition
  3

  2
B
 70
     8
280
     0
  0
ATTDEF
  5
9D
330
8D
100
AcDbEntity
  8
AM_6
100
AcDbText
 10
1.47875
 20
-3.0
 30
0.0
 40
0.5
  1
4.50
100
AcDbAttributeDefinition
  3

  2
C
 70
     8
280
     0
  0
ATTDEF
  5
9E
330
8D
100
AcDbEntity
  8
AM_6
100
AcDbText
 10
1.47875
 20
-3.5
 30
0.0
 40
0.5
  1
6.38
100
AcDbAttributeDefinition
  3

  2
D
 70
     8
280
     0
  0
ATTDEF
  5
9F
330
8D
100
AcDbEntity
  8
AM_6
100
AcDbText
 10
1.47875
 20
-4.0
 30
0.0
 40
0.5
  1
0.66
100
AcDbAttributeDefinition
  3

  2
E
 70
     8
280
     0
  0
ATTDEF
  5
A0
330
8D
100
AcDbEntity
  8
AM_6
100
AcDbText
 10
1.47875
 20
-4.5
 30
0.0
 40
0.5
  1
0.505
100
AcDbAttributeDefinition
  3

  2
F
 70
     8
280
     0
  0
ATTDEF
  5
A1
330
8D
100
AcDbEntity
  8
AM_6
100
AcDbText
 10
1.47875
 20
-5.0
 30
0.0
 40
0.5
  1
5/8-11
100
AcDbAttributeDefinition
  3

  2
CS
 70
     8
280
     0
  0
ATTDEF
  5
A2
330
8D
100
AcDbEntity
  8
AM_6
100
AcDbText
 10
1.47875
 20
-5.5
 30
0.0
 40
0.5
  1
0.6250
100
AcDbAttributeDefinition
  3

  2
NDM
 70
     8
280
     0
  0
ATTDEF
  5
A3
330
8D
100
AcDbEntity
  8
AM_6
100
AcDbText
 10
1.47875
 20
-6.0
 30
0.0
 40
0.5
  1
0.5270
100
AcDbAttributeDefinition
  3

  2
KDM
 70
     8
280
     0
  0
ATTDEF
  5
A4
330
8D
100
AcDbEntity
  8
AM_6
100
AcDbText
 10
1.47875
 20
-6.5
 30
0.0
 40
0.5
  1
2
100
AcDbAttributeDefinition
  3

  2
DD
 70
     8
280
     0
  0
ATTDEF
  5
A5
330
8D
100
AcDbEntity
  8
AM_6
100
AcDbText
 10
1.47875
 20
-7.0
 30
0.0
 40
0.5
  1
baldor
100
AcDbAttributeDefinition
  3

  2
COMPANY
 70
     8
280
     0
  0
LINE
  5
A8
330
8D
100
AcDbEntity
  8
AM_9
100
AcDbLine
 10
-3.76295
 20
2.257533333333336
 30
0.0
 11
-3.76295
 21
2.9508
 31
0.0
  0
LINE
  5
A9
330
8D
100
AcDbEntity
  8
AM_9
100
AcDbLine
 10
-4.28955
 20
2.9508
 30
0.0
 11
-4.28955
 21
2.257533333333336
 31
0.0
  0
LINE
  5
AA
330
8D
100
AcDbEntity
  8
AM_9
100
AcDbLine
 10
-4.28955
 20
2.257533333333336
 30
0.0
 11
-3.76295
 21
2.257533333333336
 31
0.0
  0
LINE
  5
AB
330
8D
100
AcDbEntity
  8
AM_9
100
AcDbLine
 10
-4.28955
 20
2.257533333333336
 30
0.0
 11
-4.296711664881006
 21
2.250371668452329
 31
0.0
  0
LINE
  5
AC
330
8D
100
AcDbEntity
  8
AM_9
100
AcDbLine
 10
-3.755838192613641
 20
2.250421525946976
 30
0.0
 11
-3.76295
 21
2.257533333333336
 31
0.0
  0
LINE
  5
AD
330
8D
100
AcDbEntity
  8
AM_9
100
AcDbLine
 10
-4.28955
 20
2.9508
 30
0.0
 11
-3.76295
 21
2.9508
 31
0.0
  0
LINE
  5
AE
330
8D
100
AcDbEntity
  8
AM_9
100
AcDbLine
 10
-3.76295
 20
2.9508
 30
0.0
 11
-3.740532346618374
 21
2.973217653381626
 31
0.0
  0
LINE
  5
AF
330
8D
100
AcDbEntity
  8
AM_9
100
AcDbLine
 10
-4.338580746532794
 20
2.999830746532794
 30
0.0
 11
-4.28955
 21
2.9508
 31
0.0
  0
LWPOLYLINE
  5
B0
330
8D
100
AcDbEntity
  8
AM_9
100
AcDbPolyline
 90
       34
 70
     0
 43
0.0
 10
-3.762445565912219
 20
1.009735488647071
 10
-3.764051822298491
 20
1.015969927057264
 10
-3.780345114298601
 20
1.059172018061536
 10
-3.804631185166672
 20
1.098863482832119
 10
-3.83583884653854
 20
1.133231760358891
 10
-3.873500357517012
 20
1.162024936813861
 10
-3.914387637236524
 20
1.18318301644065
 10
-3.959045473323701
 20
1.197639748952637
 10
-4.002694316209666
 20
1.204430008401934
 10
-4.04707044761685
 20
1.2046645068269
 10
-4.088770023580484
 20
1.198675843361117
 10
-4.128742995204235
 20
1.186929354302573
 10
-4.16632891113167
 20
1.169518463868776
 10
-4.200241935643686
 20
1.147141469842896
 10
-4.231292125346484
 20
1.118683004646005
 10
-4.256840758007779
 20
1.086099236352993
 10
-4.277438683155975
 20
1.047629301160185
 10
-4.290856347972985
 20
1.006339788910266
 10
-4.296845235730554
 20
0.9612350181282074
 10
-4.294598926536563
 20
0.9153788040192258
 10
-4.283812895888699
 20
0.8692890937681821
 10
-4.264786016522359
 20
0.8251137778181067
 10
-4.238089356576488
 20
0.7846568450662016
 10
-4.20429501513362
 20
0.748910113851692
 10
-4.165846931006786
 20
0.7204334824210533
 10
-4.122642751805567
 20
0.6988486139934921
 10
-4.07921272900591
 20
0.686007746651513
 10
-4.0340868690661
 20
0.6806889675079326
 10
-3.99143222178112
 20
0.6829229210848248
 10
-3.94977168124918
 20
0.6919417727237
 10
-3.910622715778861
 20
0.7072830282267335
 10
-3.874530229800551
 20
0.7282936061047918
 10
-3.848550304447081
 20
0.7486137619168763
 10
-3.825332972374701
 20
0.7716484722518282
  0
LWPOLYLINE
  5
B1
330
8D
100
AcDbEntity
  8
AM_9
100
AcDbPolyline
 90
        7
 70
     0
 43
0.0
 10
-3.825332972374701
 20
0.7716484722518282
 10
-3.801013396888955
 20
0.8030400480951176
 10
-3.781609313984089
 20
0.8371084369274374
 10
-3.765358572602767
 20
0.8801378002185127
 10
-3.756775839022779
 20
0.9246251201306495
 10
-3.756232978911709
 20
0.9708114462547972
 10
-3.762445565912219
 20
1.009735488647071
  0
LINE
  5
B2
330
8D
100
AcDbEntity
  8
AM_9
100
AcDbLine
 10
-4.531250000000001
 20
-2.25
 30
0.0
 11
-3.52125
 21
-2.25
 31
0.0
  0
LINE
  5
B3
330
8D
100
AcDbEntity
  8
AM_9
100
AcDbLine
 10
-3.52125
 20
2.25
 30
0.0
 11
-3.756393352662144
 21
2.25
 31
0.0
  0
LINE
  5
B4
330
8D
100
AcDbEntity
  8
AM_9
100
AcDbLine
 10
-4.296221946695018
 20
2.25
 30
0.0
 11
-4.531250000000001
 21
2.25
 31
0.0
  0
LWPOLYLINE
  5
B5
330
8D
100
AcDbEntity
  8
AM_9
100
AcDbPolyline
 90
       21
 70
     0
 43
0.0
 10
-4.297083333332893
 20
2.24999999999994
 10
-4.296712607440461
 20
2.249949302510798
 10
-4.289868068610811
 20
2.249025319996151
 10
-4.274896827757244
 20
2.247084011249307
 10
-4.251250172924427
 20
2.244242040041891
 10
-4.221401131989309
 20
2.241050037783132
 10
-4.18384308984657
 20
2.237666694741664
 10
-4.14407770580223
 20
2.23486087262009
 10
-4.098893841859466
 20
2.232650378419628
 10
-4.055951320489271
 20
2.231519601791616
 10
-4.010689621316519
 20
2.231354815614
 10
-3.969370692678948
 20
2.232125189933572
 10
-3.928498441284868
 20
2.233749862445228
 10
-3.89105722837866
 20
2.235987458120684
 10
-3.856271789540425
 20
2.238704008097807
 10
-3.825069443424514
 20
2.241659060044011
 10
-3.798563639702128
 20
2.244550989674321
 10
-3.77741002859325
 20
2.247108357152476
 10
-3.76291998964712
 20
2.248986934055441
 10
-3.755960563360625
 20
2.249925643972231
 10
-3.755416666666967
 20
2.249999999999959
  0
ELLIPSE
  5
B6
330
8D
100
AcDbEntity
  8
AM_9
100
AcDbEllipse
 10
-4.02625000000001
 20
0.9540748131550241
 30
0.0
 11
0.2632999999999903
 21
0.0
 31
0.0
210
0.0
220
0.0
230
1.0
 40
0.9063077870366502
 41
2.480611001033199
 42
6.283185307179586
  0
LINE
  5
B7
330
8D
100
AcDbEntity
  8
AM_9
100
AcDbLine
 10
-3.76295
 20
0.9540748131550213
 30
0.0
 11
-3.76295
 21
1.247061966744456
 31
0.0
  0
LINE
  5
B8
330
8D
100
AcDbEntity
  8
AM_9
100
AcDbLine
 10
-4.28955
 20
1.247061966744456
 30
0.0
 11
-4.28955
 21
0.9540748131550213
 31
0.0
  0
ELLIPSE
  5
B9
330
8D
100
AcDbEntity
  8
AM_9
100
AcDbEllipse
 10
-4.026250000000003
 20
0.9540748131550219
 30
0.0
 11
0.2633000000000023
 21
0.0
 31
0.0
210
0.0
220
0.0
230
1.0
 40
0.9063077870366485
 41
0.0
 42
0.6609816525565776
  0
LINE
  5
BA
330
8D
100
AcDbEntity
  8
AM_9
100
AcDbLine
 10
-3.755995141648021
 20
1.130919849384697
 30
0.0
 11
-3.755995141648021
 21
1.401645282845894
 31
0.0
  0
LINE
  5
BC
330
8D
100
AcDbEntity
  8
AM_5
100
AcDbLine
 10
-4.33875
 20
3.0
 30
0.0
 11
-4.33875
 21
2.25
 31
0.0
  0
LINE
  5
BD
330
8D
100
AcDbEntity
  8
AM_5
100
AcDbLine
 10
-4.1825
 20
2.208333333333333
 30
0.0
 11
-4.33875
 21
2.208333333333333
 31
0.0
  0
LINE
  5
BE
330
8D
100
AcDbEntity
  8
AM_5
100
AcDbLine
 10
-3.71375
 20
2.926829268292683
 30
0.0
 11
-3.71375
 21
2.25
 31
0.0
  0
LINE
  5
BF
330
8D
100
AcDbEntity
  8
AM_5
100
AcDbLine
 10
-3.87
 20
2.208333333333333
 30
0.0
 11
-3.71375
 21
2.208333333333333
 31
0.0
  0
ELLIPSE
  5
C1
330
8D
100
AcDbEntity
  8
AM_4
100
AcDbEllipse
 10
-4.02625
 20
0.9540748131550201
 30
0.0
 11
0.2633000000000014
 21
0.0
 31
0.0
210
0.0
220
0.0
230
1.0
 40
0.906307787036649
 41
0.6609816525565897
 42
2.480611001033207
  0
LINE
  5
C2
330
8D
100
AcDbEntity
  8
AM_4
100
AcDbLine
 10
-3.539896922183507
 20
-2.857142857142857
 30
0.0
 11
-3.52125
 21
-2.857142857142857
 31
0.0
  0
LINE
  5
C3
330
8D
100
AcDbEntity
  8
AM_4
100
AcDbLine
 10
-3.52125
 20
2.857142857142857
 30
0.0
 11
-3.539896922183507
 21
2.857142857142857
 31
0.0
  0
LINE
  5
C4
330
8D
100
AcDbEntity
  8
AM_4
100
AcDbLine
 10
-3.52125
 20
2.857142857142857
 30
0.0
 11
-3.52125
 21
-2.857142857142857
 31
0.0
  0
LINE
  5
C5
330
8D
100
AcDbEntity
  8
AM_4
100
AcDbLine
 10
-3.539896922183507
 20
2.857142857142857
 30
0.0
 11
-3.609583333333334
 21
2.926829268292683
 31
0.0
  0
LINE
  5
C6
330
8D
100
AcDbEntity
  8
AM_4
100
AcDbLine
 10
-3.609583333333334
 20
-2.926829268292683
 30
0.0
 11
-3.539896922183507
 21
-2.857142857142857
 31
0.0
  0
LINE
  5
C7
330
8D
100
AcDbEntity
  8
AM_4
100
AcDbLine
 10
-3.539896922183507
 20
2.857142857142857
 30
0.0
 11
-3.539896922183507
 21
-2.857142857142857
 31
0.0
  0
LINE
  5
C8
330
8D
100
AcDbEntity
  8
AM_4
100
AcDbLine
 10
-3.71375
 20
-2.926829268292683
 30
0.0
 11
-3.609583333333334
 21
-2.926829268292683
 31
0.0
  0
LINE
  5
C9
330
8D
100
AcDbEntity
  8
AM_4
100
AcDbLine
 10
-3.609583333333334
 20
2.926829268292683
 30
0.0
 11
-3.71375
 21
2.926829268292683
 31
0.0
  0
LINE
  5
CA
330
8D
100
AcDbEntity
  8
AM_4
100
AcDbLine
 10
-3.609583333333334
 20
2.926829268292683
 30
0.0
 11
-3.609583333333334
 21
-2.926829268292683
 31
0.0
  0
LWPOLYLINE
  5
CB
330
8D
100
AcDbEntity
  8
AM_4
100
AcDbPolyline
 90
       33
 70
     0
 43
0.0
 10
-3.755995141648012
 20
1.130919849384697
 10
-3.777702326167853
 20
1.10212686343143
 10
-3.80876466800057
 20
1.071011135598303
 10
-3.84440216784804
 20
1.044380961144376
 10
-3.889331113992195
 20
1.020350469449033
 10
-3.937791961948553
 20
1.003354681494908
 10
-3.990498817362393
 20
0.9936804710042252
 10
-4.044175862772161
 20
0.9922613082239952
 10
-4.098406937865602
 20
0.9994663440749381
 10
-4.150590812245213
 20
1.015106293519703
 10
-4.199016196844069
 20
1.038802361319825
 10
-4.242390279055363
 20
1.069831763290451
 10
-4.278281454375199
 20
1.106317515682243
 10
-4.306771007225607
 20
1.147845743831109
 10
-4.325908821384171
 20
1.190990476550913
 10
-4.336602412953041
 20
1.236224323123436
 10
-4.338396021657973
 20
1.280044731703045
 10
-4.332028938395099
 20
1.323191339182526
 10
-4.317911024005842
 20
1.363772427687894
 10
-4.296609289742345
 20
1.401493513277826
 10
-4.26803875325909
 20
1.436138161423449
 10
-4.233571356389245
 20
1.466145058762451
 10
-4.192228732907754
 20
1.491878254164567
 10
-4.146691433730956
 20
1.51145087170175
 10
-4.095911063952347
 20
1.524886524849663
 10
-4.043271954526157
 20
1.531016181830678
 10
-3.988747392702433
 20
1.529511337525659
 10
-3.935273282560687
 20
1.520222803977203
 10
-3.884181617791961
 20
1.503123058201872
 10
-3.837211344280545
 20
1.478652843165043
 10
-3.796661540818162
 20
1.447872617966136
 10
-3.762873133971536
 20
1.41115605055255
 10
-3.755995141648021
 20
1.401645282845894
  0
LWPOLYLINE
  5
CC
330
8D
100
AcDbEntity
  8
AM_4
100
AcDbPolyline
 90
       18
 70
     0
 43
0.0
 10
-3.755995141647983
 20
2.996279812660405
 10
-3.763734006632577
 20
2.995655947954315
 10
-3.793914958800034
 20
2.993394120161889
 10
-3.830678551198745
 20
2.991008338358957
 10
-3.873117307863414
 20
2.988760865678552
 10
-3.920651140104654
 20
2.986890741721657
 10
-3.971692771813926
 20
2.985646520208772
 10
-4.025631691648928
 20
2.985193306560604
 10
-4.079345824239787
 20
2.985622565327727
 10
-4.133077675890446
 20
2.986930456817837
 10
-4.182301264798831
 20
2.988897998242911
 10
-4.228370778962604
 20
2.991403586814966
 10
-4.266266375650638
 20
2.993943887938697
 10
-4.298136618165172
 20
2.996413639119784
 10
-4.320015676987254
 20
2.998284700146204
 10
-4.334026987821323
 20
2.999557740837137
 10
-4.338723821966355
 20
2.999997530475783
 10
-4.338749999999929
 20
2.999999999999993
  0
LINE
  5
CD
330
8D
100
AcDbEntity
  8
AM_4
100
AcDbLine
 10
-4.362916666666667
 20
-3.0
 30
0.0
 11
-3.755995141648021
 21
-3.0
 31
0.0
  0
LINE
  5
CE
330
8D
100
AcDbEntity
  8
AM_4
100
AcDbLine
 10
-4.338439856523403
 20
3.0
 30
0.0
 11
-4.362916666666667
 21
3.0
 31
0.0
  0
LINE
  5
CF
330
8D
100
AcDbEntity
  8
AM_4
100
AcDbLine
 10
-4.531250000000001
 20
2.831666666666667
 30
0.0
 11
-4.531250000000001
 21
-2.831666666666667
 31
0.0
  0
ARC
  5
D0
330
8D
100
AcDbEntity
  8
AM_4
100
AcDbCircle
 10
-4.36291666666667
 20
-2.831666666666668
 30
0.0
 40
0.1683333333333303
100
AcDbArc
 50
180.0
 51
270.0
  0
ARC
  5
D1
330
8D
100
AcDbEntity
  8
AM_4
100
AcDbCircle
 10
-4.36291666666667
 20
2.831666666666668
 30
0.0
 40
0.1683333333333317
100
AcDbArc
 50
90.0
 51
180.0
  0
LINE
  5
D2
330
8D
100
AcDbEntity
  8
AM_4
100
AcDbLine
 10
-4.362916666666667
 20
3.0
 30
0.0
 11
-4.362916666666667
 21
-3.0
 31
0.0
  0
LINE
  5
D3
330
8D
100
AcDbEntity
  8
AM_4
100
AcDbLine
 10
-3.755995141647983
 20
2.996279812660406
 30
0.0
 11
-3.755995141648021
 21
1.401645282845894
 31
0.0
  0
LWPOLYLINE
  5
D4
330
8D
100
AcDbEntity
  8
AM_4
100
AcDbPolyline
 90
        6
 70
     0
 43
0.0
 10
-3.755995141648021
 20
1.401645282845894
 10
-3.744581410424741
 20
1.328032264270016
 10
-3.741507471405561
 20
1.290841565325979
 10
-3.740535354536923
 20
1.254662060742536
 10
-3.744547327016094
 20
1.190417230397991
 10
-3.755995141648012
 20
1.130919849384697
  0
LINE
  5
D5
330
8D
100
AcDbEntity
  8
AM_4
100
AcDbLine
 10
-3.755995141648012
 20
1.130919849384697
 30
0.0
 11
-3.755995141648021
 21
-3.0
 31
0.0
  0
LINE
  5
D6
330
8D
100
AcDbEntity
  8
AM_4
100
AcDbLine
 10
-3.71375
 20
2.926829268292683
 30
0.0
 11
-3.740532346618374
 21
2.973217653381627
 31
0.0
  0
LINE
  5
D7
330
8D
100
AcDbEntity
  8
AM_4
100
AcDbLine
 10
-3.755995141648021
 20
-3.0
 30
0.0
 11
-3.71375
 21
-2.926829268292683
 31
0.0
  0
LINE
  5
D8
330
8D
100
AcDbEntity
  8
AM_4
100
AcDbLine
 10
-3.740532346618374
 20
2.973217653381627
 30
0.0
 11
-3.755995141648009
 21
2.996279812660385
 31
0.0
  0
LINE
  5
D9
330
8D
100
AcDbEntity
  8
AM_4
100
AcDbLine
 10
-3.71375
 20
2.926829268292683
 30
0.0
 11
-3.71375
 21
-2.926829268292683
 31
0.0
  0
ELLIPSE
  5
DA
330
8D
100
AcDbEntity
  8
AM_4
100
AcDbEllipse
 10
-4.02625
 20
1.247061966744456
 30
0.0
 11
0.2632999999999996
 21
0.0
 31
0.0
210
0.0
220
0.0
230
1.0
 40
0.90630778703665
 41
0.0
 42
6.283185307179586
  0
ENDBLK
  5
90
330
8D
100
AcDbEntity
  8
0
100
AcDbBlockEnd
  0
BLOCK
  5
DD
330
DB
100
AcDbEntity
  8
0
100
AcDbBlockBegin
  2
3_070029i_0_in_070871_2
 70
     2
 10
0.0
 20
0.0
 30
0.0
  3
3_070029i_0_in_070871_2
  1

  0
ATTDEF
  5
DF
330
DB
100
AcDbEntity
  8
AM_6
100
AcDbText
 10
5.17734375
 20
3.5433
 30
0.0
 40
0.5
  1
S-2000 Insert -Inch
100
AcDbAttributeDefinition
  3

  2
NN
 70
     8
280
     0
  0
ATTDEF
  5
E0
330
DB
100
AcDbEntity
  8
AM_6
100
AcDbText
 10
5.17734375
 20
3.0433
 30
0.0
 40
0.5
  1
S-2000 Bearings
100
AcDbAttributeDefinition
  3

  2
NT
 70
     8
280
     0
  0
ATTDEF
  5
E1
330
DB
100
AcDbEntity
  8
AM_6
100
AcDbText
 10
5.17734375
 20
2.5433
 30
0.0
 40
0.5
  1
070029i
100
AcDbAttributeDefinition
  3

  2
NB
 70
     8
280
     0
  0
ATTDEF
  5
E2
330
DB
100
AcDbEntity
  8
AM_6
100
AcDbText
 10
5.17734375
 20
2.0433
 30
0.0
 40
0.5
  1
$PN.i
100
AcDbAttributeDefinition
  3

  2
NBSYN
 70
     8
280
     0
  0
ATTDEF
  5
E3
330
DB
100
AcDbEntity
  8
AM_6
100
AcDbText
 10
5.17734375
 20
1.5433
 30
0.0
 40
0.5
  1
070029i
100
AcDbAttributeDefinition
  3

  2
LINA
 70
     8
280
     0
  0
ATTDEF
  5
E4
330
DB
100
AcDbEntity
  8
AM_6
100
AcDbText
 10
5.17734375
 20
1.0433
 30
0.0
 40
0.5
  1
3-15/16
100
AcDbAttributeDefinition
  3

  2
SS
 70
     8
280
     0
  0
ATTDEF
  5
E5
330
DB
100
AcDbEntity
  8
AM_6
100
AcDbText
 10
5.17734375
 20
0.5433000000000003
 30
0.0
 40
0.5
  1
4.50
100
AcDbAttributeDefinition
  3

  2
CC
 70
     8
280
     0
  0
ATTDEF
  5
E6
330
DB
100
AcDbEntity
  8
AM_6
100
AcDbText
 10
5.17734375
 20
0.0433000000000003
 30
0.0
 40
0.5
  1
3.937500
100
AcDbAttributeDefinition
  3

  2
SS1
 70
     8
280
     0
  0
ATTDEF
  5
E7
330
DB
100
AcDbEntity
  8
AM_6
100
AcDbText
 10
5.17734375
 20
-0.4566999999999997
 30
0.0
 40
0.5
  1
070029
100
AcDbAttributeDefinition
  3

  2
PN
 70
     8
280
     0
  0
ATTDEF
  5
E8
330
DB
100
AcDbEntity
  8
AM_6
100
AcDbText
 10
5.17734375
 20
-0.9566999999999997
 30
0.0
 40
0.5
  1
INS-S2-315L
100
AcDbAttributeDefinition
  3

  2
DESCRIPTION
 70
     8
280
     0
  0
ATTDEF
  5
E9
330
DB
100
AcDbEntity
  8
AM_6
100
AcDbText
 10
5.17734375
 20
-1.4567
 30
0.0
 40
0.5
  1
Labyrinth Seal
100
AcDbAttributeDefinition
  3

  2
ST
 70
     8
280
     0
  0
ATTDEF
  5
EA
330
DB
100
AcDbEntity
  8
AM_6
100
AcDbText
 10
5.17734375
 20
-1.9567
 30
0.0
 40
0.5
  1
2
100
AcDbAttributeDefinition
  3

  2
ST1
 70
     8
280
     0
  0
ATTDEF
  5
EB
330
DB
100
AcDbEntity
  8
AM_6
100
AcDbText
 10
5.17734375
 20
-2.4567
 30
0.0
 40
0.5
  1
7.0866
100
AcDbAttributeDefinition
  3

  2
A
 70
     8
280
     0
  0
ATTDEF
  5
EC
330
DB
100
AcDbEntity
  8
AM_6
100
AcDbText
 10
5.17734375
 20
-2.9567
 30
0.0
 40
0.5
  1
1-7/8
100
AcDbAttributeDefinition
  3

  2
B
 70
     8
280
     0
  0
ATTDEF
  5
ED
330
DB
100
AcDbEntity
  8
AM_6
100
AcDbText
 10
5.17734375
 20
-3.4567
 30
0.0
 40
0.5
  1
4-31/64
100
AcDbAttributeDefinition
  3

  2
C
 70
     8
280
     0
  0
ATTDEF
  5
EE
330
DB
100
AcDbEntity
  8
AM_6
100
AcDbText
 10
5.17734375
 20
-3.9567
 30
0.0
 40
0.5
  1
1.646
100
AcDbAttributeDefinition
  3

  2
D
 70
     8
280
     0
  0
ATTDEF
  5
EF
330
DB
100
AcDbEntity
  8
AM_6
100
AcDbText
 10
5.17734375
 20
-4.4567
 30
0.0
 40
0.5
  1
6
100
AcDbAttributeDefinition
  3

  2
E
 70
     8
280
     0
  0
ATTDEF
  5
F0
330
DB
100
AcDbEntity
  8
AM_6
100
AcDbText
 10
5.17734375
 20
-4.9567
 30
0.0
 40
0.5
  1
0.34375
100
AcDbAttributeDefinition
  3

  2
F
 70
     8
280
     0
  0
ATTDEF
  5
F1
330
DB
100
AcDbEntity
  8
AM_6
100
AcDbText
 10
5.17734375
 20
-5.4567
 30
0.0
 40
0.5
  1
2
100
AcDbAttributeDefinition
  3

  2
DD
 70
     8
280
     0
  0
ATTDEF
  5
F2
330
DB
100
AcDbEntity
  8
AM_6
100
AcDbText
 10
5.17734375
 20
-5.9567
 30
0.0
 40
0.5
  1
baldor
100
AcDbAttributeDefinition
  3

  2
COMPANY
 70
     8
280
     0
  0
LINE
  5
F3
330
DB
100
AcDbEntity
  8
AM_9
100
AcDbLine
 10
-4.35625
 20
2.249839841516025
 30
0.0
 11
-4.35625
 21
1.96875
 31
0.0
  0
LINE
  5
F4
330
DB
100
AcDbEntity
  8
AM_9
100
AcDbLine
 10
-3.69625
 20
1.968749999999999
 30
0.0
 11
-3.69625
 21
2.249976681242325
 31
0.0
  0
LINE
  5
F5
330
DB
100
AcDbEntity
  8
AM_9
100
AcDbLine
 10
-4.35625
 20
0.9508910889165738
 30
0.0
 11
-4.35625
 21
0.8320090973733836
 31
0.0
  0
LINE
  5
F6
330
DB
100
AcDbEntity
  8
AM_9
100
AcDbLine
 10
-3.69625
 20
0.8319516694638531
 30
0.0
 11
-3.69625
 21
0.9508910889165738
 31
0.0
  0
LWPOLYLINE
  5
F7
330
DB
100
AcDbEntity
  8
AM_9
100
AcDbPolyline
 90
        4
 70
     0
 43
0.0
 10
-4.349603023582429
 20
0.8912892166638492
 10
-4.350870617014139
 20
0.8852558198842156
 10
-4.356229038394186
 20
0.8353991737463261
 10
-4.356249999318831
 20
0.8320489192863848
  0
LWPOLYLINE
  5
F8
330
DB
100
AcDbEntity
  8
AM_9
100
AcDbPolyline
 90
        5
 70
     0
 43
0.0
 10
-4.277522495958052
 20
1.020981532849589
 10
-4.281244020120581
 20
1.017151886070753
 10
-4.312853061897489
 20
0.9773458558884249
 10
-4.336348461516363
 20
0.9329534646349605
 10
-4.349603023582429
 20
0.8912892166638492
  0
LWPOLYLINE
  5
F9
330
DB
100
AcDbEntity
  8
AM_9
100
AcDbPolyline
 90
        3
 70
     0
 43
0.0
 10
-4.206340979609513
 20
1.074400133379289
 10
-4.242761507390496
 20
1.05102034880722
 10
-4.277522495958052
 20
1.020981532849589
  0
LWPOLYLINE
  5
FA
330
DB
100
AcDbEntity
  8
AM_9
100
AcDbPolyline
 90
        4
 70
     0
 43
0.0
 10
-3.773214202998385
 20
1.019184584193327
 10
-3.790617910331735
 20
1.035670246175773
 10
-3.83279318460304
 20
1.066587286911592
 10
-3.846897827452604
 20
1.074806147755422
  0
LWPOLYLINE
  5
FB
330
DB
100
AcDbEntity
  8
AM_9
100
AcDbPolyline
 90
        5
 70
     0
 43
0.0
 10
-3.702750953917095
 20
0.8906462817936271
 10
-3.708744766874515
 20
0.9125711646791432
 10
-3.727960374747981
 20
0.9578138179112347
 10
-3.755568949521049
 20
0.999225544000552
 10
-3.773214202998385
 20
1.019184584193327
  0
LWPOLYLINE
  5
FC
330
DB
100
AcDbEntity
  8
AM_9
100
AcDbPolyline
 90
        3
 70
     0
 43
0.0
 10
-3.696250001081875
 20
0.8320054848414364
 10
-3.698218884608024
 20
0.8645125191401906
 10
-3.702750953917095
 20
0.8906462817936271
  0
LWPOLYLINE
  5
FD
330
DB
100
AcDbEntity
  8
AM_9
100
AcDbPolyline
 90
       11
 70
     0
 43
0.0
 10
-4.356249999318831
 20
0.8320489192863848
 10
-4.352229543602194
 20
0.7853951404888991
 10
-4.339247818446589
 20
0.7360937982102903
 10
-4.317578327738502
 20
0.6890200890057394
 10
-4.287948055650594
 20
0.6454831633652018
 10
-4.250606265431268
 20
0.6064331769726711
 10
-4.206975872719703
 20
0.5735633145605321
 10
-4.157823403038648
 20
0.5478966060053267
 10
-4.104871342220627
 20
0.530461279055413
 10
-4.065853199391447
 20
0.5235182426957866
 10
-4.02625
 20
0.5211764455951713
  0
LWPOLYLINE
  5
FE
330
DB
100
AcDbEntity
  8
AM_9
100
AcDbPolyline
 90
        7
 70
     0
 43
0.0
 10
-3.786211796830074
 20
1.151300222062303
 10
-3.770095228979192
 20
1.135374453640431
 10
-3.738761746803392
 20
1.095200640735685
 10
-3.715559699709472
 20
1.050534773329086
 10
-3.701324294062983
 20
1.002644890037912
 10
-3.696256200298957
 20
0.9527240823420591
 10
-3.696250000248493
 20
0.9509026955013133
  0
LWPOLYLINE
  5
FF
330
DB
100
AcDbEntity
  8
AM_9
100
AcDbPolyline
 90
       12
 70
     0
 43
0.0
 10
-4.265856378069951
 20
1.151694722017391
 10
-4.261060786466518
 20
1.155974339088607
 10
-4.218758931055774
 20
1.187003759664208
 10
-4.170999495644122
 20
1.211369544640846
 10
-4.119008232267906
 20
1.228419383126994
 10
-4.064346912303111
 20
1.237827779064613
 10
-4.009086268224654
 20
1.239286300248901
 10
-3.95431330734216
 20
1.232988271536408
 10
-3.901854226687894
 20
1.219066562927685
 10
-3.852862749819562
 20
1.197930277826203
 10
-3.808438754082994
 20
1.169745602650391
 10
-3.786211796830074
 20
1.151300222062303
  0
LWPOLYLINE
  5
100
330
DB
100
AcDbEntity
  8
AM_9
100
AcDbPolyline
 90
        6
 70
     0
 43
0.0
 10
-4.356249998805263
 20
0.9508656390812034
 10
-4.354224039456843
 20
0.9838557987138694
 10
-4.343566269347093
 20
1.032132419329276
 10
-4.324164660889279
 20
1.077638087448723
 10
-4.296347285822628
 20
1.119293738316907
 10
-4.265856378069951
 20
1.151694722017391
  0
LWPOLYLINE
  5
101
330
DB
100
AcDbEntity
  8
AM_9
100
AcDbPolyline
 90
       11
 70
     0
 43
0.0
 10
-3.696250000248493
 20
0.9509026955013133
 10
-3.700558630939521
 20
0.902639161094197
 10
-3.713880468604248
 20
0.8533773503322206
 10
-3.735934465591985
 20
0.8064382935248671
 10
-3.765980272438295
 20
0.7631473558397295
 10
-3.803652875115725
 20
0.7245467656363983
 10
-3.847576728268981
 20
0.692183413939932
 10
-3.896872882027201
 20
0.6670944780324813
 10
-3.949884936451605
 20
0.6501981840910687
 10
-3.987801352710035
 20
0.6437120401739358
 10
-4.02625
 20
0.6415265571449762
  0
LWPOLYLINE
  5
102
330
DB
100
AcDbEntity
  8
AM_9
100
AcDbPolyline
 90
       11
 70
     0
 43
0.0
 10
-4.02625
 20
0.5211764455951713
 10
-3.971290506710481
 20
0.5257175976807377
 10
-3.917890830395146
 20
0.539037190600032
 10
-3.867614052999512
 20
0.5607708418879074
 10
-3.821761141892519
 20
0.5900585050799412
 10
-3.781313087178228
 20
0.6263802226639686
 10
-3.74772418670843
 20
0.6682588273735796
 10
-3.721903470618385
 20
0.7147454972548836
 10
-3.70472065459445
 20
0.7641082926750179
 10
-3.696856920207309
 20
0.8143782723501716
 10
-3.696250001081875
 20
0.8320054848414364
  0
LWPOLYLINE
  5
103
330
DB
100
AcDbEntity
  8
AM_9
100
AcDbPolyline
 90
       11
 70
     0
 43
0.0
 10
-4.02625
 20
1.94089581443724
 10
-3.972070415197573
 20
1.941651871451049
 10
-3.917890830395146
 20
1.943918278153033
 10
-3.86827810805087
 20
1.94731396573485
 10
-3.821761141892519
 20
1.951638351639489
 10
-3.781816873728532
 20
1.956227010272285
 10
-3.74772418670843
 20
1.960778720603049
 10
-3.722188901119035
 20
1.964568582247181
 10
-3.70472065459445
 20
1.967347880385399
 10
-3.696871198468465
 20
1.968645970559041
 10
-3.696250000000837
 20
1.96874999999986
  0
LINE
  5
104
330
DB
100
AcDbEntity
  8
AM_9
100
AcDbLine
 10
-0.046875
 20
1.96875
 30
0.0
 11
-3.697356223911617
 21
1.96875
 31
0.0
  0
LINE
  5
105
330
DB
100
AcDbEntity
  8
AM_9
100
AcDbLine
 10
-4.35625
 20
1.96875
 30
0.0
 11
-4.53125
 21
1.96875
 31
0.0
  0
LINE
  5
106
330
DB
100
AcDbEntity
  8
AM_9
100
AcDbLine
 10
-4.53125
 20
-1.96875
 30
0.0
 11
-0.046875
 21
-1.96875
 31
0.0
  0
LINE
  5
107
330
DB
100
AcDbEntity
  8
AM_9
100
AcDbLine
 10
-4.33860051269038
 20
1.965868613432226
 30
0.0
 11
-4.356249999999518
 21
1.968749999999919
 31
0.0
  0
LINE
  5
108
330
DB
100
AcDbEntity
  8
AM_9
100
AcDbLine
 10
-4.006493164511475
 20
1.940996366572725
 30
0.0
 11
-4.035605430525699
 21
1.940918361647475
 31
0.0
  0
LWPOLYLINE
  5
109
330
DB
100
AcDbEntity
  8
AM_9
100
AcDbPolyline
 90
       11
 70
     0
 43
0.0
 10
-4.356249999999518
 20
1.968749999999919
 10
-4.352383895755807
 20
1.968105657849918
 10
-4.339247818446589
 20
1.965971565626605
 10
-4.317965203039832
 20
1.962695677425456
 10
-4.287948055650594
 20
1.95845919917452
 10
-4.251201939230085
 20
1.953888414793275
 10
-4.206975872719703
 20
1.949291769738512
 10
-4.158585758440679
 20
1.945402096087611
 10
-4.104871342220627
 20
1.942487548982637
 10
-4.066147970987585
 20
1.941305851891691
 10
-4.02625
 20
1.94089581443724
  0
LINE
  5
10A
330
DB
100
AcDbEntity
  8
AM_9
100
AcDbLine
 10
-0.046875
 20
-2.25
 30
0.0
 11
-0.046875
 21
2.25
 31
0.0
  0
LINE
  5
10B
330
DB
100
AcDbEntity
  8
AM_9
100
AcDbLine
 10
-0.046875
 20
2.25
 30
0.0
 11
-0.2082499999999996
 21
2.25
 31
0.0
  0
LINE
  5
10C
330
DB
100
AcDbEntity
  8
AM_9
100
AcDbLine
 10
-0.2082499999999996
 20
-2.25
 30
0.0
 11
-0.046875
 21
-2.25
 31
0.0
  0
LWPOLYLINE
  5
10D
330
DB
100
AcDbEntity
  8
AM_9
100
AcDbPolyline
 90
       11
 70
     0
 43
0.0
 10
-4.02625
 20
0.6415265571449762
 10
-4.081312261214315
 20
0.6460418247264762
 10
-4.134814345510763
 20
0.6592930070427678
 10
-4.185193696294787
 20
0.6809344250376757
 10
-4.231129477737553
 20
0.7101253979294722
 10
-4.271546235998819
 20
0.7462817108212859
 10
-4.30508300116073
 20
0.7879978272721653
 10
-4.330796066386123
 20
0.8342696352803078
 10
-4.347879471052651
 20
0.8834438071145088
 10
-4.355671562493002
 20
0.9336854096388384
 10
-4.356249998805263
 20
0.9508656390812034
  0
LWPOLYLINE
  5
10E
330
DB
100
AcDbEntity
  8
AM_9
100
AcDbPolyline
 90
       11
 70
     0
 43
0.0
 10
-4.02625
 20
2.225668438918969
 10
-4.080532172755381
 20
2.226330288676648
 10
-4.134814345510763
 20
2.228314658461901
 10
-4.184525488230541
 20
2.231289118463722
 10
-4.231129477737553
 20
2.235078432717298
 10
-4.271041852366745
 20
2.239089781805353
 10
-4.30508300116073
 20
2.243066615715258
 10
-4.330513499958812
 20
2.246369577208343
 10
-4.347879471052651
 20
2.248787565922937
 10
-4.35565836867345
 20
2.249913303519072
 10
-4.356249999999457
 20
2.24999999999992
  0
LINE
  5
10F
330
DB
100
AcDbEntity
  8
AM_9
100
AcDbLine
 10
-3.52125
 20
2.25
 30
0.0
 11
-3.696410854176023
 21
2.25
 31
0.0
  0
LINE
  5
110
330
DB
100
AcDbEntity
  8
AM_9
100
AcDbLine
 10
-3.1775
 20
2.25
 30
0.0
 11
-3.296875
 21
2.25
 31
0.0
  0
LINE
  5
111
330
DB
100
AcDbEntity
  8
AM_9
100
AcDbLine
 10
-4.355154843661102
 20
2.25
 30
0.0
 11
-4.53125
 21
2.25
 31
0.0
  0
LINE
  5
112
330
DB
100
AcDbEntity
  8
AM_9
100
AcDbLine
 10
-3.296875
 20
-2.25
 30
0.0
 11
-3.1775
 21
-2.25
 31
0.0
  0
LINE
  5
113
330
DB
100
AcDbEntity
  8
AM_9
100
AcDbLine
 10
-4.53125
 20
-2.25
 30
0.0
 11
-3.52125
 21
-2.25
 31
0.0
  0
LINE
  5
114
330
DB
100
AcDbEntity
  8
AM_9
100
AcDbLine
 10
-3.705183798260677
 20
2.248707074276086
 30
0.0
 11
-3.696250000000104
 21
2.249999999999985
 31
0.0
  0
LINE
  5
115
330
DB
100
AcDbEntity
  8
AM_9
100
AcDbLine
 10
-4.045467610012509
 20
2.225751404927012
 30
0.0
 11
-4.015920915408016
 21
2.225692406867694
 31
0.0
  0
LWPOLYLINE
  5
116
330
DB
100
AcDbEntity
  8
AM_9
100
AcDbPolyline
 90
       11
 70
     0
 43
0.0
 10
-3.696250000000104
 20
2.249999999999985
 10
-3.700399811186708
 20
2.249395106589694
 10
-3.713880468604248
 20
2.247481862917786
 10
-3.735539633129889
 20
2.244574016914068
 10
-3.765980272438295
 20
2.240834739797883
 10
-3.803050488208413
 20
2.236832139894275
 10
-3.847576728268981
 20
2.232828730115919
 10
-3.896112390363738
 20
2.229469846721825
 10
-3.949884936451604
 20
2.226978137057198
 10
-3.987533342933921
 20
2.226005161614494
 10
-4.02625
 20
2.225668438918969
  0
LINE
  5
117
330
DB
100
AcDbEntity
  8
AM_9
100
AcDbLine
 10
-0.3957499999999997
 20
2.834639999999999
 30
0.0
 11
-0.7553749999999999
 21
2.834639999999999
 31
0.0
  0
LINE
  5
118
330
DB
100
AcDbEntity
  8
AM_9
100
AcDbLine
 10
-0.7553749999999999
 20
-2.834639999999999
 30
0.0
 11
-0.3957499999999997
 21
-2.834639999999999
 31
0.0
  0
LINE
  5
119
330
DB
100
AcDbEntity
  8
AM_9
100
AcDbLine
 10
-0.2082500000000002
 20
-2.647139999999999
 30
0.0
 11
-0.2082500000000002
 21
2.647139999999999
 31
0.0
  0
LINE
  5
11A
330
DB
100
AcDbEntity
  8
AM_9
100
AcDbLine
 10
-0.3957499999999997
 20
-2.834639999999999
 30
0.0
 11
-0.3957499999999997
 21
2.834639999999999
 31
0.0
  0
ARC
  5
11B
330
DB
100
AcDbEntity
  8
AM_9
100
AcDbCircle
 10
-0.3957499999999988
 20
2.647140000000001
 30
0.0
 40
0.1874999999999987
100
AcDbArc
 50
0.0
 51
90.0
  0
ARC
  5
11C
330
DB
100
AcDbEntity
  8
AM_9
100
AcDbCircle
 10
-0.3957499999999989
 20
-2.647140000000001
 30
0.0
 40
0.1874999999999987
100
AcDbArc
 50
270.0
 51
0.0
  0
LINE
  5
11D
330
DB
100
AcDbEntity
  8
AM_9
100
AcDbLine
 10
-3.1775
 20
-2.64714
 30
0.0
 11
-3.1775
 21
2.64714
 31
0.0
  0
ARC
  5
11E
330
DB
100
AcDbEntity
  8
AM_9
100
AcDbCircle
 10
-2.99
 20
2.647139999999999
 30
0.0
 40
0.1875
100
AcDbArc
 50
90.0
 51
180.0
  0
ARC
  5
11F
330
DB
100
AcDbEntity
  8
AM_9
100
AcDbCircle
 10
-2.99
 20
-2.647139999999999
 30
0.0
 40
0.1875
100
AcDbArc
 50
180.0
 51
270.0
  0
LINE
  5
120
330
DB
100
AcDbEntity
  8
AM_9
100
AcDbLine
 10
-2.989999999999999
 20
-2.834639999999999
 30
0.0
 11
-2.989999999999999
 21
2.834639999999999
 31
0.0
  0
LINE
  5
121
330
DB
100
AcDbEntity
  8
AM_9
100
AcDbLine
 10
-2.630375
 20
2.834639999999999
 30
0.0
 11
-2.989999999999999
 21
2.834639999999999
 31
0.0
  0
LINE
  5
122
330
DB
100
AcDbEntity
  8
AM_9
100
AcDbLine
 10
-2.989999999999999
 20
-2.834639999999999
 30
0.0
 11
-2.630375
 21
-2.834639999999999
 31
0.0
  0
LINE
  5
123
330
DB
100
AcDbEntity
  8
AM_9
100
AcDbLine
 10
-1.599124999999999
 20
3.401567999999999
 30
0.0
 11
-1.786625000000001
 21
3.401567999999999
 31
0.0
  0
LINE
  5
124
330
DB
100
AcDbEntity
  8
AM_9
100
AcDbLine
 10
-1.786625000000001
 20
-3.401567999999999
 30
0.0
 11
-1.599124999999999
 21
-3.401567999999999
 31
0.0
  0
LINE
  5
125
330
DB
100
AcDbEntity
  8
AM_9
100
AcDbLine
 10
-2.630375
 20
-3.3558
 30
0.0
 11
-2.630375
 21
3.3558
 31
0.0
  0
ARC
  5
126
330
DB
100
AcDbEntity
  8
AM_9
100
AcDbCircle
 10
-2.442874999999999
 20
3.355799999999999
 30
0.0
 40
0.1875000000000004
100
AcDbArc
 50
90.0
 51
180.0
  0
ARC
  5
127
330
DB
100
AcDbEntity
  8
AM_9
100
AcDbCircle
 10
-2.442874999999999
 20
-3.355799999999999
 30
0.0
 40
0.1875000000000009
100
AcDbArc
 50
180.0
 51
270.0
  0
LINE
  5
128
330
DB
100
AcDbEntity
  8
AM_9
100
AcDbLine
 10
-0.7553749999999999
 20
-3.3558
 30
0.0
 11
-0.7553749999999999
 21
3.3558
 31
0.0
  0
ARC
  5
129
330
DB
100
AcDbEntity
  8
AM_9
100
AcDbCircle
 10
-0.9428750000000008
 20
3.355799999999999
 30
0.0
 40
0.1875000000000009
100
AcDbArc
 50
0.0
 51
90.0
  0
ARC
  5
12A
330
DB
100
AcDbEntity
  8
AM_9
100
AcDbCircle
 10
-0.9428750000000008
 20
-3.355799999999999
 30
0.0
 40
0.1875000000000004
100
AcDbArc
 50
270.0
 51
0.0
  0
LINE
  5
12B
330
DB
100
AcDbEntity
  8
AM_9
100
AcDbLine
 10
-1.599124999999999
 20
-3.401567999999999
 30
0.0
 11
-1.599124999999999
 21
3.401567999999999
 31
0.0
  0
LINE
  5
12C
330
DB
100
AcDbEntity
  8
AM_9
100
AcDbLine
 10
-1.599124999999999
 20
-3.401567999999999
 30
0.0
 11
-1.517295991647214
 21
-3.5433
 31
0.0
  0
LINE
  5
12D
330
DB
100
AcDbEntity
  8
AM_9
100
AcDbLine
 10
-1.517295991647214
 20
3.543299999999999
 30
0.0
 11
-1.599124999999999
 21
3.401567999999999
 31
0.0
  0
LINE
  5
12E
330
DB
100
AcDbEntity
  8
AM_9
100
AcDbLine
 10
-0.942875
 20
-3.5433
 30
0.0
 11
-0.942875
 21
3.5433
 31
0.0
  0
LINE
  5
12F
330
DB
100
AcDbEntity
  8
AM_9
100
AcDbLine
 10
-1.517295991647214
 20
-3.5433
 30
0.0
 11
-1.517295991647214
 21
3.5433
 31
0.0
  0
LINE
  5
130
330
DB
100
AcDbEntity
  8
AM_9
100
AcDbLine
 10
-0.942875
 20
3.5433
 30
0.0
 11
-1.517295991647214
 21
3.5433
 31
0.0
  0
LINE
  5
131
330
DB
100
AcDbEntity
  8
AM_9
100
AcDbLine
 10
-1.517295991647214
 20
-3.5433
 30
0.0
 11
-0.942875
 21
-3.5433
 31
0.0
  0
LINE
  5
132
330
DB
100
AcDbEntity
  8
AM_9
100
AcDbLine
 10
-1.786625000000001
 20
-3.401567999999999
 30
0.0
 11
-1.786625000000001
 21
3.401567999999999
 31
0.0
  0
LINE
  5
133
330
DB
100
AcDbEntity
  8
AM_9
100
AcDbLine
 10
-1.786625000000001
 20
3.401567999999999
 30
0.0
 11
-1.868454008352785
 21
3.5433
 31
0.0
  0
LINE
  5
134
330
DB
100
AcDbEntity
  8
AM_9
100
AcDbLine
 10
-1.868454008352785
 20
-3.543299999999999
 30
0.0
 11
-1.786625000000001
 21
-3.401567999999999
 31
0.0
  0
LINE
  5
135
330
DB
100
AcDbEntity
  8
AM_9
100
AcDbLine
 10
-1.868454008352785
 20
-3.5433
 30
0.0
 11
-1.868454008352785
 21
3.5433
 31
0.0
  0
LINE
  5
136
330
DB
100
AcDbEntity
  8
AM_9
100
AcDbLine
 10
-2.442875
 20
-3.5433
 30
0.0
 11
-2.442875
 21
3.5433
 31
0.0
  0
LINE
  5
137
330
DB
100
AcDbEntity
  8
AM_9
100
AcDbLine
 10
-1.868454008352785
 20
3.5433
 30
0.0
 11
-2.442875
 21
3.5433
 31
0.0
  0
LINE
  5
138
330
DB
100
AcDbEntity
  8
AM_9
100
AcDbLine
 10
-2.442875
 20
-3.5433
 30
0.0
 11
-1.868454008352785
 21
-3.5433
 31
0.0
  0
LINE
  5
13B
330
DB
100
AcDbEntity
  8
AM_7
100
AcDbLine
 10
0.17734375
 20
0.0
 30
0.0
 11
-4.75546875
 21
0.0
 31
0.0
  0
LINE
  5
13C
330
DB
100
AcDbEntity
  8
AM_7
100
AcDbLine
 10
-4.02625
 20
-0.1153846153846154
 30
0.0
 11
-4.02625
 21
3.039583333333333
 31
0.0
  0
LWPOLYLINE
  5
13D
330
DB
100
AcDbEntity
  8
AM_4
100
AcDbPolyline
 90
        9
 70
     0
 43
0.0
 10
-3.846897827452604
 20
1.074806147755422
 10
-3.880460447890907
 20
1.090880910022249
 10
-3.93242776611687
 20
1.107926550461136
 10
-3.987113381715791
 20
1.117395590222105
 10
-4.042280226482792
 20
1.118988372558898
 10
-4.096990320311199
 20
1.112931684417978
 10
-4.149331954210204
 20
1.099378566437942
 10
-4.198253868682407
 20
1.078714923345489
 10
-4.206340979609513
 20
1.074400133379289
  0
LINE
  5
13E
330
DB
100
AcDbEntity
  8
AM_4
100
AcDbLine
 10
-3.296875
 20
2.25
 30
0.0
 11
-3.52125
 21
2.25
 31
0.0
  0
LINE
  5
13F
330
DB
100
AcDbEntity
  8
AM_4
100
AcDbLine
 10
-3.52125
 20
-2.25
 30
0.0
 11
-3.296875
 21
-2.25
 31
0.0
  0
ENDBLK
  5
DE
330
DB
100
AcDbEntity
  8
0
100
AcDbBlockEnd
  0
BLOCK
  5
142
330
140
100
AcDbEntity
  8
0
100
AcDbBlockBegin
  2
4_405015E_Inch_0_in_070871_2
 70
     2
 10
0.0
 20
0.0
 30
0.0
  3
4_405015E_Inch_0_in_070871_2
  1

  0
ATTDEF
  5
144
330
140
100
AcDbEntity
  8
AM_6
100
AcDbText
 10
3.072903242770461
 20
4.584375
 30
0.0
 40
0.5
  1
405015E -Inch
100
AcDbAttributeDefinition
  3

  2
NN
 70
     8
280
     0
  0
ATTDEF
  5
145
330
140
100
AcDbEntity
  8
AM_6
100
AcDbText
 10
3.072903242770461
 20
4.084375
 30
0.0
 40
0.5
  1
Grease Fitting
100
AcDbAttributeDefinition
  3

  2
NT
 70
     8
280
     0
  0
ATTDEF
  5
146
330
140
100
AcDbEntity
  8
AM_6
100
AcDbText
 10
3.072903242770461
 20
3.584375
 30
0.0
 40
0.5
  1
405015E-Inch
100
AcDbAttributeDefinition
  3

  2
NB
 70
     8
280
     0
  0
ATTDEF
  5
147
330
140
100
AcDbEntity
  8
AM_6
100
AcDbText
 10
3.072903242770461
 20
3.084375
 30
0.0
 40
0.5
  1
$MN.-Inch
100
AcDbAttributeDefinition
  3

  2
NBSYN
 70
     8
280
     0
  0
ATTDEF
  5
148
330
140
100
AcDbEntity
  8
AM_6
100
AcDbText
 10
3.072903242770461
 20
2.584375
 30
0.0
 40
0.5
  1
405015E
100
AcDbAttributeDefinition
  3

  2
LINA
 70
     8
280
     0
  0
ATTDEF
  5
149
330
140
100
AcDbEntity
  8
AM_6
100
AcDbText
 10
3.072903242770461
 20
2.084375
 30
0.0
 40
0.5
  1
405015E
100
AcDbAttributeDefinition
  3

  2
MN
 70
     8
280
     0
  0
ATTDEF
  5
14A
330
140
100
AcDbEntity
  8
AM_6
100
AcDbText
 10
3.072903242770461
 20
1.584375
 30
0.0
 40
0.5
  1
1/8 x 27PTF
100
AcDbAttributeDefinition
  3

  2
T
 70
     8
280
     0
  0
ATTDEF
  5
14B
330
140
100
AcDbEntity
  8
AM_6
100
AcDbText
 10
3.072903242770461
 20
1.084375
 30
0.0
 40
0.5
  1
baldor
100
AcDbAttributeDefinition
  3

  2
COMPANY
 70
     8
280
     0
  0
LINE
  5
14C
330
140
100
AcDbEntity
  8
AM_9
100
AcDbLine
 10
-2.341590372472269
 20
3.944375
 30
0.0
 11
-2.017784627527731
 21
3.944375
 31
0.0
  0
LINE
  5
14D
330
140
100
AcDbEntity
  8
AM_9
100
AcDbLine
 10
-2.017784627527731
 20
3.944375
 30
0.0
 11
-1.981069873218785
 21
3.981089754308946
 31
0.0
  0
LINE
  5
14E
330
140
100
AcDbEntity
  8
AM_9
100
AcDbLine
 10
-2.378305126781215
 20
3.981089754308946
 30
0.0
 11
-2.341590372472269
 21
3.944375
 31
0.0
  0
LINE
  5
14F
330
140
100
AcDbEntity
  8
AM_9
100
AcDbLine
 10
-2.378305126781215
 20
3.981089754308946
 30
0.0
 11
-1.981069873218785
 21
3.981089754308946
 31
0.0
  0
LINE
  5
150
330
140
100
AcDbEntity
  8
AM_9
100
AcDbLine
 10
-1.981069873218785
 20
3.981089754308946
 30
0.0
 11
-1.97393560277693
 21
4.209375
 31
0.0
  0
LINE
  5
151
330
140
100
AcDbEntity
  8
AM_9
100
AcDbLine
 10
-2.38543939722307
 20
4.209375
 30
0.0
 11
-2.378305126781215
 21
3.981089754308946
 31
0.0
  0
LINE
  5
152
330
140
100
AcDbEntity
  8
AM_5
100
AcDbLine
 10
-2.011538375147652
 20
4.144245087748462
 30
0.0
 11
-2.017784627527731
 21
3.944375
 31
0.0
  0
LINE
  5
153
330
140
100
AcDbEntity
  8
AM_5
100
AcDbLine
 10
-1.973935602776931
 20
4.209374999999999
 30
0.0
 11
-2.011538375147652
 21
4.144245087748462
 31
0.0
  0
LINE
  5
154
330
140
100
AcDbEntity
  8
AM_5
100
AcDbLine
 10
-2.383403985751557
 20
4.144245087748462
 30
0.0
 11
-1.975971014248443
 21
4.144245087748462
 31
0.0
  0
LINE
  5
155
330
140
100
AcDbEntity
  8
AM_5
100
AcDbLine
 10
-2.347836624852348
 20
4.144245087748462
 30
0.0
 11
-2.341590372472269
 21
3.944375
 31
0.0
  0
LINE
  5
156
330
140
100
AcDbEntity
  8
AM_5
100
AcDbLine
 10
-2.385439397223069
 20
4.209374999999999
 30
0.0
 11
-2.347836624852348
 21
4.144245087748462
 31
0.0
  0
LINE
  5
157
330
140
100
AcDbEntity
  8
AM_4
100
AcDbLine
 10
-2.0746875
 20
4.414375
 30
0.0
 11
-2.0746875
 21
4.444375
 31
0.0
  0
LINE
  5
158
330
140
100
AcDbEntity
  8
AM_4
100
AcDbLine
 10
-2.2846875
 20
4.444375
 30
0.0
 11
-2.2846875
 21
4.414375
 31
0.0
  0
LINE
  5
159
330
140
100
AcDbEntity
  8
AM_4
100
AcDbLine
 10
-2.3984375
 20
4.309374999999999
 30
0.0
 11
-1.9609375
 21
4.309374999999999
 31
0.0
  0
LINE
  5
15A
330
140
100
AcDbEntity
  8
AM_4
100
AcDbLine
 10
-1.927096757229539
 20
4.300307400303385
 30
0.0
 11
-1.9609375
 21
4.309374999999999
 31
0.0
  0
LINE
  5
15B
330
140
100
AcDbEntity
  8
AM_4
100
AcDbLine
 10
-2.3984375
 20
4.309374999999999
 30
0.0
 11
-2.432278242770461
 21
4.300307400303385
 31
0.0
  0
LINE
  5
15C
330
140
100
AcDbEntity
  8
AM_4
100
AcDbLine
 10
-1.9609375
 20
4.209375
 30
0.0
 11
-1.927096757229539
 21
4.218442599696615
 31
0.0
  0
LINE
  5
15D
330
140
100
AcDbEntity
  8
AM_4
100
AcDbLine
 10
-2.432278242770461
 20
4.218442599696615
 30
0.0
 11
-2.3984375
 21
4.209375
 31
0.0
  0
LINE
  5
15E
330
140
100
AcDbEntity
  8
AM_4
100
AcDbLine
 10
-2.2846875
 20
4.414375
 30
0.0
 11
-2.0746875
 21
4.414375
 31
0.0
  0
LINE
  5
15F
330
140
100
AcDbEntity
  8
AM_4
100
AcDbLine
 10
-2.2846875
 20
4.414375
 30
0.0
 11
-2.298507590734897
 21
4.382128121618572
 31
0.0
  0
LINE
  5
160
330
140
100
AcDbEntity
  8
AM_4
100
AcDbLine
 10
-2.060867409265103
 20
4.382128121618572
 30
0.0
 11
-2.0746875
 21
4.414375
 31
0.0
  0
LINE
  5
161
330
140
100
AcDbEntity
  8
AM_4
100
AcDbLine
 10
-2.2846875
 20
4.444375
 30
0.0
 11
-2.0746875
 21
4.444375
 31
0.0
  0
LINE
  5
162
330
140
100
AcDbEntity
  8
AM_4
100
AcDbLine
 10
-2.0746875
 20
4.444375
 30
0.0
 11
-2.0446875
 21
4.504375
 31
0.0
  0
LINE
  5
163
330
140
100
AcDbEntity
  8
AM_4
100
AcDbLine
 10
-2.3146875
 20
4.504375
 30
0.0
 11
-2.2846875
 21
4.444375
 31
0.0
  0
LINE
  5
164
330
140
100
AcDbEntity
  8
AM_4
100
AcDbLine
 10
-2.282365401933188
 20
4.584375
 30
0.0
 11
-2.077009598066812
 21
4.584375
 31
0.0
  0
LINE
  5
165
330
140
100
AcDbEntity
  8
AM_4
100
AcDbLine
 10
-2.3146875
 20
4.504375
 30
0.0
 11
-2.0446875
 21
4.504375
 31
0.0
  0
LINE
  5
166
330
140
100
AcDbEntity
  8
AM_4
100
AcDbLine
 10
-2.282365401933188
 20
4.584375
 30
0.0
 11
-2.3146875
 21
4.504375
 31
0.0
  0
LINE
  5
167
330
140
100
AcDbEntity
  8
AM_4
100
AcDbLine
 10
-2.0446875
 20
4.504375
 30
0.0
 11
-2.077009598066812
 21
4.584375
 31
0.0
  0
LINE
  5
168
330
140
100
AcDbEntity
  8
AM_4
100
AcDbLine
 10
-2.298507590734897
 20
4.382128121618572
 30
0.0
 11
-2.060867409265102
 21
4.382128121618572
 31
0.0
  0
LINE
  5
169
330
140
100
AcDbEntity
  8
AM_4
100
AcDbLine
 10
-2.298507590734898
 20
4.382128121618572
 30
0.0
 11
-2.352221553283016
 21
4.327693198540882
 31
0.0
  0
LINE
  5
16A
330
140
100
AcDbEntity
  8
AM_4
100
AcDbLine
 10
-2.007153446716984
 20
4.327693198540882
 30
0.0
 11
-2.060867409265102
 21
4.382128121618572
 31
0.0
  0
LINE
  5
16B
330
140
100
AcDbEntity
  8
AM_4
100
AcDbLine
 10
-2.352221553283016
 20
4.327693198540882
 30
0.0
 11
-2.007153446716984
 21
4.327693198540882
 31
0.0
  0
LINE
  5
16C
330
140
100
AcDbEntity
  8
AM_4
100
AcDbLine
 10
-2.352221553283016
 20
4.327693198540882
 30
0.0
 11
-2.3934375
 21
4.309374999999999
 31
0.0
  0
LINE
  5
16D
330
140
100
AcDbEntity
  8
AM_4
100
AcDbLine
 10
-1.9659375
 20
4.309374999999999
 30
0.0
 11
-2.007153446716984
 21
4.327693198540882
 31
0.0
  0
LINE
  5
16E
330
140
100
AcDbEntity
  8
AM_4
100
AcDbLine
 10
-1.927096757229539
 20
4.300307400303385
 30
0.0
 11
-1.927096757229539
 21
4.218442599696615
 31
0.0
  0
LWPOLYLINE
  5
16F
330
140
100
AcDbEntity
  8
AM_4
100
AcDbPolyline
 90
        3
 70
     0
 43
0.0
 10
-1.990244442922154
 20
4.309374999999999
 10
-1.958670600075846
 20
4.306981619214965
 10
-1.927096757229539
 20
4.300307400303385
  0
LINE
  5
170
330
140
100
AcDbEntity
  8
AM_4
100
AcDbLine
 10
-2.053392128614769
 20
4.300307400303385
 30
0.0
 11
-2.053392128614769
 21
4.218442599696615
 31
0.0
  0
LWPOLYLINE
  5
171
330
140
100
AcDbEntity
  8
AM_4
100
AcDbPolyline
 90
        3
 70
     0
 43
0.0
 10
-1.927096757229539
 20
4.218442599696615
 10
-1.958528635576436
 20
4.211789524949619
 10
-1.990244442922154
 20
4.209375
  0
LWPOLYLINE
  5
172
330
140
100
AcDbEntity
  8
AM_4
100
AcDbPolyline
 90
        3
 70
     0
 43
0.0
 10
-2.1796875
 20
4.209375
 10
-2.242835185692615
 20
4.211768380785035
 10
-2.30598287138523
 20
4.218442599696615
  0
LINE
  5
173
330
140
100
AcDbEntity
  8
AM_4
100
AcDbLine
 10
-2.30598287138523
 20
4.300307400303385
 30
0.0
 11
-2.30598287138523
 21
4.218442599696615
 31
0.0
  0
LWPOLYLINE
  5
174
330
140
100
AcDbEntity
  8
AM_4
100
AcDbPolyline
 90
        3
 70
     0
 43
0.0
 10
-2.432278242770461
 20
4.300307400303385
 10
-2.400846364423564
 20
4.30696047505038
 10
-2.369130557077846
 20
4.309374999999999
  0
LINE
  5
175
330
140
100
AcDbEntity
  8
AM_4
100
AcDbLine
 10
-2.432278242770461
 20
4.300307400303385
 30
0.0
 11
-2.432278242770461
 21
4.218442599696615
 31
0.0
  0
LWPOLYLINE
  5
176
330
140
100
AcDbEntity
  8
AM_4
100
AcDbPolyline
 90
        3
 70
     0
 43
0.0
 10
-2.369130557077846
 20
4.209375
 10
-2.400704399924154
 20
4.211768380785035
 10
-2.432278242770461
 20
4.218442599696615
  0
LWPOLYLINE
  5
177
330
140
100
AcDbEntity
  8
AM_4
100
AcDbPolyline
 90
        3
 70
     0
 43
0.0
 10
-2.30598287138523
 20
4.218442599696615
 10
-2.337414749732128
 20
4.211789524949619
 10
-2.369130557077846
 20
4.209375
  0
LWPOLYLINE
  5
178
330
140
100
AcDbEntity
  8
AM_4
100
AcDbPolyline
 90
        3
 70
     0
 43
0.0
 10
-1.990244442922154
 20
4.209375
 10
-2.021818285768462
 20
4.211768380785035
 10
-2.053392128614769
 20
4.218442599696615
  0
LWPOLYLINE
  5
179
330
140
100
AcDbEntity
  8
AM_4
100
AcDbPolyline
 90
        3
 70
     0
 43
0.0
 10
-2.053392128614769
 20
4.218442599696615
 10
-2.082887867888202
 20
4.214857412517843
 10
-2.1796875
 20
4.209375
  0
LWPOLYLINE
  5
17A
330
140
100
AcDbEntity
  8
AM_4
100
AcDbPolyline
 90
        3
 70
     0
 43
0.0
 10
-2.369130557077846
 20
4.309374999999999
 10
-2.337556714231538
 20
4.306981619214965
 10
-2.30598287138523
 20
4.300307400303385
  0
LWPOLYLINE
  5
17B
330
140
100
AcDbEntity
  8
AM_4
100
AcDbPolyline
 90
        3
 70
     0
 43
0.0
 10
-2.30598287138523
 20
4.300307400303385
 10
-2.243119114691436
 20
4.30696047505038
 10
-2.1796875
 20
4.309374999999999
  0
LWPOLYLINE
  5
17C
330
140
100
AcDbEntity
  8
AM_4
100
AcDbPolyline
 90
        3
 70
     0
 43
0.0
 10
-2.1796875
 20
4.309374999999999
 10
-2.082887867888202
 20
4.303892587482156
 10
-2.053392128614769
 20
4.300307400303385
  0
LWPOLYLINE
  5
17D
330
140
100
AcDbEntity
  8
AM_4
100
AcDbPolyline
 90
        3
 70
     0
 43
0.0
 10
-2.053392128614769
 20
4.300307400303385
 10
-2.021960250267872
 20
4.30696047505038
 10
-1.990244442922154
 20
4.309374999999999
  0
ENDBLK
  5
143
330
140
100
AcDbEntity
  8
0
100
AcDbBlockEnd
  0
BLOCK
  5
180
330
17E
100
AcDbEntity
  8
0
100
AcDbBlockBegin
  2
5_070871H_0_in_070871_2
 70
     2
 10
0.0
 20
0.0
 30
0.0
  3
5_070871H_0_in_070871_2
  1

  0
ATTDEF
  5
182
330
17E
100
AcDbEntity
  8
AM_6
100
AcDbText
 10
5.053125
 20
4.625
 30
0.0
 40
0.5
  1
F4S-S2 -(Labyrinth Seal)-Housing
100
AcDbAttributeDefinition
  3

  2
NN
 70
     8
280
     0
  0
ATTDEF
  5
183
330
17E
100
AcDbEntity
  8
AM_6
100
AcDbText
 10
5.053125
 20
4.125
 30
0.0
 40
0.5
  1
S-2000 4 Bolt Square Flange Bearing -Inch
100
AcDbAttributeDefinition
  3

  2
NT
 70
     8
280
     0
  0
ATTDEF
  5
184
330
17E
100
AcDbEntity
  8
AM_6
100
AcDbText
 10
5.053125
 20
3.625
 30
0.0
 40
0.5
  1
070871H
100
AcDbAttributeDefinition
  3

  2
NB
 70
     8
280
     0
  0
ATTDEF
  5
185
330
17E
100
AcDbEntity
  8
AM_6
100
AcDbText
 10
5.053125
 20
3.125
 30
0.0
 40
0.5
  1
$PN.H
100
AcDbAttributeDefinition
  3

  2
NBSYN
 70
     8
280
     0
  0
ATTDEF
  5
186
330
17E
100
AcDbEntity
  8
AM_6
100
AcDbText
 10
5.053125
 20
2.625
 30
0.0
 40
0.5
  1
070871
100
AcDbAttributeDefinition
  3

  2
LINA
 70
     8
280
     0
  0
ATTDEF
  5
187
330
17E
100
AcDbEntity
  8
AM_6
100
AcDbText
 10
5.053125
 20
2.125
 30
0.0
 40
0.5
  1
3-15/16
100
AcDbAttributeDefinition
  3

  2
SS
 70
     8
280
     0
  0
ATTDEF
  5
188
330
17E
100
AcDbEntity
  8
AM_6
100
AcDbText
 10
5.053125
 20
1.625
 30
0.0
 40
0.5
  1
070871
100
AcDbAttributeDefinition
  3

  2
PN
 70
     8
280
     0
  0
ATTDEF
  5
189
330
17E
100
AcDbEntity
  8
AM_6
100
AcDbText
 10
5.053125
 20
1.125
 30
0.0
 40
0.5
  1
F4S-S2-315LE
100
AcDbAttributeDefinition
  3

  2
DESCRIPTION
 70
     8
280
     0
  0
ATTDEF
  5
18A
330
17E
100
AcDbEntity
  8
AM_6
100
AcDbText
 10
5.053125
 20
0.625
 30
0.0
 40
0.5
  1
Expansion Type
100
AcDbAttributeDefinition
  3

  2
EF
 70
     8
280
     0
  0
ATTDEF
  5
18B
330
17E
100
AcDbEntity
  8
AM_6
100
AcDbText
 10
5.053125
 20
0.125
 30
0.0
 40
0.5
  1
4-15/32
100
AcDbAttributeDefinition
  3

  2
A
 70
     8
280
     0
  0
ATTDEF
  5
18C
330
17E
100
AcDbEntity
  8
AM_6
100
AcDbText
 10
5.053125
 20
-0.375
 30
0.0
 40
0.5
  1
9-1/4
100
AcDbAttributeDefinition
  3

  2
B
 70
     8
280
     0
  0
ATTDEF
  5
18D
330
17E
100
AcDbEntity
  8
AM_6
100
AcDbText
 10
5.053125
 20
-0.875
 30
0.0
 40
0.5
  1
4-27/32
100
AcDbAttributeDefinition
  3

  2
C
 70
     8
280
     0
  0
ATTDEF
  5
18E
330
17E
100
AcDbEntity
  8
AM_6
100
AcDbText
 10
5.053125
 20
-1.375
 30
0.0
 40
0.5
  1
7/8
100
AcDbAttributeDefinition
  3

  2
F
 70
     8
280
     0
  0
ATTDEF
  5
18F
330
17E
100
AcDbEntity
  8
AM_6
100
AcDbText
 10
5.053125
 20
-1.875
 30
0.0
 40
0.5
  1
1-35/64
100
AcDbAttributeDefinition
  3

  2
G
 70
     8
280
     0
  0
ATTDEF
  5
190
330
17E
100
AcDbEntity
  8
AM_6
100
AcDbText
 10
5.053125
 20
-2.375
 30
0.0
 40
0.5
  1
1-1/16
100
AcDbAttributeDefinition
  3

  2
H
 70
     8
280
     0
  0
ATTDEF
  5
191
330
17E
100
AcDbEntity
  8
AM_6
100
AcDbText
 10
5.053125
 20
-2.875
 30
0.0
 40
0.5
  1
8-7/32
100
AcDbAttributeDefinition
  3

  2
J
 70
     8
280
     0
  0
ATTDEF
  5
192
330
17E
100
AcDbEntity
  8
AM_6
100
AcDbText
 10
5.053125
 20
-3.375
 30
0.0
 40
0.5
  1
10-3/4
100
AcDbAttributeDefinition
  3

  2
K
 70
     8
280
     0
  0
ATTDEF
  5
193
330
17E
100
AcDbEntity
  8
AM_6
100
AcDbText
 10
5.053125
 20
-3.875
 30
0.0
 40
0.5
  1
10.7500000
100
AcDbAttributeDefinition
  3

  2
K1
 70
     8
280
     0
  0
ATTDEF
  5
194
330
17E
100
AcDbEntity
  8
AM_6
100
AcDbText
 10
5.053125
 20
-4.375
 30
0.0
 40
0.5
  1
6
100
AcDbAttributeDefinition
  3

  2
L
 70
     8
280
     0
  0
ATTDEF
  5
195
330
17E
100
AcDbEntity
  8
AM_6
100
AcDbText
 10
5.053125
 20
-4.875
 30
0.0
 40
0.5
  1
4-45/64
100
AcDbAttributeDefinition
  3

  2
N
 70
     8
280
     0
  0
ATTDEF
  5
196
330
17E
100
AcDbEntity
  8
AM_6
100
AcDbText
 10
5.053125
 20
-5.375
 30
0.0
 40
0.5
  1
4.703125
100
AcDbAttributeDefinition
  3

  2
N1
 70
     8
280
     0
  0
ATTDEF
  5
197
330
17E
100
AcDbEntity
  8
AM_6
100
AcDbText
 10
5.053125
 20
-5.875
 30
0.0
 40
0.5
  1
3/8
100
AcDbAttributeDefinition
  3

  2
P
 70
     8
280
     0
  0
ATTDEF
  5
198
330
17E
100
AcDbEntity
  8
AM_6
100
AcDbText
 10
5.053125
 20
-6.375
 30
0.0
 40
0.5
  1
5/16
100
AcDbAttributeDefinition
  3

  2
X
 70
     8
280
     0
  0
ATTDEF
  5
199
330
17E
100
AcDbEntity
  8
AM_6
100
AcDbText
 10
5.053125
 20
-6.875
 30
0.0
 40
0.5
  1
0.025
100
AcDbAttributeDefinition
  3

  2
Y
 70
     8
280
     0
  0
ATTDEF
  5
19A
330
17E
100
AcDbEntity
  8
AM_6
100
AcDbText
 10
5.053125
 20
-7.375
 30
0.0
 40
0.5
  1
4-1/2
100
AcDbAttributeDefinition
  3

  2
Z
 70
     8
280
     0
  0
ATTDEF
  5
19B
330
17E
100
AcDbEntity
  8
AM_6
100
AcDbText
 10
5.053125
 20
-7.875
 30
0.0
 40
0.5
  1
baldor
100
AcDbAttributeDefinition
  3

  2
COMPANY
 70
     8
280
     0
  0
LINE
  5
19C
330
17E
100
AcDbEntity
  8
AM_9
100
AcDbLine
 10
-0.9916666666666665
 20
-3.753511140969407
 30
0.0
 11
-1.0625
 21
-3.753511140969407
 31
0.0
  0
LINE
  5
19D
330
17E
100
AcDbEntity
  8
AM_9
100
AcDbLine
 10
-0.9916666666666665
 20
-3.711644079652045
 30
0.0
 11
-1.0625
 21
-3.711644079652045
 31
0.0
  0
LINE
  5
19E
330
17E
100
AcDbEntity
  8
AM_9
100
AcDbLine
 10
-0.9916666666666665
 20
3.753511140969407
 30
0.0
 11
-1.0625
 21
3.753511140969407
 31
0.0
  0
LINE
  5
19F
330
17E
100
AcDbEntity
  8
AM_9
100
AcDbLine
 10
-1.0625
 20
3.711644079652045
 30
0.0
 11
-0.9916666666666665
 21
3.711644079652045
 31
0.0
  0
LINE
  5
1A0
330
17E
100
AcDbEntity
  8
AM_9
100
AcDbLine
 10
-0.9916666666666665
 20
-3.739752271902784
 30
0.0
 11
-1.0625
 21
-3.739752271902784
 31
0.0
  0
LINE
  5
1A1
330
17E
100
AcDbEntity
  8
AM_9
100
AcDbLine
 10
-1.0625
 20
-4.109375
 30
0.0
 11
-0.9916666666666666
 21
-4.109375
 31
0.0
  0
LINE
  5
1A2
330
17E
100
AcDbEntity
  8
AM_9
100
AcDbLine
 10
-0.9916666666666665
 20
3.739752271902783
 30
0.0
 11
-1.0625
 21
3.739752271902783
 31
0.0
  0
LINE
  5
1A3
330
17E
100
AcDbEntity
  8
AM_9
100
AcDbLine
 10
-0.9916666666666666
 20
4.109375
 30
0.0
 11
-1.0625
 21
4.109375
 31
0.0
  0
LINE
  5
1A4
330
17E
100
AcDbEntity
  8
AM_9
100
AcDbLine
 10
-0.9916666666666663
 20
-4.552489041096761
 30
0.0
 11
-1.0625
 21
-4.552489041096761
 31
0.0
  0
LINE
  5
1A5
330
17E
100
AcDbEntity
  8
AM_9
100
AcDbLine
 10
-0.9916666666666663
 20
4.552489041096761
 30
0.0
 11
-1.0625
 21
4.552489041096761
 31
0.0
  0
LINE
  5
1A6
330
17E
100
AcDbEntity
  8
AM_9
100
AcDbLine
 10
-0.9916666666666665
 20
-3.711644079652045
 30
0.0
 11
-0.9916666666666663
 21
-4.625
 31
0.0
  0
LINE
  5
1A7
330
17E
100
AcDbEntity
  8
AM_9
100
AcDbLine
 10
-0.9916666666666663
 20
4.625
 30
0.0
 11
-0.9916666666666665
 21
3.711644079652045
 31
0.0
  0
LINE
  5
1A8
330
17E
100
AcDbEntity
  8
AM_9
100
AcDbLine
 10
-3.296875
 20
-3.5433
 30
0.0
 11
-0.1517857142857144
 21
-3.5433
 31
0.0
  0
LINE
  5
1A9
330
17E
100
AcDbEntity
  8
AM_9
100
AcDbLine
 10
-0.1517857142857144
 20
3.5433
 30
0.0
 11
-3.296875
 21
3.5433
 31
0.0
  0
LINE
  5
1AA
330
17E
100
AcDbEntity
  8
AM_9
100
AcDbLine
 10
-0.0455357142857139
 20
-3.8263375
 30
0.0
 11
0.0
 21
-3.8263375
 31
0.0
  0
LINE
  5
1AB
330
17E
100
AcDbEntity
  8
AM_9
100
AcDbLine
 10
0.0
 20
3.8263375
 30
0.0
 11
-0.0455357142857139
 21
3.8263375
 31
0.0
  0
LINE
  5
1AC
330
17E
100
AcDbEntity
  8
AM_9
100
AcDbLine
 10
-0.1517857142857143
 20
3.7200875
 30
0.0
 11
-0.1517857142857143
 21
-3.7200875
 31
0.0
  0
ARC
  5
1AD
330
17E
100
AcDbEntity
  8
AM_9
100
AcDbCircle
 10
-0.0455357142857123
 20
-3.720087499999998
 30
0.0
 40
0.1062500000000019
100
AcDbArc
 50
180.0
 51
270.0
  0
ARC
  5
1AE
330
17E
100
AcDbEntity
  8
AM_9
100
AcDbCircle
 10
-0.0455357142857124
 20
3.720087499999998
 30
0.0
 40
0.106250000000002
100
AcDbArc
 50
90.0
 51
180.0
  0
LINE
  5
1AF
330
17E
100
AcDbEntity
  8
AM_9
100
AcDbLine
 10
-0.0455357142857139
 20
3.8263375
 30
0.0
 11
-0.0455357142857139
 21
-3.8263375
 31
0.0
  0
LINE
  5
1B0
330
17E
100
AcDbEntity
  8
AM_9
100
AcDbLine
 10
-1.0625
 20
-4.242187500000001
 30
0.0
 11
0.0000000000000002
 21
-4.242187500000001
 31
0.0
  0
LINE
  5
1B1
330
17E
100
AcDbEntity
  8
AM_9
100
AcDbLine
 10
0.0000000000000002
 20
-3.367187500000001
 30
0.0
 11
-1.0625
 21
-3.367187500000001
 31
0.0
  0
LINE
  5
1B2
330
17E
100
AcDbEntity
  8
AM_9
100
AcDbLine
 10
-1.0625
 20
3.3671875
 30
0.0
 11
0.0000000000000002
 21
3.3671875
 31
0.0
  0
LINE
  5
1B3
330
17E
100
AcDbEntity
  8
AM_9
100
AcDbLine
 10
0.0000000000000002
 20
4.2421875
 30
0.0
 11
-1.0625
 21
4.2421875
 31
0.0
  0
LINE
  5
1B4
330
17E
100
AcDbEntity
  8
AM_7
100
AcDbLine
 10
0.0531249999999998
 20
3.8046875
 30
0.0
 11
-1.115625
 21
3.8046875
 31
0.0
  0
LINE
  5
1B5
330
17E
100
AcDbEntity
  8
AM_7
100
AcDbLine
 10
0.0531249999999998
 20
-3.804687499999999
 30
0.0
 11
-1.115625
 21
-3.804687499999999
 31
0.0
  0
LINE
  5
1B6
330
17E
100
AcDbEntity
  8
AM_7
100
AcDbLine
 10
-2.1796875
 20
4.616375
 30
0.0
 11
-2.1796875
 21
3.614996249999999
 31
0.0
  0
LINE
  5
1B7
330
17E
100
AcDbEntity
  8
AM_4
100
AcDbLine
 10
-2.6796875
 20
4.109375
 30
0.0
 11
-1.6796875
 21
4.109375
 31
0.0
  0
LINE
  5
1B8
330
17E
100
AcDbEntity
  8
AM_4
100
AcDbLine
 10
-2.5796875
 20
4.209374999999999
 30
0.0
 11
-1.779687500000555
 21
4.209374999999999
 31
0.0
  0
ARC
  5
1B9
330
17E
100
AcDbEntity
  8
AM_4
100
AcDbCircle
 10
-1.7796875
 20
4.109375
 30
0.0
 40
0.0999999999999999
100
AcDbArc
 50
0.0
 51
90.0
  0
ARC
  5
1BA
330
17E
100
AcDbEntity
  8
AM_4
100
AcDbCircle
 10
-2.579687500000001
 20
4.109375
 30
0.0
 40
0.0999999999999988
100
AcDbArc
 50
90.0
 51
180.0
  0
LINE
  5
1BB
330
17E
100
AcDbEntity
  8
AM_4
100
AcDbLine
 10
-3.296875
 20
-4.109375
 30
0.0
 11
-1.0625
 21
-4.109375
 31
0.0
  0
LWPOLYLINE
  5
1BC
330
17E
100
AcDbEntity
  8
AM_4
100
AcDbPolyline
 90
       29
 70
     0
 43
0.0
 10
-2.6796875
 20
4.109375
 10
-2.672849933023898
 20
4.108548658099481
 10
-2.664047727495443
 20
4.107501076257715
 10
-2.651743366804134
 20
4.10606863459553
 10
-2.618164641391505
 20
4.10234385371922
 10
-2.596166158671989
 20
4.10005086039146
 10
-2.57116832167902
 20
4.097587110040186
 10
-2.514383353032354
 20
4.092552284902669
 10
-2.481472976241364
 20
4.089992696066529
 10
-2.446360465342117
 20
4.087551511732832
 10
-2.372523522953464
 20
4.083399150508496
 10
-2.332284245040467
 20
4.081697501327233
 10
-2.290912188458258
 20
4.080359521163256
 10
-2.208854052921708
 20
4.078947606728276
 10
-2.16615641781751
 20
4.078866602165936
 10
-2.123558731858952
 20
4.079229501908177
 10
-2.04267741534703
 20
4.081143792360374
 10
-2.002399421247722
 20
4.082695089386881
 10
-1.963407777297385
 20
4.084573393767986
 10
-1.892158689029868
 20
4.088965114520164
 10
-1.858464391475018
 20
4.09147278348428
 10
-1.82708949980779
 20
4.094055231718857
 10
-1.773258845951099
 20
4.099042222453558
 10
-1.749849021986014
 20
4.101429416384455
 10
-1.729576815808534
 20
4.103603601549291
 10
-1.699716210295327
 20
4.106986161355522
 10
-1.689484605588238
 20
4.108194109395842
 10
-1.682847325568432
 20
4.10899173150229
 10
-1.6796875
 20
4.109375
  0
LINE
  5
1BD
330
17E
100
AcDbEntity
  8
AM_4
100
AcDbLine
 10
-1.0625
 20
4.109375
 30
0.0
 11
-1.679687500000001
 21
4.109375
 31
0.0
  0
LINE
  5
1BE
330
17E
100
AcDbEntity
  8
AM_4
100
AcDbLine
 10
-2.6796875
 20
4.109375
 30
0.0
 11
-3.296875
 21
4.109375
 31
0.0
  0
LINE
  5
1BF
330
17E
100
AcDbEntity
  8
AM_4
100
AcDbLine
 10
-3.296875
 20
-3.336326341738083
 30
0.0
 11
-1.0625
 21
-3.336326341738083
 31
0.0
  0
LINE
  5
1C0
330
17E
100
AcDbEntity
  8
AM_4
100
AcDbLine
 10
-3.296875
 20
3.336326331536866
 30
0.0
 11
-1.0625
 21
3.336326331536866
 31
0.0
  0
LINE
  5
1C1
330
17E
100
AcDbEntity
  8
AM_4
100
AcDbLine
 10
-3.296875
 20
-3.171478406473081
 30
0.0
 11
-1.0625
 21
-3.171478406473081
 31
0.0
  0
LINE
  5
1C2
330
17E
100
AcDbEntity
  8
AM_4
100
AcDbLine
 10
-3.296875
 20
3.171478384748543
 30
0.0
 11
-1.0625
 21
3.171478384748543
 31
0.0
  0
LINE
  5
1C3
330
17E
100
AcDbEntity
  8
AM_4
100
AcDbLine
 10
-3.296875
 20
-2.516297587185705
 30
0.0
 11
-1.0625
 21
-2.516297587185705
 31
0.0
  0
LINE
  5
1C4
330
17E
100
AcDbEntity
  8
AM_4
100
AcDbLine
 10
-3.296875
 20
-4.109375
 30
0.0
 11
-3.296875
 21
4.109375
 31
0.0
  0
LINE
  5
1C5
330
17E
100
AcDbEntity
  8
AM_4
100
AcDbLine
 10
-3.296875
 20
2.516297580741905
 30
0.0
 11
-1.0625
 21
2.516297580741905
 31
0.0
  0
LINE
  5
1C6
330
17E
100
AcDbEntity
  8
AM_4
100
AcDbLine
 10
-3.296875
 20
2.399143478837728
 30
0.0
 11
-1.0625
 21
2.399143478837728
 31
0.0
  0
LINE
  5
1C7
330
17E
100
AcDbEntity
  8
AM_4
100
AcDbLine
 10
-3.296875
 20
-2.399143493023867
 30
0.0
 11
-1.0625
 21
-2.399143493023866
 31
0.0
  0
LINE
  5
1C8
330
17E
100
AcDbEntity
  8
AM_4
100
AcDbLine
 10
-0.9916666666666663
 20
-1.703295580756017
 30
0.0
 11
-1.0625
 21
-1.703295580756017
 31
0.0
  0
LINE
  5
1C9
330
17E
100
AcDbEntity
  8
AM_4
100
AcDbLine
 10
-0.9916666666666663
 20
1.703295580756015
 30
0.0
 11
-1.0625
 21
1.703295580756015
 31
0.0
  0
LINE
  5
1CA
330
17E
100
AcDbEntity
  8
AM_4
100
AcDbLine
 10
-0.9916666666666663
 20
-1.989073761802102
 30
0.0
 11
-1.0625
 21
-1.989073761802102
 31
0.0
  0
LINE
  5
1CB
330
17E
100
AcDbEntity
  8
AM_4
100
AcDbLine
 10
-0.9916666666666663
 20
1.9890737618021
 30
0.0
 11
-1.0625
 21
1.9890737618021
 31
0.0
  0
LINE
  5
1CC
330
17E
100
AcDbEntity
  8
AM_4
100
AcDbLine
 10
-0.9916666666666663
 20
-3.37294407894737
 30
0.0
 11
-1.0625
 21
-3.37294407894737
 31
0.0
  0
LINE
  5
1CD
330
17E
100
AcDbEntity
  8
AM_4
100
AcDbLine
 10
-0.9916666666666663
 20
-3.535063819970463
 30
0.0
 11
-0.9916666666666663
 21
3.535063819970459
 31
0.0
  0
LINE
  5
1CE
330
17E
100
AcDbEntity
  8
AM_4
100
AcDbLine
 10
-1.0625
 20
-3.535063819970463
 30
0.0
 11
-0.9916666666666663
 21
-3.535063819970463
 31
0.0
  0
LINE
  5
1CF
330
17E
100
AcDbEntity
  8
AM_4
100
AcDbLine
 10
-1.0625
 20
1.703295580756015
 30
0.0
 11
-1.0625
 21
4.625
 31
0.0
  0
LINE
  5
1D0
330
17E
100
AcDbEntity
  8
AM_4
100
AcDbLine
 10
0.0000000000000002
 20
-4.625
 30
0.0
 11
0.0000000000000002
 21
4.625
 31
0.0
  0
LINE
  5
1D1
330
17E
100
AcDbEntity
  8
AM_4
100
AcDbLine
 10
-1.0625
 20
4.625
 30
0.0
 11
0.0000000000000002
 21
4.625
 31
0.0
  0
LINE
  5
1D2
330
17E
100
AcDbEntity
  8
AM_4
100
AcDbLine
 10
-1.0625
 20
3.804687499999999
 30
0.0
 11
0.0000000000000003
 21
3.804687499999999
 31
0.0
  0
LINE
  5
1D3
330
17E
100
AcDbEntity
  8
AM_4
100
AcDbLine
 10
-1.0625
 20
-3.804687500000001
 30
0.0
 11
0.0000000000000003
 21
-3.804687500000001
 31
0.0
  0
LINE
  5
1D4
330
17E
100
AcDbEntity
  8
AM_4
100
AcDbLine
 10
-1.0625
 20
-4.625
 30
0.0
 11
-1.0625
 21
-1.703295580756017
 31
0.0
  0
LINE
  5
1D5
330
17E
100
AcDbEntity
  8
AM_4
100
AcDbLine
 10
-1.0625
 20
-4.625
 30
0.0
 11
0.0000000000000002
 21
-4.625
 31
0.0
  0
LINE
  5
1D6
330
17E
100
AcDbEntity
  8
AM_4
100
AcDbLine
 10
-0.9916666666666663
 20
3.535063819970459
 30
0.0
 11
-1.0625
 21
3.535063819970459
 31
0.0
  0
LINE
  5
1D7
330
17E
100
AcDbEntity
  8
AM_4
100
AcDbLine
 10
-0.9916666666666663
 20
3.372944078947368
 30
0.0
 11
-1.0625
 21
3.372944078947368
 31
0.0
  0
ENDBLK
  5
181
330
17E
100
AcDbEntity
  8
0
100
AcDbBlockEnd
  0
ENDSEC
  0
SECTION
  2
ENTITIES
  0
INSERT
  5
6F
330
1F
100
AcDbEntity
  8
0
100
AcDbBlockReference
  2
1_070871_2
 10
0.0
 20
0.0
 30
0.0
  0
POINT
  5
1D9
330
1F
100
AcDbEntity
  8
ConnectionPoints
100
AcDbPoint
 10
-4.53125
 20
0.0
 30
0.0000000000000003
  0
POINT
  5
1DA
330
1F
100
AcDbEntity
  8
ConnectionPoints
100
AcDbPoint
 10
1.1455
 20
0.0
 30
-0.0000000000000001
  0
POINT
  5
1DB
330
1F
100
AcDbEntity
  8
ConnectionPoints
100
AcDbPoint
 10
-4.53125
 20
0.0
 30
0.0000000000000003
  0
POINT
  5
1DC
330
1F
100
AcDbEntity
  8
ConnectionPoints
100
AcDbPoint
 10
-2.1796875
 20
4.209375
 30
0.0000000000000001
  0
POINT
  5
1DD
330
1F
100
AcDbEntity
  8
ConnectionPoints
100
AcDbPoint
 10
-2.1796875
 20
4.209375
 30
0.0000000000000001
  0
POINT
  5
1DE
330
1F
100
AcDbEntity
  8
ConnectionPoints
100
AcDbPoint
 10
-4.53125
 20
0.0
 30
0.0000000000000003
  0
POINT
  5
1DF
330
1F
100
AcDbEntity
  8
ConnectionPoints
100
AcDbPoint
 10
-4.84375
 20
0.0
 30
0.0000000000000003
  0
ENDSEC
  0
SECTION
  2
OBJECTS
  0
DICTIONARY
  5
C
330
0
100
AcDbDictionary
281
     1
  3
ACAD_DETAILVIEWSTYLE
350
1E7
  3
ACAD_GROUP
350
D
  3
ACAD_LAYOUT
350
1A
  3
ACAD_MATERIAL
350
43
  3
ACAD_MLEADERSTYLE
350
6B
  3
ACAD_MLINESTYLE
350
17
  3
ACAD_PLOTSETTINGS
350
19
  3
ACAD_PLOTSTYLENAME
350
E
  3
ACAD_SCALELIST
350
47
  3
ACAD_SECTIONVIEWSTYLE
350
1E8
  3
ACAD_TABLESTYLE
350
69
  3
ACAD_VISUALSTYLE
350
2A
  3
ACDB_RECOMPOSE_DATA
350
1E4
  3
AcDbVariableDictionary
350
1E0
  0
SUN
  5
6D
330
29
100
AcDbSun
 90
        1
290
     0
 63
     7
421
 16777215
 40
1.0
291
     1
 91
  2455826
 92
 54000000
292
     0
 70
     2
 71
   256
280
     1
  0
DICTIONARY
  5
1E7
102
{ACAD_REACTORS
330
C
102
}
330
C
100
AcDbDictionary
281
     1
  0
DICTIONARY
  5
D
102
{ACAD_REACTORS
330
C
102
}
330
C
100
AcDbDictionary
281
     1
  0
DICTIONARY
  5
1A
102
{ACAD_REACTORS
330
C
102
}
330
C
100
AcDbDictionary
281
     1
  3
Layout1
350
1E
  3
Layout2
350
26
  3
Model
350
22
  0
DICTIONARY
  5
43
102
{ACAD_REACTORS
330
C
102
}
330
C
100
AcDbDictionary
281
     1
  3
ByBlock
350
45
  3
ByLayer
350
44
  3
Global
350
46
  0
DICTIONARY
  5
6B
102
{ACAD_REACTORS
330
C
102
}
330
C
100
AcDbDictionary
281
     1
  3
Standard
350
6C
  0
DICTIONARY
  5
17
102
{ACAD_REACTORS
330
C
102
}
330
C
100
AcDbDictionary
281
     1
  3
Standard
350
18
  0
DICTIONARY
  5
19
102
{ACAD_REACTORS
330
C
102
}
330
C
100
AcDbDictionary
281
     1
  0
ACDBDICTIONARYWDFLT
  5
E
102
{ACAD_REACTORS
330
C
102
}
330
C
100
AcDbDictionary
281
     1
  3
Normal
350
F
100
AcDbDictionaryWithDefault
340
F
  0
DICTIONARY
  5
47
102
{ACAD_REACTORS
330
C
102
}
330
C
100
AcDbDictionary
281
     1
  3
A0
350
48
  3
A1
350
49
  3
A2
350
4A
  3
A3
350
4B
  3
A4
350
4C
  3
A5
350
4D
  3
A6
350
4E
  3
A7
350
4F
  3
A8
350
50
  3
A9
350
51
  3
B0
350
52
  3
B1
350
53
  3
B2
350
54
  3
B3
350
55
  3
B4
350
56
  3
B5
350
57
  3
B6
350
58
  3
B7
350
59
  3
B8
350
5A
  3
B9
350
5B
  3
C0
350
5C
  3
C1
350
5D
  3
C2
350
5E
  3
C3
350
5F
  3
C4
350
60
  3
C5
350
61
  3
C6
350
62
  3
C7
350
63
  3
C8
350
64
  3
C9
350
65
  3
D0
350
66
  3
D1
350
67
  3
D2
350
68
  0
DICTIONARY
  5
1E8
102
{ACAD_REACTORS
330
C
102
}
330
C
100
AcDbDictionary
281
     1
  0
DICTIONARY
  5
69
102
{ACAD_REACTORS
330
C
102
}
330
C
100
AcDbDictionary
281
     1
  3
Standard
350
6A
  0
DICTIONARY
  5
2A
102
{ACAD_REACTORS
330
C
102
}
330
C
100
AcDbDictionary
281
     1
  3
2dWireframe
350
2F
  3
Basic
350
32
  3
Brighten
350
36
  3
ColorChange
350
3A
  3
Conceptual
350
34
  3
Dim
350
35
  3
EdgeColorOff
350
3D
  3
Facepattern
350
39
  3
Flat
350
2B
  3
FlatWithEdges
350
2C
  3
Gouraud
350
2D
  3
GouraudWithEdges
350
2E
  3
Hidden
350
31
  3
JitterOff
350
3B
  3
Linepattern
350
38
  3
OverhangOff
350
3C
  3
Realistic
350
33
  3
Shaded
350
42
  3
Shaded with edges
350
41
  3
Shades of Gray
350
3E
  3
Sketchy
350
3F
  3
Thicken
350
37
  3
Wireframe
350
30
  3
X-Ray
350
40
  0
XRECORD
  5
1E4
102
{ACAD_REACTORS
330
C
102
}
330
C
100
AcDbXrecord
280
     1
 90
        1
330
6A
  0
DICTIONARY
  5
1E0
102
{ACAD_REACTORS
330
C
102
}
330
C
100
AcDbDictionary
281
     1
  3
CANNOSCALE
350
1E1
  3
CMLEADERSTYLE
350
1E6
  3
CTABLESTYLE
350
1E5
  0
LAYOUT
  5
1E
102
{ACAD_REACTORS
330
1A
102
}
330
1A
100
AcDbPlotSettings
  1

  2
none_device
  4

  6

 40
0.0
 41
0.0
 42
0.0
 43
0.0
 44
0.0
 45
0.0
 46
0.0
 47
0.0
 48
0.0
 49
0.0
140
0.0
141
0.0
142
1.0
143
1.0
 70
   688
 72
     0
 73
     0
 74
     5
  7

 75
    16
 76
     0
 77
     2
 78
   300
147
1.0
148
0.0
149
0.0
100
AcDbLayout
  1
Layout1
 70
     1
 71
     1
 10
0.0
 20
0.0
 11
12.0
 21
9.0
 12
0.0
 22
0.0
 32
0.0
 14
1.000000000000000E+20
 24
1.000000000000000E+20
 34
1.000000000000000E+20
 15
-1.000000000000000E+20
 25
-1.000000000000000E+20
 35
-1.000000000000000E+20
146
0.0
 13
0.0
 23
0.0
 33
0.0
 16
1.0
 26
0.0
 36
0.0
 17
0.0
 27
1.0
 37
0.0
 76
     0
330
1B
  0
LAYOUT
  5
26
102
{ACAD_REACTORS
330
1A
102
}
330
1A
100
AcDbPlotSettings
  1

  2
none_device
  4

  6

 40
0.0
 41
0.0
 42
0.0
 43
0.0
 44
0.0
 45
0.0
 46
0.0
 47
0.0
 48
0.0
 49
0.0
140
0.0
141
0.0
142
1.0
143
1.0
 70
   688
 72
     0
 73
     0
 74
     5
  7

 75
    16
 76
     0
 77
     2
 78
   300
147
1.0
148
0.0
149
0.0
100
AcDbLayout
  1
Layout2
 70
     1
 71
     2
 10
0.0
 20
0.0
 11
0.0
 21
0.0
 12
0.0
 22
0.0
 32
0.0
 14
0.0
 24
0.0
 34
0.0
 15
0.0
 25
0.0
 35
0.0
146
0.0
 13
0.0
 23
0.0
 33
0.0
 16
1.0
 26
0.0
 36
0.0
 17
0.0
 27
1.0
 37
0.0
 76
     0
330
23
  0
LAYOUT
  5
22
102
{ACAD_REACTORS
330
1A
102
}
330
1A
100
AcDbPlotSettings
  1

  2
none_device
  4
Letter_(8.50_x_11.00_Inches)
  6

 40
6.35
 41
6.35
 42
6.35000508
 43
6.35000508
 44
215.9
 45
279.4
 46
0.0
 47
0.0
 48
0.0
 49
0.0
140
0.0
141
0.0
142
1.0
143
1.0
 70
  1712
 72
     0
 73
     0
 74
     0
  7

 75
     0
 76
     0
 77
     2
 78
   300
147
1.0
148
0.0
149
0.0
100
AcDbLayout
  1
Model
 70
     1
 71
     0
 10
0.0
 20
0.0
 11
12.0
 21
9.0
 12
0.0
 22
0.0
 32
0.0
 14
1.000000000000000E+20
 24
1.000000000000000E+20
 34
1.000000000000000E+20
 15
-1.000000000000000E+20
 25
-1.000000000000000E+20
 35
-1.000000000000000E+20
146
0.0
 13
0.0
 23
0.0
 33
0.0
 16
1.0
 26
0.0
 36
0.0
 17
0.0
 27
1.0
 37
0.0
 76
     0
330
1F
331
29
  0
MATERIAL
  5
45
102
{ACAD_REACTORS
330
43
102
}
330
43
100
AcDbMaterial
  1
ByBlock
 72
     1
 94
      127
  0
MATERIAL
  5
44
102
{ACAD_REACTORS
330
43
102
}
330
43
100
AcDbMaterial
  1
ByLayer
 72
     1
 94
      127
  0
MATERIAL
  5
46
102
{ACAD_REACTORS
330
43
102
}
330
43
100
AcDbMaterial
  1
Global
 72
     1
 94
      127
  0
MLEADERSTYLE
  5
6C
102
{ACAD_REACTORS
330
6B
102
}
330
6B
100
AcDbMLeaderStyle
179
     2
170
     2
171
     1
172
     0
 90
        2
 40
0.0
 41
0.0
173
     1
 91
-1056964608
340
14
 92
       -2
290
     1
 42
0.09
291
     1
 43
0.36
  3
Standard
341
0
 44
0.18
300

342
11
174
     1
178
     6
175
     1
176
     0
 93
-1056964608
 45
0.18
292
     0
297
     0
 46
0.18
343
0
 94
-1056964608
 47
1.0
 49
1.0
140
1.0
293
     1
141
0.0
294
     1
177
     0
142
1.0
295
     0
296
     0
143
0.125
271
     0
272
     9
273
     9
298
     0
  0
MLINESTYLE
  5
18
102
{ACAD_REACTORS
330
17
102
}
330
17
100
AcDbMlineStyle
  2
Standard
 70
     0
  3

 62
   256
 51
90.0
 52
90.0
 71
     2
 49
0.5
 62
   256
  6
BYLAYER
 49
-0.5
 62
   256
  6
BYLAYER
  0
ACDBPLACEHOLDER
  5
F
102
{ACAD_REACTORS
330
E
102
}
330
E
  0
SCALE
  5
48
102
{ACAD_REACTORS
330
47
102
}
330
47
100
AcDbScale
 70
     0
300
1:1
140
1.0
141
1.0
290
     1
  0
SCALE
  5
49
102
{ACAD_REACTORS
330
47
102
}
330
47
100
AcDbScale
 70
     0
300
1:2
140
1.0
141
2.0
290
     0
  0
SCALE
  5
4A
102
{ACAD_REACTORS
330
47
102
}
330
47
100
AcDbScale
 70
     0
300
1:4
140
1.0
141
4.0
290
     0
  0
SCALE
  5
4B
102
{ACAD_REACTORS
330
47
102
}
330
47
100
AcDbScale
 70
     0
300
1:5
140
1.0
141
5.0
290
     0
  0
SCALE
  5
4C
102
{ACAD_REACTORS
330
47
102
}
330
47
100
AcDbScale
 70
     0
300
1:8
140
1.0
141
8.0
290
     0
  0
SCALE
  5
4D
102
{ACAD_REACTORS
330
47
102
}
330
47
100
AcDbScale
 70
     0
300
1:10
140
1.0
141
10.0
290
     0
  0
SCALE
  5
4E
102
{ACAD_REACTORS
330
47
102
}
330
47
100
AcDbScale
 70
     0
300
1:16
140
1.0
141
16.0
290
     0
  0
SCALE
  5
4F
102
{ACAD_REACTORS
330
47
102
}
330
47
100
AcDbScale
 70
     0
300
1:20
140
1.0
141
20.0
290
     0
  0
SCALE
  5
50
102
{ACAD_REACTORS
330
47
102
}
330
47
100
AcDbScale
 70
     0
300
1:30
140
1.0
141
30.0
290
     0
  0
SCALE
  5
51
102
{ACAD_REACTORS
330
47
102
}
330
47
100
AcDbScale
 70
     0
300
1:40
140
1.0
141
40.0
290
     0
  0
SCALE
  5
52
102
{ACAD_REACTORS
330
47
102
}
330
47
100
AcDbScale
 70
     0
300
1:50
140
1.0
141
50.0
290
     0
  0
SCALE
  5
53
102
{ACAD_REACTORS
330
47
102
}
330
47
100
AcDbScale
 70
     0
300
1:100
140
1.0
141
100.0
290
     0
  0
SCALE
  5
54
102
{ACAD_REACTORS
330
47
102
}
330
47
100
AcDbScale
 70
     0
300
2:1
140
2.0
141
1.0
290
     0
  0
SCALE
  5
55
102
{ACAD_REACTORS
330
47
102
}
330
47
100
AcDbScale
 70
     0
300
4:1
140
4.0
141
1.0
290
     0
  0
SCALE
  5
56
102
{ACAD_REACTORS
330
47
102
}
330
47
100
AcDbScale
 70
     0
300
8:1
140
8.0
141
1.0
290
     0
  0
SCALE
  5
57
102
{ACAD_REACTORS
330
47
102
}
330
47
100
AcDbScale
 70
     0
300
10:1
140
10.0
141
1.0
290
     0
  0
SCALE
  5
58
102
{ACAD_REACTORS
330
47
102
}
330
47
100
AcDbScale
 70
     0
300
100:1
140
100.0
141
1.0
290
     0
  0
SCALE
  5
59
102
{ACAD_REACTORS
330
47
102
}
330
47
100
AcDbScale
 70
     0
300
1/128" = 1'-0"
140
0.0078125
141
12.0
290
     0
  0
SCALE
  5
5A
102
{ACAD_REACTORS
330
47
102
}
330
47
100
AcDbScale
 70
     0
300
1/64" = 1'-0"
140
0.015625
141
12.0
290
     0
  0
SCALE
  5
5B
102
{ACAD_REACTORS
330
47
102
}
330
47
100
AcDbScale
 70
     0
300
1/32" = 1'-0"
140
0.03125
141
12.0
290
     0
  0
SCALE
  5
5C
102
{ACAD_REACTORS
330
47
102
}
330
47
100
AcDbScale
 70
     0
300
1/16" = 1'-0"
140
0.0625
141
12.0
290
     0
  0
SCALE
  5
5D
102
{ACAD_REACTORS
330
47
102
}
330
47
100
AcDbScale
 70
     0
300
3/32" = 1'-0"
140
0.09375
141
12.0
290
     0
  0
SCALE
  5
5E
102
{ACAD_REACTORS
330
47
102
}
330
47
100
AcDbScale
 70
     0
300
1/8" = 1'-0"
140
0.125
141
12.0
290
     0
  0
SCALE
  5
5F
102
{ACAD_REACTORS
330
47
102
}
330
47
100
AcDbScale
 70
     0
300
3/16" = 1'-0"
140
0.1875
141
12.0
290
     0
  0
SCALE
  5
60
102
{ACAD_REACTORS
330
47
102
}
330
47
100
AcDbScale
 70
     0
300
1/4" = 1'-0"
140
0.25
141
12.0
290
     0
  0
SCALE
  5
61
102
{ACAD_REACTORS
330
47
102
}
330
47
100
AcDbScale
 70
     0
300
3/8" = 1'-0"
140
0.375
141
12.0
290
     0
  0
SCALE
  5
62
102
{ACAD_REACTORS
330
47
102
}
330
47
100
AcDbScale
 70
     0
300
1/2" = 1'-0"
140
0.5
141
12.0
290
     0
  0
SCALE
  5
63
102
{ACAD_REACTORS
330
47
102
}
330
47
100
AcDbScale
 70
     0
300
3/4" = 1'-0"
140
0.75
141
12.0
290
     0
  0
SCALE
  5
64
102
{ACAD_REACTORS
330
47
102
}
330
47
100
AcDbScale
 70
     0
300
1" = 1'-0"
140
1.0
141
12.0
290
     0
  0
SCALE
  5
65
102
{ACAD_REACTORS
330
47
102
}
330
47
100
AcDbScale
 70
     0
300
1-1/2" = 1'-0"
140
1.5
141
12.0
290
     0
  0
SCALE
  5
66
102
{ACAD_REACTORS
330
47
102
}
330
47
100
AcDbScale
 70
     0
300
3" = 1'-0"
140
3.0
141
12.0
290
     0
  0
SCALE
  5
67
102
{ACAD_REACTORS
330
47
102
}
330
47
100
AcDbScale
 70
     0
300
6" = 1'-0"
140
6.0
141
12.0
290
     0
  0
SCALE
  5
68
102
{ACAD_REACTORS
330
47
102
}
330
47
100
AcDbScale
 70
     0
300
1'-0" = 1'-0"
140
12.0
141
12.0
290
     0
  0
TABLESTYLE
  5
6A
102
{ACAD_REACTORS
330
69
102
}
102
{ACAD_XDICTIONARY
360
1E2
102
}
330
69
100
AcDbTableStyle
  3
Standard
 70
     0
 71
     0
 40
0.06
 41
0.06
280
     0
281
     0
  7
Standard
140
0.18
170
     2
 62
     0
 63
   257
283
     0
 90
        4
 91
        0
  1

274
    -2
284
     1
 64
     0
275
    -2
285
     1
 65
     0
276
    -2
286
     1
 66
     0
277
    -2
287
     1
 67
     0
278
    -2
288
     1
 68
     0
279
    -2
289
     1
 69
     0
  7
Standard
140
0.25
170
     5
 62
     0
 63
   257
283
     0
 90
        4
 91
        0
  1

274
    -2
284
     1
 64
     0
275
    -2
285
     1
 65
     0
276
    -2
286
     1
 66
     0
277
    -2
287
     1
 67
     0
278
    -2
288
     1
 68
     0
279
    -2
289
     1
 69
     0
  7
Standard
140
0.18
170
     5
 62
     0
 63
   257
283
     0
 90
        4
 91
        0
  1

274
    -2
284
     1
 64
     0
275
    -2
285
     1
 65
     0
276
    -2
286
     1
 66
     0
277
    -2
287
     1
 67
     0
278
    -2
288
     1
 68
     0
279
    -2
289
     1
 69
     0
  0
VISUALSTYLE
  5
2F
102
{ACAD_REACTORS
330
2A
102
}
330
2A
100
AcDbVisualStyle
  2
2dWireframe
 70
     4
177
     3
291
     0
 70
    58
 90
        0
176
     1
 90
        2
176
     1
 90
        0
176
     1
 90
        0
176
     1
 40
0.6
176
     1
 40
30.0
176
     1
 62
     7
420
 16777215
176
     1
 90
        1
176
     1
 90
        4
176
     1
 62
     7
176
     1
 62
   257
176
     1
 90
        1
176
     1
 90
        1
176
     1
 40
1.0
176
     1
 90
        0
176
     1
 62
   257
176
     1
 40
1.0
176
     1
 90
        1
176
     1
 90
        6
176
     1
 90
        2
176
     1
 62
     7
176
     1
 90
        5
176
     1
 90
        0
176
     1
 90
        0
176
     1
290
     0
176
     1
 90
        1
176
     1
 40
0.0
176
     1
 90
        0
176
     1
290
     1
176
     1
290
     1
176
     1
290
     0
176
     1
290
     0
176
     1
290
     0
176
     1
290
     0
176
     1
290
     0
176
     1
290
     0
176
     1
290
     0
176
     1
 90
       50
176
     1
 40
0.0
176
     1
 40
1.0
176
     1
 90
        0
176
     1
 62
    18
420
        0
176
     1
 90
       50
176
     1
 90
        3
176
     1
 62
     5
420
      255
176
     1
290
     0
176
     1
 90
       50
176
     1
 90
       50
176
     1
 90
       50
176
     1
290
     0
176
     1
 90
       50
176
     1
 62
   256
176
     0
 40
1.0
176
     0
 90
        2
176
     1
  1
strokes_ogs.tif
176
     1
290
     0
176
     1
 40
1.0
176
     1
 40
1.0
176
     1
  0
VISUALSTYLE
  5
32
102
{ACAD_REACTORS
330
2A
102
}
330
2A
100
AcDbVisualStyle
  2
Basic
 70
     7
177
     3
291
     1
 70
    58
 90
        1
176
     1
 90
        0
176
     1
 90
        1
176
     1
 90
        0
176
     1
 40
0.6
176
     1
 40
30.0
176
     1
 62
     7
420
 16777215
176
     1
 90
        0
176
     1
 90
        4
176
     1
 62
     7
176
     1
 62
   257
176
     1
 90
        1
176
     1
 90
        1
176
     1
 40
1.0
176
     1
 90
        8
176
     1
 62
     7
176
     1
 40
1.0
176
     1
 90
        1
176
     1
 90
        6
176
     1
 90
        2
176
     1
 62
     7
176
     1
 90
        5
176
     1
 90
        0
176
     1
 90
        0
176
     1
290
     0
176
     1
 90
        1
176
     1
 40
0.0
176
     1
 90
        0
176
     1
290
     0
176
     1
290
     1
176
     1
290
     1
176
     1
290
     0
176
     1
290
     0
176
     1
290
     0
176
     1
290
     0
176
     1
290
     0
176
     1
290
     0
176
     1
 90
       50
176
     1
 40
0.0
176
     1
 40
1.0
176
     1
 90
        0
176
     1
 62
    18
420
        0
176
     1
 90
       50
176
     1
 90
        3
176
     1
 62
     5
420
      255
176
     1
290
     0
176
     1
 90
       50
176
     1
 90
       50
176
     1
 90
       50
176
     1
290
     0
176
     1
 90
       50
176
     1
 62
   256
176
     0
 40
1.0
176
     0
 90
        2
176
     1
  1
strokes_ogs.tif
176
     1
290
     0
176
     1
 40
1.0
176
     1
 40
1.0
176
     1
  0
VISUALSTYLE
  5
36
102
{ACAD_REACTORS
330
2A
102
}
330
2A
100
AcDbVisualStyle
  2
Brighten
 70
    12
177
     3
291
     1
 70
    58
 90
        2
176
     1
 90
        2
176
     1
 90
        0
176
     1
 90
        0
176
     1
 40
0.6
176
     1
 40
30.0
176
     1
 62
     7
420
 16777215
176
     1
 90
        1
176
     1
 90
        4
176
     1
 62
     7
176
     1
 62
   257
176
     1
 90
        1
176
     1
 90
        1
176
     1
 40
1.0
176
     1
 90
        8
176
     1
 62
     7
176
     1
 40
1.0
176
     1
 90
        1
176
     1
 90
        6
176
     1
 90
        2
176
     1
 62
     7
176
     1
 90
        5
176
     1
 90
        0
176
     1
 90
        0
176
     1
290
     0
176
     1
 90
        1
176
     1
 40
50.0
176
     1
 90
        0
176
     1
290
     0
176
     1
290
     1
176
     1
290
     1
176
     1
290
     0
176
     1
290
     0
176
     1
290
     0
176
     1
290
     0
176
     1
290
     0
176
     1
290
     0
176
     1
 90
       50
176
     1
 40
0.0
176
     1
 40
1.0
176
     1
 90
        0
176
     1
 62
    18
420
        0
176
     1
 90
       50
176
     1
 90
        3
176
     1
 62
     5
420
      255
176
     1
290
     0
176
     1
 90
       50
176
     1
 90
       50
176
     1
 90
       50
176
     1
290
     0
176
     1
 90
       50
176
     1
 62
   256
176
     0
 40
1.0
176
     0
 90
        2
176
     1
  1
strokes_ogs.tif
176
     1
290
     0
176
     1
 40
1.0
176
     1
 40
1.0
176
     1
  0
VISUALSTYLE
  5
3A
102
{ACAD_REACTORS
330
2A
102
}
330
2A
100
AcDbVisualStyle
  2
ColorChange
 70
    16
177
     3
291
     1
 70
    58
 90
        2
176
     1
 90
        2
176
     1
 90
        3
176
     1
 90
        0
176
     1
 40
0.6
176
     1
 40
30.0
176
     1
 62
     8
420
  8421504
176
     1
 90
        1
176
     1
 90
        4
176
     1
 62
     7
176
     1
 62
   257
176
     1
 90
        1
176
     1
 90
        1
176
     1
 40
1.0
176
     1
 90
        8
176
     1
 62
     8
420
  8421504
176
     1
 40
1.0
176
     1
 90
        1
176
     1
 90
        6
176
     1
 90
        2
176
     1
 62
     7
176
     1
 90
        5
176
     1
 90
        0
176
     1
 90
        0
176
     1
290
     0
176
     1
 90
        1
176
     1
 40
0.0
176
     1
 90
        0
176
     1
290
     0
176
     1
290
     1
176
     1
290
     1
176
     1
290
     0
176
     1
290
     0
176
     1
290
     0
176
     1
290
     0
176
     1
290
     0
176
     1
290
     0
176
     1
 90
       50
176
     1
 40
0.0
176
     1
 40
1.0
176
     1
 90
        0
176
     1
 62
    18
420
        0
176
     1
 90
       50
176
     1
 90
        3
176
     1
 62
     5
420
      255
176
     1
290
     0
176
     1
 90
       50
176
     1
 90
       50
176
     1
 90
       50
176
     1
290
     0
176
     1
 90
       50
176
     1
 62
   256
176
     0
 40
1.0
176
     0
 90
        2
176
     1
  1
strokes_ogs.tif
176
     1
290
     0
176
     1
 40
1.0
176
     1
 40
1.0
176
     1
  0
VISUALSTYLE
  5
34
102
{ACAD_REACTORS
330
2A
102
}
330
2A
100
AcDbVisualStyle
  2
Conceptual
 70
     9
177
     3
291
     0
 70
    58
 90
        3
176
     1
 90
        2
176
     1
 90
        0
176
     1
 90
        0
176
     1
 40
0.6
176
     1
 40
30.0
176
     1
 62
     7
420
 16777215
176
     1
 90
        2
176
     1
 90
        2
176
     1
 62
     7
176
     1
 62
   257
176
     1
 90
        1
176
     1
 90
        1
176
     1
 40
179.0
176
     1
 90
        8
176
     1
 62
     7
176
     1
 40
1.0
176
     1
 90
        1
176
     1
 90
        6
176
     1
 90
        2
176
     1
 62
     7
176
     1
 90
        3
176
     1
 90
        0
176
     1
 90
        0
176
     1
290
     0
176
     1
 90
        1
176
     1
 40
0.0
176
     1
 90
        0
176
     1
290
     0
176
     1
290
     1
176
     1
290
     1
176
     1
290
     0
176
     1
290
     0
176
     1
290
     0
176
     1
290
     0
176
     1
290
     0
176
     1
290
     0
176
     1
 90
       50
176
     1
 40
0.0
176
     1
 40
1.0
176
     1
 90
        0
176
     1
 62
    18
420
        0
176
     1
 90
       50
176
     1
 90
        3
176
     1
 62
     5
420
      255
176
     1
290
     0
176
     1
 90
       50
176
     1
 90
       50
176
     1
 90
       50
176
     1
290
     0
176
     1
 90
       50
176
     1
 62
   256
176
     0
 40
1.0
176
     0
 90
        2
176
     1
  1
strokes_ogs.tif
176
     1
290
     0
176
     1
 40
1.0
176
     1
 40
1.0
176
     1
  0
VISUALSTYLE
  5
35
102
{ACAD_REACTORS
330
2A
102
}
330
2A
100
AcDbVisualStyle
  2
Dim
 70
    11
177
     3
291
     1
 70
    58
 90
        2
176
     1
 90
        2
176
     1
 90
        0
176
     1
 90
        0
176
     1
 40
0.6
176
     1
 40
30.0
176
     1
 62
     7
420
 16777215
176
     1
 90
        1
176
     1
 90
        4
176
     1
 62
     7
176
     1
 62
   257
176
     1
 90
        1
176
     1
 90
        1
176
     1
 40
1.0
176
     1
 90
        8
176
     1
 62
     7
176
     1
 40
1.0
176
     1
 90
        1
176
     1
 90
        6
176
     1
 90
        2
176
     1
 62
     7
176
     1
 90
        5
176
     1
 90
        0
176
     1
 90
        0
176
     1
290
     0
176
     1
 90
        1
176
     1
 40
-50.0
176
     1
 90
        0
176
     1
290
     0
176
     1
290
     1
176
     1
290
     1
176
     1
290
     0
176
     1
290
     0
176
     1
290
     0
176
     1
290
     0
176
     1
290
     0
176
     1
290
     0
176
     1
 90
       50
176
     1
 40
0.0
176
     1
 40
1.0
176
     1
 90
        0
176
     1
 62
    18
420
        0
176
     1
 90
       50
176
     1
 90
        3
176
     1
 62
     5
420
      255
176
     1
290
     0
176
     1
 90
       50
176
     1
 90
       50
176
     1
 90
       50
176
     1
290
     0
176
     1
 90
       50
176
     1
 62
   256
176
     0
 40
1.0
176
     0
 90
        2
176
     1
  1
strokes_ogs.tif
176
     1
290
     0
176
     1
 40
1.0
176
     1
 40
1.0
176
     1
  0
VISUALSTYLE
  5
3D
102
{ACAD_REACTORS
330
2A
102
}
330
2A
100
AcDbVisualStyle
  2
EdgeColorOff
 70
    22
177
     3
291
     1
 70
    58
 90
        2
176
     0
 90
        2
176
     0
 90
        0
176
     0
 90
        0
176
     0
 40
0.6
176
     0
 40
30.0
176
     0
 62
     7
420
 16777215
176
     0
 90
        1
176
     0
 90
        4
176
     0
 62
     7
176
     0
 62
   257
176
     0
 90
        1
176
     0
 90
        1
176
     0
 40
1.0
176
     0
 90
        8
176
     2
 62
     7
176
     0
 40
1.0
176
     0
 90
        1
176
     0
 90
        6
176
     0
 90
        2
176
     0
 62
     7
176
     0
 90
        5
176
     0
 90
        0
176
     0
 90
        0
176
     0
290
     0
176
     0
 90
        1
176
     0
 40
0.0
176
     0
 90
        0
176
     0
290
     0
176
     0
290
     1
176
     0
290
     1
176
     0
290
     0
176
     0
290
     0
176
     0
290
     0
176
     0
290
     0
176
     0
290
     0
176
     0
290
     0
176
     0
 90
       50
176
     0
 40
0.0
176
     0
 40
1.0
176
     0
 90
        0
176
     0
 62
    18
420
        0
176
     0
 90
       50
176
     0
 90
        3
176
     0
 62
     5
420
      255
176
     0
290
     0
176
     0
 90
       50
176
     0
 90
       50
176
     0
 90
       50
176
     0
290
     0
176
     0
 90
       50
176
     0
 62
   256
176
     0
 40
1.0
176
     0
 90
        2
176
     0
  1
strokes_ogs.tif
176
     0
290
     0
176
     0
 40
1.0
176
     0
 40
1.0
176
     0
  0
VISUALSTYLE
  5
39
102
{ACAD_REACTORS
330
2A
102
}
330
2A
100
AcDbVisualStyle
  2
Facepattern
 70
    15
177
     3
291
     1
 70
    58
 90
        2
176
     1
 90
        2
176
     1
 90
        0
176
     1
 90
        0
176
     1
 40
0.6
176
     1
 40
30.0
176
     1
 62
     7
420
 16777215
176
     1
 90
        1
176
     1
 90
        4
176
     1
 62
     7
176
     1
 62
   257
176
     1
 90
        1
176
     1
 90
        1
176
     1
 40
1.0
176
     1
 90
        8
176
     1
 62
     7
176
     1
 40
1.0
176
     1
 90
        1
176
     1
 90
        6
176
     1
 90
        2
176
     1
 62
     7
176
     1
 90
        5
176
     1
 90
        0
176
     1
 90
        0
176
     1
290
     0
176
     1
 90
        1
176
     1
 40
0.0
176
     1
 90
        0
176
     1
290
     0
176
     1
290
     1
176
     1
290
     1
176
     1
290
     0
176
     1
290
     0
176
     1
290
     0
176
     1
290
     0
176
     1
290
     0
176
     1
290
     0
176
     1
 90
       50
176
     1
 40
0.0
176
     1
 40
1.0
176
     1
 90
        0
176
     1
 62
    18
420
        0
176
     1
 90
       50
176
     1
 90
        3
176
     1
 62
     5
420
      255
176
     1
290
     0
176
     1
 90
       50
176
     1
 90
       50
176
     1
 90
       50
176
     1
290
     0
176
     1
 90
       50
176
     1
 62
   256
176
     0
 40
1.0
176
     0
 90
        2
176
     1
  1
strokes_ogs.tif
176
     1
290
     0
176
     1
 40
1.0
176
     1
 40
1.0
176
     1
  0
VISUALSTYLE
  5
2B
102
{ACAD_REACTORS
330
2A
102
}
330
2A
100
AcDbVisualStyle
  2
Flat
 70
     0
177
     3
291
     1
 70
    58
 90
        2
176
     1
 90
        1
176
     1
 90
        1
176
     1
 90
        2
176
     1
 40
0.6
176
     1
 40
30.0
176
     1
 62
     7
420
 16777215
176
     1
 90
        0
176
     1
 90
        0
176
     1
 62
     7
176
     1
 62
   257
176
     1
 90
        1
176
     1
 90
        1
176
     1
 40
1.0
176
     1
 90
        8
176
     1
 62
     7
176
     1
 40
1.0
176
     1
 90
        1
176
     1
 90
        6
176
     1
 90
        2
176
     1
 62
     7
176
     1
 90
        5
176
     1
 90
        0
176
     1
 90
        0
176
     1
290
     0
176
     1
 90
       13
176
     1
 40
0.0
176
     1
 90
        0
176
     1
290
     0
176
     1
290
     1
176
     1
290
     1
176
     1
290
     0
176
     1
290
     0
176
     1
290
     0
176
     1
290
     0
176
     1
290
     0
176
     1
290
     0
176
     1
 90
       50
176
     1
 40
0.0
176
     1
 40
1.0
176
     1
 90
        0
176
     1
 62
    18
420
        0
176
     1
 90
       50
176
     1
 90
        3
176
     1
 62
     5
420
      255
176
     1
290
     0
176
     1
 90
       50
176
     1
 90
       50
176
     1
 90
       50
176
     1
290
     0
176
     1
 90
       50
176
     1
 62
   256
176
     0
 40
1.0
176
     0
 90
        2
176
     1
  1
strokes_ogs.tif
176
     1
290
     0
176
     1
 40
1.0
176
     1
 40
1.0
176
     1
  0
VISUALSTYLE
  5
2C
102
{ACAD_REACTORS
330
2A
102
}
330
2A
100
AcDbVisualStyle
  2
FlatWithEdges
 70
     1
177
     3
291
     1
 70
    58
 90
        2
176
     1
 90
        1
176
     1
 90
        1
176
     1
 90
        2
176
     1
 40
0.6
176
     1
 40
30.0
176
     1
 62
     7
420
 16777215
176
     1
 90
        1
176
     1
 90
        0
176
     1
 62
     7
176
     1
 62
   257
176
     1
 90
        1
176
     1
 90
        1
176
     1
 40
1.0
176
     1
 90
        0
176
     1
 62
   257
176
     1
 40
1.0
176
     1
 90
        1
176
     1
 90
        6
176
     1
 90
        2
176
     1
 62
     7
176
     1
 90
        5
176
     1
 90
        0
176
     1
 90
        0
176
     1
290
     0
176
     1
 90
       13
176
     1
 40
0.0
176
     1
 90
        0
176
     1
290
     0
176
     1
290
     1
176
     1
290
     1
176
     1
290
     0
176
     1
290
     0
176
     1
290
     0
176
     1
290
     0
176
     1
290
     0
176
     1
290
     0
176
     1
 90
       50
176
     1
 40
0.0
176
     1
 40
1.0
176
     1
 90
        0
176
     1
 62
    18
420
        0
176
     1
 90
       50
176
     1
 90
        3
176
     1
 62
     5
420
      255
176
     1
290
     0
176
     1
 90
       50
176
     1
 90
       50
176
     1
 90
       50
176
     1
290
     0
176
     1
 90
       50
176
     1
 62
   256
176
     0
 40
1.0
176
     0
 90
        2
176
     1
  1
strokes_ogs.tif
176
     1
290
     0
176
     1
 40
1.0
176
     1
 40
1.0
176
     1
  0
VISUALSTYLE
  5
2D
102
{ACAD_REACTORS
330
2A
102
}
330
2A
100
AcDbVisualStyle
  2
Gouraud
 70
     2
177
     3
291
     1
 70
    58
 90
        2
176
     1
 90
        2
176
     1
 90
        1
176
     1
 90
        2
176
     1
 40
0.6
176
     1
 40
30.0
176
     1
 62
     7
420
 16777215
176
     1
 90
        0
176
     1
 90
        0
176
     1
 62
     7
176
     1
 62
   257
176
     1
 90
        1
176
     1
 90
        1
176
     1
 40
1.0
176
     1
 90
        0
176
     1
 62
     7
176
     1
 40
1.0
176
     1
 90
        1
176
     1
 90
        6
176
     1
 90
        2
176
     1
 62
     7
176
     1
 90
        5
176
     1
 90
        0
176
     1
 90
        0
176
     1
290
     0
176
     1
 90
       13
176
     1
 40
0.0
176
     1
 90
        0
176
     1
290
     0
176
     1
290
     1
176
     1
290
     1
176
     1
290
     0
176
     1
290
     0
176
     1
290
     0
176
     1
290
     0
176
     1
290
     0
176
     1
290
     0
176
     1
 90
       50
176
     1
 40
0.0
176
     1
 40
1.0
176
     1
 90
        0
176
     1
 62
    18
420
        0
176
     1
 90
       50
176
     1
 90
        3
176
     1
 62
     5
420
      255
176
     1
290
     0
176
     1
 90
       50
176
     1
 90
       50
176
     1
 90
       50
176
     1
290
     0
176
     1
 90
       50
176
     1
 62
   256
176
     0
 40
1.0
176
     0
 90
        2
176
     1
  1
strokes_ogs.tif
176
     1
290
     0
176
     1
 40
1.0
176
     1
 40
1.0
176
     1
  0
VISUALSTYLE
  5
2E
102
{ACAD_REACTORS
330
2A
102
}
330
2A
100
AcDbVisualStyle
  2
GouraudWithEdges
 70
     3
177
     3
291
     1
 70
    58
 90
        2
176
     1
 90
        2
176
     1
 90
        1
176
     1
 90
        2
176
     1
 40
0.6
176
     1
 40
30.0
176
     1
 62
     7
420
 16777215
176
     1
 90
        1
176
     1
 90
        0
176
     1
 62
     7
176
     1
 62
   257
176
     1
 90
        1
176
     1
 90
        1
176
     1
 40
1.0
176
     1
 90
        0
176
     1
 62
   257
176
     1
 40
1.0
176
     1
 90
        1
176
     1
 90
        6
176
     1
 90
        2
176
     1
 62
     7
176
     1
 90
        5
176
     1
 90
        0
176
     1
 90
        0
176
     1
290
     0
176
     1
 90
       13
176
     1
 40
0.0
176
     1
 90
        0
176
     1
290
     0
176
     1
290
     1
176
     1
290
     1
176
     1
290
     0
176
     1
290
     0
176
     1
290
     0
176
     1
290
     0
176
     1
290
     0
176
     1
290
     0
176
     1
 90
       50
176
     1
 40
0.0
176
     1
 40
1.0
176
     1
 90
        0
176
     1
 62
    18
420
        0
176
     1
 90
       50
176
     1
 90
        3
176
     1
 62
     5
420
      255
176
     1
290
     0
176
     1
 90
       50
176
     1
 90
       50
176
     1
 90
       50
176
     1
290
     0
176
     1
 90
       50
176
     1
 62
   256
176
     0
 40
1.0
176
     0
 90
        2
176
     1
  1
strokes_ogs.tif
176
     1
290
     0
176
     1
 40
1.0
176
     1
 40
1.0
176
     1
  0
VISUALSTYLE
  5
31
102
{ACAD_REACTORS
330
2A
102
}
330
2A
100
AcDbVisualStyle
  2
Hidden
 70
     6
177
     3
291
     0
 70
    58
 90
        1
176
     1
 90
        2
176
     1
 90
        2
176
     1
 90
        0
176
     1
 40
0.6
176
     1
 40
30.0
176
     1
 62
     7
420
 16777215
176
     1
 90
        2
176
     1
 90
        2
176
     1
 62
     7
176
     1
 62
   257
176
     1
 90
        2
176
     1
 90
        1
176
     1
 40
40.0
176
     1
 90
        0
176
     1
 62
   257
176
     1
 40
1.0
176
     1
 90
        1
176
     1
 90
        6
176
     1
 90
        2
176
     1
 62
     7
176
     1
 90
        3
176
     1
 90
        0
176
     1
 90
        0
176
     1
290
     0
176
     1
 90
        1
176
     1
 40
0.0
176
     1
 90
        0
176
     1
290
     0
176
     1
290
     1
176
     1
290
     1
176
     1
290
     0
176
     1
290
     0
176
     1
290
     0
176
     1
290
     0
176
     1
290
     0
176
     1
290
     0
176
     1
 90
       50
176
     1
 40
0.0
176
     1
 40
1.0
176
     1
 90
        0
176
     1
 62
    18
420
        0
176
     1
 90
       50
176
     1
 90
        3
176
     1
 62
     5
420
      255
176
     1
290
     0
176
     1
 90
       50
176
     1
 90
       50
176
     1
 90
       50
176
     1
290
     0
176
     1
 90
       50
176
     1
 62
   256
176
     0
 40
1.0
176
     0
 90
        2
176
     1
  1
strokes_ogs.tif
176
     1
290
     0
176
     1
 40
1.0
176
     1
 40
1.0
176
     1
  0
VISUALSTYLE
  5
3B
102
{ACAD_REACTORS
330
2A
102
}
330
2A
100
AcDbVisualStyle
  2
JitterOff
 70
    20
177
     3
291
     1
 70
    58
 90
        2
176
     0
 90
        2
176
     0
 90
        0
176
     0
 90
        0
176
     0
 40
0.6
176
     0
 40
30.0
176
     0
 62
     7
420
 16777215
176
     0
 90
        1
176
     0
 90
        4
176
     0
 62
     7
176
     0
 62
   257
176
     0
 90
        1
176
     0
 90
        1
176
     0
 40
1.0
176
     0
 90
       10
176
     2
 62
     7
176
     0
 40
1.0
176
     0
 90
        1
176
     0
 90
        6
176
     0
 90
        2
176
     0
 62
     7
176
     0
 90
        5
176
     0
 90
        0
176
     0
 90
        0
176
     0
290
     0
176
     0
 90
        1
176
     0
 40
0.0
176
     0
 90
        0
176
     0
290
     0
176
     0
290
     1
176
     0
290
     1
176
     0
290
     0
176
     0
290
     0
176
     0
290
     0
176
     0
290
     0
176
     0
290
     0
176
     0
290
     0
176
     0
 90
       50
176
     0
 40
0.0
176
     0
 40
1.0
176
     0
 90
        0
176
     0
 62
    18
420
        0
176
     0
 90
       50
176
     0
 90
        3
176
     0
 62
     5
420
      255
176
     0
290
     0
176
     0
 90
       50
176
     0
 90
       50
176
     0
 90
       50
176
     0
290
     0
176
     0
 90
       50
176
     0
 62
   256
176
     0
 40
1.0
176
     0
 90
        2
176
     0
  1
strokes_ogs.tif
176
     0
290
     0
176
     0
 40
1.0
176
     0
 40
1.0
176
     0
  0
VISUALSTYLE
  5
38
102
{ACAD_REACTORS
330
2A
102
}
330
2A
100
AcDbVisualStyle
  2
Linepattern
 70
    14
177
     3
291
     1
 70
    58
 90
        2
176
     1
 90
        2
176
     1
 90
        0
176
     1
 90
        0
176
     1
 40
0.6
176
     1
 40
30.0
176
     1
 62
     7
420
 16777215
176
     1
 90
        1
176
     1
 90
        4
176
     1
 62
     7
176
     1
 62
   257
176
     1
 90
        7
176
     1
 90
        7
176
     1
 40
1.0
176
     1
 90
        8
176
     1
 62
     7
176
     1
 40
1.0
176
     1
 90
        1
176
     1
 90
        6
176
     1
 90
        2
176
     1
 62
     7
176
     1
 90
        5
176
     1
 90
        0
176
     1
 90
        0
176
     1
290
     0
176
     1
 90
        1
176
     1
 40
0.0
176
     1
 90
        0
176
     1
290
     0
176
     1
290
     1
176
     1
290
     1
176
     1
290
     0
176
     1
290
     0
176
     1
290
     0
176
     1
290
     0
176
     1
290
     0
176
     1
290
     0
176
     1
 90
       50
176
     1
 40
0.0
176
     1
 40
1.0
176
     1
 90
        0
176
     1
 62
    18
420
        0
176
     1
 90
       50
176
     1
 90
        3
176
     1
 62
     5
420
      255
176
     1
290
     0
176
     1
 90
       50
176
     1
 90
       50
176
     1
 90
       50
176
     1
290
     0
176
     1
 90
       50
176
     1
 62
   256
176
     0
 40
1.0
176
     0
 90
        2
176
     1
  1
strokes_ogs.tif
176
     1
290
     0
176
     1
 40
1.0
176
     1
 40
1.0
176
     1
  0
VISUALSTYLE
  5
3C
102
{ACAD_REACTORS
330
2A
102
}
330
2A
100
AcDbVisualStyle
  2
OverhangOff
 70
    21
177
     3
291
     1
 70
    58
 90
        2
176
     0
 90
        2
176
     0
 90
        0
176
     0
 90
        0
176
     0
 40
0.6
176
     0
 40
30.0
176
     0
 62
     7
420
 16777215
176
     0
 90
        1
176
     0
 90
        4
176
     0
 62
     7
176
     0
 62
   257
176
     0
 90
        1
176
     0
 90
        1
176
     0
 40
1.0
176
     0
 90
        9
176
     2
 62
     7
176
     0
 40
1.0
176
     0
 90
        1
176
     0
 90
        6
176
     0
 90
        2
176
     0
 62
     7
176
     0
 90
        5
176
     0
 90
        0
176
     0
 90
        0
176
     0
290
     0
176
     0
 90
        1
176
     0
 40
0.0
176
     0
 90
        0
176
     0
290
     0
176
     0
290
     1
176
     0
290
     1
176
     0
290
     0
176
     0
290
     0
176
     0
290
     0
176
     0
290
     0
176
     0
290
     0
176
     0
290
     0
176
     0
 90
       50
176
     0
 40
0.0
176
     0
 40
1.0
176
     0
 90
        0
176
     0
 62
    18
420
        0
176
     0
 90
       50
176
     0
 90
        3
176
     0
 62
     5
420
      255
176
     0
290
     0
176
     0
 90
       50
176
     0
 90
       50
176
     0
 90
       50
176
     0
290
     0
176
     0
 90
       50
176
     0
 62
   256
176
     0
 40
1.0
176
     0
 90
        2
176
     0
  1
strokes_ogs.tif
176
     0
290
     0
176
     0
 40
1.0
176
     0
 40
1.0
176
     0
  0
VISUALSTYLE
  5
33
102
{ACAD_REACTORS
330
2A
102
}
330
2A
100
AcDbVisualStyle
  2
Realistic
 70
     8
177
     3
291
     0
 70
    58
 90
        2
176
     1
 90
        3
176
     1
 90
        0
176
     1
 90
        2
176
     1
 40
0.6
176
     1
 40
30.0
176
     1
 62
     7
420
 16777215
176
     1
 90
        0
176
     1
 90
        0
176
     1
 62
     7
176
     1
 62
   257
176
     1
 90
        1
176
     1
 90
        1
176
     1
 40
1.0
176
     1
 90
        8
176
     1
 62
   257
176
     1
 40
1.0
176
     1
 90
        1
176
     1
 90
        6
176
     1
 90
        2
176
     1
 62
     7
176
     1
 90
        3
176
     1
 90
        0
176
     1
 90
        0
176
     1
290
     0
176
     1
 90
       13
176
     1
 40
0.0
176
     1
 90
        0
176
     1
290
     0
176
     1
290
     1
176
     1
290
     1
176
     1
290
     0
176
     1
290
     0
176
     1
290
     0
176
     1
290
     0
176
     1
290
     0
176
     1
290
     0
176
     1
 90
       50
176
     1
 40
0.0
176
     1
 40
1.0
176
     1
 90
        0
176
     1
 62
    18
420
        0
176
     1
 90
       50
176
     1
 90
        3
176
     1
 62
     5
420
      255
176
     1
290
     0
176
     1
 90
       50
176
     1
 90
       50
176
     1
 90
       50
176
     1
290
     0
176
     1
 90
       50
176
     1
 62
   256
176
     0
 40
1.0
176
     0
 90
        2
176
     1
  1
strokes_ogs.tif
176
     1
290
     0
176
     1
 40
1.0
176
     1
 40
1.0
176
     1
  0
VISUALSTYLE
  5
42
102
{ACAD_REACTORS
330
2A
102
}
330
2A
100
AcDbVisualStyle
  2
Shaded
 70
    27
177
     3
291
     0
 70
    58
 90
        2
176
     1
 90
        2
176
     1
 90
        1
176
     1
 90
        2
176
     1
 40
0.6
176
     1
 40
30.0
176
     1
 62
     7
420
 16777215
176
     1
 90
        0
176
     1
 90
        4
176
     1
 62
     7
176
     1
 62
   257
176
     1
 90
        1
176
     1
 90
        1
176
     1
 40
1.0
176
     1
 90
        8
176
     1
 62
   257
176
     1
 40
1.0
176
     1
 90
        1
176
     1
 90
        6
176
     1
 90
        2
176
     1
 62
     8
420
  7895160
176
     1
 90
        3
176
     1
 90
        0
176
     1
 90
        0
176
     1
290
     0
176
     1
 90
        5
176
     1
 40
0.0
176
     1
 90
        0
176
     1
290
     0
176
     1
290
     1
176
     1
290
     1
176
     1
290
     0
176
     1
290
     0
176
     1
290
     0
176
     1
290
     0
176
     1
290
     0
176
     1
290
     0
176
     1
 90
       50
176
     1
 40
0.0
176
     1
 40
1.0
176
     1
 90
        0
176
     1
 62
    18
420
        0
176
     1
 90
       50
176
     1
 90
        3
176
     1
 62
     5
420
      255
176
     1
290
     0
176
     1
 90
       50
176
     1
 90
       50
176
     1
 90
       50
176
     1
290
     0
176
     1
 90
       50
176
     1
 62
   256
176
     0
 40
1.0
176
     0
 90
        2
176
     1
  1
strokes_ogs.tif
176
     1
290
     0
176
     1
 40
1.0
176
     1
 40
1.0
176
     1
  0
VISUALSTYLE
  5
41
102
{ACAD_REACTORS
330
2A
102
}
330
2A
100
AcDbVisualStyle
  2
Shaded with edges
 70
    26
177
     3
291
     0
 70
    58
 90
        2
176
     1
 90
        2
176
     1
 90
        1
176
     1
 90
        2
176
     1
 40
0.6
176
     1
 40
30.0
176
     1
 62
     7
420
 16777215
176
     1
 90
        1
176
     1
 90
       10
176
     1
 62
     7
176
     1
 62
   257
176
     1
 90
        2
176
     1
 90
        1
176
     1
 40
1.0
176
     1
 90
        8
176
     1
 62
   257
176
     1
 40
1.0
176
     1
 90
        1
176
     1
 90
        6
176
     1
 90
        2
176
     1
 62
     7
176
     1
 90
        3
176
     1
 90
        0
176
     1
 90
        0
176
     1
290
     0
176
     1
 90
        5
176
     1
 40
0.0
176
     1
 90
        0
176
     1
290
     0
176
     1
290
     1
176
     1
290
     1
176
     1
290
     0
176
     1
290
     0
176
     1
290
     0
176
     1
290
     0
176
     1
290
     0
176
     1
290
     0
176
     1
 90
       50
176
     1
 40
0.0
176
     1
 40
1.0
176
     1
 90
        0
176
     1
 62
    18
420
        0
176
     1
 90
       50
176
     1
 90
        3
176
     1
 62
     5
420
      255
176
     1
290
     0
176
     1
 90
       50
176
     1
 90
       50
176
     1
 90
       50
176
     1
290
     0
176
     1
 90
       50
176
     1
 62
   256
176
     0
 40
1.0
176
     0
 90
        2
176
     1
  1
strokes_ogs.tif
176
     1
290
     0
176
     1
 40
1.0
176
     1
 40
1.0
176
     1
  0
VISUALSTYLE
  5
3E
102
{ACAD_REACTORS
330
2A
102
}
330
2A
100
AcDbVisualStyle
  2
Shades of Gray
 70
    23
177
     3
291
     0
 70
    58
 90
        2
176
     1
 90
        2
176
     1
 90
        3
176
     1
 90
        0
176
     1
 40
0.6
176
     1
 40
30.0
176
     1
 62
     7
420
 16777215
176
     1
 90
        2
176
     1
 90
        2
176
     1
 62
     7
176
     1
 62
     7
176
     1
 90
        1
176
     1
 90
        1
176
     1
 40
40.0
176
     1
 90
        8
176
     1
 62
     7
176
     1
 40
1.0
176
     1
 90
        1
176
     1
 90
        6
176
     1
 90
        2
176
     1
 62
     7
176
     1
 90
        3
176
     1
 90
        0
176
     1
 90
        0
176
     1
290
     0
176
     1
 90
        1
176
     1
 40
0.0
176
     1
 90
        0
176
     1
290
     0
176
     1
290
     1
176
     1
290
     1
176
     1
290
     0
176
     1
290
     0
176
     1
290
     0
176
     1
290
     0
176
     1
290
     0
176
     1
290
     0
176
     1
 90
       50
176
     1
 40
0.0
176
     1
 40
1.0
176
     1
 90
        0
176
     1
 62
    18
420
        0
176
     1
 90
       50
176
     1
 90
        3
176
     1
 62
     5
420
      255
176
     1
290
     0
176
     1
 90
       50
176
     1
 90
       50
176
     1
 90
       50
176
     1
290
     0
176
     1
 90
       50
176
     1
 62
   256
176
     0
 40
1.0
176
     0
 90
        2
176
     1
  1
strokes_ogs.tif
176
     1
290
     0
176
     1
 40
1.0
176
     1
 40
1.0
176
     1
  0
VISUALSTYLE
  5
3F
102
{ACAD_REACTORS
330
2A
102
}
330
2A
100
AcDbVisualStyle
  2
Sketchy
 70
    24
177
     3
291
     0
 70
    58
 90
        1
176
     1
 90
        2
176
     1
 90
        2
176
     1
 90
        0
176
     1
 40
0.6
176
     1
 40
30.0
176
     1
 62
     7
420
 16777215
176
     1
 90
        2
176
     1
 90
        2
176
     1
 62
     7
176
     1
 62
     7
176
     1
 90
        1
176
     1
 90
        1
176
     1
 40
40.0
176
     1
 90
       11
176
     1
 62
     7
176
     1
 40
1.0
176
     1
 90
        1
176
     1
 90
        6
176
     1
 90
        2
176
     1
 62
     7
176
     1
 90
        6
176
     1
 90
        0
176
     1
 90
        0
176
     1
290
     0
176
     1
 90
        1
176
     1
 40
0.0
176
     1
 90
        0
176
     1
290
     0
176
     1
290
     1
176
     1
290
     1
176
     1
290
     0
176
     1
290
     0
176
     1
290
     0
176
     1
290
     0
176
     1
290
     0
176
     1
290
     0
176
     1
 90
       50
176
     1
 40
0.0
176
     1
 40
1.0
176
     1
 90
        0
176
     1
 62
    18
420
        0
176
     1
 90
       50
176
     1
 90
        3
176
     1
 62
     5
420
      255
176
     1
290
     0
176
     1
 90
       50
176
     1
 90
       50
176
     1
 90
       50
176
     1
290
     0
176
     1
 90
       50
176
     1
 62
   256
176
     0
 40
1.0
176
     0
 90
        2
176
     1
  1
strokes_ogs.tif
176
     1
290
     0
176
     1
 40
1.0
176
     1
 40
1.0
176
     1
  0
VISUALSTYLE
  5
37
102
{ACAD_REACTORS
330
2A
102
}
330
2A
100
AcDbVisualStyle
  2
Thicken
 70
    13
177
     3
291
     1
 70
    58
 90
        2
176
     1
 90
        2
176
     1
 90
        0
176
     1
 90
        0
176
     1
 40
0.6
176
     1
 40
30.0
176
     1
 62
     7
420
 16777215
176
     1
 90
        1
176
     1
 90
        4
176
     1
 62
     7
176
     1
 62
   257
176
     1
 90
        1
176
     1
 90
        1
176
     1
 40
1.0
176
     1
 90
       12
176
     1
 62
     7
176
     1
 40
1.0
176
     1
 90
        1
176
     1
 90
        6
176
     1
 90
        2
176
     1
 62
     7
176
     1
 90
        5
176
     1
 90
        0
176
     1
 90
        0
176
     1
290
     0
176
     1
 90
        1
176
     1
 40
0.0
176
     1
 90
        0
176
     1
290
     0
176
     1
290
     1
176
     1
290
     1
176
     1
290
     0
176
     1
290
     0
176
     1
290
     0
176
     1
290
     0
176
     1
290
     0
176
     1
290
     0
176
     1
 90
       50
176
     1
 40
0.0
176
     1
 40
1.0
176
     1
 90
        0
176
     1
 62
    18
420
        0
176
     1
 90
       50
176
     1
 90
        3
176
     1
 62
     5
420
      255
176
     1
290
     0
176
     1
 90
       50
176
     1
 90
       50
176
     1
 90
       50
176
     1
290
     0
176
     1
 90
       50
176
     1
 62
   256
176
     0
 40
1.0
176
     0
 90
        2
176
     1
  1
strokes_ogs.tif
176
     1
290
     0
176
     1
 40
1.0
176
     1
 40
1.0
176
     1
  0
VISUALSTYLE
  5
30
102
{ACAD_REACTORS
330
2A
102
}
330
2A
100
AcDbVisualStyle
  2
Wireframe
 70
     5
177
     3
291
     0
 70
    58
 90
        0
176
     1
 90
        2
176
     1
 90
        0
176
     1
 90
        0
176
     1
 40
0.6
176
     1
 40
30.0
176
     1
 62
     7
420
 16777215
176
     1
 90
        1
176
     1
 90
        4
176
     1
 62
     7
176
     1
 62
   257
176
     1
 90
        1
176
     1
 90
        1
176
     1
 40
1.0
176
     1
 90
        0
176
     1
 62
   257
176
     1
 40
1.0
176
     1
 90
        1
176
     1
 90
        6
176
     1
 90
        2
176
     1
 62
     7
176
     1
 90
        3
176
     1
 90
        0
176
     1
 90
        0
176
     1
290
     0
176
     1
 90
        1
176
     1
 40
0.0
176
     1
 90
        0
176
     1
290
     0
176
     1
290
     1
176
     1
290
     1
176
     1
290
     0
176
     1
290
     0
176
     1
290
     0
176
     1
290
     0
176
     1
290
     0
176
     1
290
     0
176
     1
 90
       50
176
     1
 40
0.0
176
     1
 40
1.0
176
     1
 90
        0
176
     1
 62
    18
420
        0
176
     1
 90
       50
176
     1
 90
        3
176
     1
 62
     5
420
      255
176
     1
290
     0
176
     1
 90
       50
176
     1
 90
       50
176
     1
 90
       50
176
     1
290
     0
176
     1
 90
       50
176
     1
 62
   256
176
     0
 40
1.0
176
     0
 90
        2
176
     1
  1
strokes_ogs.tif
176
     1
290
     0
176
     1
 40
1.0
176
     1
 40
1.0
176
     1
  0
VISUALSTYLE
  5
40
102
{ACAD_REACTORS
330
2A
102
}
330
2A
100
AcDbVisualStyle
  2
X-Ray
 70
    25
177
     3
291
     0
 70
    58
 90
        2
176
     1
 90
        2
176
     1
 90
        1
176
     1
 90
        1
176
     1
 40
0.5
176
     1
 40
30.0
176
     1
 62
     7
420
 16777215
176
     1
 90
        1
176
     1
 90
        0
176
     1
 62
     7
176
     1
 62
   257
176
     1
 90
        1
176
     1
 90
        1
176
     1
 40
1.0
176
     1
 90
        8
176
     1
 62
     7
176
     1
 40
1.0
176
     1
 90
        1
176
     1
 90
        6
176
     1
 90
        2
176
     1
 62
     7
176
     1
 90
        3
176
     1
 90
        0
176
     1
 90
        0
176
     1
290
     0
176
     1
 90
       13
176
     1
 40
0.0
176
     1
 90
        0
176
     1
290
     0
176
     1
290
     1
176
     1
290
     1
176
     1
290
     0
176
     1
290
     0
176
     1
290
     0
176
     1
290
     0
176
     1
290
     0
176
     1
290
     0
176
     1
 90
       50
176
     1
 40
0.0
176
     1
 40
1.0
176
     1
 90
        0
176
     1
 62
    18
420
        0
176
     1
 90
       50
176
     1
 90
        3
176
     1
 62
     5
420
      255
176
     1
290
     0
176
     1
 90
       50
176
     1
 90
       50
176
     1
 90
       50
176
     1
290
     0
176
     1
 90
       50
176
     1
 62
   256
176
     0
 40
1.0
176
     0
 90
        2
176
     1
  1
strokes_ogs.tif
176
     1
290
     0
176
     1
 40
1.0
176
     1
 40
1.0
176
     1
  0
DICTIONARYVAR
  5
1E1
102
{ACAD_REACTORS
330
1E0
102
}
330
1E0
100
DictionaryVariables
280
     0
  1
1:1
  0
DICTIONARYVAR
  5
1E6
102
{ACAD_REACTORS
330
1E0
102
}
330
1E0
100
DictionaryVariables
280
     0
  1
Standard
  0
DICTIONARYVAR
  5
1E5
102
{ACAD_REACTORS
330
1E0
102
}
330
1E0
100
DictionaryVariables
280
     0
  1
Standard
  0
DICTIONARY
  5
1E2
330
6A
100
AcDbDictionary
280
     1
281
     1
  3
ACAD_ROUNDTRIP_2008_TABLESTYLE_CELLSTYLEMAP
360
1E3
  0
CELLSTYLEMAP
  5
1E3
102
{ACAD_REACTORS
330
1E2
102
}
330
1E2
100
AcDbCellStyleMap
 90
        3
300
CELLSTYLE
  1
TABLEFORMAT_BEGIN
 90
        5
170
     1
 91
        0
 92
    32768
 62
   257
 93
        1
300
CONTENTFORMAT
  1
CONTENTFORMAT_BEGIN
 90
        0
 91
        0
 92
        4
 93
        0
300

 40
0.0
140
1.0
 94
        5
 62
     0
340
11
144
0.25
309
CONTENTFORMAT_END
171
     1
301
MARGIN
  1
CELLMARGIN_BEGIN
 40
0.06
 40
0.06
 40
0.06
 40
0.06
 40
0.06
 40
0.06
309
CELLMARGIN_END
 94
        6
 95
        1
302
GRIDFORMAT
  1
GRIDFORMAT_BEGIN
 90
        0
 91
        1
 62
     0
 92
       -2
340
14
 93
        0
 40
0.045
309
GRIDFORMAT_END
 95
        2
302
GRIDFORMAT
  1
GRIDFORMAT_BEGIN
 90
        0
 91
        1
 62
     0
 92
       -2
340
14
 93
        0
 40
0.045
309
GRIDFORMAT_END
 95
        4
302
GRIDFORMAT
  1
GRIDFORMAT_BEGIN
 90
        0
 91
        1
 62
     0
 92
       -2
340
14
 93
        0
 40
0.045
309
GRIDFORMAT_END
 95
        8
302
GRIDFORMAT
  1
GRIDFORMAT_BEGIN
 90
        0
 91
        1
 62
     0
 92
       -2
340
14
 93
        0
 40
0.045
309
GRIDFORMAT_END
 95
       16
302
GRIDFORMAT
  1
GRIDFORMAT_BEGIN
 90
        0
 91
        1
 62
     0
 92
       -2
340
14
 93
        0
 40
0.045
309
GRIDFORMAT_END
 95
       32
302
GRIDFORMAT
  1
GRIDFORMAT_BEGIN
 90
        0
 91
        1
 62
     0
 92
       -2
340
14
 93
        0
 40
0.045
309
GRIDFORMAT_END
309
TABLEFORMAT_END
  1
CELLSTYLE_BEGIN
 90
        1
 91
        1
300
_TITLE
309
CELLSTYLE_END
300
CELLSTYLE
  1
TABLEFORMAT_BEGIN
 90
        5
170
     1
 91
        0
 92
        0
 62
   257
 93
        1
300
CONTENTFORMAT
  1
CONTENTFORMAT_BEGIN
 90
        0
 91
        0
 92
        4
 93
        0
300

 40
0.0
140
1.0
 94
        5
 62
     0
340
11
144
0.18
309
CONTENTFORMAT_END
171
     1
301
MARGIN
  1
CELLMARGIN_BEGIN
 40
0.06
 40
0.06
 40
0.06
 40
0.06
 40
0.06
 40
0.06
309
CELLMARGIN_END
 94
        6
 95
        1
302
GRIDFORMAT
  1
GRIDFORMAT_BEGIN
 90
        0
 91
        1
 62
     0
 92
       -2
340
14
 93
        0
 40
0.045
309
GRIDFORMAT_END
 95
        2
302
GRIDFORMAT
  1
GRIDFORMAT_BEGIN
 90
        0
 91
        1
 62
     0
 92
       -2
340
14
 93
        0
 40
0.045
309
GRIDFORMAT_END
 95
        4
302
GRIDFORMAT
  1
GRIDFORMAT_BEGIN
 90
        0
 91
        1
 62
     0
 92
       -2
340
14
 93
        0
 40
0.045
309
GRIDFORMAT_END
 95
        8
302
GRIDFORMAT
  1
GRIDFORMAT_BEGIN
 90
        0
 91
        1
 62
     0
 92
       -2
340
14
 93
        0
 40
0.045
309
GRIDFORMAT_END
 95
       16
302
GRIDFORMAT
  1
GRIDFORMAT_BEGIN
 90
        0
 91
        1
 62
     0
 92
       -2
340
14
 93
        0
 40
0.045
309
GRIDFORMAT_END
 95
       32
302
GRIDFORMAT
  1
GRIDFORMAT_BEGIN
 90
        0
 91
        1
 62
     0
 92
       -2
340
14
 93
        0
 40
0.045
309
GRIDFORMAT_END
309
TABLEFORMAT_END
  1
CELLSTYLE_BEGIN
 90
        2
 91
        1
300
_HEADER
309
CELLSTYLE_END
300
CELLSTYLE
  1
TABLEFORMAT_BEGIN
 90
        5
170
     1
 91
        0
 92
        0
 62
   257
 93
        1
300
CONTENTFORMAT
  1
CONTENTFORMAT_BEGIN
 90
        0
 91
        0
 92
        4
 93
        0
300

 40
0.0
140
1.0
 94
        2
 62
     0
340
11
144
0.18
309
CONTENTFORMAT_END
171
     1
301
MARGIN
  1
CELLMARGIN_BEGIN
 40
0.06
 40
0.06
 40
0.06
 40
0.06
 40
0.06
 40
0.06
309
CELLMARGIN_END
 94
        6
 95
        1
302
GRIDFORMAT
  1
GRIDFORMAT_BEGIN
 90
        0
 91
        1
 62
     0
 92
       -2
340
14
 93
        0
 40
0.045
309
GRIDFORMAT_END
 95
        2
302
GRIDFORMAT
  1
GRIDFORMAT_BEGIN
 90
        0
 91
        1
 62
     0
 92
       -2
340
14
 93
        0
 40
0.045
309
GRIDFORMAT_END
 95
        4
302
GRIDFORMAT
  1
GRIDFORMAT_BEGIN
 90
        0
 91
        1
 62
     0
 92
       -2
340
14
 93
        0
 40
0.045
309
GRIDFORMAT_END
 95
        8
302
GRIDFORMAT
  1
GRIDFORMAT_BEGIN
 90
        0
 91
        1
 62
     0
 92
       -2
340
14
 93
        0
 40
0.045
309
GRIDFORMAT_END
 95
       16
302
GRIDFORMAT
  1
GRIDFORMAT_BEGIN
 90
        0
 91
        1
 62
     0
 92
       -2
340
14
 93
        0
 40
0.045
309
GRIDFORMAT_END
 95
       32
302
GRIDFORMAT
  1
GRIDFORMAT_BEGIN
 90
        0
 91
        1
 62
     0
 92
       -2
340
14
 93
        0
 40
0.045
309
GRIDFORMAT_END
309
TABLEFORMAT_END
  1
CELLSTYLE_BEGIN
 90
        3
 91
        2
300
_DATA
309
CELLSTYLE_END
  0
ENDSEC
  0
EOF