0
SECTION
  2
HEADER
  9
$ACADVER
  1
AC1027
  9
$ACADMAINTVER
 70
   105
  9
$DWGCODEPAGE
  3
ANSI_1252
  9
$REQUIREDVERSIONS
160
                 0
  9
$COMMENTS
  1
File was created by Cadenas
  9
$CUSTOMPROPERTYTAG
  1
NN
  9
$CUSTOMPROPERTY
  1
S-2000 Flange Bearing - Square Labyrinth Seal
  9
$CUSTOMPROPERTYTAG
  1
NT
  9
$CUSTOMPROPERTY
  1
S-2000 4 Bolt Square Flange Bearing -Inch
  9
$CUSTOMPROPERTYTAG
  1
NB
  9
$CUSTOMPROPERTY
  1
070600
  9
$CUSTOMPROPERTYTAG
  1
NBSYN
  9
$CUSTOMPROPERTY
  1
$PN.
  9
$CUSTOMPROPERTYTAG
  1
LINA
  9
$CUSTOMPROPERTY
  1
070600
  9
$CUSTOMPROPERTYTAG
  1
SS
  9
$CUSTOMPROPERTY
  1
1-3/8
  9
$CUSTOMPROPERTYTAG
  1
PN
  9
$CUSTOMPROPERTY
  1
070600
  9
$CUSTOMPROPERTYTAG
  1
DESCRIPTION
  9
$CUSTOMPROPERTY
  1
F4S-S2-106L
  9
$CUSTOMPROPERTYTAG
  1
EF
  9
$CUSTOMPROPERTY
  1
Non-Expansion Type
  9
$CUSTOMPROPERTYTAG
  1
ST
  9
$CUSTOMPROPERTY
  1
Labyrinth Seal
  9
$CUSTOMPROPERTYTAG
  1
A
  9
$CUSTOMPROPERTY
  1
2-17/32
  9
$CUSTOMPROPERTYTAG
  1
B
  9
$CUSTOMPROPERTY
  1
4-3/4
  9
$CUSTOMPROPERTYTAG
  1
C
  9
$CUSTOMPROPERTY
  1
2-49/64
  9
$CUSTOMPROPERTYTAG
  1
D
  9
$CUSTOMPROPERTY
  1
3-17/32
  9
$CUSTOMPROPERTYTAG
  1
F
  9
$CUSTOMPROPERTY
  1
1/2
  9
$CUSTOMPROPERTYTAG
  1
G
  9
$CUSTOMPROPERTY
  1
63/64
  9
$CUSTOMPROPERTYTAG
  1
H
  9
$CUSTOMPROPERTY
  1
1/2
  9
$CUSTOMPROPERTYTAG
  1
J
  9
$CUSTOMPROPERTY
  1
3-13/16
  9
$CUSTOMPROPERTYTAG
  1
K
  9
$CUSTOMPROPERTY
  1
5
  9
$CUSTOMPROPERTYTAG
  1
L
  9
$CUSTOMPROPERTY
  1
2-3/4
  9
$CUSTOMPROPERTYTAG
  1
N
  9
$CUSTOMPROPERTY
  1
2-31/64
  9
$CUSTOMPROPERTYTAG
  1
P
  9
$CUSTOMPROPERTY
  1
15/64
  9
$CUSTOMPROPERTYTAG
  1
X
  9
$CUSTOMPROPERTY
  1
3/16
  9
$CUSTOMPROPERTYTAG
  1
Y
  9
$CUSTOMPROPERTY
  1
0.020
  9
$CUSTOMPROPERTYTAG
  1
Z
  9
$CUSTOMPROPERTY
  1
1-51/64
  9
$CUSTOMPROPERTYTAG
  1
COMPANY
  9
$CUSTOMPROPERTY
  1
baldor
  9
$INSBASE
 10
0.0
 20
0.0
 30
0.0
  9
$EXTMIN
 10
1.000000000000000E+20
 20
1.000000000000000E+20
 30
1.000000000000000E+20
  9
$EXTMAX
 10
-1.000000000000000E+20
 20
-1.000000000000000E+20
 30
-1.000000000000000E+20
  9
$LIMMIN
 10
0.0
 20
0.0
  9
$LIMMAX
 10
12.0
 20
9.0
  9
$ORTHOMODE
 70
     0
  9
$REGENMODE
 70
     1
  9
$FILLMODE
 70
     1
  9
$QTEXTMODE
 70
     0
  9
$MIRRTEXT
 70
     1
  9
$LTSCALE
 40
1.0
  9
$ATTMODE
 70
     1
  9
$TEXTSIZE
 40
0.2
  9
$TRACEWID
 40
0.05
  9
$TEXTSTYLE
  7
Standard
  9
$CLAYER
  8
0
  9
$CELTYPE
  6
ByLayer
  9
$CECOLOR
 62
   256
  9
$CELTSCALE
 40
1.0
  9
$DISPSILH
 70
     0
  9
$DIMSCALE
 40
1.0
  9
$DIMASZ
 40
0.18
  9
$DIMEXO
 40
0.0625
  9
$DIMDLI
 40
0.38
  9
$DIMRND
 40
0.0
  9
$DIMDLE
 40
0.0
  9
$DIMEXE
 40
0.18
  9
$DIMTP
 40
0.0
  9
$DIMTM
 40
0.0
  9
$DIMTXT
 40
0.18
  9
$DIMCEN
 40
0.09
  9
$DIMTSZ
 40
0.0
  9
$DIMTOL
 70
     0
  9
$DIMLIM
 70
     0
  9
$DIMTIH
 70
     1
  9
$DIMTOH
 70
     1
  9
$DIMSE1
 70
     0
  9
$DIMSE2
 70
     0
  9
$DIMTAD
 70
     0
  9
$DIMZIN
 70
     0
  9
$DIMBLK
  1

  9
$DIMASO
 70
     1
  9
$DIMSHO
 70
     1
  9
$DIMPOST
  1

  9
$DIMAPOST
  1

  9
$DIMALT
 70
     0
  9
$DIMALTD
 70
     2
  9
$DIMALTF
 40
25.4
  9
$DIMLFAC
 40
1.0
  9
$DIMTOFL
 70
     0
  9
$DIMTVP
 40
0.0
  9
$DIMTIX
 70
     0
  9
$DIMSOXD
 70
     0
  9
$DIMSAH
 70
     0
  9
$DIMBLK1
  1

  9
$DIMBLK2
  1

  9
$DIMSTYLE
  2
Standard
  9
$DIMCLRD
 70
     0
  9
$DIMCLRE
 70
     0
  9
$DIMCLRT
 70
     0
  9
$DIMTFAC
 40
1.0
  9
$DIMGAP
 40
0.09
  9
$DIMJUST
 70
     0
  9
$DIMSD1
 70
     0
  9
$DIMSD2
 70
     0
  9
$DIMTOLJ
 70
     1
  9
$DIMTZIN
 70
     0
  9
$DIMALTZ
 70
     0
  9
$DIMALTTZ
 70
     0
  9
$DIMUPT
 70
     0
  9
$DIMDEC
 70
     4
  9
$DIMTDEC
 70
     4
  9
$DIMALTU
 70
     2
  9
$DIMALTTD
 70
     2
  9
$DIMTXSTY
  7
Standard
  9
$DIMAUNIT
 70
     0
  9
$DIMADEC
 70
     0
  9
$DIMALTRND
 40
0.0
  9
$DIMAZIN
 70
     0
  9
$DIMDSEP
 70
    46
  9
$DIMATFIT
 70
     3
  9
$DIMFRAC
 70
     0
  9
$DIMLDRBLK
  1

  9
$DIMLUNIT
 70
     2
  9
$DIMLWD
 70
    -2
  9
$DIMLWE
 70
    -2
  9
$DIMTMOVE
 70
     0
  9
$DIMFXL
 40
1.0
  9
$DIMFXLON
 70
     0
  9
$DIMJOGANG
 40
0.7853981633974483
  9
$DIMTFILL
 70
     0
  9
$DIMTFILLCLR
 70
     0
  9
$DIMARCSYM
 70
     0
  9
$DIMLTYPE
  6

  9
$DIMLTEX1
  6

  9
$DIMLTEX2
  6

  9
$DIMTXTDIRECTION
 70
     0
  9
$LUNITS
 70
     2
  9
$LUPREC
 70
     4
  9
$SKETCHINC
 40
0.1
  9
$FILLETRAD
 40
0.5
  9
$AUNITS
 70
     0
  9
$AUPREC
 70
     0
  9
$MENU
  1
.
  9
$ELEVATION
 40
0.0
  9
$PELEVATION
 40
0.0
  9
$THICKNESS
 40
0.0
  9
$LIMCHECK
 70
     0
  9
$CHAMFERA
 40
0.0
  9
$CHAMFERB
 40
0.0
  9
$CHAMFERC
 40
0.0
  9
$CHAMFERD
 40
0.0
  9
$SKPOLY
 70
     0
  9
$TDCREATE
 40
2458168.984808576
  9
$TDUCREATE
 40
2458168.94314191
  9
$TDUPDATE
 40
2458168.98480875
  9
$TDUUPDATE
 40
2458168.943142083
  9
$TDINDWG
 40
0.0000000116
  9
$TDUSRTIMER
 40
0.0000000116
  9
$USRTIMER
 70
     1
  9
$ANGBASE
 50
0.0
  9
$ANGDIR
 70
     0
  9
$PDMODE
 70
     0
  9
$PDSIZE
 40
0.0
  9
$PLINEWID
 40
0.0
  9
$SPLFRAME
 70
     0
  9
$SPLINETYPE
 70
     6
  9
$SPLINESEGS
 70
     8
  9
$HANDSEED
  5
1A9
  9
$SURFTAB1
 70
     6
  9
$SURFTAB2
 70
     6
  9
$SURFTYPE
 70
     6
  9
$SURFU
 70
     6
  9
$SURFV
 70
     6
  9
$UCSBASE
  2

  9
$UCSNAME
  2

  9
$UCSORG
 10
0.0
 20
0.0
 30
0.0
  9
$UCSXDIR
 10
1.0
 20
0.0
 30
0.0
  9
$UCSYDIR
 10
0.0
 20
1.0
 30
0.0
  9
$UCSORTHOREF
  2

  9
$UCSORTHOVIEW
 70
     0
  9
$UCSORGTOP
 10
0.0
 20
0.0
 30
0.0
  9
$UCSORGBOTTOM
 10
0.0
 20
0.0
 30
0.0
  9
$UCSORGLEFT
 10
0.0
 20
0.0
 30
0.0
  9
$UCSORGRIGHT
 10
0.0
 20
0.0
 30
0.0
  9
$UCSORGFRONT
 10
0.0
 20
0.0
 30
0.0
  9
$UCSORGBACK
 10
0.0
 20
0.0
 30
0.0
  9
$PUCSBASE
  2

  9
$PUCSNAME
  2

  9
$PUCSORG
 10
0.0
 20
0.0
 30
0.0
  9
$PUCSXDIR
 10
1.0
 20
0.0
 30
0.0
  9
$PUCSYDIR
 10
0.0
 20
1.0
 30
0.0
  9
$PUCSORTHOREF
  2

  9
$PUCSORTHOVIEW
 70
     0
  9
$PUCSORGTOP
 10
0.0
 20
0.0
 30
0.0
  9
$PUCSORGBOTTOM
 10
0.0
 20
0.0
 30
0.0
  9
$PUCSORGLEFT
 10
0.0
 20
0.0
 30
0.0
  9
$PUCSORGRIGHT
 10
0.0
 20
0.0
 30
0.0
  9
$PUCSORGFRONT
 10
0.0
 20
0.0
 30
0.0
  9
$PUCSORGBACK
 10
0.0
 20
0.0
 30
0.0
  9
$USERI1
 70
     0
  9
$USERI2
 70
     0
  9
$USERI3
 70
     0
  9
$USERI4
 70
     0
  9
$USERI5
 70
     0
  9
$USERR1
 40
0.0
  9
$USERR2
 40
0.0
  9
$USERR3
 40
0.0
  9
$USERR4
 40
0.0
  9
$USERR5
 40
0.0
  9
$WORLDVIEW
 70
     1
  9
$SHADEDGE
 70
     3
  9
$SHADEDIF
 70
    70
  9
$TILEMODE
 70
     1
  9
$MAXACTVP
 70
    64
  9
$PINSBASE
 10
0.0
 20
0.0
 30
0.0
  9
$PLIMCHECK
 70
     0
  9
$PEXTMIN
 10
1.000000000000000E+20
 20
1.000000000000000E+20
 30
1.000000000000000E+20
  9
$PEXTMAX
 10
-1.000000000000000E+20
 20
-1.000000000000000E+20
 30
-1.000000000000000E+20
  9
$PLIMMIN
 10
0.0
 20
0.0
  9
$PLIMMAX
 10
12.0
 20
9.0
  9
$UNITMODE
 70
     0
  9
$VISRETAIN
 70
     1
  9
$PLINEGEN
 70
     0
  9
$PSLTSCALE
 70
     1
  9
$TREEDEPTH
 70
  3020
  9
$CMLSTYLE
  2
Standard
  9
$CMLJUST
 70
     0
  9
$CMLSCALE
 40
1.0
  9
$PROXYGRAPHICS
 70
     1
  9
$MEASUREMENT
 70
     0
  9
$CELWEIGHT
370
    -1
  9
$ENDCAPS
280
     0
  9
$JOINSTYLE
280
     0
  9
$LWDISPLAY
290
     0
  9
$INSUNITS
 70
     1
  9
$HYPERLINKBASE
  1

  9
$STYLESHEET
  1

  9
$XEDIT
290
     1
  9
$CEPSNTYPE
380
     0
  9
$PSTYLEMODE
290
     1
  9
$FINGERPRINTGUID
  2
{72210F3C-0227-4BFC-B25C-44ECB0C8D872}
  9
$VERSIONGUID
  2
{FAEB1C32-E019-11D5-929B-00C0DF256EC4}
  9
$EXTNAMES
290
     1
  9
$PSVPSCALE
 40
0.0
  9
$OLESTARTUP
290
     0
  9
$SORTENTS
280
   127
  9
$INDEXCTL
280
     0
  9
$HIDETEXT
280
     1
  9
$XCLIPFRAME
280
     2
  9
$HALOGAP
280
     0
  9
$OBSCOLOR
 70
   257
  9
$OBSLTYPE
280
     0
  9
$INTERSECTIONDISPLAY
280
     0
  9
$INTERSECTIONCOLOR
 70
   257
  9
$DIMASSOC
280
     2
  9
$PROJECTNAME
  1

  9
$CAMERADISPLAY
290
     0
  9
$LENSLENGTH
 40
50.0
  9
$CAMERAHEIGHT
 40
0.0
  9
$STEPSPERSEC
 40
2.0
  9
$STEPSIZE
 40
6.0
  9
$3DDWFPREC
 40
2.0
  9
$PSOLWIDTH
 40
0.25
  9
$PSOLHEIGHT
 40
4.0
  9
$LOFTANG1
 40
1.570796326794897
  9
$LOFTANG2
 40
1.570796326794897
  9
$LOFTMAG1
 40
0.0
  9
$LOFTMAG2
 40
0.0
  9
$LOFTPARAM
 70
     7
  9
$LOFTNORMALS
280
     1
  9
$LATITUDE
 40
37.795
  9
$LONGITUDE
 40
-122.394
  9
$NORTHDIRECTION
 40
0.0
  9
$TIMEZONE
 70
 -8000
  9
$LIGHTGLYPHDISPLAY
280
     1
  9
$TILEMODELIGHTSYNCH
280
     1
  9
$CMATERIAL
347
44
  9
$SOLIDHIST
280
     0
  9
$SHOWHIST
280
     1
  9
$DWFFRAME
280
     2
  9
$DGNFRAME
280
     2
  9
$REALWORLDSCALE
290
     1
  9
$INTERFERECOLOR
 62
   256
  9
$CSHADOW
280
     0
  9
$SHADOWPLANELOCATION
 40
0.0
  0
ENDSEC
  0
SECTION
  2
CLASSES
  0
CLASS
  1
ACDBDICTIONARYWDFLT
  2
AcDbDictionaryWithDefault
  3
ObjectDBX Classes
 90
        0
 91
        4
280
     0
281
     0
  0
CLASS
  1
VISUALSTYLE
  2
AcDbVisualStyle
  3
ObjectDBX Classes
 90
     4095
 91
        4
280
     0
281
     0
  0
CLASS
  1
MATERIAL
  2
AcDbMaterial
  3
ObjectDBX Classes
 90
     1153
 91
        4
280
     0
281
     0
  0
CLASS
  1
SCALE
  2
AcDbScale
  3
ObjectDBX Classes
 90
     1153
 91
        4
280
     0
281
     0
  0
CLASS
  1
TABLESTYLE
  2
AcDbTableStyle
  3
ObjectDBX Classes
 90
     4095
 91
        4
280
     0
281
     0
  0
CLASS
  1
MLEADERSTYLE
  2
AcDbMLeaderStyle
  3
ACDB_MLEADERSTYLE_CLASS
 90
     4095
 91
        4
280
     0
281
     0
  0
CLASS
  1
SUN
  2
AcDbSun
  3
SCENEOE
 90
     1153
 91
        4
280
     0
281
     0
  0
CLASS
  1
DICTIONARYVAR
  2
AcDbDictionaryVar
  3
ObjectDBX Classes
 90
        0
 91
        4
280
     0
281
     0
  0
CLASS
  1
CELLSTYLEMAP
  2
AcDbCellStyleMap
  3
ObjectDBX Classes
 90
     1152
 91
        4
280
     0
281
     0
  0
ENDSEC
  0
SECTION
  2
TABLES
  0
TABLE
  2
VPORT
  5
8
330
0
100
AcDbSymbolTable
 70
     1
  0
VPORT
  5
29
330
8
100
AcDbSymbolTableRecord
100
AcDbViewportTableRecord
  2
*Active
 70
     0
 10
0.0
 20
0.0
 11
1.0
 21
1.0
 12
4.821428571428571
 22
-5.910937499999999
 13
0.0
 23
0.0
 14
0.5
 24
0.5
 15
0.5
 25
0.5
 16
0.0
 26
0.0
 36
1.0
 17
0.0
 27
0.0
 37
0.0
 40
13.26
 41
1.107142857142857
 42
50.0
 43
0.0
 44
0.0
 50
0.0
 51
0.0
 71
     0
 72
   100
 73
     1
 74
     3
 75
     0
 76
     0
 77
     0
 78
     0
281
     0
 65
     1
110
0.0
120
0.0
130
0.0
111
1.0
121
0.0
131
0.0
112
0.0
122
1.0
132
0.0
 79
     0
146
0.0
348
2F
 60
     3
 61
     5
292
     1
282
     1
141
0.0
142
0.0
 63
   250
361
6D
  0
ENDTAB
  0
TABLE
  2
LTYPE
  5
5
330
0
100
AcDbSymbolTable
 70
     3
  0
LTYPE
  5
14
330
5
100
AcDbSymbolTableRecord
100
AcDbLinetypeTableRecord
  2
ByBlock
 70
     0
  3

 72
    65
 73
     0
 40
0.0
  0
LTYPE
  5
15
330
5
100
AcDbSymbolTableRecord
100
AcDbLinetypeTableRecord
  2
ByLayer
 70
     0
  3

 72
    65
 73
     0
 40
0.0
  0
LTYPE
  5
16
330
5
100
AcDbSymbolTableRecord
100
AcDbLinetypeTableRecord
  2
Continuous
 70
     0
  3
Solid line
 72
    65
 73
     0
 40
0.0
  0
LTYPE
  5
A2
330
5
100
AcDbSymbolTableRecord
100
AcDbLinetypeTableRecord
  2
Dashed
 70
     0
  3

 72
    65
 73
     2
 40
2.0
 49
1.0
 74
     0
 49
-1.0
 74
     0
  0
LTYPE
  5
B7
330
5
100
AcDbSymbolTableRecord
100
AcDbLinetypeTableRecord
  2
Center
 70
     0
  3

 72
    65
 73
     4
 40
1.5
 49
0.45
 74
     0
 49
-0.5
 74
     0
 49
0.05
 74
     0
 49
-0.5
 74
     0
  0
ENDTAB
  0
TABLE
  2
LAYER
  5
2
330
0
100
AcDbSymbolTable
 70
     8
  0
LAYER
  5
10
330
2
100
AcDbSymbolTableRecord
100
AcDbLayerTableRecord
  2
0
 70
     0
 62
     7
  6
Continuous
370
    -3
390
F
347
46
348
0
  0
LAYER
  5
6E
330
2
100
AcDbSymbolTableRecord
100
AcDbLayerTableRecord
  2
AM_6
 70
     0
 62
    -2
  6
Continuous
370
    35
390
F
347
46
348
0
  0
LAYER
  5
A3
330
2
100
AcDbSymbolTableRecord
100
AcDbLayerTableRecord
  2
AM_9
 70
     0
 62
     6
  6
Dashed
370
    25
390
F
347
46
348
0
  0
LAYER
  5
B8
330
2
100
AcDbSymbolTableRecord
100
AcDbLayerTableRecord
  2
AM_7
 70
     0
 62
     7
  6
Center
370
    25
390
F
347
46
348
0
  0
LAYER
  5
BA
330
2
100
AcDbSymbolTableRecord
100
AcDbLayerTableRecord
  2
AM_0
 70
     0
 62
     7
  6
Continuous
370
    50
390
F
347
46
348
0
  0
LAYER
  5
C2
330
2
100
AcDbSymbolTableRecord
100
AcDbLayerTableRecord
  2
AM_4
 70
     0
 62
     3
  6
Continuous
370
    25
390
F
347
46
348
0
  0
LAYER
  5
D0
330
2
100
AcDbSymbolTableRecord
100
AcDbLayerTableRecord
  2
AM_5
 70
     0
 62
     3
  6
Continuous
370
    25
390
F
347
46
348
0
  0
LAYER
  5
198
330
2
100
AcDbSymbolTableRecord
100
AcDbLayerTableRecord
  2
ConnectionPoints
 70
     0
 62
     7
  6
Continuous
370
    50
390
F
347
46
348
0
  0
ENDTAB
  0
TABLE
  2
STYLE
  5
3
330
0
100
AcDbSymbolTable
 70
     1
  0
STYLE
  5
11
330
3
100
AcDbSymbolTableRecord
100
AcDbTextStyleTableRecord
  2
Standard
 70
     0
 40
0.0
 41
1.0
 50
0.0
 71
     0
 42
0.2
  3
txt
  4

  0
ENDTAB
  0
TABLE
  2
VIEW
  5
6
330
0
100
AcDbSymbolTable
 70
     0
  0
ENDTAB
  0
TABLE
  2
UCS
  5
7
330
0
100
AcDbSymbolTable
 70
     0
  0
ENDTAB
  0
TABLE
  2
APPID
  5
9
330
0
100
AcDbSymbolTable
 70
     1
  0
APPID
  5
12
330
9
100
AcDbSymbolTableRecord
100
AcDbRegAppTableRecord
  2
ACAD
 70
     0
  0
ENDTAB
  0
TABLE
  2
DIMSTYLE
  5
A
330
0
100
AcDbSymbolTable
 70
     1
100
AcDbDimStyleTable
  0
DIMSTYLE
105
27
330
A
100
AcDbSymbolTableRecord
100
AcDbDimStyleTableRecord
  2
Standard
 70
     0
178
     0
340
11
  0
ENDTAB
  0
TABLE
  2
BLOCK_RECORD
  5
1
330
0
100
AcDbSymbolTable
 70
     5
  0
BLOCK_RECORD
  5
1F
330
1
100
AcDbSymbolTableRecord
100
AcDbBlockTableRecord
  2
*Model_Space
340
22
 70
     0
280
     1
281
     0
  0
BLOCK_RECORD
  5
1B
330
1
100
AcDbSymbolTableRecord
100
AcDbBlockTableRecord
  2
*Paper_Space
340
1E
 70
     0
280
     1
281
     0
  0
BLOCK_RECORD
  5
23
330
1
100
AcDbSymbolTableRecord
100
AcDbBlockTableRecord
  2
*Paper_Space0
340
26
 70
     0
280
     1
281
     0
  0
BLOCK_RECORD
  5
89
330
1
100
AcDbSymbolTableRecord
100
AcDbBlockTableRecord
  2
1_1_3_8CS2i_0_in_070600_4
340
0
102
{BLKREFS
331
8A
102
}
 70
     0
280
     1
281
     0
  0
BLOCK_RECORD
  5
D2
330
1
100
AcDbSymbolTableRecord
100
AcDbBlockTableRecord
  2
2_070016i_0_in_070600_4
340
0
102
{BLKREFS
331
D3
102
}
 70
     0
280
     1
281
     0
  0
BLOCK_RECORD
  5
124
330
1
100
AcDbSymbolTableRecord
100
AcDbBlockTableRecord
  2
3_405015E_Inch_0_in_070600_4
340
0
102
{BLKREFS
331
125
102
}
 70
     0
280
     1
281
     0
  0
BLOCK_RECORD
  5
141
330
1
100
AcDbSymbolTableRecord
100
AcDbBlockTableRecord
  2
4_070600H_0_in_070600_4
340
0
102
{BLKREFS
331
142
102
}
 70
     0
280
     1
281
     0
  0
ENDTAB
  0
ENDSEC
  0
SECTION
  2
BLOCKS
  0
BLOCK
  5
20
330
1F
100
AcDbEntity
  8
0
100
AcDbBlockBegin
  2
*Model_Space
 70
     0
 10
0.0
 20
0.0
 30
0.0
  3
*Model_Space
  1

  0
ENDBLK
  5
21
330
1F
100
AcDbEntity
  8
0
100
AcDbBlockEnd
  0
BLOCK
  5
1C
330
1B
100
AcDbEntity
 67
     1
  8
0
100
AcDbBlockBegin
  2
*Paper_Space
 70
     0
 10
0.0
 20
0.0
 30
0.0
  3
*Paper_Space
  1

  0
ENDBLK
  5
1D
330
1B
100
AcDbEntity
 67
     1
  8
0
100
AcDbBlockEnd
  0
BLOCK
  5
24
330
23
100
AcDbEntity
  8
0
100
AcDbBlockBegin
  2
*Paper_Space0
 70
     0
 10
0.0
 20
0.0
 30
0.0
  3
*Paper_Space0
  1

  0
ENDBLK
  5
25
330
23
100
AcDbEntity
  8
0
100
AcDbBlockEnd
  0
BLOCK
  5
8B
330
89
100
AcDbEntity
  8
0
100
AcDbBlockBegin
  2
1_1_3_8CS2i_0_in_070600_4
 70
     2
 10
0.0
 20
0.0
 30
0.0
  3
1_1_3_8CS2i_0_in_070600_4
  1

  0
ATTDEF
  5
8D
330
89
100
AcDbEntity
  8
AM_6
100
AcDbText
 10
6.375
 20
-2.193625
 30
0.0
 40
0.5
  1
S-2000 Collar -Inch
100
AcDbAttributeDefinition
  3

  2
NN
 70
     8
280
     0
  0
ATTDEF
  5
8E
330
89
100
AcDbEntity
  8
AM_6
100
AcDbText
 10
6.375
 20
-2.693625
 30
0.0
 40
0.5
  1
S-2000 Bearings
100
AcDbAttributeDefinition
  3

  2
NT
 70
     8
280
     0
  0
ATTDEF
  5
8F
330
89
100
AcDbEntity
  8
AM_6
100
AcDbText
 10
6.375
 20
-3.193625
 30
0.0
 40
0.5
  1
1-3/8CS2i
100
AcDbAttributeDefinition
  3

  2
NB
 70
     8
280
     0
  0
ATTDEF
  5
90
330
89
100
AcDbEntity
  8
AM_6
100
AcDbText
 10
6.375
 20
-3.693625
 30
0.0
 40
0.5
  1
$BORE.CS2i
100
AcDbAttributeDefinition
  3

  2
NBSYN
 70
     8
280
     0
  0
ATTDEF
  5
91
330
89
100
AcDbEntity
  8
AM_6
100
AcDbText
 10
6.375
 20
-4.193625
 30
0.0
 40
0.5
  1
1-3/8CS2i
100
AcDbAttributeDefinition
  3

  2
LINA
 70
     8
280
     0
  0
ATTDEF
  5
92
330
89
100
AcDbEntity
  8
AM_6
100
AcDbText
 10
6.375
 20
-4.693625
 30
0.0
 40
0.5
  1
1-3/8
100
AcDbAttributeDefinition
  3

  2
BORE
 70
     8
280
     0
  0
ATTDEF
  5
93
330
89
100
AcDbEntity
  8
AM_6
100
AcDbText
 10
6.375
 20
-5.193625
 30
0.0
 40
0.5
  1
1.375000
100
AcDbAttributeDefinition
  3

  2
BORE1
 70
     8
280
     0
  0
ATTDEF
  5
94
330
89
100
AcDbEntity
  8
AM_6
100
AcDbText
 10
6.375
 20
-5.693625
 30
0.0
 40
0.5
  1
2-3/4
100
AcDbAttributeDefinition
  3

  2
L1
 70
     8
280
     0
  0
ATTDEF
  5
95
330
89
100
AcDbEntity
  8
AM_6
100
AcDbText
 10
6.375
 20
-6.193625
 30
0.0
 40
0.5
  1
2.75000
100
AcDbAttributeDefinition
  3

  2
L
 70
     8
280
     0
  0
ATTDEF
  5
96
330
89
100
AcDbEntity
  8
AM_6
100
AcDbText
 10
6.375
 20
-6.693625
 30
0.0
 40
0.5
  1
2.65625
100
AcDbAttributeDefinition
  3

  2
L2
 70
     8
280
     0
  0
ATTDEF
  5
97
330
89
100
AcDbEntity
  8
AM_6
100
AcDbText
 10
6.375
 20
-7.193625
 30
0.0
 40
0.5
  1
3.00
100
AcDbAttributeDefinition
  3

  2
A
 70
     8
280
     0
  0
ATTDEF
  5
98
330
89
100
AcDbEntity
  8
AM_6
100
AcDbText
 10
6.375
 20
-7.693625
 30
0.0
 40
0.5
  1
1.25
100
AcDbAttributeDefinition
  3

  2
B
 70
     8
280
     0
  0
ATTDEF
  5
99
330
89
100
AcDbEntity
  8
AM_6
100
AcDbText
 10
6.375
 20
-8.193625
 30
0.0
 40
0.5
  1
1.75
100
AcDbAttributeDefinition
  3

  2
C
 70
     8
280
     0
  0
ATTDEF
  5
9A
330
89
100
AcDbEntity
  8
AM_6
100
AcDbText
 10
6.375
 20
-8.693625
 30
0.0
 40
0.5
  1
2.81
100
AcDbAttributeDefinition
  3

  2
D
 70
     8
280
     0
  0
ATTDEF
  5
9B
330
89
100
AcDbEntity
  8
AM_6
100
AcDbText
 10
6.375
 20
-9.193625
 30
0.0
 40
0.5
  1
0.35
100
AcDbAttributeDefinition
  3

  2
E
 70
     8
280
     0
  0
ATTDEF
  5
9C
330
89
100
AcDbEntity
  8
AM_6
100
AcDbText
 10
6.375
 20
-9.693625
 30
0.0
 40
0.5
  1
0.286
100
AcDbAttributeDefinition
  3

  2
F
 70
     8
280
     0
  0
ATTDEF
  5
9D
330
89
100
AcDbEntity
  8
AM_6
100
AcDbText
 10
6.375
 20
-10.193625
 30
0.0
 40
0.5
  1
5/16-18
100
AcDbAttributeDefinition
  3

  2
CS
 70
     8
280
     0
  0
ATTDEF
  5
9E
330
89
100
AcDbEntity
  8
AM_6
100
AcDbText
 10
6.375
 20
-10.693625
 30
0.0
 40
0.5
  1
0.3125
100
AcDbAttributeDefinition
  3

  2
NDM
 70
     8
280
     0
  0
ATTDEF
  5
9F
330
89
100
AcDbEntity
  8
AM_6
100
AcDbText
 10
6.375
 20
-11.193625
 30
0.0
 40
0.5
  1
0.2520
100
AcDbAttributeDefinition
  3

  2
KDM
 70
     8
280
     0
  0
ATTDEF
  5
A0
330
89
100
AcDbEntity
  8
AM_6
100
AcDbText
 10
6.375
 20
-11.693625
 30
0.0
 40
0.5
  1
1
100
AcDbAttributeDefinition
  3

  2
DD
 70
     8
280
     0
  0
ATTDEF
  5
A1
330
89
100
AcDbEntity
  8
AM_6
100
AcDbText
 10
6.375
 20
-12.193625
 30
0.0
 40
0.5
  1
baldor
100
AcDbAttributeDefinition
  3

  2
COMPANY
 70
     8
280
     0
  0
LINE
  5
A4
330
89
100
AcDbEntity
  8
AM_9
 48
0.0062488909819698
100
AcDbLine
 10
0.8262427010766306
 20
-2.367985626202667
 30
0.0
 11
0.818110532460986
 21
-2.357842481375743
 31
0.0
  0
LINE
  5
A5
330
89
100
AcDbEntity
  8
AM_9
 48
0.0062488909819698
100
AcDbLine
 10
0.8180787528067874
 20
-2.601447156960637
 30
0.0
 11
0.8262427010766306
 21
-2.591264373797333
 31
0.0
  0
LWPOLYLINE
  5
A6
330
89
100
AcDbEntity
  8
AM_9
 48
0.0062488909819698
100
AcDbPolyline
 90
       25
 70
     0
 43
0.0
 10
0.8180289347109225
 20
-2.357740705725807
 10
0.8106127711184894
 20
-2.350402076816619
 10
0.8009802385422524
 20
-2.345374860806134
 10
0.7900508587122982
 20
-2.344372776894823
 10
0.7785054408667739
 20
-2.347650548847853
 10
0.7665742484496771
 20
-2.355297747625659
 10
0.7548400536251683
 20
-2.36709931497326
 10
0.7439928623530951
 20
-2.382592780635396
 10
0.7344025627809982
 20
-2.401553028831851
 10
0.7270889393050326
 20
-2.422181075368702
 10
0.7219049582733046
 20
-2.444900560392113
 10
0.7194445733183047
 20
-2.466573264240496
 10
0.7192218497230498
 20
-2.488669684241965
 10
0.7210798249705342
 20
-2.508932696735585
 10
0.7247696089551143
 20
-2.528389666059562
 10
0.730183657862128
 20
-2.546773128261477
 10
0.7369755089340669
 20
-2.563444681444544
 10
0.7455195014811118
 20
-2.579164183502118
 10
0.754932431517398
 20
-2.592261951173199
 10
0.7657819460075668
 20
-2.603296908509522
 10
0.7768268245839014
 20
-2.610781367690981
 10
0.7883167592468154
 20
-2.614652732512036
 10
0.7992529482248446
 20
-2.614335188987226
 10
0.8095140530066152
 20
-2.609649083668002
 10
0.8180301715385822
 20
-2.601507751711262
  0
LWPOLYLINE
  5
A7
330
89
100
AcDbEntity
  8
AM_9
 48
0.0062488909819698
100
AcDbPolyline
 90
        6
 70
     0
 43
0.0
 10
0.84414839188046
 20
-2.479624999999997
 10
0.843892273046401
 20
-2.464407158177672
 10
0.8427270124911824
 20
-2.443995279908922
 10
0.8406603117291513
 20
-2.424932411503918
 10
0.8376991176277445
 20
-2.407281115607669
 10
0.8308696634104559
 20
-2.382137944615282
  0
LWPOLYLINE
  5
A8
330
89
100
AcDbEntity
  8
AM_9
 48
0.0062488909819698
100
AcDbPolyline
 90
        8
 70
     0
 43
0.0
 10
0.8227030663530978
 20
-2.594761818472691
 10
0.826471759866803
 20
-2.587710227015778
 10
0.8329245466100832
 20
-2.570943304145891
 10
0.8377581937130795
 20
-2.551639725291366
 10
0.8412604297264847
 20
-2.52969751054515
 10
0.8432543921419953
 20
-2.507963942753326
 10
0.8441137925784413
 20
-2.4852598770907
 10
0.84414839188046
 20
-2.479624999999997
  0
LWPOLYLINE
  5
A9
330
89
100
AcDbEntity
  8
AM_9
 48
0.0062488909819698
100
AcDbPolyline
 90
        3
 70
     0
 43
0.0
 10
0.8180301715385822
 20
-2.601507751711262
 10
0.8186626320502927
 20
-2.600703315598571
 10
0.8227030663530978
 20
-2.594761818472691
  0
LINE
  5
AA
330
89
100
AcDbEntity
  8
AM_9
 48
0.0062488909819698
100
AcDbLine
 10
0.8013724504275845
 20
-2.605825
 30
0.0
 11
1.203654871843787
 21
-2.605825
 31
0.0
  0
LINE
  5
AB
330
89
100
AcDbEntity
  8
AM_9
 48
0.0062488909819698
100
AcDbLine
 10
1.218938658174942
 20
-2.353425
 30
0.0
 11
0.8013724504275845
 21
-2.353425
 31
0.0
  0
ELLIPSE
  5
AC
330
89
100
AcDbEntity
  8
AM_9
 48
0.0062488909819698
100
AcDbEllipse
 10
1.218938658174948
 20
-2.479625000000001
 30
0.0
 11
6.477928196929261E-15
 21
-0.1262000000000016
 31
0.0
210
0.0
220
0.0
230
1.0
 40
0.4226182617407167
 41
3.421926467582921
 42
4.712388980384657
  0
LINE
  5
AD
330
89
100
AcDbEntity
  8
AM_9
 48
0.0062488909819698
100
AcDbLine
 10
1.213832385869543
 20
-2.343334281134624
 30
0.0
 11
1.194068407525901
 21
-2.367985626202661
 31
0.0
  0
LWPOLYLINE
  5
AE
330
89
100
AcDbEntity
  8
AM_9
 48
0.0062488909819698
100
AcDbPolyline
 90
       15
 70
     0
 43
0.0
 10
0.1472526729533537
 20
-2.465843853026422
 10
0.1451468626683571
 20
-2.453163202169759
 10
0.1389948446419988
 20
-2.43325063387473
 10
0.1299030339592262
 20
-2.414948700304487
 10
0.1177962090805793
 20
-2.397878679073801
 10
0.1024432438250298
 20
-2.382110701466213
 10
0.0844140604184904
 20
-2.368566602637141
 10
0.0631716326958657
 20
-2.35727043156556
 10
0.0398021748052387
 20
-2.349242548557431
 10
0.0146088936870379
 20
-2.344875973049293
 10
-0.0116810389999466
 20
-2.344634812554483
 10
-0.0374828494315263
 20
-2.348663595395009
 10
-0.0629471210470816
 20
-2.357173016760658
 10
-0.0832619691395529
 20
-2.367838516089837
 10
-0.102117079169781
 20
-2.381824687246965
  0
LWPOLYLINE
  5
AF
330
89
100
AcDbEntity
  8
AM_9
 48
0.0062488909819698
100
AcDbPolyline
 90
       25
 70
     0
 43
0.0
 10
-0.102117079169781
 20
-2.381824687246965
 10
-0.1166589240593695
 20
-2.396528453457436
 10
-0.1291073007347208
 20
-2.413635762066324
 10
-0.1394369687108292
 20
-2.434366122769115
 10
-0.1460107436609099
 20
-2.457449940871669
 10
-0.1480238668494674
 20
-2.478497494582665
 10
-0.1462841676800016
 20
-2.500252562570655
 10
-0.1413143146044354
 20
-2.519760469779941
 10
-0.1330724390717883
 20
-2.538697789775267
 10
-0.1218376424144811
 20
-2.556270391169679
 10
-0.1077016759688973
 20
-2.572276656900545
 10
-0.0902224042927961
 20
-2.586781354930323
 10
-0.0702143725059303
 20
-2.598703944654749
 10
-0.0473020992282702
 20
-2.60787613450297
 10
-0.0225571532949762
 20
-2.613444628058772
 10
0.0032545490179393
 20
-2.615008606156805
 10
0.0297004292428692
 20
-2.612261230202912
 10
0.054876568674977
 20
-2.605306016560207
 10
0.0791839922290668
 20
-2.593873970900006
 10
0.1001579600581878
 20
-2.579107484702335
 10
0.1187266959649613
 20
-2.560240093504593
 10
0.1322512838207886
 20
-2.540212174492273
 10
0.1421604408095451
 20
-2.517199299387511
 10
0.1469500429762823
 20
-2.49586356407008
 10
0.1479463990235156
 20
-2.475123439202602
  0
LWPOLYLINE
  5
B0
330
89
100
AcDbEntity
  8
AM_9
 48
0.0062488909819698
100
AcDbPolyline
 90
        3
 70
     0
 43
0.0
 10
0.8225742801134556
 20
-2.364275472051136
 10
0.8192163339017761
 20
-2.359277100472583
 10
0.8180289347109225
 20
-2.357740705725807
  0
LWPOLYLINE
  5
B1
330
89
100
AcDbEntity
  8
AM_9
 48
0.0062488909819698
100
AcDbPolyline
 90
        3
 70
     0
 43
0.0
 10
0.8308696634104559
 20
-2.382137944615282
 10
0.8254703295231709
 20
-2.369495670254475
 10
0.8225742801134556
 20
-2.364275472051136
  0
LINE
  5
B2
330
89
100
AcDbEntity
  8
AM_9
 48
0.0062488909819698
100
AcDbLine
 10
0.875
 20
-2.765625
 30
0.0
 11
0.875
 21
-2.193625
 31
0.0
  0
LINE
  5
B3
330
89
100
AcDbEntity
  8
AM_9
 48
0.0062488909819698
100
AcDbLine
 10
-0.875
 20
-2.193625
 30
0.0
 11
-0.875
 21
-2.765625
 31
0.0
  0
LINE
  5
B4
330
89
100
AcDbEntity
  8
AM_9
 48
0.0062488909819698
100
AcDbLine
 10
0.1262
 20
-2.479625
 30
0.0
 11
-0.1262
 21
-2.479625
 31
0.0
  0
LINE
  5
B5
330
89
100
AcDbEntity
  8
AM_9
 48
0.0062488909819698
100
AcDbLine
 10
1.251578059435964
 20
-2.479625
 30
0.0
 11
1.176262874038004
 21
-2.479625
 31
0.0
  0
ELLIPSE
  5
B6
330
89
100
AcDbEntity
  8
AM_9
 48
0.0062488909819698
100
AcDbEllipse
 10
0.8013724504275844
 20
-2.479625
 30
0.0
 11
-2.318256390785937E-17
 21
-0.1261999999999999
 31
0.0
210
0.0
220
0.0
230
1.0
 40
0.4226182617406998
 41
0.0
 42
6.283185307179586
  0
LINE
  5
B9
330
89
100
AcDbEntity
  8
AM_7
 48
0.0062488909819698
100
AcDbLine
 10
-0.1325099999999999
 20
-2.479625
 30
0.0
 11
0.1325099999999999
 21
-2.479625
 31
0.0
  0
LWPOLYLINE
  5
BB
330
89
100
AcDbEntity
  8
AM_0
 48
0.0062488909819698
100
AcDbPolyline
 90
       11
 70
     0
 43
0.0
 10
1.203694960815953
 20
-2.605824999460589
 10
1.197560040137503
 20
-2.605007769742056
 10
1.188437376883005
 20
-2.600834791427672
 10
1.179478469956133
 20
-2.593277813031322
 10
1.170974111639531
 20
-2.582487408113066
 10
1.16323674854231
 20
-2.568820427508808
 10
1.156545541749094
 20
-2.552553871310503
 10
1.15118089429054
 20
-2.534226169132425
 10
1.147385180924457
 20
-2.514324843468661
 10
1.145294973747406
 20
-2.49343680399684
 10
1.144909210172611
 20
-2.479625
  0
ELLIPSE
  5
BC
330
89
100
AcDbEntity
  8
AM_0
 48
0.0062488909819698
100
AcDbEllipse
 10
1.218938658174936
 20
-2.479625000000033
 30
0.0
 11
-1.089572987082787E-14
 21
-0.1262000000000336
 31
0.0
210
0.0
220
0.0
230
1.0
 40
0.4226182617406888
 41
1.570796326795197
 42
3.421926467582955
  0
LWPOLYLINE
  5
BD
330
89
100
AcDbEntity
  8
AM_0
 48
0.0062488909819698
100
AcDbPolyline
 90
       14
 70
     0
 43
0.0
 10
1.214034350195322
 20
-2.343082375722652
 10
1.218439603452179
 20
-2.33802426300055
 10
1.229436354557986
 20
-2.328734496559511
 10
1.240000643011124
 20
-2.324137549692404
 10
1.250371720573527
 20
-2.323732675737965
 10
1.259889826207888
 20
-2.327399795793293
 10
1.268696348023578
 20
-2.3348556885824
 10
1.276647104959011
 20
-2.345974729300734
 10
1.283573675040601
 20
-2.360302875021348
 10
1.289610299711103
 20
-2.378216163048292
 10
1.294422915987854
 20
-2.398615490593438
 10
1.298143288614857
 20
-2.422179246262341
 10
1.300506942754651
 20
-2.44723050004842
 10
1.301557456887996
 20
-2.479625
  0
LINE
  5
BE
330
89
100
AcDbEntity
  8
AM_0
 48
0.0062488909819698
100
AcDbLine
 10
-1.232791666666667
 20
-2.765625
 30
0.0
 11
1.232791666661068
 21
-2.765625
 31
0.0
  0
ARC
  5
BF
330
89
100
AcDbEntity
  8
AM_0
 48
0.0062488909819698
100
AcDbCircle
 10
1.232791666666667
 20
-2.670291666666667
 30
0.0
 40
0.0953333333333326
100
AcDbArc
 50
269.9999999999999
 51
0.0000000000005338
  0
ARC
  5
C0
330
89
100
AcDbEntity
  8
AM_0
 48
0.0062488909819698
100
AcDbCircle
 10
-1.232791666666667
 20
-2.670291666666667
 30
0.0
 40
0.095333333333333
100
AcDbArc
 50
179.9999999999995
 51
270.0000000000001
  0
LWPOLYLINE
  5
C1
330
89
100
AcDbEntity
  8
AM_0
 48
0.0062488909819698
100
AcDbPolyline
 90
       20
 70
     0
 43
0.0
 10
0.1262
 20
-2.479625
 10
0.124468578611845
 20
-2.500457977183949
 10
0.119123416029814
 20
-2.521290954367899
 10
0.1106171300361007
 20
-2.540372761626058
 10
0.0987081127479961
 20
-2.5582579986566
 10
0.0843464615985912
 20
-2.573497863042507
 10
0.0671477702892477
 20
-2.586478249577083
 10
0.0485126931654683
 20
-2.59612804116989
 10
0.0279296018190063
 20
-2.602695619329845
 10
0.007200067292253
 20
-2.605619440476503
 10
-0.0143387953402804
 20
-2.605007769742056
 10
-0.0348048262632609
 20
-2.600930663795159
 10
-0.0548587102479397
 20
-2.593277813031322
 10
-0.0728546134656991
 20
-2.582671811191631
 10
-0.0892783048199334
 20
-2.568820427508808
 10
-0.1028124973985364
 20
-2.552809905401837
 10
-0.1137767653318213
 20
-2.534226169132425
 10
-0.1212496925035681
 20
-2.514624315247447
 10
-0.125441915125499
 20
-2.49343680399684
 10
-0.1262
 20
-2.479625
  0
LINE
  5
C3
330
89
100
AcDbEntity
  8
AM_4
 48
0.0062488909819698
100
AcDbLine
 10
-1.328125
 20
-2.670291666666667
 30
0.0
 11
1.328125
 21
-2.670291666666667
 31
0.0
  0
LWPOLYLINE
  5
C4
330
89
100
AcDbEntity
  8
AM_0
 48
0.0062488909819698
100
AcDbPolyline
 90
       11
 70
     0
 43
0.0
 10
1.251578059435964
 20
-2.479625
 10
1.250974724205943
 20
-2.500756447093476
 10
1.249182248290964
 20
-2.521290954367899
 10
1.246202588301568
 20
-2.540631331333701
 10
1.242076883470346
 20
-2.5582579986566
 10
1.236820246441594
 20
-2.573691159029479
 10
1.230528516838174
 20
-2.586478249577083
 10
1.223274847089721
 20
-2.596234047121186
 10
1.215227404002858
 20
-2.602695619329845
 10
1.206584817238278
 20
-2.605623711375933
 10
1.203694960815953
 20
-2.605824999460589
  0
LINE
  5
C5
330
89
100
AcDbEntity
  8
AM_0
 48
0.0062488909819698
100
AcDbLine
 10
1.328125
 20
-2.670291666666667
 30
0.0
 11
1.328125
 21
-2.479625
 31
0.0
  0
LINE
  5
C6
330
89
100
AcDbEntity
  8
AM_0
 48
0.0062488909819698
100
AcDbLine
 10
-1.328125
 20
-2.479625
 30
0.0
 11
-1.328125
 21
-2.670291666666667
 31
0.0
  0
LINE
  5
C7
330
89
100
AcDbEntity
  8
AM_0
 48
0.0062488909819698
100
AcDbLine
 10
1.251578059435964
 20
-2.479625
 30
0.0
 11
1.375
 21
-2.479625
 31
0.0
  0
LINE
  5
C8
330
89
100
AcDbEntity
  8
AM_0
 48
0.0062488909819698
100
AcDbLine
 10
0.1262
 20
-2.479625
 30
0.0
 11
1.176262874038004
 21
-2.479625
 31
0.0
  0
LWPOLYLINE
  5
C9
330
89
100
AcDbEntity
  8
AM_0
 48
0.0062488909819698
100
AcDbPolyline
 90
        8
 70
     0
 43
0.0
 10
1.176262874038004
 20
-2.479625
 10
1.176879777344923
 20
-2.459968768213998
 10
1.178708273437042
 20
-2.440598362511572
 10
1.183238197056405
 20
-2.414564859755089
 10
1.189873120360383
 20
-2.390414837676337
 10
1.198222920049047
 20
-2.369283933915898
 10
1.20802972118644
 20
-2.351413441730541
 10
1.214034350195322
 20
-2.343082375722652
  0
LINE
  5
CA
330
89
100
AcDbEntity
  8
AM_0
 48
0.0062488909819698
100
AcDbLine
 10
-1.375
 20
-2.193625
 30
0.0
 11
1.375
 21
-2.193625
 31
0.0
  0
LINE
  5
CB
330
89
100
AcDbEntity
  8
AM_0
 48
0.0062488909819698
100
AcDbLine
 10
1.375
 20
-2.479625
 30
0.0
 11
1.375
 21
-2.193625
 31
0.0
  0
LINE
  5
CC
330
89
100
AcDbEntity
  8
AM_0
 48
0.0062488909819698
100
AcDbLine
 10
-1.375
 20
-2.193625
 30
0.0
 11
-1.375
 21
-2.479625
 31
0.0
  0
LINE
  5
CD
330
89
100
AcDbEntity
  8
AM_0
 48
0.0062488909819698
100
AcDbLine
 10
-1.375
 20
-2.479625
 30
0.0
 11
-0.1262
 21
-2.479625
 31
0.0
  0
LWPOLYLINE
  5
CE
330
89
100
AcDbEntity
  8
AM_0
 48
0.0062488909819698
100
AcDbPolyline
 90
       20
 70
     0
 43
0.0
 10
-0.1482361201500411
 20
-2.479625
 10
-0.1470729124633054
 20
-2.460111681255786
 10
-0.1435272678807329
 20
-2.440598362511572
 10
-0.1349071611276211
 20
-2.414933764871024
 10
-0.1216536395559408
 20
-2.390414837676337
 10
-0.1051740788061588
 20
-2.369580189520065
 10
-0.0846605728749428
 20
-2.351413441730542
 10
-0.0629456271430199
 20
-2.33819124210219
 10
-0.0384496724713533
 20
-2.328734496559511
 10
-0.0148128453016497
 20
-2.324158882718748
 10
0.0100127105203584
 20
-2.323732675737965
 10
0.0330079054838706
 20
-2.327306680200052
 10
0.0557160680211961
 20
-2.3348556885824
 10
0.0764451586983132
 20
-2.345796252007839
 10
0.0956384975152395
 20
-2.360302875021348
 10
0.1125112614412572
 20
-2.377960723954482
 10
0.126716966669634
 20
-2.398615490593438
 10
0.1377086384026034
 20
-2.421851363081269
 10
0.1450079466451511
 20
-2.44723050004842
 10
0.148236120150041
 20
-2.479625
  0
ARC
  5
CF
330
89
100
AcDbEntity
  8
AM_0
 48
0.0062488909819698
100
AcDbCircle
 10
0.0
 20
-2.479625
 30
0.0
 40
0.1262
100
AcDbArc
 50
0.0
 51
180.0
  0
ARC
  5
D1
330
89
100
AcDbEntity
  8
AM_5
 48
0.0062488909819698
100
AcDbCircle
 10
0.0000000000000008
 20
-2.479625
 30
0.0
 40
0.1562500000000004
100
AcDbArc
 50
75.0000000000002
 51
15.00000000000022
  0
ENDBLK
  5
8C
330
89
100
AcDbEntity
  8
0
100
AcDbBlockEnd
  0
BLOCK
  5
D4
330
D2
100
AcDbEntity
  8
0
100
AcDbBlockBegin
  2
2_070016i_0_in_070600_4
 70
     2
 10
0.0
 20
0.0
 30
0.0
  3
2_070016i_0_in_070600_4
  1

  0
ATTDEF
  5
D6
330
D2
100
AcDbEntity
  8
AM_6
100
AcDbText
 10
6.5748
 20
-0.2343749999999993
 30
0.0
 40
0.5
  1
S-2000 Insert -Inch
100
AcDbAttributeDefinition
  3

  2
NN
 70
     8
280
     0
  0
ATTDEF
  5
D7
330
D2
100
AcDbEntity
  8
AM_6
100
AcDbText
 10
6.5748
 20
-0.7343749999999993
 30
0.0
 40
0.5
  1
S-2000 Bearings
100
AcDbAttributeDefinition
  3

  2
NT
 70
     8
280
     0
  0
ATTDEF
  5
D8
330
D2
100
AcDbEntity
  8
AM_6
100
AcDbText
 10
6.5748
 20
-1.234374999999999
 30
0.0
 40
0.5
  1
070016i
100
AcDbAttributeDefinition
  3

  2
NB
 70
     8
280
     0
  0
ATTDEF
  5
D9
330
D2
100
AcDbEntity
  8
AM_6
100
AcDbText
 10
6.5748
 20
-1.734374999999999
 30
0.0
 40
0.5
  1
$PN.i
100
AcDbAttributeDefinition
  3

  2
NBSYN
 70
     8
280
     0
  0
ATTDEF
  5
DA
330
D2
100
AcDbEntity
  8
AM_6
100
AcDbText
 10
6.5748
 20
-2.234374999999999
 30
0.0
 40
0.5
  1
070016i
100
AcDbAttributeDefinition
  3

  2
LINA
 70
     8
280
     0
  0
ATTDEF
  5
DB
330
D2
100
AcDbEntity
  8
AM_6
100
AcDbText
 10
6.5748
 20
-2.734374999999999
 30
0.0
 40
0.5
  1
1-3/8
100
AcDbAttributeDefinition
  3

  2
SS
 70
     8
280
     0
  0
ATTDEF
  5
DC
330
D2
100
AcDbEntity
  8
AM_6
100
AcDbText
 10
6.5748
 20
-3.234374999999999
 30
0.0
 40
0.5
  1
1.75
100
AcDbAttributeDefinition
  3

  2
CC
 70
     8
280
     0
  0
ATTDEF
  5
DD
330
D2
100
AcDbEntity
  8
AM_6
100
AcDbText
 10
6.5748
 20
-3.734374999999999
 30
0.0
 40
0.5
  1
1.375000
100
AcDbAttributeDefinition
  3

  2
SS1
 70
     8
280
     0
  0
ATTDEF
  5
DE
330
D2
100
AcDbEntity
  8
AM_6
100
AcDbText
 10
6.5748
 20
-4.234374999999999
 30
0.0
 40
0.5
  1
070016
100
AcDbAttributeDefinition
  3

  2
PN
 70
     8
280
     0
  0
ATTDEF
  5
DF
330
D2
100
AcDbEntity
  8
AM_6
100
AcDbText
 10
6.5748
 20
-4.734374999999999
 30
0.0
 40
0.5
  1
INS-S2-106L
100
AcDbAttributeDefinition
  3

  2
DESCRIPTION
 70
     8
280
     0
  0
ATTDEF
  5
E0
330
D2
100
AcDbEntity
  8
AM_6
100
AcDbText
 10
6.5748
 20
-5.234374999999999
 30
0.0
 40
0.5
  1
Labyrinth Seal
100
AcDbAttributeDefinition
  3

  2
ST
 70
     8
280
     0
  0
ATTDEF
  5
E1
330
D2
100
AcDbEntity
  8
AM_6
100
AcDbText
 10
6.5748
 20
-5.734374999999999
 30
0.0
 40
0.5
  1
2
100
AcDbAttributeDefinition
  3

  2
ST1
 70
     8
280
     0
  0
ATTDEF
  5
E2
330
D2
100
AcDbEntity
  8
AM_6
100
AcDbText
 10
6.5748
 20
-6.234374999999999
 30
0.0
 40
0.5
  1
3.1496
100
AcDbAttributeDefinition
  3

  2
A
 70
     8
280
     0
  0
ATTDEF
  5
E3
330
D2
100
AcDbEntity
  8
AM_6
100
AcDbText
 10
6.5748
 20
-6.734374999999999
 30
0.0
 40
0.5
  1
61/64
100
AcDbAttributeDefinition
  3

  2
B
 70
     8
280
     0
  0
ATTDEF
  5
E4
330
D2
100
AcDbEntity
  8
AM_6
100
AcDbText
 10
6.5748
 20
-7.234374999999999
 30
0.0
 40
0.5
  1
2-17/32
100
AcDbAttributeDefinition
  3

  2
C
 70
     8
280
     0
  0
ATTDEF
  5
E5
330
D2
100
AcDbEntity
  8
AM_6
100
AcDbText
 10
6.5748
 20
-7.734374999999999
 30
0.0
 40
0.5
  1
0.970
100
AcDbAttributeDefinition
  3

  2
D
 70
     8
280
     0
  0
ATTDEF
  5
E6
330
D2
100
AcDbEntity
  8
AM_6
100
AcDbText
 10
6.5748
 20
-8.234375
 30
0.0
 40
0.5
  1
2-21/32
100
AcDbAttributeDefinition
  3

  2
E
 70
     8
280
     0
  0
ATTDEF
  5
E7
330
D2
100
AcDbEntity
  8
AM_6
100
AcDbText
 10
6.5748
 20
-8.734375
 30
0.0
 40
0.5
  1
0.28125
100
AcDbAttributeDefinition
  3

  2
F
 70
     8
280
     0
  0
ATTDEF
  5
E8
330
D2
100
AcDbEntity
  8
AM_6
100
AcDbText
 10
6.5748
 20
-9.234375
 30
0.0
 40
0.5
  1
1
100
AcDbAttributeDefinition
  3

  2
DD
 70
     8
280
     0
  0
ATTDEF
  5
E9
330
D2
100
AcDbEntity
  8
AM_6
100
AcDbText
 10
6.5748
 20
-9.734375
 30
0.0
 40
0.5
  1
baldor
100
AcDbAttributeDefinition
  3

  2
COMPANY
 70
     8
280
     0
  0
LINE
  5
EA
330
D2
100
AcDbEntity
  8
AM_9
 48
0.0093875642212366
100
AcDbLine
 10
0.7930193136570688
 20
-2.304625
 30
0.0
 11
0.6229459015173856
 21
-2.304625
 31
0.0
  0
LINE
  5
EB
330
D2
100
AcDbEntity
  8
AM_9
 48
0.0093875642212366
100
AcDbLine
 10
0.6229849538169663
 20
-2.654624999999999
 30
0.0
 11
0.7930193136570688
 21
-2.654624999999999
 31
0.0
  0
LWPOLYLINE
  5
EC
330
D2
100
AcDbEntity
  8
AM_9
 48
0.0093875642212366
100
AcDbPolyline
 90
       21
 70
     0
 43
0.0
 10
0.6230907166066713
 20
-2.304625000270626
 10
0.6154539171987957
 20
-2.305510102187597
 10
0.6023857528924138
 20
-2.310716156986291
 10
0.5889391334585077
 20
-2.320378611047525
 10
0.5755035419285512
 20
-2.334412587145197
 10
0.5627736131266067
 20
-2.352302334083305
 10
0.5510384174425011
 20
-2.374271411749723
 10
0.5412553857895267
 20
-2.399244451530553
 10
0.5339815607316973
 20
-2.426741255270023
 10
0.5296773192229979
 20
-2.455827557749883
 10
0.5286722522145894
 20
-2.484833211278105
 10
0.5308092638795541
 20
-2.513687658453168
 10
0.5358957265986812
 20
-2.541077481393561
 10
0.5435874406197756
 20
-2.566788838131698
 10
0.5537158955772395
 20
-2.590583910805749
 10
0.5655848206720885
 20
-2.611349570732798
 10
0.5789849594331659
 20
-2.628908737341341
 10
0.5929794474372374
 20
-2.64222669151855
 10
0.6068388156211089
 20
-2.65078535805238
 10
0.620120950763674
 20
-2.654487249602311
 10
0.6230785313583304
 20
-2.654624998957692
  0
LWPOLYLINE
  5
ED
330
D2
100
AcDbEntity
  8
AM_9
 48
0.0093875642212366
100
AcDbPolyline
 90
       11
 70
     0
 43
0.0
 10
0.6230785313583304
 20
-2.654624998957692
 10
0.632003828809537
 20
-2.653235910777273
 10
0.6425842158433244
 20
-2.647316111265947
 10
0.6515914868639182
 20
-2.636927197712609
 10
0.6590606869695635
 20
-2.622414342620553
 10
0.6651326845556785
 20
-2.603626720563685
 10
0.6697427684753543
 20
-2.581421700111584
 10
0.6730839860446806
 20
-2.555820236424668
 10
0.6752342084595496
 20
-2.527958738418464
 10
0.6762037684880744
 20
-2.504043546855925
 10
0.6765208317995258
 20
-2.479625
  0
LWPOLYLINE
  5
EE
330
D2
100
AcDbEntity
  8
AM_9
 48
0.0093875642212366
100
AcDbPolyline
 90
       12
 70
     0
 43
0.0
 10
0.7030388740481559
 20
-2.479625
 10
0.7031488412056724
 20
-2.472202619515724
 10
0.7053537123622444
 20
-2.443246299982172
 10
0.7103410004874524
 20
-2.415604881077245
 10
0.71780160596905
 20
-2.389731953035973
 10
0.7275265854056008
 20
-2.366056828961354
 10
0.7389276607615785
 20
-2.345523441083623
 10
0.7516995431098569
 20
-2.328499165800636
 10
0.7651035290438946
 20
-2.315759317136913
 10
0.778506868368647
 20
-2.307781957917508
 10
0.7914944731133704
 20
-2.304661873539867
 10
0.7930122681686316
 20
-2.304625000794035
  0
LWPOLYLINE
  5
EF
330
D2
100
AcDbEntity
  8
AM_9
 48
0.0093875642212366
100
AcDbPolyline
 90
       11
 70
     0
 43
0.0
 10
0.7930247244954997
 20
-2.654624999531642
 10
0.7849815524877767
 20
-2.653634250110168
 10
0.7720043627319285
 20
-2.648176802629401
 10
0.7588537259845938
 20
-2.638161892920984
 10
0.7459385409416209
 20
-2.62371978810897
 10
0.7338680874904211
 20
-2.605360313404188
 10
0.7230111612029961
 20
-2.583119122232558
 10
0.7140912853022714
 20
-2.557933892580933
 10
0.7075953945805852
 20
-2.530397001484435
 10
0.703862058224558
 20
-2.501371589325063
 10
0.7030388740481559
 20
-2.479625
  0
LWPOLYLINE
  5
F0
330
D2
100
AcDbEntity
  8
AM_9
 48
0.0093875642212366
100
AcDbPolyline
 90
        4
 70
     0
 43
0.0
 10
0.8486074808928952
 20
-2.422273624314145
 10
0.8496114301734715
 20
-2.435773241540443
 10
0.8506205581362318
 20
-2.457516237387562
 10
0.8509552656574008
 20
-2.479625
  0
LWPOLYLINE
  5
F1
330
D2
100
AcDbEntity
  8
AM_9
 48
0.0093875642212366
100
AcDbPolyline
 90
        9
 70
     0
 43
0.0
 10
0.7930122681686316
 20
-2.304625000794035
 10
0.8034142530491275
 20
-2.306496181899809
 10
0.8142105153691914
 20
-2.313060256493086
 10
0.8236272715288725
 20
-2.324187638645026
 10
0.8316140011210179
 20
-2.339505902679899
 10
0.8382203074714916
 20
-2.358985669136524
 10
0.843368591259637
 20
-2.381832225996138
 10
0.8471523448240237
 20
-2.407755209615527
 10
0.8486074808928952
 20
-2.422273624314145
  0
LWPOLYLINE
  5
F2
330
D2
100
AcDbEntity
  8
AM_9
 48
0.0093875642212366
100
AcDbPolyline
 90
       11
 70
     0
 43
0.0
 10
0.6765208317995258
 20
-2.479625
 10
0.676076469770661
 20
-2.450785328972925
 10
0.6747081823139223
 20
-2.422772056000256
 10
0.6723234939724742
 20
-2.39641576172107
 10
0.6687886171980337
 20
-2.372348127666413
 10
0.6638210562637935
 20
-2.350810624070116
 10
0.6573458617880998
 20
-2.332847945927336
 10
0.6491020766928024
 20
-2.318831992050901
 10
0.6391905110765254
 20
-2.309421123598151
 10
0.6279444062108827
 20
-2.305037750026674
 10
0.6230907166066713
 20
-2.304625000270626
  0
LINE
  5
F3
330
D2
100
AcDbEntity
  8
AM_9
 48
0.0093875642212366
100
AcDbLine
 10
-0.6875
 20
-0.2343749999999999
 30
0.0
 11
-0.6875
 21
-2.765625
 31
0.0
  0
LINE
  5
F4
330
D2
100
AcDbEntity
  8
AM_9
 48
0.0093875642212366
100
AcDbLine
 10
0.6875
 20
-2.765625
 30
0.0
 11
0.6875
 21
-0.2343749999999993
 31
0.0
  0
LINE
  5
F5
330
D2
100
AcDbEntity
  8
AM_9
 48
0.0093875642212366
100
AcDbLine
 10
-0.8749999999999998
 20
-0.2343749999999999
 30
0.0
 11
-0.8749999999999998
 21
-0.496375
 31
0.0
  0
LINE
  5
F6
330
D2
100
AcDbEntity
  8
AM_9
 48
0.0093875642212366
100
AcDbLine
 10
0.8749999999999998
 20
-0.496375
 30
0.0
 11
0.8749999999999998
 21
-0.2343749999999999
 31
0.0
  0
LINE
  5
F7
330
D2
100
AcDbEntity
  8
AM_9
 48
0.0093875642212366
100
AcDbLine
 10
0.8749999999999998
 20
-0.2343749999999999
 30
0.0
 11
-0.8750000000000001
 21
-0.2343749999999999
 31
0.0
  0
LWPOLYLINE
  5
F8
330
D2
100
AcDbEntity
  8
AM_9
 48
0.0093875642212366
100
AcDbPolyline
 90
        9
 70
     0
 43
0.0
 10
0.84838865581709
 20
-2.539452650504077
 10
0.8456192523119058
 20
-2.563454225665774
 10
0.8413178797673186
 20
-2.587690253459151
 10
0.8355320844920221
 20
-2.609169332920276
 10
0.8282602267600404
 20
-2.627031101515195
 10
0.8193753238744717
 20
-2.640827793243252
 10
0.8090239747715557
 20
-2.650035875531932
 10
0.7975024913051677
 20
-2.654274912038659
 10
0.7930247244954997
 20
-2.654624999531642
  0
LWPOLYLINE
  5
F9
330
D2
100
AcDbEntity
  8
AM_9
 48
0.0093875642212366
100
AcDbPolyline
 90
        4
 70
     0
 43
0.0
 10
0.8509552656574008
 20
-2.479625
 10
0.8503737437642723
 20
-2.508671420180066
 10
0.8486148279813389
 20
-2.536890970978669
 10
0.84838865581709
 20
-2.539452650504077
  0
LWPOLYLINE
  5
FA
330
D2
100
AcDbEntity
  8
AM_9
 48
0.0093875642212366
100
AcDbPolyline
 90
       21
 70
     0
 43
0.0
 10
-0.175
 20
-2.479625
 10
-0.1748600759874842
 20
-2.472628298945128
 10
-0.1711770726032341
 20
-2.443246299982172
 10
-0.163013738457876
 20
-2.415973440129191
 10
-0.1501473946078427
 20
-2.389731953035973
 10
-0.1333976286850203
 20
-2.366355089338724
 10
-0.112435634458998
 20
-2.345523441083623
 10
-0.0885840230115928
 20
-2.328701605964875
 10
-0.0614250598682178
 20
-2.315759317136913
 10
-0.0334259536254984
 20
-2.3078469291521
 10
-0.0035922665958046
 20
-2.304661873539867
 10
0.0249901254897451
 20
-2.306418494267661
 10
0.0536766822789571
 20
-2.313060256493086
 10
0.0800168757917087
 20
-2.323989851050496
 10
0.1048410156675335
 20
-2.339505902679899
 10
0.1264771175734512
 20
-2.358676503811286
 10
0.145126060211905
 20
-2.381832225996138
 10
0.1593777084172978
 20
-2.407349512733218
 10
0.1694167148778557
 20
-2.435773241540443
 10
0.1735742243622948
 20
-2.457331758041331
 10
0.1749999999999999
 20
-2.479625
  0
LWPOLYLINE
  5
FB
330
D2
100
AcDbEntity
  8
AM_9
 48
0.0093875642212366
100
AcDbPolyline
 90
       20
 70
     0
 43
0.0
 10
0.1749999999999999
 20
-2.479625
 10
0.1726416871499104
 20
-2.508257985489335
 10
0.1653650766270503
 20
-2.536890970978669
 10
0.1538048032266742
 20
-2.56310603080583
 10
0.1376477424254004
 20
-2.587690253459151
 10
0.1179502270883829
 20
-2.608902778174746
 10
0.0943209480237126
 20
-2.627031101515195
 10
0.0684713867126894
 20
-2.640673654765078
 10
0.0398137350727158
 20
-2.650035875531932
 10
0.0111991665082559
 20
-2.65426628569591
 10
-0.0185951842178816
 20
-2.653634250110168
 10
-0.0466144536743006
 20
-2.648302481332412
 10
-0.0741016435914893
 20
-2.638161892920984
 10
-0.0989564048021199
 20
-2.623960130680784
 10
-0.1217194765152663
 20
-2.605360313404188
 10
-0.1408595943941622
 20
-2.583468991964447
 10
-0.1565014931006983
 20
-2.557933892580933
 10
-0.1673427581485306
 20
-2.530824622022456
 10
-0.1736435597790112
 20
-2.501371589325063
 10
-0.175
 20
-2.479625
  0
LINE
  5
FC
330
D2
100
AcDbEntity
  8
AM_9
 48
0.0093875642212366
100
AcDbLine
 10
-0.8750000000000001
 20
-2.193625
 30
0.0
 11
-0.8750000000000001
 21
-2.765625
 31
0.0
  0
LINE
  5
FD
330
D2
100
AcDbEntity
  8
AM_9
 48
0.0093875642212366
100
AcDbLine
 10
0.8750000000000001
 20
-2.765625
 30
0.0
 11
0.8750000000000001
 21
-2.193625
 31
0.0
  0
LINE
  5
FE
330
D2
100
AcDbEntity
  8
AM_9
 48
0.0093875642212366
100
AcDbLine
 10
-1.25984
 20
-1.6809375
 30
0.0
 11
-1.25984
 21
-1.78125
 31
0.0
  0
LINE
  5
FF
330
D2
100
AcDbEntity
  8
AM_9
 48
0.0093875642212366
100
AcDbLine
 10
1.25984
 20
-1.78125
 30
0.0
 11
1.25984
 21
-1.6809375
 31
0.0
  0
LINE
  5
100
330
D2
100
AcDbEntity
  8
AM_9
 48
0.0093875642212366
100
AcDbLine
 10
1.1645275
 20
-0.496375
 30
0.0
 11
-1.1645275
 21
-0.496375
 31
0.0
  0
ARC
  5
101
330
D2
100
AcDbEntity
  8
AM_9
 48
0.0093875642212366
100
AcDbCircle
 10
-1.1645275
 20
-0.5916875
 30
0.0
 40
0.0953125000000001
100
AcDbArc
 50
90.0
 51
179.9999999999999
  0
ARC
  5
102
330
D2
100
AcDbEntity
  8
AM_9
 48
0.0093875642212366
100
AcDbCircle
 10
1.1645275
 20
-0.5916875
 30
0.0
 40
0.0953125000000001
100
AcDbArc
 50
0.0000000000000667
 51
89.99999999999987
  0
LINE
  5
103
330
D2
100
AcDbEntity
  8
AM_9
 48
0.0093875642212366
100
AcDbLine
 10
-1.25984
 20
-0.5916874999999999
 30
0.0
 11
-1.25984
 21
-0.7278125000000001
 31
0.0
  0
LINE
  5
104
330
D2
100
AcDbEntity
  8
AM_9
 48
0.0093875642212366
100
AcDbLine
 10
1.25984
 20
-0.7278125000000001
 30
0.0
 11
1.25984
 21
-0.5916874999999999
 31
0.0
  0
LINE
  5
105
330
D2
100
AcDbEntity
  8
AM_9
 48
0.0093875642212366
100
AcDbLine
 10
1.25984
 20
-0.5916874999999999
 30
0.0
 11
-1.25984
 21
-0.5916874999999999
 31
0.0
  0
LINE
  5
106
330
D2
100
AcDbEntity
  8
AM_9
 48
0.0093875642212366
100
AcDbLine
 10
-1.511808
 20
-1.156718750000001
 30
0.0
 11
-1.511808
 21
-1.252031249999999
 31
0.0
  0
LINE
  5
107
330
D2
100
AcDbEntity
  8
AM_9
 48
0.0093875642212366
100
AcDbLine
 10
1.511808
 20
-1.252031249999999
 30
0.0
 11
1.511808
 21
-1.156718750000001
 31
0.0
  0
LINE
  5
108
330
D2
100
AcDbEntity
  8
AM_9
 48
0.0093875642212366
100
AcDbLine
 10
-1.511808
 20
-1.252031249999999
 30
0.0
 11
-1.5748
 21
-1.288399698156792
 31
0.0
  0
LINE
  5
109
330
D2
100
AcDbEntity
  8
AM_9
 48
0.0093875642212366
100
AcDbLine
 10
1.5748
 20
-1.288399698156792
 30
0.0
 11
1.511808
 21
-1.252031249999999
 31
0.0
  0
LINE
  5
10A
330
D2
100
AcDbEntity
  8
AM_9
 48
0.0093875642212366
100
AcDbLine
 10
1.511808
 20
-1.252031249999999
 30
0.0
 11
-1.511808
 21
-1.252031249999999
 31
0.0
  0
LINE
  5
10B
330
D2
100
AcDbEntity
  8
AM_9
 48
0.0093875642212366
100
AcDbLine
 10
-1.5748
 20
-0.823125
 30
0.0
 11
-1.5748
 21
-1.120350301843208
 31
0.0
  0
LINE
  5
10C
330
D2
100
AcDbEntity
  8
AM_9
 48
0.0093875642212366
100
AcDbLine
 10
1.5748
 20
-1.120350301843208
 30
0.0
 11
1.5748
 21
-0.823125
 31
0.0
  0
LINE
  5
10D
330
D2
100
AcDbEntity
  8
AM_9
 48
0.0093875642212366
100
AcDbLine
 10
1.511808
 20
-1.156718750000001
 30
0.0
 11
1.5748
 21
-1.120350301843208
 31
0.0
  0
LINE
  5
10E
330
D2
100
AcDbEntity
  8
AM_9
 48
0.0093875642212366
100
AcDbLine
 10
-1.5748
 20
-1.120350301843208
 30
0.0
 11
-1.511808
 21
-1.156718750000001
 31
0.0
  0
LINE
  5
10F
330
D2
100
AcDbEntity
  8
AM_9
 48
0.0093875642212366
100
AcDbLine
 10
1.5748
 20
-1.120350301843208
 30
0.0
 11
-1.5748
 21
-1.120350301843208
 31
0.0
  0
LINE
  5
110
330
D2
100
AcDbEntity
  8
AM_9
 48
0.0093875642212366
100
AcDbLine
 10
1.511808
 20
-1.156718750000001
 30
0.0
 11
-1.511808
 21
-1.156718750000001
 31
0.0
  0
LINE
  5
111
330
D2
100
AcDbEntity
  8
AM_9
 48
0.0093875642212366
100
AcDbLine
 10
1.4794875
 20
-0.7278125000000003
 30
0.0
 11
-1.4794875
 21
-0.7278125000000003
 31
0.0
  0
ARC
  5
112
330
D2
100
AcDbEntity
  8
AM_9
 48
0.0093875642212366
100
AcDbCircle
 10
-1.4794875
 20
-0.8231249999999998
 30
0.0
 40
0.0953124999999995
100
AcDbArc
 50
90.00000000000016
 51
180.0000000000002
  0
ARC
  5
113
330
D2
100
AcDbEntity
  8
AM_9
 48
0.0093875642212366
100
AcDbCircle
 10
1.4794875
 20
-0.8231249999999999
 30
0.0
 40
0.0953124999999997
100
AcDbArc
 50
359.9999999999999
 51
89.99999999999987
  0
LINE
  5
114
330
D2
100
AcDbEntity
  8
AM_9
 48
0.0093875642212366
100
AcDbLine
 10
1.5748
 20
-0.823125
 30
0.0
 11
-1.5748
 21
-0.823125
 31
0.0
  0
LINE
  5
115
330
D2
100
AcDbEntity
  8
AM_9
 48
0.0093875642212366
100
AcDbLine
 10
1.4794875
 20
-1.6809375
 30
0.0
 11
-1.4794875
 21
-1.6809375
 31
0.0
  0
ARC
  5
116
330
D2
100
AcDbEntity
  8
AM_9
 48
0.0093875642212366
100
AcDbCircle
 10
-1.4794875
 20
-1.585625
 30
0.0
 40
0.0953124999999999
100
AcDbArc
 50
179.9999999999998
 51
270.0
  0
ARC
  5
117
330
D2
100
AcDbEntity
  8
AM_9
 48
0.0093875642212366
100
AcDbCircle
 10
1.4794875
 20
-1.585625
 30
0.0
 40
0.0953124999999999
100
AcDbArc
 50
270.0
 51
0.0000000000001335
  0
LINE
  5
118
330
D2
100
AcDbEntity
  8
AM_9
 48
0.0093875642212366
100
AcDbLine
 10
-1.5748
 20
-1.288399698156792
 30
0.0
 11
-1.5748
 21
-1.585625
 31
0.0
  0
LINE
  5
119
330
D2
100
AcDbEntity
  8
AM_9
 48
0.0093875642212366
100
AcDbLine
 10
1.5748
 20
-1.585625
 30
0.0
 11
1.5748
 21
-1.288399698156792
 31
0.0
  0
LINE
  5
11A
330
D2
100
AcDbEntity
  8
AM_9
 48
0.0093875642212366
100
AcDbLine
 10
1.5748
 20
-1.288399698156792
 30
0.0
 11
-1.5748
 21
-1.288399698156792
 31
0.0
  0
LINE
  5
11B
330
D2
100
AcDbEntity
  8
AM_9
 48
0.0093875642212366
100
AcDbLine
 10
1.5748
 20
-1.585625
 30
0.0
 11
-1.5748
 21
-1.585625
 31
0.0
  0
LINE
  5
11C
330
D2
100
AcDbEntity
  8
AM_0
 48
0.0093875642212366
100
AcDbLine
 10
-0.8750000000000001
 20
-1.912375
 30
0.0
 11
-0.8750000000000001
 21
-2.193625
 31
0.0
  0
LINE
  5
11D
330
D2
100
AcDbEntity
  8
AM_0
 48
0.0093875642212366
100
AcDbLine
 10
0.8750000000000001
 20
-2.193625
 30
0.0
 11
0.8750000000000001
 21
-1.912375
 31
0.0
  0
LINE
  5
11E
330
D2
100
AcDbEntity
  8
AM_0
 48
0.0093875642212366
100
AcDbLine
 10
-1.25984
 20
-1.78125
 30
0.0
 11
-1.25984
 21
-1.8170625
 31
0.0
  0
LINE
  5
11F
330
D2
100
AcDbEntity
  8
AM_0
 48
0.0093875642212366
100
AcDbLine
 10
1.25984
 20
-1.8170625
 30
0.0
 11
1.25984
 21
-1.78125
 31
0.0
  0
LINE
  5
120
330
D2
100
AcDbEntity
  8
AM_0
 48
0.0093875642212366
100
AcDbLine
 10
1.1645275
 20
-1.912375
 30
0.0
 11
-1.1645275
 21
-1.912375
 31
0.0
  0
ARC
  5
121
330
D2
100
AcDbEntity
  8
AM_0
 48
0.0093875642212366
100
AcDbCircle
 10
-1.1645275
 20
-1.8170625
 30
0.0
 40
0.0953125000000004
100
AcDbArc
 50
180.0000000000002
 51
269.9999999999997
  0
ARC
  5
122
330
D2
100
AcDbEntity
  8
AM_0
 48
0.0093875642212366
100
AcDbCircle
 10
1.1645275
 20
-1.8170625
 30
0.0
 40
0.0953125000000004
100
AcDbArc
 50
270.0000000000002
 51
359.9999999999998
  0
LINE
  5
123
330
D2
100
AcDbEntity
  8
AM_4
 48
0.0093875642212366
100
AcDbLine
 10
1.25984
 20
-1.8170625
 30
0.0
 11
-1.25984
 21
-1.8170625
 31
0.0
  0
ENDBLK
  5
D5
330
D2
100
AcDbEntity
  8
0
100
AcDbBlockEnd
  0
BLOCK
  5
126
330
124
100
AcDbEntity
  8
0
100
AcDbBlockBegin
  2
3_405015E_Inch_0_in_070600_4
 70
     2
 10
0.0
 20
0.0
 30
0.0
  3
3_405015E_Inch_0_in_070600_4
  1

  0
ATTDEF
  5
128
330
124
100
AcDbEntity
  8
AM_6
100
AcDbText
 10
5.21875
 20
-0.8880342572295385
 30
0.0
 40
0.5
  1
405015E -Inch
100
AcDbAttributeDefinition
  3

  2
NN
 70
     8
280
     0
  0
ATTDEF
  5
129
330
124
100
AcDbEntity
  8
AM_6
100
AcDbText
 10
5.21875
 20
-1.388034257229539
 30
0.0
 40
0.5
  1
Grease Fitting
100
AcDbAttributeDefinition
  3

  2
NT
 70
     8
280
     0
  0
ATTDEF
  5
12A
330
124
100
AcDbEntity
  8
AM_6
100
AcDbText
 10
5.21875
 20
-1.888034257229539
 30
0.0
 40
0.5
  1
405015E-Inch
100
AcDbAttributeDefinition
  3

  2
NB
 70
     8
280
     0
  0
ATTDEF
  5
12B
330
124
100
AcDbEntity
  8
AM_6
100
AcDbText
 10
5.21875
 20
-2.388034257229538
 30
0.0
 40
0.5
  1
$MN.-Inch
100
AcDbAttributeDefinition
  3

  2
NBSYN
 70
     8
280
     0
  0
ATTDEF
  5
12C
330
124
100
AcDbEntity
  8
AM_6
100
AcDbText
 10
5.21875
 20
-2.888034257229538
 30
0.0
 40
0.5
  1
405015E
100
AcDbAttributeDefinition
  3

  2
LINA
 70
     8
280
     0
  0
ATTDEF
  5
12D
330
124
100
AcDbEntity
  8
AM_6
100
AcDbText
 10
5.21875
 20
-3.388034257229538
 30
0.0
 40
0.5
  1
405015E
100
AcDbAttributeDefinition
  3

  2
MN
 70
     8
280
     0
  0
ATTDEF
  5
12E
330
124
100
AcDbEntity
  8
AM_6
100
AcDbText
 10
5.21875
 20
-3.888034257229538
 30
0.0
 40
0.5
  1
1/8 x 27PTF
100
AcDbAttributeDefinition
  3

  2
T
 70
     8
280
     0
  0
ATTDEF
  5
12F
330
124
100
AcDbEntity
  8
AM_6
100
AcDbText
 10
5.21875
 20
-4.388034257229538
 30
0.0
 40
0.5
  1
baldor
100
AcDbAttributeDefinition
  3

  2
COMPANY
 70
     8
280
     0
  0
CIRCLE
  5
130
330
124
100
AcDbEntity
  8
AM_9
 48
0.0013723137443621
100
AcDbCircle
 10
0.0
 20
-1.140625
 30
0.0
 40
0.161902872472269
  0
CIRCLE
  5
131
330
124
100
AcDbEntity
  8
AM_9
 48
0.0013723137443621
100
AcDbCircle
 10
0.0
 20
-1.140625
 30
0.0
 40
0.1986176267812154
  0
CIRCLE
  5
132
330
124
100
AcDbEntity
  8
AM_9
 48
0.0013723137443621
100
AcDbCircle
 10
0.0
 20
-1.140625
 30
0.0
 40
0.2057518972230696
  0
CIRCLE
  5
133
330
124
100
AcDbEntity
  8
AM_9
 48
0.0013723137443621
100
AcDbCircle
 10
0.0
 20
-1.140625
 30
0.0
 40
0.1188200907348975
  0
CIRCLE
  5
134
330
124
100
AcDbEntity
  8
AM_9
 48
0.0013723137443621
100
AcDbCircle
 10
0.0
 20
-1.140625
 30
0.0
 40
0.105
  0
LINE
  5
135
330
124
100
AcDbEntity
  8
AM_0
 48
0.0013723137443621
100
AcDbLine
 10
0.0
 20
-1.393215742770461
 30
0.0
 11
0.21875
 21
-1.266920371385231
 31
0.0
  0
LINE
  5
136
330
124
100
AcDbEntity
  8
AM_0
 48
0.0013723137443621
100
AcDbLine
 10
0.21875
 20
-1.266920371385231
 30
0.0
 11
0.21875
 21
-1.014329628614769
 31
0.0
  0
LINE
  5
137
330
124
100
AcDbEntity
  8
AM_0
 48
0.0013723137443621
100
AcDbLine
 10
-0.21875
 20
-1.014329628614769
 30
0.0
 11
-0.21875
 21
-1.266920371385231
 31
0.0
  0
LINE
  5
138
330
124
100
AcDbEntity
  8
AM_0
 48
0.0013723137443621
100
AcDbLine
 10
-0.21875
 20
-1.266920371385231
 30
0.0
 11
0.0
 21
-1.393215742770461
 31
0.0
  0
LINE
  5
139
330
124
100
AcDbEntity
  8
AM_0
 48
0.0013723137443621
100
AcDbLine
 10
0.0
 20
-0.8880342572295385
 30
0.0
 11
-0.21875
 21
-1.014329628614769
 31
0.0
  0
LINE
  5
13A
330
124
100
AcDbEntity
  8
AM_0
 48
0.0013723137443621
100
AcDbLine
 10
0.21875
 20
-1.014329628614769
 30
0.0
 11
0.0
 21
-0.8880342572295385
 31
0.0
  0
CIRCLE
  5
13B
330
124
100
AcDbEntity
  8
AM_0
 48
0.0013723137443621
100
AcDbCircle
 10
0.0
 20
-1.140625
 30
0.0
 40
0.21375
  0
CIRCLE
  5
13C
330
124
100
AcDbEntity
  8
AM_0
 48
0.0013723137443621
100
AcDbCircle
 10
0.0
 20
-1.140625
 30
0.0
 40
0.1725340532830154
  0
CIRCLE
  5
13D
330
124
100
AcDbEntity
  8
AM_0
 48
0.0013723137443621
100
AcDbCircle
 10
0.0
 20
-1.140625
 30
0.0
 40
0.1026779019331875
  0
CIRCLE
  5
13E
330
124
100
AcDbEntity
  8
AM_0
 48
0.0013723137443621
100
AcDbCircle
 10
0.0
 20
-1.140625
 30
0.0
 40
0.135
  0
ARC
  5
13F
330
124
100
AcDbEntity
  8
AM_5
 48
0.0013723137443621
100
AcDbCircle
 10
-0.0000000000000001
 20
-1.140625
 30
0.0
 40
0.2025000049999998
100
AcDbArc
 50
75.0
 51
14.99999999999994
  0
CIRCLE
  5
140
330
124
100
AcDbEntity
  8
AM_0
 48
0.0013723137443621
100
AcDbCircle
 10
0.0
 20
-1.140624999999999
 30
0.0
 40
0.2187499999999994
  0
ENDBLK
  5
127
330
124
100
AcDbEntity
  8
0
100
AcDbBlockEnd
  0
BLOCK
  5
143
330
141
100
AcDbEntity
  8
0
100
AcDbBlockBegin
  2
4_070600H_0_in_070600_4
 70
     2
 10
0.0
 20
0.0
 30
0.0
  3
4_070600H_0_in_070600_4
  1

  0
ATTDEF
  5
145
330
141
100
AcDbEntity
  8
AM_6
100
AcDbText
 10
7.375
 20
0.0890625
 30
0.0
 40
0.5
  1
F4S-S2 -(Labyrinth Seal)-Housing
100
AcDbAttributeDefinition
  3

  2
NN
 70
     8
280
     0
  0
ATTDEF
  5
146
330
141
100
AcDbEntity
  8
AM_6
100
AcDbText
 10
7.375
 20
-0.4109375
 30
0.0
 40
0.5
  1
S-2000 4 Bolt Square Flange Bearing -Inch
100
AcDbAttributeDefinition
  3

  2
NT
 70
     8
280
     0
  0
ATTDEF
  5
147
330
141
100
AcDbEntity
  8
AM_6
100
AcDbText
 10
7.375
 20
-0.9109375
 30
0.0
 40
0.5
  1
070600H
100
AcDbAttributeDefinition
  3

  2
NB
 70
     8
280
     0
  0
ATTDEF
  5
148
330
141
100
AcDbEntity
  8
AM_6
100
AcDbText
 10
7.375
 20
-1.4109375
 30
0.0
 40
0.5
  1
$PN.H
100
AcDbAttributeDefinition
  3

  2
NBSYN
 70
     8
280
     0
  0
ATTDEF
  5
149
330
141
100
AcDbEntity
  8
AM_6
100
AcDbText
 10
7.375
 20
-1.9109375
 30
0.0
 40
0.5
  1
070600
100
AcDbAttributeDefinition
  3

  2
LINA
 70
     8
280
     0
  0
ATTDEF
  5
14A
330
141
100
AcDbEntity
  8
AM_6
100
AcDbText
 10
7.375
 20
-2.4109375
 30
0.0
 40
0.5
  1
1-3/8
100
AcDbAttributeDefinition
  3

  2
SS
 70
     8
280
     0
  0
ATTDEF
  5
14B
330
141
100
AcDbEntity
  8
AM_6
100
AcDbText
 10
7.375
 20
-2.9109375
 30
0.0
 40
0.5
  1
070600
100
AcDbAttributeDefinition
  3

  2
PN
 70
     8
280
     0
  0
ATTDEF
  5
14C
330
141
100
AcDbEntity
  8
AM_6
100
AcDbText
 10
7.375
 20
-3.4109375
 30
0.0
 40
0.5
  1
F4S-S2-106L
100
AcDbAttributeDefinition
  3

  2
DESCRIPTION
 70
     8
280
     0
  0
ATTDEF
  5
14D
330
141
100
AcDbEntity
  8
AM_6
100
AcDbText
 10
7.375
 20
-3.9109375
 30
0.0
 40
0.5
  1
Non-Expansion Type
100
AcDbAttributeDefinition
  3

  2
EF
 70
     8
280
     0
  0
ATTDEF
  5
14E
330
141
100
AcDbEntity
  8
AM_6
100
AcDbText
 10
7.375
 20
-4.4109375
 30
0.0
 40
0.5
  1
2-17/32
100
AcDbAttributeDefinition
  3

  2
A
 70
     8
280
     0
  0
ATTDEF
  5
14F
330
141
100
AcDbEntity
  8
AM_6
100
AcDbText
 10
7.375
 20
-4.9109375
 30
0.0
 40
0.5
  1
4-3/4
100
AcDbAttributeDefinition
  3

  2
B
 70
     8
280
     0
  0
ATTDEF
  5
150
330
141
100
AcDbEntity
  8
AM_6
100
AcDbText
 10
7.375
 20
-5.4109375
 30
0.0
 40
0.5
  1
2-49/64
100
AcDbAttributeDefinition
  3

  2
C
 70
     8
280
     0
  0
ATTDEF
  5
151
330
141
100
AcDbEntity
  8
AM_6
100
AcDbText
 10
7.375
 20
-5.9109375
 30
0.0
 40
0.5
  1
1/2
100
AcDbAttributeDefinition
  3

  2
F
 70
     8
280
     0
  0
ATTDEF
  5
152
330
141
100
AcDbEntity
  8
AM_6
100
AcDbText
 10
7.375
 20
-6.4109375
 30
0.0
 40
0.5
  1
63/64
100
AcDbAttributeDefinition
  3

  2
G
 70
     8
280
     0
  0
ATTDEF
  5
153
330
141
100
AcDbEntity
  8
AM_6
100
AcDbText
 10
7.375
 20
-6.9109375
 30
0.0
 40
0.5
  1
1/2
100
AcDbAttributeDefinition
  3

  2
H
 70
     8
280
     0
  0
ATTDEF
  5
154
330
141
100
AcDbEntity
  8
AM_6
100
AcDbText
 10
7.375
 20
-7.4109375
 30
0.0
 40
0.5
  1
3-13/16
100
AcDbAttributeDefinition
  3

  2
J
 70
     8
280
     0
  0
ATTDEF
  5
155
330
141
100
AcDbEntity
  8
AM_6
100
AcDbText
 10
7.375
 20
-7.9109375
 30
0.0
 40
0.5
  1
5
100
AcDbAttributeDefinition
  3

  2
K
 70
     8
280
     0
  0
ATTDEF
  5
156
330
141
100
AcDbEntity
  8
AM_6
100
AcDbText
 10
7.375
 20
-8.4109375
 30
0.0
 40
0.5
  1
5.0000000
100
AcDbAttributeDefinition
  3

  2
K1
 70
     8
280
     0
  0
ATTDEF
  5
157
330
141
100
AcDbEntity
  8
AM_6
100
AcDbText
 10
7.375
 20
-8.9109375
 30
0.0
 40
0.5
  1
2-3/4
100
AcDbAttributeDefinition
  3

  2
L
 70
     8
280
     0
  0
ATTDEF
  5
158
330
141
100
AcDbEntity
  8
AM_6
100
AcDbText
 10
7.375
 20
-9.4109375
 30
0.0
 40
0.5
  1
2-31/64
100
AcDbAttributeDefinition
  3

  2
N
 70
     8
280
     0
  0
ATTDEF
  5
159
330
141
100
AcDbEntity
  8
AM_6
100
AcDbText
 10
7.375
 20
-9.9109375
 30
0.0
 40
0.5
  1
2.484375
100
AcDbAttributeDefinition
  3

  2
N1
 70
     8
280
     0
  0
ATTDEF
  5
15A
330
141
100
AcDbEntity
  8
AM_6
100
AcDbText
 10
7.375
 20
-10.4109375
 30
0.0
 40
0.5
  1
15/64
100
AcDbAttributeDefinition
  3

  2
P
 70
     8
280
     0
  0
ATTDEF
  5
15B
330
141
100
AcDbEntity
  8
AM_6
100
AcDbText
 10
7.375
 20
-10.9109375
 30
0.0
 40
0.5
  1
3/16
100
AcDbAttributeDefinition
  3

  2
X
 70
     8
280
     0
  0
ATTDEF
  5
15C
330
141
100
AcDbEntity
  8
AM_6
100
AcDbText
 10
7.375
 20
-11.4109375
 30
0.0
 40
0.5
  1
0.020
100
AcDbAttributeDefinition
  3

  2
Y
 70
     8
280
     0
  0
ATTDEF
  5
15D
330
141
100
AcDbEntity
  8
AM_6
100
AcDbText
 10
7.375
 20
-11.9109375
 30
0.0
 40
0.5
  1
1-51/64
100
AcDbAttributeDefinition
  3

  2
Z
 70
     8
280
     0
  0
ATTDEF
  5
15E
330
141
100
AcDbEntity
  8
AM_6
100
AcDbText
 10
7.375
 20
-12.4109375
 30
0.0
 40
0.5
  1
baldor
100
AcDbAttributeDefinition
  3

  2
COMPANY
 70
     8
280
     0
  0
LINE
  5
15F
330
141
100
AcDbEntity
  8
AM_9
 48
0.0137321507281994
100
AcDbLine
 10
1.858080320617826
 20
-0.4666666666666666
 30
0.0
 11
1.858080320617826
 21
-0.4999999999999999
 31
0.0
  0
LINE
  5
160
330
141
100
AcDbEntity
  8
AM_9
 48
0.0137321507281994
100
AcDbLine
 10
1.832960083827409
 20
-0.4666666666666667
 30
0.0
 11
1.832960083827409
 21
-0.5
 31
0.0
  0
LINE
  5
161
330
141
100
AcDbEntity
  8
AM_9
 48
0.0137321507281994
100
AcDbLine
 10
-1.858080320617826
 20
-0.4666666666666666
 30
0.0
 11
-1.858080320617826
 21
-0.4999999999999999
 31
0.0
  0
LINE
  5
162
330
141
100
AcDbEntity
  8
AM_9
 48
0.0137321507281994
100
AcDbLine
 10
-1.832960083827409
 20
-0.5
 30
0.0
 11
-1.832960083827409
 21
-0.4666666666666667
 31
0.0
  0
LINE
  5
163
330
141
100
AcDbEntity
  8
AM_9
 48
0.0137321507281994
100
AcDbLine
 10
-1.832960083827409
 20
-0.4666666666666667
 30
0.0
 11
-2.375
 21
-0.4666666666666666
 31
0.0
  0
LINE
  5
164
330
141
100
AcDbEntity
  8
AM_9
 48
0.0137321507281994
100
AcDbLine
 10
1.839523359902566
 20
-0.4666666666666667
 30
0.0
 11
1.839523359902566
 21
-0.5
 31
0.0
  0
LINE
  5
165
330
141
100
AcDbEntity
  8
AM_9
 48
0.0137321507281994
100
AcDbLine
 10
1.90625
 20
-0.4999999999999998
 30
0.0
 11
1.90625
 21
-0.4666666666666667
 31
0.0
  0
LINE
  5
166
330
141
100
AcDbEntity
  8
AM_9
 48
0.0137321507281994
100
AcDbLine
 10
-1.839523359902566
 20
-0.4666666666666667
 30
0.0
 11
-1.839523359902566
 21
-0.5
 31
0.0
  0
LINE
  5
167
330
141
100
AcDbEntity
  8
AM_9
 48
0.0137321507281994
100
AcDbLine
 10
-1.90625
 20
-0.4666666666666667
 30
0.0
 11
-1.90625
 21
-0.5
 31
0.0
  0
LINE
  5
168
330
141
100
AcDbEntity
  8
AM_9
 48
0.0137321507281994
100
AcDbLine
 10
2.321134716243308
 20
-0.4666666666666666
 30
0.0
 11
2.321134716243308
 21
-0.4999999999999999
 31
0.0
  0
LINE
  5
169
330
141
100
AcDbEntity
  8
AM_9
 48
0.0137321507281994
100
AcDbLine
 10
-2.321134716243308
 20
-0.4666666666666666
 30
0.0
 11
-2.321134716243308
 21
-0.4999999999999999
 31
0.0
  0
LINE
  5
16A
330
141
100
AcDbEntity
  8
AM_9
 48
0.0137321507281994
100
AcDbLine
 10
1.832960083827409
 20
-0.4666666666666667
 30
0.0
 11
2.375
 21
-0.4666666666666666
 31
0.0
  0
LINE
  5
16B
330
141
100
AcDbEntity
  8
AM_9
 48
0.0137321507281994
100
AcDbLine
 10
1.5748
 20
-1.78125
 30
0.0
 11
1.5748
 21
-0.0714285714285711
 31
0.0
  0
LINE
  5
16C
330
141
100
AcDbEntity
  8
AM_9
 48
0.0137321507281994
100
AcDbLine
 10
-1.5748
 20
-0.0714285714285711
 30
0.0
 11
-1.5748
 21
-1.78125
 31
0.0
  0
LINE
  5
16D
330
141
100
AcDbEntity
  8
AM_9
 48
0.0137321507281994
100
AcDbLine
 10
1.740525
 20
-0.0214285714285714
 30
0.0
 11
1.740525
 21
0.0
 31
0.0
  0
LINE
  5
16E
330
141
100
AcDbEntity
  8
AM_9
 48
0.0137321507281994
100
AcDbLine
 10
-1.740525
 20
0.0
 30
0.0
 11
-1.740525
 21
-0.0214285714285714
 31
0.0
  0
LINE
  5
16F
330
141
100
AcDbEntity
  8
AM_9
 48
0.0137321507281994
100
AcDbLine
 10
-1.690525
 20
-0.0714285714285714
 30
0.0
 11
1.690524999998644
 21
-0.0714285714285714
 31
0.0
  0
LINE
  5
170
330
141
100
AcDbEntity
  8
AM_9
 48
0.0137321507281994
100
AcDbLine
 10
-1.740525
 20
-0.0214285714285714
 30
0.0
 11
1.740525
 21
-0.0214285714285714
 31
0.0
  0
ARC
  5
171
330
141
100
AcDbEntity
  8
AM_9
 48
0.0137321507281994
100
AcDbCircle
 10
1.690525
 20
-0.0214285714285714
 30
0.0
 40
0.0500000000000001
100
AcDbArc
 50
269.9999999999998
 51
359.9999999999999
  0
ARC
  5
172
330
141
100
AcDbEntity
  8
AM_9
 48
0.0137321507281994
100
AcDbCircle
 10
-1.690525
 20
-0.0214285714285713
 30
0.0
 40
0.05
100
AcDbArc
 50
180.0000000000001
 51
270.0000000000002
  0
LINE
  5
173
330
141
100
AcDbEntity
  8
AM_9
 48
0.0137321507281994
100
AcDbLine
 10
-1.515625
 20
-0.4999999999999998
 30
0.0
 11
-1.515625
 21
0.0000000000000001
 31
0.0
  0
LINE
  5
174
330
141
100
AcDbEntity
  8
AM_9
 48
0.0137321507281994
100
AcDbLine
 10
-2.015625
 20
0.0000000000000001
 30
0.0
 11
-2.015625
 21
-0.4999999999999998
 31
0.0
  0
LINE
  5
175
330
141
100
AcDbEntity
  8
AM_9
 48
0.0137321507281994
100
AcDbLine
 10
2.015625
 20
-0.4999999999999998
 30
0.0
 11
2.015625
 21
0.0000000000000001
 31
0.0
  0
LINE
  5
176
330
141
100
AcDbEntity
  8
AM_9
 48
0.0137321507281994
100
AcDbLine
 10
1.515625
 20
0.0000000000000001
 30
0.0
 11
1.515625
 21
-0.4999999999999998
 31
0.0
  0
LINE
  5
177
330
141
100
AcDbEntity
  8
AM_7
 48
0.0137321507281994
100
AcDbLine
 10
1.765625
 20
0.0249999999999999
 30
0.0
 11
1.765625
 21
-0.5250000000000001
 31
0.0
  0
LINE
  5
178
330
141
100
AcDbEntity
  8
AM_7
 48
0.0137321507281994
100
AcDbLine
 10
-1.765625
 20
0.0249999999999999
 30
0.0
 11
-1.765625
 21
-0.5250000000000001
 31
0.0
  0
LINE
  5
179
330
141
100
AcDbEntity
  8
AM_7
 48
0.0137321507281994
100
AcDbLine
 10
0.0
 20
-2.8921875
 30
0.0
 11
0.0
 21
0.0890625
 31
0.0
  0
LINE
  5
17A
330
141
100
AcDbEntity
  8
AM_7
 48
0.0137321507281994
100
AcDbLine
 10
-0.525
 20
-1.140625
 30
0.0
 11
0.5250000000000002
 21
-1.140625
 31
0.0
  0
LINE
  5
17B
330
141
100
AcDbEntity
  8
AM_0
 48
0.0137321507281994
100
AcDbLine
 10
1.90625
 20
-1.78125
 30
0.0
 11
1.90625
 21
-0.4999999999999998
 31
0.0
  0
LINE
  5
17C
330
141
100
AcDbEntity
  8
AM_0
 48
0.0137321507281994
100
AcDbLine
 10
-1.90625
 20
-0.5
 30
0.0
 11
-1.90625
 21
-1.78125
 31
0.0
  0
LINE
  5
17D
330
141
100
AcDbEntity
  8
AM_4
 48
0.0137321507281994
100
AcDbLine
 10
1.64285639542653
 20
-1.78125
 30
0.0
 11
1.64285639542653
 21
-0.5000000000000001
 31
0.0
  0
LINE
  5
17E
330
141
100
AcDbEntity
  8
AM_4
 48
0.0137321507281994
100
AcDbLine
 10
-1.642856390251975
 20
-1.78125
 30
0.0
 11
-1.642856390251975
 21
-0.5000000000000001
 31
0.0
  0
LINE
  5
17F
330
141
100
AcDbEntity
  8
AM_4
 48
0.0137321507281994
100
AcDbLine
 10
-1.543924742121356
 20
-1.78125
 30
0.0
 11
-1.543924742121356
 21
-0.5000000000000001
 31
0.0
  0
LINE
  5
180
330
141
100
AcDbEntity
  8
AM_4
 48
0.0137321507281994
100
AcDbLine
 10
1.543924742121355
 20
-1.78125
 30
0.0
 11
1.543924742121355
 21
-0.5000000000000001
 31
0.0
  0
LINE
  5
181
330
141
100
AcDbEntity
  8
AM_4
 48
0.0137321507281994
100
AcDbLine
 10
1.048475832489028
 20
-1.78125
 30
0.0
 11
1.048475832489028
 21
-0.5000000000000001
 31
0.0
  0
LINE
  5
182
330
141
100
AcDbEntity
  8
AM_0
 48
0.0137321507281994
100
AcDbLine
 10
1.90625
 20
-1.78125
 30
0.0
 11
-1.90625
 21
-1.78125
 31
0.0
  0
LINE
  5
183
330
141
100
AcDbEntity
  8
AM_4
 48
0.0137321507281994
100
AcDbLine
 10
-1.048475832489028
 20
-1.78125
 30
0.0
 11
-1.048475832489028
 21
-0.5000000000000001
 31
0.0
  0
LINE
  5
184
330
141
100
AcDbEntity
  8
AM_4
 48
0.0137321507281994
100
AcDbLine
 10
-0.4999428676086641
 20
-0.4666666666666666
 30
0.0
 11
-0.4999428676086641
 21
-0.4999999999999998
 31
0.0
  0
LINE
  5
185
330
141
100
AcDbEntity
  8
AM_4
 48
0.0137321507281994
100
AcDbLine
 10
-0.9668567249112691
 20
-1.78125
 30
0.0
 11
-0.9668567249112691
 21
-0.5000000000000001
 31
0.0
  0
LINE
  5
186
330
141
100
AcDbEntity
  8
AM_4
 48
0.0137321507281994
100
AcDbLine
 10
0.9668567337037312
 20
-1.78125
 30
0.0
 11
0.9668567337037312
 21
-0.5000000000000001
 31
0.0
  0
LINE
  5
187
330
141
100
AcDbEntity
  8
AM_4
 48
0.0137321507281994
100
AcDbLine
 10
0.499942867608664
 20
-0.4666666666666666
 30
0.0
 11
0.499942867608664
 21
-0.4999999999999998
 31
0.0
  0
CIRCLE
  5
188
330
141
100
AcDbEntity
  8
AM_4
 48
0.0137321507281994
100
AcDbCircle
 10
0.0
 20
-1.140625
 30
0.0
 40
0.4
  0
LINE
  5
189
330
141
100
AcDbEntity
  8
AM_4
 48
0.0137321507281994
100
AcDbLine
 10
-0.6428675758980406
 20
-0.4666666666666666
 30
0.0
 11
-0.6428675758980406
 21
-0.4999999999999998
 31
0.0
  0
LINE
  5
18A
330
141
100
AcDbEntity
  8
AM_4
 48
0.0137321507281994
100
AcDbLine
 10
0.6428675758980409
 20
-0.4666666666666666
 30
0.0
 11
0.6428675758980409
 21
-0.4999999999999998
 31
0.0
  0
LINE
  5
18B
330
141
100
AcDbEntity
  8
AM_0
 48
0.0137321507281994
100
AcDbLine
 10
-2.375
 20
-0.4999999999999998
 30
0.0
 11
-2.375
 21
0.0000000000000001
 31
0.0
  0
LINE
  5
18C
330
141
100
AcDbEntity
  8
AM_0
 48
0.0137321507281994
100
AcDbLine
 10
-0.4999428676086641
 20
-0.4999999999999998
 30
0.0
 11
-2.375
 21
-0.4999999999999998
 31
0.0
  0
LINE
  5
18D
330
141
100
AcDbEntity
  8
AM_4
 48
0.0137321507281994
100
AcDbLine
 10
-1.444901315789473
 20
-0.4666666666666666
 30
0.0
 11
-1.444901315789473
 21
-0.4999999999999998
 31
0.0
  0
LINE
  5
18E
330
141
100
AcDbEntity
  8
AM_4
 48
0.0137321507281994
100
AcDbLine
 10
1.444901315789474
 20
-0.4666666666666666
 30
0.0
 11
1.444901315789474
 21
-0.4999999999999998
 31
0.0
  0
LINE
  5
18F
330
141
100
AcDbEntity
  8
AM_0
 48
0.0137321507281994
100
AcDbLine
 10
-1.56533312340663
 20
-0.4666666666666666
 30
0.0
 11
-1.56533312340663
 21
-0.4999999999999998
 31
0.0
  0
LINE
  5
190
330
141
100
AcDbEntity
  8
AM_0
 48
0.0137321507281994
100
AcDbLine
 10
1.565333123406631
 20
-0.4666666666666666
 30
0.0
 11
-1.56533312340663
 21
-0.4666666666666666
 31
0.0
  0
LINE
  5
191
330
141
100
AcDbEntity
  8
AM_0
 48
0.0137321507281994
100
AcDbLine
 10
1.565333123406631
 20
-0.4999999999999998
 30
0.0
 11
1.565333123406631
 21
-0.4666666666666666
 31
0.0
  0
LINE
  5
192
330
141
100
AcDbEntity
  8
AM_4
 48
0.0137321507281994
100
AcDbLine
 10
-1.765625
 20
-0.4999999999999998
 30
0.0
 11
-1.765625
 21
0.0000000000000001
 31
0.0
  0
LINE
  5
193
330
141
100
AcDbEntity
  8
AM_0
 48
0.0137321507281994
100
AcDbLine
 10
2.375
 20
0.0000000000000001
 30
0.0
 11
-2.375
 21
0.0000000000000001
 31
0.0
  0
LINE
  5
194
330
141
100
AcDbEntity
  8
AM_4
 48
0.0137321507281994
100
AcDbLine
 10
1.765625
 20
-0.4999999999999998
 30
0.0
 11
1.765625
 21
0.0000000000000001
 31
0.0
  0
LINE
  5
195
330
141
100
AcDbEntity
  8
AM_0
 48
0.0137321507281994
100
AcDbLine
 10
2.375
 20
-0.4999999999999998
 30
0.0
 11
0.499942867608664
 21
-0.4999999999999998
 31
0.0
  0
LINE
  5
196
330
141
100
AcDbEntity
  8
AM_0
 48
0.0137321507281994
100
AcDbLine
 10
2.375
 20
-0.4999999999999998
 30
0.0
 11
2.375
 21
0.0000000000000001
 31
0.0
  0
CIRCLE
  5
197
330
141
100
AcDbEntity
  8
AM_0
 48
0.0137321507281994
100
AcDbCircle
 10
0.0000000000000001
 20
-1.140625
 30
0.0
 40
0.5000000000000001
  0
ENDBLK
  5
144
330
141
100
AcDbEntity
  8
0
100
AcDbBlockEnd
  0
ENDSEC
  0
SECTION
  2
ENTITIES
  0
ATTDEF
  5
6F
330
1F
100
AcDbEntity
  8
AM_6
100
AcDbText
 10
7.375
 20
0.0890625
 30
0.0
 40
0.5
  1
S-2000 Flange Bearing - Square Labyrinth Seal
100
AcDbAttributeDefinition
  3

  2
NN
 70
     8
280
     0
  0
ATTDEF
  5
70
330
1F
100
AcDbEntity
  8
AM_6
100
AcDbText
 10
7.375
 20
-0.4109375
 30
0.0
 40
0.5
  1
S-2000 4 Bolt Square Flange Bearing -Inch
100
AcDbAttributeDefinition
  3

  2
NT
 70
     8
280
     0
  0
ATTDEF
  5
71
330
1F
100
AcDbEntity
  8
AM_6
100
AcDbText
 10
7.375
 20
-0.9109375
 30
0.0
 40
0.5
  1
070600
100
AcDbAttributeDefinition
  3

  2
NB
 70
     8
280
     0
  0
ATTDEF
  5
72
330
1F
100
AcDbEntity
  8
AM_6
100
AcDbText
 10
7.375
 20
-1.4109375
 30
0.0
 40
0.5
  1
$PN.
100
AcDbAttributeDefinition
  3

  2
NBSYN
 70
     8
280
     0
  0
ATTDEF
  5
73
330
1F
100
AcDbEntity
  8
AM_6
100
AcDbText
 10
7.375
 20
-1.9109375
 30
0.0
 40
0.5
  1
070600
100
AcDbAttributeDefinition
  3

  2
LINA
 70
     8
280
     0
  0
ATTDEF
  5
74
330
1F
100
AcDbEntity
  8
AM_6
100
AcDbText
 10
7.375
 20
-2.4109375
 30
0.0
 40
0.5
  1
1-3/8
100
AcDbAttributeDefinition
  3

  2
SS
 70
     8
280
     0
  0
ATTDEF
  5
75
330
1F
100
AcDbEntity
  8
AM_6
100
AcDbText
 10
7.375
 20
-2.9109375
 30
0.0
 40
0.5
  1
070600
100
AcDbAttributeDefinition
  3

  2
PN
 70
     8
280
     0
  0
ATTDEF
  5
76
330
1F
100
AcDbEntity
  8
AM_6
100
AcDbText
 10
7.375
 20
-3.4109375
 30
0.0
 40
0.5
  1
F4S-S2-106L
100
AcDbAttributeDefinition
  3

  2
DESCRIPTION
 70
     8
280
     0
  0
ATTDEF
  5
77
330
1F
100
AcDbEntity
  8
AM_6
100
AcDbText
 10
7.375
 20
-3.9109375
 30
0.0
 40
0.5
  1
Non-Expansion Type
100
AcDbAttributeDefinition
  3

  2
EF
 70
     8
280
     0
  0
ATTDEF
  5
78
330
1F
100
AcDbEntity
  8
AM_6
100
AcDbText
 10
7.375
 20
-4.4109375
 30
0.0
 40
0.5
  1
Labyrinth Seal
100
AcDbAttributeDefinition
  3

  2
ST
 70
     8
280
     0
  0
ATTDEF
  5
79
330
1F
100
AcDbEntity
  8
AM_6
100
AcDbText
 10
7.375
 20
-4.9109375
 30
0.0
 40
0.5
  1
2-17/32
100
AcDbAttributeDefinition
  3

  2
A
 70
     8
280
     0
  0
ATTDEF
  5
7A
330
1F
100
AcDbEntity
  8
AM_6
100
AcDbText
 10
7.375
 20
-5.4109375
 30
0.0
 40
0.5
  1
4-3/4
100
AcDbAttributeDefinition
  3

  2
B
 70
     8
280
     0
  0
ATTDEF
  5
7B
330
1F
100
AcDbEntity
  8
AM_6
100
AcDbText
 10
7.375
 20
-5.9109375
 30
0.0
 40
0.5
  1
2-49/64
100
AcDbAttributeDefinition
  3

  2
C
 70
     8
280
     0
  0
ATTDEF
  5
7C
330
1F
100
AcDbEntity
  8
AM_6
100
AcDbText
 10
7.375
 20
-6.4109375
 30
0.0
 40
0.5
  1
3-17/32
100
AcDbAttributeDefinition
  3

  2
D
 70
     8
280
     0
  0
ATTDEF
  5
7D
330
1F
100
AcDbEntity
  8
AM_6
100
AcDbText
 10
7.375
 20
-6.9109375
 30
0.0
 40
0.5
  1
1/2
100
AcDbAttributeDefinition
  3

  2
F
 70
     8
280
     0
  0
ATTDEF
  5
7E
330
1F
100
AcDbEntity
  8
AM_6
100
AcDbText
 10
7.375
 20
-7.4109375
 30
0.0
 40
0.5
  1
63/64
100
AcDbAttributeDefinition
  3

  2
G
 70
     8
280
     0
  0
ATTDEF
  5
7F
330
1F
100
AcDbEntity
  8
AM_6
100
AcDbText
 10
7.375
 20
-7.9109375
 30
0.0
 40
0.5
  1
1/2
100
AcDbAttributeDefinition
  3

  2
H
 70
     8
280
     0
  0
ATTDEF
  5
80
330
1F
100
AcDbEntity
  8
AM_6
100
AcDbText
 10
7.375
 20
-8.4109375
 30
0.0
 40
0.5
  1
3-13/16
100
AcDbAttributeDefinition
  3

  2
J
 70
     8
280
     0
  0
ATTDEF
  5
81
330
1F
100
AcDbEntity
  8
AM_6
100
AcDbText
 10
7.375
 20
-8.9109375
 30
0.0
 40
0.5
  1
5
100
AcDbAttributeDefinition
  3

  2
K
 70
     8
280
     0
  0
ATTDEF
  5
82
330
1F
100
AcDbEntity
  8
AM_6
100
AcDbText
 10
7.375
 20
-9.4109375
 30
0.0
 40
0.5
  1
2-3/4
100
AcDbAttributeDefinition
  3

  2
L
 70
     8
280
     0
  0
ATTDEF
  5
83
330
1F
100
AcDbEntity
  8
AM_6
100
AcDbText
 10
7.375
 20
-9.9109375
 30
0.0
 40
0.5
  1
2-31/64
100
AcDbAttributeDefinition
  3

  2
N
 70
     8
280
     0
  0
ATTDEF
  5
84
330
1F
100
AcDbEntity
  8
AM_6
100
AcDbText
 10
7.375
 20
-10.4109375
 30
0.0
 40
0.5
  1
15/64
100
AcDbAttributeDefinition
  3

  2
P
 70
     8
280
     0
  0
ATTDEF
  5
85
330
1F
100
AcDbEntity
  8
AM_6
100
AcDbText
 10
7.375
 20
-10.9109375
 30
0.0
 40
0.5
  1
3/16
100
AcDbAttributeDefinition
  3

  2
X
 70
     8
280
     0
  0
ATTDEF
  5
86
330
1F
100
AcDbEntity
  8
AM_6
100
AcDbText
 10
7.375
 20
-11.4109375
 30
0.0
 40
0.5
  1
0.020
100
AcDbAttributeDefinition
  3

  2
Y
 70
     8
280
     0
  0
ATTDEF
  5
87
330
1F
100
AcDbEntity
  8
AM_6
100
AcDbText
 10
7.375
 20
-11.9109375
 30
0.0
 40
0.5
  1
1-51/64
100
AcDbAttributeDefinition
  3

  2
Z
 70
     8
280
     0
  0
ATTDEF
  5
88
330
1F
100
AcDbEntity
  8
AM_6
100
AcDbText
 10
7.375
 20
-12.4109375
 30
0.0
 40
0.5
  1
baldor
100
AcDbAttributeDefinition
  3

  2
COMPANY
 70
     8
280
     0
  0
INSERT
  5
8A
330
1F
100
AcDbEntity
  8
0
100
AcDbBlockReference
  2
1_1_3_8CS2i_0_in_070600_4
 10
0.0
 20
0.0
 30
0.0
  0
INSERT
  5
D3
330
1F
100
AcDbEntity
  8
0
100
AcDbBlockReference
  2
2_070016i_0_in_070600_4
 10
0.0
 20
0.0
 30
0.0
  0
INSERT
  5
125
330
1F
100
AcDbEntity
  8
0
100
AcDbBlockReference
  2
3_405015E_Inch_0_in_070600_4
 10
0.0
 20
0.0
 30
0.0
  0
INSERT
  5
142
330
1F
100
AcDbEntity
  8
0
100
AcDbBlockReference
  2
4_070600H_0_in_070600_4
 10
0.0
 20
0.0
 30
0.0
  0
POINT
  5
199
330
1F
100
AcDbEntity
  8
ConnectionPoints
100
AcDbPoint
 10
0.0
 20
-2.765625
 30
0.0000000000000002
  0
POINT
  5
19A
330
1F
100
AcDbEntity
  8
ConnectionPoints
100
AcDbPoint
 10
0.0
 20
0.3568750000000001
 30
0.0
  0
POINT
  5
19B
330
1F
100
AcDbEntity
  8
ConnectionPoints
100
AcDbPoint
 10
0.0
 20
-2.765625
 30
0.0000000000000002
  0
POINT
  5
19C
330
1F
100
AcDbEntity
  8
ConnectionPoints
100
AcDbPoint
 10
0.0
 20
-1.140625
 30
2.00625
  0
POINT
  5
19D
330
1F
100
AcDbEntity
  8
ConnectionPoints
100
AcDbPoint
 10
0.0
 20
-1.140625
 30
2.00625
  0
POINT
  5
19E
330
1F
100
AcDbEntity
  8
ConnectionPoints
100
AcDbPoint
 10
0.0
 20
-2.578125
 30
0.0000000000000002
  0
POINT
  5
19F
330
1F
100
AcDbEntity
  8
ConnectionPoints
100
AcDbPoint
 10
0.0
 20
-2.765625
 30
0.0000000000000002
  0
ENDSEC
  0
SECTION
  2
OBJECTS
  0
DICTIONARY
  5
C
330
0
100
AcDbDictionary
281
     1
  3
ACAD_DETAILVIEWSTYLE
350
1A7
  3
ACAD_GROUP
350
D
  3
ACAD_LAYOUT
350
1A
  3
ACAD_MATERIAL
350
43
  3
ACAD_MLEADERSTYLE
350
6B
  3
ACAD_MLINESTYLE
350
17
  3
ACAD_PLOTSETTINGS
350
19
  3
ACAD_PLOTSTYLENAME
350
E
  3
ACAD_SCALELIST
350
47
  3
ACAD_SECTIONVIEWSTYLE
350
1A8
  3
ACAD_TABLESTYLE
350
69
  3
ACAD_VISUALSTYLE
350
2A
  3
ACDB_RECOMPOSE_DATA
350
1A4
  3
AcDbVariableDictionary
350
1A0
  0
SUN
  5
6D
330
29
100
AcDbSun
 90
        1
290
     0
 63
     7
421
 16777215
 40
1.0
291
     1
 91
  2455826
 92
 54000000
292
     0
 70
     2
 71
   256
280
     1
  0
DICTIONARY
  5
1A7
102
{ACAD_REACTORS
330
C
102
}
330
C
100
AcDbDictionary
281
     1
  0
DICTIONARY
  5
D
102
{ACAD_REACTORS
330
C
102
}
330
C
100
AcDbDictionary
281
     1
  0
DICTIONARY
  5
1A
102
{ACAD_REACTORS
330
C
102
}
330
C
100
AcDbDictionary
281
     1
  3
Layout1
350
1E
  3
Layout2
350
26
  3
Model
350
22
  0
DICTIONARY
  5
43
102
{ACAD_REACTORS
330
C
102
}
330
C
100
AcDbDictionary
281
     1
  3
ByBlock
350
45
  3
ByLayer
350
44
  3
Global
350
46
  0
DICTIONARY
  5
6B
102
{ACAD_REACTORS
330
C
102
}
330
C
100
AcDbDictionary
281
     1
  3
Standard
350
6C
  0
DICTIONARY
  5
17
102
{ACAD_REACTORS
330
C
102
}
330
C
100
AcDbDictionary
281
     1
  3
Standard
350
18
  0
DICTIONARY
  5
19
102
{ACAD_REACTORS
330
C
102
}
330
C
100
AcDbDictionary
281
     1
  0
ACDBDICTIONARYWDFLT
  5
E
102
{ACAD_REACTORS
330
C
102
}
330
C
100
AcDbDictionary
281
     1
  3
Normal
350
F
100
AcDbDictionaryWithDefault
340
F
  0
DICTIONARY
  5
47
102
{ACAD_REACTORS
330
C
102
}
330
C
100
AcDbDictionary
281
     1
  3
A0
350
48
  3
A1
350
49
  3
A2
350
4A
  3
A3
350
4B
  3
A4
350
4C
  3
A5
350
4D
  3
A6
350
4E
  3
A7
350
4F
  3
A8
350
50
  3
A9
350
51
  3
B0
350
52
  3
B1
350
53
  3
B2
350
54
  3
B3
350
55
  3
B4
350
56
  3
B5
350
57
  3
B6
350
58
  3
B7
350
59
  3
B8
350
5A
  3
B9
350
5B
  3
C0
350
5C
  3
C1
350
5D
  3
C2
350
5E
  3
C3
350
5F
  3
C4
350
60
  3
C5
350
61
  3
C6
350
62
  3
C7
350
63
  3
C8
350
64
  3
C9
350
65
  3
D0
350
66
  3
D1
350
67
  3
D2
350
68
  0
DICTIONARY
  5
1A8
102
{ACAD_REACTORS
330
C
102
}
330
C
100
AcDbDictionary
281
     1
  0
DICTIONARY
  5
69
102
{ACAD_REACTORS
330
C
102
}
330
C
100
AcDbDictionary
281
     1
  3
Standard
350
6A
  0
DICTIONARY
  5
2A
102
{ACAD_REACTORS
330
C
102
}
330
C
100
AcDbDictionary
281
     1
  3
2dWireframe
350
2F
  3
Basic
350
32
  3
Brighten
350
36
  3
ColorChange
350
3A
  3
Conceptual
350
34
  3
Dim
350
35
  3
EdgeColorOff
350
3D
  3
Facepattern
350
39
  3
Flat
350
2B
  3
FlatWithEdges
350
2C
  3
Gouraud
350
2D
  3
GouraudWithEdges
350
2E
  3
Hidden
350
31
  3
JitterOff
350
3B
  3
Linepattern
350
38
  3
OverhangOff
350
3C
  3
Realistic
350
33
  3
Shaded
350
42
  3
Shaded with edges
350
41
  3
Shades of Gray
350
3E
  3
Sketchy
350
3F
  3
Thicken
350
37
  3
Wireframe
350
30
  3
X-Ray
350
40
  0
XRECORD
  5
1A4
102
{ACAD_REACTORS
330
C
102
}
330
C
100
AcDbXrecord
280
     1
 90
        1
330
6A
  0
DICTIONARY
  5
1A0
102
{ACAD_REACTORS
330
C
102
}
330
C
100
AcDbDictionary
281
     1
  3
CANNOSCALE
350
1A1
  3
CMLEADERSTYLE
350
1A6
  3
CTABLESTYLE
350
1A5
  0
LAYOUT
  5
1E
102
{ACAD_REACTORS
330
1A
102
}
330
1A
100
AcDbPlotSettings
  1

  2
none_device
  4

  6

 40
0.0
 41
0.0
 42
0.0
 43
0.0
 44
0.0
 45
0.0
 46
0.0
 47
0.0
 48
0.0
 49
0.0
140
0.0
141
0.0
142
1.0
143
1.0
 70
   688
 72
     0
 73
     0
 74
     5
  7

 75
    16
 76
     0
 77
     2
 78
   300
147
1.0
148
0.0
149
0.0
100
AcDbLayout
  1
Layout1
 70
     1
 71
     1
 10
0.0
 20
0.0
 11
12.0
 21
9.0
 12
0.0
 22
0.0
 32
0.0
 14
1.000000000000000E+20
 24
1.000000000000000E+20
 34
1.000000000000000E+20
 15
-1.000000000000000E+20
 25
-1.000000000000000E+20
 35
-1.000000000000000E+20
146
0.0
 13
0.0
 23
0.0
 33
0.0
 16
1.0
 26
0.0
 36
0.0
 17
0.0
 27
1.0
 37
0.0
 76
     0
330
1B
  0
LAYOUT
  5
26
102
{ACAD_REACTORS
330
1A
102
}
330
1A
100
AcDbPlotSettings
  1

  2
none_device
  4

  6

 40
0.0
 41
0.0
 42
0.0
 43
0.0
 44
0.0
 45
0.0
 46
0.0
 47
0.0
 48
0.0
 49
0.0
140
0.0
141
0.0
142
1.0
143
1.0
 70
   688
 72
     0
 73
     0
 74
     5
  7

 75
    16
 76
     0
 77
     2
 78
   300
147
1.0
148
0.0
149
0.0
100
AcDbLayout
  1
Layout2
 70
     1
 71
     2
 10
0.0
 20
0.0
 11
0.0
 21
0.0
 12
0.0
 22
0.0
 32
0.0
 14
0.0
 24
0.0
 34
0.0
 15
0.0
 25
0.0
 35
0.0
146
0.0
 13
0.0
 23
0.0
 33
0.0
 16
1.0
 26
0.0
 36
0.0
 17
0.0
 27
1.0
 37
0.0
 76
     0
330
23
  0
LAYOUT
  5
22
102
{ACAD_REACTORS
330
1A
102
}
330
1A
100
AcDbPlotSettings
  1

  2
none_device
  4
Letter_(8.50_x_11.00_Inches)
  6

 40
6.35
 41
6.35
 42
6.35000508
 43
6.35000508
 44
215.9
 45
279.4
 46
0.0
 47
0.0
 48
0.0
 49
0.0
140
0.0
141
0.0
142
1.0
143
1.0
 70
  1712
 72
     0
 73
     0
 74
     0
  7

 75
     0
 76
     0
 77
     2
 78
   300
147
1.0
148
0.0
149
0.0
100
AcDbLayout
  1
Model
 70
     1
 71
     0
 10
0.0
 20
0.0
 11
12.0
 21
9.0
 12
0.0
 22
0.0
 32
0.0
 14
1.000000000000000E+20
 24
1.000000000000000E+20
 34
1.000000000000000E+20
 15
-1.000000000000000E+20
 25
-1.000000000000000E+20
 35
-1.000000000000000E+20
146
0.0
 13
0.0
 23
0.0
 33
0.0
 16
1.0
 26
0.0
 36
0.0
 17
0.0
 27
1.0
 37
0.0
 76
     0
330
1F
331
29
  0
MATERIAL
  5
45
102
{ACAD_REACTORS
330
43
102
}
330
43
100
AcDbMaterial
  1
ByBlock
 72
     1
 94
      127
  0
MATERIAL
  5
44
102
{ACAD_REACTORS
330
43
102
}
330
43
100
AcDbMaterial
  1
ByLayer
 72
     1
 94
      127
  0
MATERIAL
  5
46
102
{ACAD_REACTORS
330
43
102
}
330
43
100
AcDbMaterial
  1
Global
 72
     1
 94
      127
  0
MLEADERSTYLE
  5
6C
102
{ACAD_REACTORS
330
6B
102
}
330
6B
100
AcDbMLeaderStyle
179
     2
170
     2
171
     1
172
     0
 90
        2
 40
0.0
 41
0.0
173
     1
 91
-1056964608
340
14
 92
       -2
290
     1
 42
0.09
291
     1
 43
0.36
  3
Standard
341
0
 44
0.18
300

342
11
174
     1
178
     6
175
     1
176
     0
 93
-1056964608
 45
0.18
292
     0
297
     0
 46
0.18
343
0
 94
-1056964608
 47
1.0
 49
1.0
140
1.0
293
     1
141
0.0
294
     1
177
     0
142
1.0
295
     0
296
     0
143
0.125
271
     0
272
     9
273
     9
298
     0
  0
MLINESTYLE
  5
18
102
{ACAD_REACTORS
330
17
102
}
330
17
100
AcDbMlineStyle
  2
Standard
 70
     0
  3

 62
   256
 51
90.0
 52
90.0
 71
     2
 49
0.5
 62
   256
  6
BYLAYER
 49
-0.5
 62
   256
  6
BYLAYER
  0
ACDBPLACEHOLDER
  5
F
102
{ACAD_REACTORS
330
E
102
}
330
E
  0
SCALE
  5
48
102
{ACAD_REACTORS
330
47
102
}
330
47
100
AcDbScale
 70
     0
300
1:1
140
1.0
141
1.0
290
     1
  0
SCALE
  5
49
102
{ACAD_REACTORS
330
47
102
}
330
47
100
AcDbScale
 70
     0
300
1:2
140
1.0
141
2.0
290
     0
  0
SCALE
  5
4A
102
{ACAD_REACTORS
330
47
102
}
330
47
100
AcDbScale
 70
     0
300
1:4
140
1.0
141
4.0
290
     0
  0
SCALE
  5
4B
102
{ACAD_REACTORS
330
47
102
}
330
47
100
AcDbScale
 70
     0
300
1:5
140
1.0
141
5.0
290
     0
  0
SCALE
  5
4C
102
{ACAD_REACTORS
330
47
102
}
330
47
100
AcDbScale
 70
     0
300
1:8
140
1.0
141
8.0
290
     0
  0
SCALE
  5
4D
102
{ACAD_REACTORS
330
47
102
}
330
47
100
AcDbScale
 70
     0
300
1:10
140
1.0
141
10.0
290
     0
  0
SCALE
  5
4E
102
{ACAD_REACTORS
330
47
102
}
330
47
100
AcDbScale
 70
     0
300
1:16
140
1.0
141
16.0
290
     0
  0
SCALE
  5
4F
102
{ACAD_REACTORS
330
47
102
}
330
47
100
AcDbScale
 70
     0
300
1:20
140
1.0
141
20.0
290
     0
  0
SCALE
  5
50
102
{ACAD_REACTORS
330
47
102
}
330
47
100
AcDbScale
 70
     0
300
1:30
140
1.0
141
30.0
290
     0
  0
SCALE
  5
51
102
{ACAD_REACTORS
330
47
102
}
330
47
100
AcDbScale
 70
     0
300
1:40
140
1.0
141
40.0
290
     0
  0
SCALE
  5
52
102
{ACAD_REACTORS
330
47
102
}
330
47
100
AcDbScale
 70
     0
300
1:50
140
1.0
141
50.0
290
     0
  0
SCALE
  5
53
102
{ACAD_REACTORS
330
47
102
}
330
47
100
AcDbScale
 70
     0
300
1:100
140
1.0
141
100.0
290
     0
  0
SCALE
  5
54
102
{ACAD_REACTORS
330
47
102
}
330
47
100
AcDbScale
 70
     0
300
2:1
140
2.0
141
1.0
290
     0
  0
SCALE
  5
55
102
{ACAD_REACTORS
330
47
102
}
330
47
100
AcDbScale
 70
     0
300
4:1
140
4.0
141
1.0
290
     0
  0
SCALE
  5
56
102
{ACAD_REACTORS
330
47
102
}
330
47
100
AcDbScale
 70
     0
300
8:1
140
8.0
141
1.0
290
     0
  0
SCALE
  5
57
102
{ACAD_REACTORS
330
47
102
}
330
47
100
AcDbScale
 70
     0
300
10:1
140
10.0
141
1.0
290
     0
  0
SCALE
  5
58
102
{ACAD_REACTORS
330
47
102
}
330
47
100
AcDbScale
 70
     0
300
100:1
140
100.0
141
1.0
290
     0
  0
SCALE
  5
59
102
{ACAD_REACTORS
330
47
102
}
330
47
100
AcDbScale
 70
     0
300
1/128" = 1'-0"
140
0.0078125
141
12.0
290
     0
  0
SCALE
  5
5A
102
{ACAD_REACTORS
330
47
102
}
330
47
100
AcDbScale
 70
     0
300
1/64" = 1'-0"
140
0.015625
141
12.0
290
     0
  0
SCALE
  5
5B
102
{ACAD_REACTORS
330
47
102
}
330
47
100
AcDbScale
 70
     0
300
1/32" = 1'-0"
140
0.03125
141
12.0
290
     0
  0
SCALE
  5
5C
102
{ACAD_REACTORS
330
47
102
}
330
47
100
AcDbScale
 70
     0
300
1/16" = 1'-0"
140
0.0625
141
12.0
290
     0
  0
SCALE
  5
5D
102
{ACAD_REACTORS
330
47
102
}
330
47
100
AcDbScale
 70
     0
300
3/32" = 1'-0"
140
0.09375
141
12.0
290
     0
  0
SCALE
  5
5E
102
{ACAD_REACTORS
330
47
102
}
330
47
100
AcDbScale
 70
     0
300
1/8" = 1'-0"
140
0.125
141
12.0
290
     0
  0
SCALE
  5
5F
102
{ACAD_REACTORS
330
47
102
}
330
47
100
AcDbScale
 70
     0
300
3/16" = 1'-0"
140
0.1875
141
12.0
290
     0
  0
SCALE
  5
60
102
{ACAD_REACTORS
330
47
102
}
330
47
100
AcDbScale
 70
     0
300
1/4" = 1'-0"
140
0.25
141
12.0
290
     0
  0
SCALE
  5
61
102
{ACAD_REACTORS
330
47
102
}
330
47
100
AcDbScale
 70
     0
300
3/8" = 1'-0"
140
0.375
141
12.0
290
     0
  0
SCALE
  5
62
102
{ACAD_REACTORS
330
47
102
}
330
47
100
AcDbScale
 70
     0
300
1/2" = 1'-0"
140
0.5
141
12.0
290
     0
  0
SCALE
  5
63
102
{ACAD_REACTORS
330
47
102
}
330
47
100
AcDbScale
 70
     0
300
3/4" = 1'-0"
140
0.75
141
12.0
290
     0
  0
SCALE
  5
64
102
{ACAD_REACTORS
330
47
102
}
330
47
100
AcDbScale
 70
     0
300
1" = 1'-0"
140
1.0
141
12.0
290
     0
  0
SCALE
  5
65
102
{ACAD_REACTORS
330
47
102
}
330
47
100
AcDbScale
 70
     0
300
1-1/2" = 1'-0"
140
1.5
141
12.0
290
     0
  0
SCALE
  5
66
102
{ACAD_REACTORS
330
47
102
}
330
47
100
AcDbScale
 70
     0
300
3" = 1'-0"
140
3.0
141
12.0
290
     0
  0
SCALE
  5
67
102
{ACAD_REACTORS
330
47
102
}
330
47
100
AcDbScale
 70
     0
300
6" = 1'-0"
140
6.0
141
12.0
290
     0
  0
SCALE
  5
68
102
{ACAD_REACTORS
330
47
102
}
330
47
100
AcDbScale
 70
     0
300
1'-0" = 1'-0"
140
12.0
141
12.0
290
     0
  0
TABLESTYLE
  5
6A
102
{ACAD_REACTORS
330
69
102
}
102
{ACAD_XDICTIONARY
360
1A2
102
}
330
69
100
AcDbTableStyle
  3
Standard
 70
     0
 71
     0
 40
0.06
 41
0.06
280
     0
281
     0
  7
Standard
140
0.18
170
     2
 62
     0
 63
   257
283
     0
 90
        4
 91
        0
  1

274
    -2
284
     1
 64
     0
275
    -2
285
     1
 65
     0
276
    -2
286
     1
 66
     0
277
    -2
287
     1
 67
     0
278
    -2
288
     1
 68
     0
279
    -2
289
     1
 69
     0
  7
Standard
140
0.25
170
     5
 62
     0
 63
   257
283
     0
 90
        4
 91
        0
  1

274
    -2
284
     1
 64
     0
275
    -2
285
     1
 65
     0
276
    -2
286
     1
 66
     0
277
    -2
287
     1
 67
     0
278
    -2
288
     1
 68
     0
279
    -2
289
     1
 69
     0
  7
Standard
140
0.18
170
     5
 62
     0
 63
   257
283
     0
 90
        4
 91
        0
  1

274
    -2
284
     1
 64
     0
275
    -2
285
     1
 65
     0
276
    -2
286
     1
 66
     0
277
    -2
287
     1
 67
     0
278
    -2
288
     1
 68
     0
279
    -2
289
     1
 69
     0
  0
VISUALSTYLE
  5
2F
102
{ACAD_REACTORS
330
2A
102
}
330
2A
100
AcDbVisualStyle
  2
2dWireframe
 70
     4
177
     3
291
     0
 70
    58
 90
        0
176
     1
 90
        2
176
     1
 90
        0
176
     1
 90
        0
176
     1
 40
0.6
176
     1
 40
30.0
176
     1
 62
     7
420
 16777215
176
     1
 90
        1
176
     1
 90
        4
176
     1
 62
     7
176
     1
 62
   257
176
     1
 90
        1
176
     1
 90
        1
176
     1
 40
1.0
176
     1
 90
        0
176
     1
 62
   257
176
     1
 40
1.0
176
     1
 90
        1
176
     1
 90
        6
176
     1
 90
        2
176
     1
 62
     7
176
     1
 90
        5
176
     1
 90
        0
176
     1
 90
        0
176
     1
290
     0
176
     1
 90
        1
176
     1
 40
0.0
176
     1
 90
        0
176
     1
290
     1
176
     1
290
     1
176
     1
290
     0
176
     1
290
     0
176
     1
290
     0
176
     1
290
     0
176
     1
290
     0
176
     1
290
     0
176
     1
290
     0
176
     1
 90
       50
176
     1
 40
0.0
176
     1
 40
1.0
176
     1
 90
        0
176
     1
 62
    18
420
        0
176
     1
 90
       50
176
     1
 90
        3
176
     1
 62
     5
420
      255
176
     1
290
     0
176
     1
 90
       50
176
     1
 90
       50
176
     1
 90
       50
176
     1
290
     0
176
     1
 90
       50
176
     1
 62
   256
176
     0
 40
1.0
176
     0
 90
        2
176
     1
  1
strokes_ogs.tif
176
     1
290
     0
176
     1
 40
1.0
176
     1
 40
1.0
176
     1
  0
VISUALSTYLE
  5
32
102
{ACAD_REACTORS
330
2A
102
}
330
2A
100
AcDbVisualStyle
  2
Basic
 70
     7
177
     3
291
     1
 70
    58
 90
        1
176
     1
 90
        0
176
     1
 90
        1
176
     1
 90
        0
176
     1
 40
0.6
176
     1
 40
30.0
176
     1
 62
     7
420
 16777215
176
     1
 90
        0
176
     1
 90
        4
176
     1
 62
     7
176
     1
 62
   257
176
     1
 90
        1
176
     1
 90
        1
176
     1
 40
1.0
176
     1
 90
        8
176
     1
 62
     7
176
     1
 40
1.0
176
     1
 90
        1
176
     1
 90
        6
176
     1
 90
        2
176
     1
 62
     7
176
     1
 90
        5
176
     1
 90
        0
176
     1
 90
        0
176
     1
290
     0
176
     1
 90
        1
176
     1
 40
0.0
176
     1
 90
        0
176
     1
290
     0
176
     1
290
     1
176
     1
290
     1
176
     1
290
     0
176
     1
290
     0
176
     1
290
     0
176
     1
290
     0
176
     1
290
     0
176
     1
290
     0
176
     1
 90
       50
176
     1
 40
0.0
176
     1
 40
1.0
176
     1
 90
        0
176
     1
 62
    18
420
        0
176
     1
 90
       50
176
     1
 90
        3
176
     1
 62
     5
420
      255
176
     1
290
     0
176
     1
 90
       50
176
     1
 90
       50
176
     1
 90
       50
176
     1
290
     0
176
     1
 90
       50
176
     1
 62
   256
176
     0
 40
1.0
176
     0
 90
        2
176
     1
  1
strokes_ogs.tif
176
     1
290
     0
176
     1
 40
1.0
176
     1
 40
1.0
176
     1
  0
VISUALSTYLE
  5
36
102
{ACAD_REACTORS
330
2A
102
}
330
2A
100
AcDbVisualStyle
  2
Brighten
 70
    12
177
     3
291
     1
 70
    58
 90
        2
176
     1
 90
        2
176
     1
 90
        0
176
     1
 90
        0
176
     1
 40
0.6
176
     1
 40
30.0
176
     1
 62
     7
420
 16777215
176
     1
 90
        1
176
     1
 90
        4
176
     1
 62
     7
176
     1
 62
   257
176
     1
 90
        1
176
     1
 90
        1
176
     1
 40
1.0
176
     1
 90
        8
176
     1
 62
     7
176
     1
 40
1.0
176
     1
 90
        1
176
     1
 90
        6
176
     1
 90
        2
176
     1
 62
     7
176
     1
 90
        5
176
     1
 90
        0
176
     1
 90
        0
176
     1
290
     0
176
     1
 90
        1
176
     1
 40
50.0
176
     1
 90
        0
176
     1
290
     0
176
     1
290
     1
176
     1
290
     1
176
     1
290
     0
176
     1
290
     0
176
     1
290
     0
176
     1
290
     0
176
     1
290
     0
176
     1
290
     0
176
     1
 90
       50
176
     1
 40
0.0
176
     1
 40
1.0
176
     1
 90
        0
176
     1
 62
    18
420
        0
176
     1
 90
       50
176
     1
 90
        3
176
     1
 62
     5
420
      255
176
     1
290
     0
176
     1
 90
       50
176
     1
 90
       50
176
     1
 90
       50
176
     1
290
     0
176
     1
 90
       50
176
     1
 62
   256
176
     0
 40
1.0
176
     0
 90
        2
176
     1
  1
strokes_ogs.tif
176
     1
290
     0
176
     1
 40
1.0
176
     1
 40
1.0
176
     1
  0
VISUALSTYLE
  5
3A
102
{ACAD_REACTORS
330
2A
102
}
330
2A
100
AcDbVisualStyle
  2
ColorChange
 70
    16
177
     3
291
     1
 70
    58
 90
        2
176
     1
 90
        2
176
     1
 90
        3
176
     1
 90
        0
176
     1
 40
0.6
176
     1
 40
30.0
176
     1
 62
     8
420
  8421504
176
     1
 90
        1
176
     1
 90
        4
176
     1
 62
     7
176
     1
 62
   257
176
     1
 90
        1
176
     1
 90
        1
176
     1
 40
1.0
176
     1
 90
        8
176
     1
 62
     8
420
  8421504
176
     1
 40
1.0
176
     1
 90
        1
176
     1
 90
        6
176
     1
 90
        2
176
     1
 62
     7
176
     1
 90
        5
176
     1
 90
        0
176
     1
 90
        0
176
     1
290
     0
176
     1
 90
        1
176
     1
 40
0.0
176
     1
 90
        0
176
     1
290
     0
176
     1
290
     1
176
     1
290
     1
176
     1
290
     0
176
     1
290
     0
176
     1
290
     0
176
     1
290
     0
176
     1
290
     0
176
     1
290
     0
176
     1
 90
       50
176
     1
 40
0.0
176
     1
 40
1.0
176
     1
 90
        0
176
     1
 62
    18
420
        0
176
     1
 90
       50
176
     1
 90
        3
176
     1
 62
     5
420
      255
176
     1
290
     0
176
     1
 90
       50
176
     1
 90
       50
176
     1
 90
       50
176
     1
290
     0
176
     1
 90
       50
176
     1
 62
   256
176
     0
 40
1.0
176
     0
 90
        2
176
     1
  1
strokes_ogs.tif
176
     1
290
     0
176
     1
 40
1.0
176
     1
 40
1.0
176
     1
  0
VISUALSTYLE
  5
34
102
{ACAD_REACTORS
330
2A
102
}
330
2A
100
AcDbVisualStyle
  2
Conceptual
 70
     9
177
     3
291
     0
 70
    58
 90
        3
176
     1
 90
        2
176
     1
 90
        0
176
     1
 90
        0
176
     1
 40
0.6
176
     1
 40
30.0
176
     1
 62
     7
420
 16777215
176
     1
 90
        2
176
     1
 90
        2
176
     1
 62
     7
176
     1
 62
   257
176
     1
 90
        1
176
     1
 90
        1
176
     1
 40
179.0
176
     1
 90
        8
176
     1
 62
     7
176
     1
 40
1.0
176
     1
 90
        1
176
     1
 90
        6
176
     1
 90
        2
176
     1
 62
     7
176
     1
 90
        3
176
     1
 90
        0
176
     1
 90
        0
176
     1
290
     0
176
     1
 90
        1
176
     1
 40
0.0
176
     1
 90
        0
176
     1
290
     0
176
     1
290
     1
176
     1
290
     1
176
     1
290
     0
176
     1
290
     0
176
     1
290
     0
176
     1
290
     0
176
     1
290
     0
176
     1
290
     0
176
     1
 90
       50
176
     1
 40
0.0
176
     1
 40
1.0
176
     1
 90
        0
176
     1
 62
    18
420
        0
176
     1
 90
       50
176
     1
 90
        3
176
     1
 62
     5
420
      255
176
     1
290
     0
176
     1
 90
       50
176
     1
 90
       50
176
     1
 90
       50
176
     1
290
     0
176
     1
 90
       50
176
     1
 62
   256
176
     0
 40
1.0
176
     0
 90
        2
176
     1
  1
strokes_ogs.tif
176
     1
290
     0
176
     1
 40
1.0
176
     1
 40
1.0
176
     1
  0
VISUALSTYLE
  5
35
102
{ACAD_REACTORS
330
2A
102
}
330
2A
100
AcDbVisualStyle
  2
Dim
 70
    11
177
     3
291
     1
 70
    58
 90
        2
176
     1
 90
        2
176
     1
 90
        0
176
     1
 90
        0
176
     1
 40
0.6
176
     1
 40
30.0
176
     1
 62
     7
420
 16777215
176
     1
 90
        1
176
     1
 90
        4
176
     1
 62
     7
176
     1
 62
   257
176
     1
 90
        1
176
     1
 90
        1
176
     1
 40
1.0
176
     1
 90
        8
176
     1
 62
     7
176
     1
 40
1.0
176
     1
 90
        1
176
     1
 90
        6
176
     1
 90
        2
176
     1
 62
     7
176
     1
 90
        5
176
     1
 90
        0
176
     1
 90
        0
176
     1
290
     0
176
     1
 90
        1
176
     1
 40
-50.0
176
     1
 90
        0
176
     1
290
     0
176
     1
290
     1
176
     1
290
     1
176
     1
290
     0
176
     1
290
     0
176
     1
290
     0
176
     1
290
     0
176
     1
290
     0
176
     1
290
     0
176
     1
 90
       50
176
     1
 40
0.0
176
     1
 40
1.0
176
     1
 90
        0
176
     1
 62
    18
420
        0
176
     1
 90
       50
176
     1
 90
        3
176
     1
 62
     5
420
      255
176
     1
290
     0
176
     1
 90
       50
176
     1
 90
       50
176
     1
 90
       50
176
     1
290
     0
176
     1
 90
       50
176
     1
 62
   256
176
     0
 40
1.0
176
     0
 90
        2
176
     1
  1
strokes_ogs.tif
176
     1
290
     0
176
     1
 40
1.0
176
     1
 40
1.0
176
     1
  0
VISUALSTYLE
  5
3D
102
{ACAD_REACTORS
330
2A
102
}
330
2A
100
AcDbVisualStyle
  2
EdgeColorOff
 70
    22
177
     3
291
     1
 70
    58
 90
        2
176
     0
 90
        2
176
     0
 90
        0
176
     0
 90
        0
176
     0
 40
0.6
176
     0
 40
30.0
176
     0
 62
     7
420
 16777215
176
     0
 90
        1
176
     0
 90
        4
176
     0
 62
     7
176
     0
 62
   257
176
     0
 90
        1
176
     0
 90
        1
176
     0
 40
1.0
176
     0
 90
        8
176
     2
 62
     7
176
     0
 40
1.0
176
     0
 90
        1
176
     0
 90
        6
176
     0
 90
        2
176
     0
 62
     7
176
     0
 90
        5
176
     0
 90
        0
176
     0
 90
        0
176
     0
290
     0
176
     0
 90
        1
176
     0
 40
0.0
176
     0
 90
        0
176
     0
290
     0
176
     0
290
     1
176
     0
290
     1
176
     0
290
     0
176
     0
290
     0
176
     0
290
     0
176
     0
290
     0
176
     0
290
     0
176
     0
290
     0
176
     0
 90
       50
176
     0
 40
0.0
176
     0
 40
1.0
176
     0
 90
        0
176
     0
 62
    18
420
        0
176
     0
 90
       50
176
     0
 90
        3
176
     0
 62
     5
420
      255
176
     0
290
     0
176
     0
 90
       50
176
     0
 90
       50
176
     0
 90
       50
176
     0
290
     0
176
     0
 90
       50
176
     0
 62
   256
176
     0
 40
1.0
176
     0
 90
        2
176
     0
  1
strokes_ogs.tif
176
     0
290
     0
176
     0
 40
1.0
176
     0
 40
1.0
176
     0
  0
VISUALSTYLE
  5
39
102
{ACAD_REACTORS
330
2A
102
}
330
2A
100
AcDbVisualStyle
  2
Facepattern
 70
    15
177
     3
291
     1
 70
    58
 90
        2
176
     1
 90
        2
176
     1
 90
        0
176
     1
 90
        0
176
     1
 40
0.6
176
     1
 40
30.0
176
     1
 62
     7
420
 16777215
176
     1
 90
        1
176
     1
 90
        4
176
     1
 62
     7
176
     1
 62
   257
176
     1
 90
        1
176
     1
 90
        1
176
     1
 40
1.0
176
     1
 90
        8
176
     1
 62
     7
176
     1
 40
1.0
176
     1
 90
        1
176
     1
 90
        6
176
     1
 90
        2
176
     1
 62
     7
176
     1
 90
        5
176
     1
 90
        0
176
     1
 90
        0
176
     1
290
     0
176
     1
 90
        1
176
     1
 40
0.0
176
     1
 90
        0
176
     1
290
     0
176
     1
290
     1
176
     1
290
     1
176
     1
290
     0
176
     1
290
     0
176
     1
290
     0
176
     1
290
     0
176
     1
290
     0
176
     1
290
     0
176
     1
 90
       50
176
     1
 40
0.0
176
     1
 40
1.0
176
     1
 90
        0
176
     1
 62
    18
420
        0
176
     1
 90
       50
176
     1
 90
        3
176
     1
 62
     5
420
      255
176
     1
290
     0
176
     1
 90
       50
176
     1
 90
       50
176
     1
 90
       50
176
     1
290
     0
176
     1
 90
       50
176
     1
 62
   256
176
     0
 40
1.0
176
     0
 90
        2
176
     1
  1
strokes_ogs.tif
176
     1
290
     0
176
     1
 40
1.0
176
     1
 40
1.0
176
     1
  0
VISUALSTYLE
  5
2B
102
{ACAD_REACTORS
330
2A
102
}
330
2A
100
AcDbVisualStyle
  2
Flat
 70
     0
177
     3
291
     1
 70
    58
 90
        2
176
     1
 90
        1
176
     1
 90
        1
176
     1
 90
        2
176
     1
 40
0.6
176
     1
 40
30.0
176
     1
 62
     7
420
 16777215
176
     1
 90
        0
176
     1
 90
        0
176
     1
 62
     7
176
     1
 62
   257
176
     1
 90
        1
176
     1
 90
        1
176
     1
 40
1.0
176
     1
 90
        8
176
     1
 62
     7
176
     1
 40
1.0
176
     1
 90
        1
176
     1
 90
        6
176
     1
 90
        2
176
     1
 62
     7
176
     1
 90
        5
176
     1
 90
        0
176
     1
 90
        0
176
     1
290
     0
176
     1
 90
       13
176
     1
 40
0.0
176
     1
 90
        0
176
     1
290
     0
176
     1
290
     1
176
     1
290
     1
176
     1
290
     0
176
     1
290
     0
176
     1
290
     0
176
     1
290
     0
176
     1
290
     0
176
     1
290
     0
176
     1
 90
       50
176
     1
 40
0.0
176
     1
 40
1.0
176
     1
 90
        0
176
     1
 62
    18
420
        0
176
     1
 90
       50
176
     1
 90
        3
176
     1
 62
     5
420
      255
176
     1
290
     0
176
     1
 90
       50
176
     1
 90
       50
176
     1
 90
       50
176
     1
290
     0
176
     1
 90
       50
176
     1
 62
   256
176
     0
 40
1.0
176
     0
 90
        2
176
     1
  1
strokes_ogs.tif
176
     1
290
     0
176
     1
 40
1.0
176
     1
 40
1.0
176
     1
  0
VISUALSTYLE
  5
2C
102
{ACAD_REACTORS
330
2A
102
}
330
2A
100
AcDbVisualStyle
  2
FlatWithEdges
 70
     1
177
     3
291
     1
 70
    58
 90
        2
176
     1
 90
        1
176
     1
 90
        1
176
     1
 90
        2
176
     1
 40
0.6
176
     1
 40
30.0
176
     1
 62
     7
420
 16777215
176
     1
 90
        1
176
     1
 90
        0
176
     1
 62
     7
176
     1
 62
   257
176
     1
 90
        1
176
     1
 90
        1
176
     1
 40
1.0
176
     1
 90
        0
176
     1
 62
   257
176
     1
 40
1.0
176
     1
 90
        1
176
     1
 90
        6
176
     1
 90
        2
176
     1
 62
     7
176
     1
 90
        5
176
     1
 90
        0
176
     1
 90
        0
176
     1
290
     0
176
     1
 90
       13
176
     1
 40
0.0
176
     1
 90
        0
176
     1
290
     0
176
     1
290
     1
176
     1
290
     1
176
     1
290
     0
176
     1
290
     0
176
     1
290
     0
176
     1
290
     0
176
     1
290
     0
176
     1
290
     0
176
     1
 90
       50
176
     1
 40
0.0
176
     1
 40
1.0
176
     1
 90
        0
176
     1
 62
    18
420
        0
176
     1
 90
       50
176
     1
 90
        3
176
     1
 62
     5
420
      255
176
     1
290
     0
176
     1
 90
       50
176
     1
 90
       50
176
     1
 90
       50
176
     1
290
     0
176
     1
 90
       50
176
     1
 62
   256
176
     0
 40
1.0
176
     0
 90
        2
176
     1
  1
strokes_ogs.tif
176
     1
290
     0
176
     1
 40
1.0
176
     1
 40
1.0
176
     1
  0
VISUALSTYLE
  5
2D
102
{ACAD_REACTORS
330
2A
102
}
330
2A
100
AcDbVisualStyle
  2
Gouraud
 70
     2
177
     3
291
     1
 70
    58
 90
        2
176
     1
 90
        2
176
     1
 90
        1
176
     1
 90
        2
176
     1
 40
0.6
176
     1
 40
30.0
176
     1
 62
     7
420
 16777215
176
     1
 90
        0
176
     1
 90
        0
176
     1
 62
     7
176
     1
 62
   257
176
     1
 90
        1
176
     1
 90
        1
176
     1
 40
1.0
176
     1
 90
        0
176
     1
 62
     7
176
     1
 40
1.0
176
     1
 90
        1
176
     1
 90
        6
176
     1
 90
        2
176
     1
 62
     7
176
     1
 90
        5
176
     1
 90
        0
176
     1
 90
        0
176
     1
290
     0
176
     1
 90
       13
176
     1
 40
0.0
176
     1
 90
        0
176
     1
290
     0
176
     1
290
     1
176
     1
290
     1
176
     1
290
     0
176
     1
290
     0
176
     1
290
     0
176
     1
290
     0
176
     1
290
     0
176
     1
290
     0
176
     1
 90
       50
176
     1
 40
0.0
176
     1
 40
1.0
176
     1
 90
        0
176
     1
 62
    18
420
        0
176
     1
 90
       50
176
     1
 90
        3
176
     1
 62
     5
420
      255
176
     1
290
     0
176
     1
 90
       50
176
     1
 90
       50
176
     1
 90
       50
176
     1
290
     0
176
     1
 90
       50
176
     1
 62
   256
176
     0
 40
1.0
176
     0
 90
        2
176
     1
  1
strokes_ogs.tif
176
     1
290
     0
176
     1
 40
1.0
176
     1
 40
1.0
176
     1
  0
VISUALSTYLE
  5
2E
102
{ACAD_REACTORS
330
2A
102
}
330
2A
100
AcDbVisualStyle
  2
GouraudWithEdges
 70
     3
177
     3
291
     1
 70
    58
 90
        2
176
     1
 90
        2
176
     1
 90
        1
176
     1
 90
        2
176
     1
 40
0.6
176
     1
 40
30.0
176
     1
 62
     7
420
 16777215
176
     1
 90
        1
176
     1
 90
        0
176
     1
 62
     7
176
     1
 62
   257
176
     1
 90
        1
176
     1
 90
        1
176
     1
 40
1.0
176
     1
 90
        0
176
     1
 62
   257
176
     1
 40
1.0
176
     1
 90
        1
176
     1
 90
        6
176
     1
 90
        2
176
     1
 62
     7
176
     1
 90
        5
176
     1
 90
        0
176
     1
 90
        0
176
     1
290
     0
176
     1
 90
       13
176
     1
 40
0.0
176
     1
 90
        0
176
     1
290
     0
176
     1
290
     1
176
     1
290
     1
176
     1
290
     0
176
     1
290
     0
176
     1
290
     0
176
     1
290
     0
176
     1
290
     0
176
     1
290
     0
176
     1
 90
       50
176
     1
 40
0.0
176
     1
 40
1.0
176
     1
 90
        0
176
     1
 62
    18
420
        0
176
     1
 90
       50
176
     1
 90
        3
176
     1
 62
     5
420
      255
176
     1
290
     0
176
     1
 90
       50
176
     1
 90
       50
176
     1
 90
       50
176
     1
290
     0
176
     1
 90
       50
176
     1
 62
   256
176
     0
 40
1.0
176
     0
 90
        2
176
     1
  1
strokes_ogs.tif
176
     1
290
     0
176
     1
 40
1.0
176
     1
 40
1.0
176
     1
  0
VISUALSTYLE
  5
31
102
{ACAD_REACTORS
330
2A
102
}
330
2A
100
AcDbVisualStyle
  2
Hidden
 70
     6
177
     3
291
     0
 70
    58
 90
        1
176
     1
 90
        2
176
     1
 90
        2
176
     1
 90
        0
176
     1
 40
0.6
176
     1
 40
30.0
176
     1
 62
     7
420
 16777215
176
     1
 90
        2
176
     1
 90
        2
176
     1
 62
     7
176
     1
 62
   257
176
     1
 90
        2
176
     1
 90
        1
176
     1
 40
40.0
176
     1
 90
        0
176
     1
 62
   257
176
     1
 40
1.0
176
     1
 90
        1
176
     1
 90
        6
176
     1
 90
        2
176
     1
 62
     7
176
     1
 90
        3
176
     1
 90
        0
176
     1
 90
        0
176
     1
290
     0
176
     1
 90
        1
176
     1
 40
0.0
176
     1
 90
        0
176
     1
290
     0
176
     1
290
     1
176
     1
290
     1
176
     1
290
     0
176
     1
290
     0
176
     1
290
     0
176
     1
290
     0
176
     1
290
     0
176
     1
290
     0
176
     1
 90
       50
176
     1
 40
0.0
176
     1
 40
1.0
176
     1
 90
        0
176
     1
 62
    18
420
        0
176
     1
 90
       50
176
     1
 90
        3
176
     1
 62
     5
420
      255
176
     1
290
     0
176
     1
 90
       50
176
     1
 90
       50
176
     1
 90
       50
176
     1
290
     0
176
     1
 90
       50
176
     1
 62
   256
176
     0
 40
1.0
176
     0
 90
        2
176
     1
  1
strokes_ogs.tif
176
     1
290
     0
176
     1
 40
1.0
176
     1
 40
1.0
176
     1
  0
VISUALSTYLE
  5
3B
102
{ACAD_REACTORS
330
2A
102
}
330
2A
100
AcDbVisualStyle
  2
JitterOff
 70
    20
177
     3
291
     1
 70
    58
 90
        2
176
     0
 90
        2
176
     0
 90
        0
176
     0
 90
        0
176
     0
 40
0.6
176
     0
 40
30.0
176
     0
 62
     7
420
 16777215
176
     0
 90
        1
176
     0
 90
        4
176
     0
 62
     7
176
     0
 62
   257
176
     0
 90
        1
176
     0
 90
        1
176
     0
 40
1.0
176
     0
 90
       10
176
     2
 62
     7
176
     0
 40
1.0
176
     0
 90
        1
176
     0
 90
        6
176
     0
 90
        2
176
     0
 62
     7
176
     0
 90
        5
176
     0
 90
        0
176
     0
 90
        0
176
     0
290
     0
176
     0
 90
        1
176
     0
 40
0.0
176
     0
 90
        0
176
     0
290
     0
176
     0
290
     1
176
     0
290
     1
176
     0
290
     0
176
     0
290
     0
176
     0
290
     0
176
     0
290
     0
176
     0
290
     0
176
     0
290
     0
176
     0
 90
       50
176
     0
 40
0.0
176
     0
 40
1.0
176
     0
 90
        0
176
     0
 62
    18
420
        0
176
     0
 90
       50
176
     0
 90
        3
176
     0
 62
     5
420
      255
176
     0
290
     0
176
     0
 90
       50
176
     0
 90
       50
176
     0
 90
       50
176
     0
290
     0
176
     0
 90
       50
176
     0
 62
   256
176
     0
 40
1.0
176
     0
 90
        2
176
     0
  1
strokes_ogs.tif
176
     0
290
     0
176
     0
 40
1.0
176
     0
 40
1.0
176
     0
  0
VISUALSTYLE
  5
38
102
{ACAD_REACTORS
330
2A
102
}
330
2A
100
AcDbVisualStyle
  2
Linepattern
 70
    14
177
     3
291
     1
 70
    58
 90
        2
176
     1
 90
        2
176
     1
 90
        0
176
     1
 90
        0
176
     1
 40
0.6
176
     1
 40
30.0
176
     1
 62
     7
420
 16777215
176
     1
 90
        1
176
     1
 90
        4
176
     1
 62
     7
176
     1
 62
   257
176
     1
 90
        7
176
     1
 90
        7
176
     1
 40
1.0
176
     1
 90
        8
176
     1
 62
     7
176
     1
 40
1.0
176
     1
 90
        1
176
     1
 90
        6
176
     1
 90
        2
176
     1
 62
     7
176
     1
 90
        5
176
     1
 90
        0
176
     1
 90
        0
176
     1
290
     0
176
     1
 90
        1
176
     1
 40
0.0
176
     1
 90
        0
176
     1
290
     0
176
     1
290
     1
176
     1
290
     1
176
     1
290
     0
176
     1
290
     0
176
     1
290
     0
176
     1
290
     0
176
     1
290
     0
176
     1
290
     0
176
     1
 90
       50
176
     1
 40
0.0
176
     1
 40
1.0
176
     1
 90
        0
176
     1
 62
    18
420
        0
176
     1
 90
       50
176
     1
 90
        3
176
     1
 62
     5
420
      255
176
     1
290
     0
176
     1
 90
       50
176
     1
 90
       50
176
     1
 90
       50
176
     1
290
     0
176
     1
 90
       50
176
     1
 62
   256
176
     0
 40
1.0
176
     0
 90
        2
176
     1
  1
strokes_ogs.tif
176
     1
290
     0
176
     1
 40
1.0
176
     1
 40
1.0
176
     1
  0
VISUALSTYLE
  5
3C
102
{ACAD_REACTORS
330
2A
102
}
330
2A
100
AcDbVisualStyle
  2
OverhangOff
 70
    21
177
     3
291
     1
 70
    58
 90
        2
176
     0
 90
        2
176
     0
 90
        0
176
     0
 90
        0
176
     0
 40
0.6
176
     0
 40
30.0
176
     0
 62
     7
420
 16777215
176
     0
 90
        1
176
     0
 90
        4
176
     0
 62
     7
176
     0
 62
   257
176
     0
 90
        1
176
     0
 90
        1
176
     0
 40
1.0
176
     0
 90
        9
176
     2
 62
     7
176
     0
 40
1.0
176
     0
 90
        1
176
     0
 90
        6
176
     0
 90
        2
176
     0
 62
     7
176
     0
 90
        5
176
     0
 90
        0
176
     0
 90
        0
176
     0
290
     0
176
     0
 90
        1
176
     0
 40
0.0
176
     0
 90
        0
176
     0
290
     0
176
     0
290
     1
176
     0
290
     1
176
     0
290
     0
176
     0
290
     0
176
     0
290
     0
176
     0
290
     0
176
     0
290
     0
176
     0
290
     0
176
     0
 90
       50
176
     0
 40
0.0
176
     0
 40
1.0
176
     0
 90
        0
176
     0
 62
    18
420
        0
176
     0
 90
       50
176
     0
 90
        3
176
     0
 62
     5
420
      255
176
     0
290
     0
176
     0
 90
       50
176
     0
 90
       50
176
     0
 90
       50
176
     0
290
     0
176
     0
 90
       50
176
     0
 62
   256
176
     0
 40
1.0
176
     0
 90
        2
176
     0
  1
strokes_ogs.tif
176
     0
290
     0
176
     0
 40
1.0
176
     0
 40
1.0
176
     0
  0
VISUALSTYLE
  5
33
102
{ACAD_REACTORS
330
2A
102
}
330
2A
100
AcDbVisualStyle
  2
Realistic
 70
     8
177
     3
291
     0
 70
    58
 90
        2
176
     1
 90
        3
176
     1
 90
        0
176
     1
 90
        2
176
     1
 40
0.6
176
     1
 40
30.0
176
     1
 62
     7
420
 16777215
176
     1
 90
        0
176
     1
 90
        0
176
     1
 62
     7
176
     1
 62
   257
176
     1
 90
        1
176
     1
 90
        1
176
     1
 40
1.0
176
     1
 90
        8
176
     1
 62
   257
176
     1
 40
1.0
176
     1
 90
        1
176
     1
 90
        6
176
     1
 90
        2
176
     1
 62
     7
176
     1
 90
        3
176
     1
 90
        0
176
     1
 90
        0
176
     1
290
     0
176
     1
 90
       13
176
     1
 40
0.0
176
     1
 90
        0
176
     1
290
     0
176
     1
290
     1
176
     1
290
     1
176
     1
290
     0
176
     1
290
     0
176
     1
290
     0
176
     1
290
     0
176
     1
290
     0
176
     1
290
     0
176
     1
 90
       50
176
     1
 40
0.0
176
     1
 40
1.0
176
     1
 90
        0
176
     1
 62
    18
420
        0
176
     1
 90
       50
176
     1
 90
        3
176
     1
 62
     5
420
      255
176
     1
290
     0
176
     1
 90
       50
176
     1
 90
       50
176
     1
 90
       50
176
     1
290
     0
176
     1
 90
       50
176
     1
 62
   256
176
     0
 40
1.0
176
     0
 90
        2
176
     1
  1
strokes_ogs.tif
176
     1
290
     0
176
     1
 40
1.0
176
     1
 40
1.0
176
     1
  0
VISUALSTYLE
  5
42
102
{ACAD_REACTORS
330
2A
102
}
330
2A
100
AcDbVisualStyle
  2
Shaded
 70
    27
177
     3
291
     0
 70
    58
 90
        2
176
     1
 90
        2
176
     1
 90
        1
176
     1
 90
        2
176
     1
 40
0.6
176
     1
 40
30.0
176
     1
 62
     7
420
 16777215
176
     1
 90
        0
176
     1
 90
        4
176
     1
 62
     7
176
     1
 62
   257
176
     1
 90
        1
176
     1
 90
        1
176
     1
 40
1.0
176
     1
 90
        8
176
     1
 62
   257
176
     1
 40
1.0
176
     1
 90
        1
176
     1
 90
        6
176
     1
 90
        2
176
     1
 62
     8
420
  7895160
176
     1
 90
        3
176
     1
 90
        0
176
     1
 90
        0
176
     1
290
     0
176
     1
 90
        5
176
     1
 40
0.0
176
     1
 90
        0
176
     1
290
     0
176
     1
290
     1
176
     1
290
     1
176
     1
290
     0
176
     1
290
     0
176
     1
290
     0
176
     1
290
     0
176
     1
290
     0
176
     1
290
     0
176
     1
 90
       50
176
     1
 40
0.0
176
     1
 40
1.0
176
     1
 90
        0
176
     1
 62
    18
420
        0
176
     1
 90
       50
176
     1
 90
        3
176
     1
 62
     5
420
      255
176
     1
290
     0
176
     1
 90
       50
176
     1
 90
       50
176
     1
 90
       50
176
     1
290
     0
176
     1
 90
       50
176
     1
 62
   256
176
     0
 40
1.0
176
     0
 90
        2
176
     1
  1
strokes_ogs.tif
176
     1
290
     0
176
     1
 40
1.0
176
     1
 40
1.0
176
     1
  0
VISUALSTYLE
  5
41
102
{ACAD_REACTORS
330
2A
102
}
330
2A
100
AcDbVisualStyle
  2
Shaded with edges
 70
    26
177
     3
291
     0
 70
    58
 90
        2
176
     1
 90
        2
176
     1
 90
        1
176
     1
 90
        2
176
     1
 40
0.6
176
     1
 40
30.0
176
     1
 62
     7
420
 16777215
176
     1
 90
        1
176
     1
 90
       10
176
     1
 62
     7
176
     1
 62
   257
176
     1
 90
        2
176
     1
 90
        1
176
     1
 40
1.0
176
     1
 90
        8
176
     1
 62
   257
176
     1
 40
1.0
176
     1
 90
        1
176
     1
 90
        6
176
     1
 90
        2
176
     1
 62
     7
176
     1
 90
        3
176
     1
 90
        0
176
     1
 90
        0
176
     1
290
     0
176
     1
 90
        5
176
     1
 40
0.0
176
     1
 90
        0
176
     1
290
     0
176
     1
290
     1
176
     1
290
     1
176
     1
290
     0
176
     1
290
     0
176
     1
290
     0
176
     1
290
     0
176
     1
290
     0
176
     1
290
     0
176
     1
 90
       50
176
     1
 40
0.0
176
     1
 40
1.0
176
     1
 90
        0
176
     1
 62
    18
420
        0
176
     1
 90
       50
176
     1
 90
        3
176
     1
 62
     5
420
      255
176
     1
290
     0
176
     1
 90
       50
176
     1
 90
       50
176
     1
 90
       50
176
     1
290
     0
176
     1
 90
       50
176
     1
 62
   256
176
     0
 40
1.0
176
     0
 90
        2
176
     1
  1
strokes_ogs.tif
176
     1
290
     0
176
     1
 40
1.0
176
     1
 40
1.0
176
     1
  0
VISUALSTYLE
  5
3E
102
{ACAD_REACTORS
330
2A
102
}
330
2A
100
AcDbVisualStyle
  2
Shades of Gray
 70
    23
177
     3
291
     0
 70
    58
 90
        2
176
     1
 90
        2
176
     1
 90
        3
176
     1
 90
        0
176
     1
 40
0.6
176
     1
 40
30.0
176
     1
 62
     7
420
 16777215
176
     1
 90
        2
176
     1
 90
        2
176
     1
 62
     7
176
     1
 62
     7
176
     1
 90
        1
176
     1
 90
        1
176
     1
 40
40.0
176
     1
 90
        8
176
     1
 62
     7
176
     1
 40
1.0
176
     1
 90
        1
176
     1
 90
        6
176
     1
 90
        2
176
     1
 62
     7
176
     1
 90
        3
176
     1
 90
        0
176
     1
 90
        0
176
     1
290
     0
176
     1
 90
        1
176
     1
 40
0.0
176
     1
 90
        0
176
     1
290
     0
176
     1
290
     1
176
     1
290
     1
176
     1
290
     0
176
     1
290
     0
176
     1
290
     0
176
     1
290
     0
176
     1
290
     0
176
     1
290
     0
176
     1
 90
       50
176
     1
 40
0.0
176
     1
 40
1.0
176
     1
 90
        0
176
     1
 62
    18
420
        0
176
     1
 90
       50
176
     1
 90
        3
176
     1
 62
     5
420
      255
176
     1
290
     0
176
     1
 90
       50
176
     1
 90
       50
176
     1
 90
       50
176
     1
290
     0
176
     1
 90
       50
176
     1
 62
   256
176
     0
 40
1.0
176
     0
 90
        2
176
     1
  1
strokes_ogs.tif
176
     1
290
     0
176
     1
 40
1.0
176
     1
 40
1.0
176
     1
  0
VISUALSTYLE
  5
3F
102
{ACAD_REACTORS
330
2A
102
}
330
2A
100
AcDbVisualStyle
  2
Sketchy
 70
    24
177
     3
291
     0
 70
    58
 90
        1
176
     1
 90
        2
176
     1
 90
        2
176
     1
 90
        0
176
     1
 40
0.6
176
     1
 40
30.0
176
     1
 62
     7
420
 16777215
176
     1
 90
        2
176
     1
 90
        2
176
     1
 62
     7
176
     1
 62
     7
176
     1
 90
        1
176
     1
 90
        1
176
     1
 40
40.0
176
     1
 90
       11
176
     1
 62
     7
176
     1
 40
1.0
176
     1
 90
        1
176
     1
 90
        6
176
     1
 90
        2
176
     1
 62
     7
176
     1
 90
        6
176
     1
 90
        0
176
     1
 90
        0
176
     1
290
     0
176
     1
 90
        1
176
     1
 40
0.0
176
     1
 90
        0
176
     1
290
     0
176
     1
290
     1
176
     1
290
     1
176
     1
290
     0
176
     1
290
     0
176
     1
290
     0
176
     1
290
     0
176
     1
290
     0
176
     1
290
     0
176
     1
 90
       50
176
     1
 40
0.0
176
     1
 40
1.0
176
     1
 90
        0
176
     1
 62
    18
420
        0
176
     1
 90
       50
176
     1
 90
        3
176
     1
 62
     5
420
      255
176
     1
290
     0
176
     1
 90
       50
176
     1
 90
       50
176
     1
 90
       50
176
     1
290
     0
176
     1
 90
       50
176
     1
 62
   256
176
     0
 40
1.0
176
     0
 90
        2
176
     1
  1
strokes_ogs.tif
176
     1
290
     0
176
     1
 40
1.0
176
     1
 40
1.0
176
     1
  0
VISUALSTYLE
  5
37
102
{ACAD_REACTORS
330
2A
102
}
330
2A
100
AcDbVisualStyle
  2
Thicken
 70
    13
177
     3
291
     1
 70
    58
 90
        2
176
     1
 90
        2
176
     1
 90
        0
176
     1
 90
        0
176
     1
 40
0.6
176
     1
 40
30.0
176
     1
 62
     7
420
 16777215
176
     1
 90
        1
176
     1
 90
        4
176
     1
 62
     7
176
     1
 62
   257
176
     1
 90
        1
176
     1
 90
        1
176
     1
 40
1.0
176
     1
 90
       12
176
     1
 62
     7
176
     1
 40
1.0
176
     1
 90
        1
176
     1
 90
        6
176
     1
 90
        2
176
     1
 62
     7
176
     1
 90
        5
176
     1
 90
        0
176
     1
 90
        0
176
     1
290
     0
176
     1
 90
        1
176
     1
 40
0.0
176
     1
 90
        0
176
     1
290
     0
176
     1
290
     1
176
     1
290
     1
176
     1
290
     0
176
     1
290
     0
176
     1
290
     0
176
     1
290
     0
176
     1
290
     0
176
     1
290
     0
176
     1
 90
       50
176
     1
 40
0.0
176
     1
 40
1.0
176
     1
 90
        0
176
     1
 62
    18
420
        0
176
     1
 90
       50
176
     1
 90
        3
176
     1
 62
     5
420
      255
176
     1
290
     0
176
     1
 90
       50
176
     1
 90
       50
176
     1
 90
       50
176
     1
290
     0
176
     1
 90
       50
176
     1
 62
   256
176
     0
 40
1.0
176
     0
 90
        2
176
     1
  1
strokes_ogs.tif
176
     1
290
     0
176
     1
 40
1.0
176
     1
 40
1.0
176
     1
  0
VISUALSTYLE
  5
30
102
{ACAD_REACTORS
330
2A
102
}
330
2A
100
AcDbVisualStyle
  2
Wireframe
 70
     5
177
     3
291
     0
 70
    58
 90
        0
176
     1
 90
        2
176
     1
 90
        0
176
     1
 90
        0
176
     1
 40
0.6
176
     1
 40
30.0
176
     1
 62
     7
420
 16777215
176
     1
 90
        1
176
     1
 90
        4
176
     1
 62
     7
176
     1
 62
   257
176
     1
 90
        1
176
     1
 90
        1
176
     1
 40
1.0
176
     1
 90
        0
176
     1
 62
   257
176
     1
 40
1.0
176
     1
 90
        1
176
     1
 90
        6
176
     1
 90
        2
176
     1
 62
     7
176
     1
 90
        3
176
     1
 90
        0
176
     1
 90
        0
176
     1
290
     0
176
     1
 90
        1
176
     1
 40
0.0
176
     1
 90
        0
176
     1
290
     0
176
     1
290
     1
176
     1
290
     1
176
     1
290
     0
176
     1
290
     0
176
     1
290
     0
176
     1
290
     0
176
     1
290
     0
176
     1
290
     0
176
     1
 90
       50
176
     1
 40
0.0
176
     1
 40
1.0
176
     1
 90
        0
176
     1
 62
    18
420
        0
176
     1
 90
       50
176
     1
 90
        3
176
     1
 62
     5
420
      255
176
     1
290
     0
176
     1
 90
       50
176
     1
 90
       50
176
     1
 90
       50
176
     1
290
     0
176
     1
 90
       50
176
     1
 62
   256
176
     0
 40
1.0
176
     0
 90
        2
176
     1
  1
strokes_ogs.tif
176
     1
290
     0
176
     1
 40
1.0
176
     1
 40
1.0
176
     1
  0
VISUALSTYLE
  5
40
102
{ACAD_REACTORS
330
2A
102
}
330
2A
100
AcDbVisualStyle
  2
X-Ray
 70
    25
177
     3
291
     0
 70
    58
 90
        2
176
     1
 90
        2
176
     1
 90
        1
176
     1
 90
        1
176
     1
 40
0.5
176
     1
 40
30.0
176
     1
 62
     7
420
 16777215
176
     1
 90
        1
176
     1
 90
        0
176
     1
 62
     7
176
     1
 62
   257
176
     1
 90
        1
176
     1
 90
        1
176
     1
 40
1.0
176
     1
 90
        8
176
     1
 62
     7
176
     1
 40
1.0
176
     1
 90
        1
176
     1
 90
        6
176
     1
 90
        2
176
     1
 62
     7
176
     1
 90
        3
176
     1
 90
        0
176
     1
 90
        0
176
     1
290
     0
176
     1
 90
       13
176
     1
 40
0.0
176
     1
 90
        0
176
     1
290
     0
176
     1
290
     1
176
     1
290
     1
176
     1
290
     0
176
     1
290
     0
176
     1
290
     0
176
     1
290
     0
176
     1
290
     0
176
     1
290
     0
176
     1
 90
       50
176
     1
 40
0.0
176
     1
 40
1.0
176
     1
 90
        0
176
     1
 62
    18
420
        0
176
     1
 90
       50
176
     1
 90
        3
176
     1
 62
     5
420
      255
176
     1
290
     0
176
     1
 90
       50
176
     1
 90
       50
176
     1
 90
       50
176
     1
290
     0
176
     1
 90
       50
176
     1
 62
   256
176
     0
 40
1.0
176
     0
 90
        2
176
     1
  1
strokes_ogs.tif
176
     1
290
     0
176
     1
 40
1.0
176
     1
 40
1.0
176
     1
  0
DICTIONARYVAR
  5
1A1
102
{ACAD_REACTORS
330
1A0
102
}
330
1A0
100
DictionaryVariables
280
     0
  1
1:1
  0
DICTIONARYVAR
  5
1A6
102
{ACAD_REACTORS
330
1A0
102
}
330
1A0
100
DictionaryVariables
280
     0
  1
Standard
  0
DICTIONARYVAR
  5
1A5
102
{ACAD_REACTORS
330
1A0
102
}
330
1A0
100
DictionaryVariables
280
     0
  1
Standard
  0
DICTIONARY
  5
1A2
330
6A
100
AcDbDictionary
280
     1
281
     1
  3
ACAD_ROUNDTRIP_2008_TABLESTYLE_CELLSTYLEMAP
360
1A3
  0
CELLSTYLEMAP
  5
1A3
102
{ACAD_REACTORS
330
1A2
102
}
330
1A2
100
AcDbCellStyleMap
 90
        3
300
CELLSTYLE
  1
TABLEFORMAT_BEGIN
 90
        5
170
     1
 91
        0
 92
    32768
 62
   257
 93
        1
300
CONTENTFORMAT
  1
CONTENTFORMAT_BEGIN
 90
        0
 91
        0
 92
        4
 93
        0
300

 40
0.0
140
1.0
 94
        5
 62
     0
340
11
144
0.25
309
CONTENTFORMAT_END
171
     1
301
MARGIN
  1
CELLMARGIN_BEGIN
 40
0.06
 40
0.06
 40
0.06
 40
0.06
 40
0.06
 40
0.06
309
CELLMARGIN_END
 94
        6
 95
        1
302
GRIDFORMAT
  1
GRIDFORMAT_BEGIN
 90
        0
 91
        1
 62
     0
 92
       -2
340
14
 93
        0
 40
0.045
309
GRIDFORMAT_END
 95
        2
302
GRIDFORMAT
  1
GRIDFORMAT_BEGIN
 90
        0
 91
        1
 62
     0
 92
       -2
340
14
 93
        0
 40
0.045
309
GRIDFORMAT_END
 95
        4
302
GRIDFORMAT
  1
GRIDFORMAT_BEGIN
 90
        0
 91
        1
 62
     0
 92
       -2
340
14
 93
        0
 40
0.045
309
GRIDFORMAT_END
 95
        8
302
GRIDFORMAT
  1
GRIDFORMAT_BEGIN
 90
        0
 91
        1
 62
     0
 92
       -2
340
14
 93
        0
 40
0.045
309
GRIDFORMAT_END
 95
       16
302
GRIDFORMAT
  1
GRIDFORMAT_BEGIN
 90
        0
 91
        1
 62
     0
 92
       -2
340
14
 93
        0
 40
0.045
309
GRIDFORMAT_END
 95
       32
302
GRIDFORMAT
  1
GRIDFORMAT_BEGIN
 90
        0
 91
        1
 62
     0
 92
       -2
340
14
 93
        0
 40
0.045
309
GRIDFORMAT_END
309
TABLEFORMAT_END
  1
CELLSTYLE_BEGIN
 90
        1
 91
        1
300
_TITLE
309
CELLSTYLE_END
300
CELLSTYLE
  1
TABLEFORMAT_BEGIN
 90
        5
170
     1
 91
        0
 92
        0
 62
   257
 93
        1
300
CONTENTFORMAT
  1
CONTENTFORMAT_BEGIN
 90
        0
 91
        0
 92
        4
 93
        0
300

 40
0.0
140
1.0
 94
        5
 62
     0
340
11
144
0.18
309
CONTENTFORMAT_END
171
     1
301
MARGIN
  1
CELLMARGIN_BEGIN
 40
0.06
 40
0.06
 40
0.06
 40
0.06
 40
0.06
 40
0.06
309
CELLMARGIN_END
 94
        6
 95
        1
302
GRIDFORMAT
  1
GRIDFORMAT_BEGIN
 90
        0
 91
        1
 62
     0
 92
       -2
340
14
 93
        0
 40
0.045
309
GRIDFORMAT_END
 95
        2
302
GRIDFORMAT
  1
GRIDFORMAT_BEGIN
 90
        0
 91
        1
 62
     0
 92
       -2
340
14
 93
        0
 40
0.045
309
GRIDFORMAT_END
 95
        4
302
GRIDFORMAT
  1
GRIDFORMAT_BEGIN
 90
        0
 91
        1
 62
     0
 92
       -2
340
14
 93
        0
 40
0.045
309
GRIDFORMAT_END
 95
        8
302
GRIDFORMAT
  1
GRIDFORMAT_BEGIN
 90
        0
 91
        1
 62
     0
 92
       -2
340
14
 93
        0
 40
0.045
309
GRIDFORMAT_END
 95
       16
302
GRIDFORMAT
  1
GRIDFORMAT_BEGIN
 90
        0
 91
        1
 62
     0
 92
       -2
340
14
 93
        0
 40
0.045
309
GRIDFORMAT_END
 95
       32
302
GRIDFORMAT
  1
GRIDFORMAT_BEGIN
 90
        0
 91
        1
 62
     0
 92
       -2
340
14
 93
        0
 40
0.045
309
GRIDFORMAT_END
309
TABLEFORMAT_END
  1
CELLSTYLE_BEGIN
 90
        2
 91
        1
300
_HEADER
309
CELLSTYLE_END
300
CELLSTYLE
  1
TABLEFORMAT_BEGIN
 90
        5
170
     1
 91
        0
 92
        0
 62
   257
 93
        1
300
CONTENTFORMAT
  1
CONTENTFORMAT_BEGIN
 90
        0
 91
        0
 92
        4
 93
        0
300

 40
0.0
140
1.0
 94
        2
 62
     0
340
11
144
0.18
309
CONTENTFORMAT_END
171
     1
301
MARGIN
  1
CELLMARGIN_BEGIN
 40
0.06
 40
0.06
 40
0.06
 40
0.06
 40
0.06
 40
0.06
309
CELLMARGIN_END
 94
        6
 95
        1
302
GRIDFORMAT
  1
GRIDFORMAT_BEGIN
 90
        0
 91
        1
 62
     0
 92
       -2
340
14
 93
        0
 40
0.045
309
GRIDFORMAT_END
 95
        2
302
GRIDFORMAT
  1
GRIDFORMAT_BEGIN
 90
        0
 91
        1
 62
     0
 92
       -2
340
14
 93
        0
 40
0.045
309
GRIDFORMAT_END
 95
        4
302
GRIDFORMAT
  1
GRIDFORMAT_BEGIN
 90
        0
 91
        1
 62
     0
 92
       -2
340
14
 93
        0
 40
0.045
309
GRIDFORMAT_END
 95
        8
302
GRIDFORMAT
  1
GRIDFORMAT_BEGIN
 90
        0
 91
        1
 62
     0
 92
       -2
340
14
 93
        0
 40
0.045
309
GRIDFORMAT_END
 95
       16
302
GRIDFORMAT
  1
GRIDFORMAT_BEGIN
 90
        0
 91
        1
 62
     0
 92
       -2
340
14
 93
        0
 40
0.045
309
GRIDFORMAT_END
 95
       32
302
GRIDFORMAT
  1
GRIDFORMAT_BEGIN
 90
        0
 91
        1
 62
     0
 92
       -2
340
14
 93
        0
 40
0.045
309
GRIDFORMAT_END
309
TABLEFORMAT_END
  1
CELLSTYLE_BEGIN
 90
        3
 91
        2
300
_DATA
309
CELLSTYLE_END
  0
ENDSEC
  0
EOF