0
SECTION
  2
HEADER
  9
$ACADVER
  1
AC1027
  9
$ACADMAINTVER
 70
     8
  9
$DWGCODEPAGE
  3
ANSI_1252
  9
$REQUIREDVERSIONS
160
                 0
  9
$COMMENTS
  1
File was created by Cadenas
  9
$CUSTOMPROPERTYTAG
  1
NN
  9
$CUSTOMPROPERTY
  1
S-2000 Flange Bearing - Square Labyrinth Seal
  9
$CUSTOMPROPERTYTAG
  1
NT
  9
$CUSTOMPROPERTY
  1
S-2000 4 Bolt Square Flange Bearing -Inch
  9
$CUSTOMPROPERTYTAG
  1
NB
  9
$CUSTOMPROPERTY
  1
070866
  9
$CUSTOMPROPERTYTAG
  1
NBSYN
  9
$CUSTOMPROPERTY
  1
$PN.
  9
$CUSTOMPROPERTYTAG
  1
LINA
  9
$CUSTOMPROPERTY
  1
070866
  9
$CUSTOMPROPERTYTAG
  1
SS
  9
$CUSTOMPROPERTY
  1
2-15/16
  9
$CUSTOMPROPERTYTAG
  1
PN
  9
$CUSTOMPROPERTY
  1
070866
  9
$CUSTOMPROPERTYTAG
  1
DESCRIPTION
  9
$CUSTOMPROPERTY
  1
F4S-S2-215LE
  9
$CUSTOMPROPERTYTAG
  1
EF
  9
$CUSTOMPROPERTY
  1
Expansion Type
  9
$CUSTOMPROPERTYTAG
  1
ST
  9
$CUSTOMPROPERTY
  1
Labyrinth Seal
  9
$CUSTOMPROPERTYTAG
  1
A
  9
$CUSTOMPROPERTY
  1
3-19/32
  9
$CUSTOMPROPERTYTAG
  1
B
  9
$CUSTOMPROPERTY
  1
7-3/16
  9
$CUSTOMPROPERTYTAG
  1
C
  9
$CUSTOMPROPERTY
  1
3-29/32
  9
$CUSTOMPROPERTYTAG
  1
D
  9
$CUSTOMPROPERTY
  1
5-9/16
  9
$CUSTOMPROPERTYTAG
  1
F
  9
$CUSTOMPROPERTY
  1
3/4
  9
$CUSTOMPROPERTYTAG
  1
G
  9
$CUSTOMPROPERTY
  1
1-33/64
  9
$CUSTOMPROPERTYTAG
  1
H
  9
$CUSTOMPROPERTY
  1
3/4
  9
$CUSTOMPROPERTYTAG
  1
J
  9
$CUSTOMPROPERTY
  1
6-1/2
  9
$CUSTOMPROPERTYTAG
  1
K
  9
$CUSTOMPROPERTY
  1
7-7/8
  9
$CUSTOMPROPERTYTAG
  1
L
  9
$CUSTOMPROPERTY
  1
4-45/64
  9
$CUSTOMPROPERTYTAG
  1
N
  9
$CUSTOMPROPERTY
  1
3-27/32
  9
$CUSTOMPROPERTYTAG
  1
P
  9
$CUSTOMPROPERTY
  1
5/16
  9
$CUSTOMPROPERTYTAG
  1
X
  9
$CUSTOMPROPERTY
  1
1/4
  9
$CUSTOMPROPERTYTAG
  1
Y
  9
$CUSTOMPROPERTY
  1
0.025
  9
$CUSTOMPROPERTYTAG
  1
Z
  9
$CUSTOMPROPERTY
  1
3-15/32
  9
$CUSTOMPROPERTYTAG
  1
COMPANY
  9
$CUSTOMPROPERTY
  1
baldor
  9
$INSBASE
 10
0.0
 20
0.0
 30
0.0
  9
$EXTMIN
 10
1.000000000000000E+20
 20
1.000000000000000E+20
 30
1.000000000000000E+20
  9
$EXTMAX
 10
-1.000000000000000E+20
 20
-1.000000000000000E+20
 30
-1.000000000000000E+20
  9
$LIMMIN
 10
0.0
 20
0.0
  9
$LIMMAX
 10
12.0
 20
9.0
  9
$ORTHOMODE
 70
     0
  9
$REGENMODE
 70
     1
  9
$FILLMODE
 70
     1
  9
$QTEXTMODE
 70
     0
  9
$MIRRTEXT
 70
     1
  9
$LTSCALE
 40
1.0
  9
$ATTMODE
 70
     1
  9
$TEXTSIZE
 40
0.2
  9
$TRACEWID
 40
0.05
  9
$TEXTSTYLE
  7
Standard
  9
$CLAYER
  8
0
  9
$CELTYPE
  6
ByLayer
  9
$CECOLOR
 62
   256
  9
$CELTSCALE
 40
1.0
  9
$DISPSILH
 70
     0
  9
$DIMSCALE
 40
1.0
  9
$DIMASZ
 40
0.18
  9
$DIMEXO
 40
0.0625
  9
$DIMDLI
 40
0.38
  9
$DIMRND
 40
0.0
  9
$DIMDLE
 40
0.0
  9
$DIMEXE
 40
0.18
  9
$DIMTP
 40
0.0
  9
$DIMTM
 40
0.0
  9
$DIMTXT
 40
0.18
  9
$DIMCEN
 40
0.09
  9
$DIMTSZ
 40
0.0
  9
$DIMTOL
 70
     0
  9
$DIMLIM
 70
     0
  9
$DIMTIH
 70
     1
  9
$DIMTOH
 70
     1
  9
$DIMSE1
 70
     0
  9
$DIMSE2
 70
     0
  9
$DIMTAD
 70
     0
  9
$DIMZIN
 70
     0
  9
$DIMBLK
  1

  9
$DIMASO
 70
     1
  9
$DIMSHO
 70
     1
  9
$DIMPOST
  1

  9
$DIMAPOST
  1

  9
$DIMALT
 70
     0
  9
$DIMALTD
 70
     2
  9
$DIMALTF
 40
25.4
  9
$DIMLFAC
 40
1.0
  9
$DIMTOFL
 70
     0
  9
$DIMTVP
 40
0.0
  9
$DIMTIX
 70
     0
  9
$DIMSOXD
 70
     0
  9
$DIMSAH
 70
     0
  9
$DIMBLK1
  1

  9
$DIMBLK2
  1

  9
$DIMSTYLE
  2
Standard
  9
$DIMCLRD
 70
     0
  9
$DIMCLRE
 70
     0
  9
$DIMCLRT
 70
     0
  9
$DIMTFAC
 40
1.0
  9
$DIMGAP
 40
0.09
  9
$DIMJUST
 70
     0
  9
$DIMSD1
 70
     0
  9
$DIMSD2
 70
     0
  9
$DIMTOLJ
 70
     1
  9
$DIMTZIN
 70
     0
  9
$DIMALTZ
 70
     0
  9
$DIMALTTZ
 70
     0
  9
$DIMUPT
 70
     0
  9
$DIMDEC
 70
     4
  9
$DIMTDEC
 70
     4
  9
$DIMALTU
 70
     2
  9
$DIMALTTD
 70
     2
  9
$DIMTXSTY
  7
Standard
  9
$DIMAUNIT
 70
     0
  9
$DIMADEC
 70
     0
  9
$DIMALTRND
 40
0.0
  9
$DIMAZIN
 70
     0
  9
$DIMDSEP
 70
    46
  9
$DIMATFIT
 70
     3
  9
$DIMFRAC
 70
     0
  9
$DIMLDRBLK
  1

  9
$DIMLUNIT
 70
     2
  9
$DIMLWD
 70
    -2
  9
$DIMLWE
 70
    -2
  9
$DIMTMOVE
 70
     0
  9
$DIMFXL
 40
1.0
  9
$DIMFXLON
 70
     0
  9
$DIMJOGANG
 40
0.7853981633974483
  9
$DIMTFILL
 70
     0
  9
$DIMTFILLCLR
 70
     0
  9
$DIMARCSYM
 70
     0
  9
$DIMLTYPE
  6

  9
$DIMLTEX1
  6

  9
$DIMLTEX2
  6

  9
$DIMTXTDIRECTION
 70
     0
  9
$LUNITS
 70
     2
  9
$LUPREC
 70
     4
  9
$SKETCHINC
 40
0.1
  9
$FILLETRAD
 40
0.5
  9
$AUNITS
 70
     0
  9
$AUPREC
 70
     0
  9
$MENU
  1
.
  9
$ELEVATION
 40
0.0
  9
$PELEVATION
 40
0.0
  9
$THICKNESS
 40
0.0
  9
$LIMCHECK
 70
     0
  9
$CHAMFERA
 40
0.0
  9
$CHAMFERB
 40
0.0
  9
$CHAMFERC
 40
0.0
  9
$CHAMFERD
 40
0.0
  9
$SKPOLY
 70
     0
  9
$TDCREATE
 40
2458168.984341065
  9
$TDUCREATE
 40
2458168.942674398
  9
$TDUPDATE
 40
2458168.984341065
  9
$TDUUPDATE
 40
2458168.942674398
  9
$TDINDWG
 40
0.0000000116
  9
$TDUSRTIMER
 40
0.0000000116
  9
$USRTIMER
 70
     1
  9
$ANGBASE
 50
0.0
  9
$ANGDIR
 70
     0
  9
$PDMODE
 70
     0
  9
$PDSIZE
 40
0.0
  9
$PLINEWID
 40
0.0
  9
$SPLFRAME
 70
     0
  9
$SPLINETYPE
 70
     6
  9
$SPLINESEGS
 70
     8
  9
$HANDSEED
  5
1EF
  9
$SURFTAB1
 70
     6
  9
$SURFTAB2
 70
     6
  9
$SURFTYPE
 70
     6
  9
$SURFU
 70
     6
  9
$SURFV
 70
     6
  9
$UCSBASE
  2

  9
$UCSNAME
  2

  9
$UCSORG
 10
0.0
 20
0.0
 30
0.0
  9
$UCSXDIR
 10
1.0
 20
0.0
 30
0.0
  9
$UCSYDIR
 10
0.0
 20
1.0
 30
0.0
  9
$UCSORTHOREF
  2

  9
$UCSORTHOVIEW
 70
     0
  9
$UCSORGTOP
 10
0.0
 20
0.0
 30
0.0
  9
$UCSORGBOTTOM
 10
0.0
 20
0.0
 30
0.0
  9
$UCSORGLEFT
 10
0.0
 20
0.0
 30
0.0
  9
$UCSORGRIGHT
 10
0.0
 20
0.0
 30
0.0
  9
$UCSORGFRONT
 10
0.0
 20
0.0
 30
0.0
  9
$UCSORGBACK
 10
0.0
 20
0.0
 30
0.0
  9
$PUCSBASE
  2

  9
$PUCSNAME
  2

  9
$PUCSORG
 10
0.0
 20
0.0
 30
0.0
  9
$PUCSXDIR
 10
1.0
 20
0.0
 30
0.0
  9
$PUCSYDIR
 10
0.0
 20
1.0
 30
0.0
  9
$PUCSORTHOREF
  2

  9
$PUCSORTHOVIEW
 70
     0
  9
$PUCSORGTOP
 10
0.0
 20
0.0
 30
0.0
  9
$PUCSORGBOTTOM
 10
0.0
 20
0.0
 30
0.0
  9
$PUCSORGLEFT
 10
0.0
 20
0.0
 30
0.0
  9
$PUCSORGRIGHT
 10
0.0
 20
0.0
 30
0.0
  9
$PUCSORGFRONT
 10
0.0
 20
0.0
 30
0.0
  9
$PUCSORGBACK
 10
0.0
 20
0.0
 30
0.0
  9
$USERI1
 70
     0
  9
$USERI2
 70
     0
  9
$USERI3
 70
     0
  9
$USERI4
 70
     0
  9
$USERI5
 70
     0
  9
$USERR1
 40
0.0
  9
$USERR2
 40
0.0
  9
$USERR3
 40
0.0
  9
$USERR4
 40
0.0
  9
$USERR5
 40
0.0
  9
$WORLDVIEW
 70
     1
  9
$SHADEDGE
 70
     3
  9
$SHADEDIF
 70
    70
  9
$TILEMODE
 70
     1
  9
$MAXACTVP
 70
    64
  9
$PINSBASE
 10
0.0
 20
0.0
 30
0.0
  9
$PLIMCHECK
 70
     0
  9
$PEXTMIN
 10
1.000000000000000E+20
 20
1.000000000000000E+20
 30
1.000000000000000E+20
  9
$PEXTMAX
 10
-1.000000000000000E+20
 20
-1.000000000000000E+20
 30
-1.000000000000000E+20
  9
$PLIMMIN
 10
0.0
 20
0.0
  9
$PLIMMAX
 10
12.0
 20
9.0
  9
$UNITMODE
 70
     0
  9
$VISRETAIN
 70
     1
  9
$PLINEGEN
 70
     0
  9
$PSLTSCALE
 70
     1
  9
$TREEDEPTH
 70
  3020
  9
$CMLSTYLE
  2
Standard
  9
$CMLJUST
 70
     0
  9
$CMLSCALE
 40
1.0
  9
$PROXYGRAPHICS
 70
     1
  9
$MEASUREMENT
 70
     0
  9
$CELWEIGHT
370
    -1
  9
$ENDCAPS
280
     0
  9
$JOINSTYLE
280
     0
  9
$LWDISPLAY
290
     0
  9
$INSUNITS
 70
     1
  9
$HYPERLINKBASE
  1

  9
$STYLESHEET
  1

  9
$XEDIT
290
     1
  9
$CEPSNTYPE
380
     0
  9
$PSTYLEMODE
290
     1
  9
$FINGERPRINTGUID
  2
{633B450C-B3B9-4050-9A49-ECE85C773588}
  9
$VERSIONGUID
  2
{FAEB1C32-E019-11D5-929B-00C0DF256EC4}
  9
$EXTNAMES
290
     1
  9
$PSVPSCALE
 40
0.0
  9
$OLESTARTUP
290
     0
  9
$SORTENTS
280
   127
  9
$INDEXCTL
280
     0
  9
$HIDETEXT
280
     1
  9
$XCLIPFRAME
280
     2
  9
$HALOGAP
280
     0
  9
$OBSCOLOR
 70
   257
  9
$OBSLTYPE
280
     0
  9
$INTERSECTIONDISPLAY
280
     0
  9
$INTERSECTIONCOLOR
 70
   257
  9
$DIMASSOC
280
     2
  9
$PROJECTNAME
  1

  9
$CAMERADISPLAY
290
     0
  9
$LENSLENGTH
 40
50.0
  9
$CAMERAHEIGHT
 40
0.0
  9
$STEPSPERSEC
 40
2.0
  9
$STEPSIZE
 40
6.0
  9
$3DDWFPREC
 40
2.0
  9
$PSOLWIDTH
 40
0.25
  9
$PSOLHEIGHT
 40
4.0
  9
$LOFTANG1
 40
1.570796326794897
  9
$LOFTANG2
 40
1.570796326794897
  9
$LOFTMAG1
 40
0.0
  9
$LOFTMAG2
 40
0.0
  9
$LOFTPARAM
 70
     7
  9
$LOFTNORMALS
280
     1
  9
$LATITUDE
 40
37.795
  9
$LONGITUDE
 40
-122.394
  9
$NORTHDIRECTION
 40
0.0
  9
$TIMEZONE
 70
 -8000
  9
$LIGHTGLYPHDISPLAY
280
     1
  9
$TILEMODELIGHTSYNCH
280
     1
  9
$CMATERIAL
347
44
  9
$SOLIDHIST
280
     0
  9
$SHOWHIST
280
     1
  9
$DWFFRAME
280
     2
  9
$DGNFRAME
280
     2
  9
$REALWORLDSCALE
290
     1
  9
$INTERFERECOLOR
 62
   256
  9
$CSHADOW
280
     0
  9
$SHADOWPLANELOCATION
 40
0.0
  0
ENDSEC
  0
SECTION
  2
CLASSES
  0
CLASS
  1
ACDBDICTIONARYWDFLT
  2
AcDbDictionaryWithDefault
  3
ObjectDBX Classes
 90
        0
 91
        4
280
     0
281
     0
  0
CLASS
  1
VISUALSTYLE
  2
AcDbVisualStyle
  3
ObjectDBX Classes
 90
     4095
 91
        4
280
     0
281
     0
  0
CLASS
  1
MATERIAL
  2
AcDbMaterial
  3
ObjectDBX Classes
 90
     1153
 91
        4
280
     0
281
     0
  0
CLASS
  1
SCALE
  2
AcDbScale
  3
ObjectDBX Classes
 90
     1153
 91
        4
280
     0
281
     0
  0
CLASS
  1
TABLESTYLE
  2
AcDbTableStyle
  3
ObjectDBX Classes
 90
     4095
 91
        4
280
     0
281
     0
  0
CLASS
  1
MLEADERSTYLE
  2
AcDbMLeaderStyle
  3
ACDB_MLEADERSTYLE_CLASS
 90
     4095
 91
        4
280
     0
281
     0
  0
CLASS
  1
SUN
  2
AcDbSun
  3
SCENEOE
 90
     1153
 91
        4
280
     0
281
     0
  0
CLASS
  1
DICTIONARYVAR
  2
AcDbDictionaryVar
  3
ObjectDBX Classes
 90
        0
 91
        4
280
     0
281
     0
  0
CLASS
  1
CELLSTYLEMAP
  2
AcDbCellStyleMap
  3
ObjectDBX Classes
 90
     1152
 91
        4
280
     0
281
     0
  0
ENDSEC
  0
SECTION
  2
TABLES
  0
TABLE
  2
VPORT
  5
8
330
0
100
AcDbSymbolTable
 70
     1
  0
VPORT
  5
29
330
8
100
AcDbSymbolTableRecord
100
AcDbViewportTableRecord
  2
*Active
 70
     0
 10
0.0
 20
0.0
 11
1.0
 21
1.0
 12
-1.406500000000001
 22
0.0816249999999998
 13
0.0
 23
0.0
 14
0.5
 24
0.5
 15
0.5
 25
0.5
 16
0.0
 26
0.0
 36
1.0
 17
0.0
 27
0.0
 37
0.0
 40
7.497765
 41
0.6801346801346798
 42
50.0
 43
0.0
 44
0.0
 50
0.0
 51
0.0
 71
     0
 72
   100
 73
     1
 74
     3
 75
     0
 76
     0
 77
     0
 78
     0
281
     0
 65
     1
110
0.0
120
0.0
130
0.0
111
1.0
121
0.0
131
0.0
112
0.0
122
1.0
132
0.0
 79
     0
146
0.0
348
2F
 60
     3
 61
     5
292
     1
282
     1
141
0.0
142
0.0
 63
   250
361
6D
  0
ENDTAB
  0
TABLE
  2
LTYPE
  5
5
330
0
100
AcDbSymbolTable
 70
     3
  0
LTYPE
  5
14
330
5
100
AcDbSymbolTableRecord
100
AcDbLinetypeTableRecord
  2
ByBlock
 70
     0
  3

 72
    65
 73
     0
 40
0.0
  0
LTYPE
  5
15
330
5
100
AcDbSymbolTableRecord
100
AcDbLinetypeTableRecord
  2
ByLayer
 70
     0
  3

 72
    65
 73
     0
 40
0.0
  0
LTYPE
  5
16
330
5
100
AcDbSymbolTableRecord
100
AcDbLinetypeTableRecord
  2
Continuous
 70
     0
  3
Solid line
 72
    65
 73
     0
 40
0.0
  0
LTYPE
  5
A6
330
5
100
AcDbSymbolTableRecord
100
AcDbLinetypeTableRecord
  2
Dashed
 70
     0
  3

 72
    65
 73
     2
 40
2.0
 49
1.0
 74
     0
 49
-1.0
 74
     0
  0
LTYPE
  5
13E
330
5
100
AcDbSymbolTableRecord
100
AcDbLinetypeTableRecord
  2
Center
 70
     0
  3

 72
    65
 73
     4
 40
1.5
 49
0.45
 74
     0
 49
-0.5
 74
     0
 49
0.05
 74
     0
 49
-0.5
 74
     0
  0
ENDTAB
  0
TABLE
  2
LAYER
  5
2
330
0
100
AcDbSymbolTable
 70
     7
  0
LAYER
  5
10
330
2
100
AcDbSymbolTableRecord
100
AcDbLayerTableRecord
  2
0
 70
     0
 62
     7
  6
Continuous
370
    -3
390
F
347
46
348
0
  0
LAYER
  5
72
330
2
100
AcDbSymbolTableRecord
100
AcDbLayerTableRecord
  2
AM_6
 70
     0
 62
    -2
  6
Continuous
370
    35
390
F
347
46
348
0
  0
LAYER
  5
A7
330
2
100
AcDbSymbolTableRecord
100
AcDbLayerTableRecord
  2
AM_9
 70
     0
 62
     6
  6
Dashed
370
    25
390
F
347
46
348
0
  0
LAYER
  5
BA
330
2
100
AcDbSymbolTableRecord
100
AcDbLayerTableRecord
  2
AM_5
 70
     0
 62
     3
  6
Continuous
370
    25
390
F
347
46
348
0
  0
LAYER
  5
BF
330
2
100
AcDbSymbolTableRecord
100
AcDbLayerTableRecord
  2
AM_4
 70
     0
 62
     7
  6
Continuous
370
    50
390
F
347
46
348
0
  0
LAYER
  5
13F
330
2
100
AcDbSymbolTableRecord
100
AcDbLayerTableRecord
  2
AM_7
 70
     0
 62
     7
  6
Center
370
    25
390
F
347
46
348
0
  0
LAYER
  5
1DE
330
2
100
AcDbSymbolTableRecord
100
AcDbLayerTableRecord
  2
ConnectionPoints
 70
     0
 62
     7
  6
Continuous
370
    50
390
F
347
46
348
0
  0
ENDTAB
  0
TABLE
  2
STYLE
  5
3
330
0
100
AcDbSymbolTable
 70
     1
  0
STYLE
  5
11
330
3
100
AcDbSymbolTableRecord
100
AcDbTextStyleTableRecord
  2
Standard
 70
     0
 40
0.0
 41
1.0
 50
0.0
 71
     0
 42
0.2
  3
txt
  4

  0
ENDTAB
  0
TABLE
  2
VIEW
  5
6
330
0
100
AcDbSymbolTable
 70
     0
  0
ENDTAB
  0
TABLE
  2
UCS
  5
7
330
0
100
AcDbSymbolTable
 70
     0
  0
ENDTAB
  0
TABLE
  2
APPID
  5
9
330
0
100
AcDbSymbolTable
 70
     1
  0
APPID
  5
12
330
9
100
AcDbSymbolTableRecord
100
AcDbRegAppTableRecord
  2
ACAD
 70
     0
  0
ENDTAB
  0
TABLE
  2
DIMSTYLE
  5
A
330
0
100
AcDbSymbolTable
 70
     1
100
AcDbDimStyleTable
  0
DIMSTYLE
105
27
330
A
100
AcDbSymbolTableRecord
100
AcDbDimStyleTableRecord
  2
Standard
 70
     0
178
     0
340
11
  0
ENDTAB
  0
TABLE
  2
BLOCK_RECORD
  5
1
330
0
100
AcDbSymbolTable
 70
     6
  0
BLOCK_RECORD
  5
1F
330
1
100
AcDbSymbolTableRecord
100
AcDbBlockTableRecord
  2
*Model_Space
340
22
 70
     0
280
     1
281
     0
  0
BLOCK_RECORD
  5
1B
330
1
100
AcDbSymbolTableRecord
100
AcDbBlockTableRecord
  2
*Paper_Space
340
1E
 70
     0
280
     1
281
     0
  0
BLOCK_RECORD
  5
23
330
1
100
AcDbSymbolTableRecord
100
AcDbBlockTableRecord
  2
*Paper_Space0
340
26
 70
     0
280
     1
281
     0
  0
BLOCK_RECORD
  5
6E
330
1
100
AcDbSymbolTableRecord
100
AcDbBlockTableRecord
  2
1_070866_2
340
0
102
{BLKREFS
331
6F
102
}
 70
     0
280
     1
281
     0
  0
BLOCK_RECORD
  5
8D
330
1
100
AcDbSymbolTableRecord
100
AcDbBlockTableRecord
  2
2_2_15_16CS2i_0_in_070866_2
340
0
102
{BLKREFS
331
8E
102
}
 70
     0
280
     1
281
     0
  0
BLOCK_RECORD
  5
E0
330
1
100
AcDbSymbolTableRecord
100
AcDbBlockTableRecord
  2
3_070026i_0_in_070866_2
340
0
102
{BLKREFS
331
E1
102
}
 70
     0
280
     1
281
     0
  0
BLOCK_RECORD
  5
144
330
1
100
AcDbSymbolTableRecord
100
AcDbBlockTableRecord
  2
4_405015E_Inch_0_in_070866_2
340
0
102
{BLKREFS
331
145
102
}
 70
     0
280
     1
281
     0
  0
BLOCK_RECORD
  5
182
330
1
100
AcDbSymbolTableRecord
100
AcDbBlockTableRecord
  2
5_070866H_0_in_070866_2
340
0
102
{BLKREFS
331
183
102
}
 70
     0
280
     1
281
     0
  0
ENDTAB
  0
ENDSEC
  0
SECTION
  2
BLOCKS
  0
BLOCK
  5
20
330
1F
100
AcDbEntity
  8
0
100
AcDbBlockBegin
  2
*Model_Space
 70
     0
 10
0.0
 20
0.0
 30
0.0
  3
*Model_Space
  1

  0
ENDBLK
  5
21
330
1F
100
AcDbEntity
  8
0
100
AcDbBlockEnd
  0
BLOCK
  5
1C
330
1B
100
AcDbEntity
 67
     1
  8
0
100
AcDbBlockBegin
  2
*Paper_Space
 70
     0
 10
0.0
 20
0.0
 30
0.0
  3
*Paper_Space
  1

  0
ENDBLK
  5
1D
330
1B
100
AcDbEntity
 67
     1
  8
0
100
AcDbBlockEnd
  0
BLOCK
  5
24
330
23
100
AcDbEntity
  8
0
100
AcDbBlockBegin
  2
*Paper_Space0
 70
     0
 10
0.0
 20
0.0
 30
0.0
  3
*Paper_Space0
  1

  0
ENDBLK
  5
25
330
23
100
AcDbEntity
  8
0
100
AcDbBlockEnd
  0
BLOCK
  5
70
330
6E
100
AcDbEntity
  8
0
100
AcDbBlockBegin
  2
1_070866_2
 70
     2
 10
0.0
 20
0.0
 30
0.0
  3
1_070866_2
  1

  0
ATTDEF
  5
73
330
6E
100
AcDbEntity
  8
AM_6
100
AcDbText
 10
5.11953125
 20
3.757
 30
0.0
 40
0.5
  1
S-2000 Flange Bearing - Square Labyrinth Seal
100
AcDbAttributeDefinition
  3

  2
NN
 70
     8
280
     0
  0
ATTDEF
  5
74
330
6E
100
AcDbEntity
  8
AM_6
100
AcDbText
 10
5.11953125
 20
3.257
 30
0.0
 40
0.5
  1
S-2000 4 Bolt Square Flange Bearing -Inch
100
AcDbAttributeDefinition
  3

  2
NT
 70
     8
280
     0
  0
ATTDEF
  5
75
330
6E
100
AcDbEntity
  8
AM_6
100
AcDbText
 10
5.11953125
 20
2.757
 30
0.0
 40
0.5
  1
070866
100
AcDbAttributeDefinition
  3

  2
NB
 70
     8
280
     0
  0
ATTDEF
  5
76
330
6E
100
AcDbEntity
  8
AM_6
100
AcDbText
 10
5.11953125
 20
2.257
 30
0.0
 40
0.5
  1
$PN.
100
AcDbAttributeDefinition
  3

  2
NBSYN
 70
     8
280
     0
  0
ATTDEF
  5
77
330
6E
100
AcDbEntity
  8
AM_6
100
AcDbText
 10
5.11953125
 20
1.757
 30
0.0
 40
0.5
  1
070866
100
AcDbAttributeDefinition
  3

  2
LINA
 70
     8
280
     0
  0
ATTDEF
  5
78
330
6E
100
AcDbEntity
  8
AM_6
100
AcDbText
 10
5.11953125
 20
1.257
 30
0.0
 40
0.5
  1
2-15/16
100
AcDbAttributeDefinition
  3

  2
SS
 70
     8
280
     0
  0
ATTDEF
  5
79
330
6E
100
AcDbEntity
  8
AM_6
100
AcDbText
 10
5.11953125
 20
0.7569999999999997
 30
0.0
 40
0.5
  1
070866
100
AcDbAttributeDefinition
  3

  2
PN
 70
     8
280
     0
  0
ATTDEF
  5
7A
330
6E
100
AcDbEntity
  8
AM_6
100
AcDbText
 10
5.11953125
 20
0.2569999999999997
 30
0.0
 40
0.5
  1
F4S-S2-215LE
100
AcDbAttributeDefinition
  3

  2
DESCRIPTION
 70
     8
280
     0
  0
ATTDEF
  5
7B
330
6E
100
AcDbEntity
  8
AM_6
100
AcDbText
 10
5.11953125
 20
-0.2430000000000003
 30
0.0
 40
0.5
  1
Expansion Type
100
AcDbAttributeDefinition
  3

  2
EF
 70
     8
280
     0
  0
ATTDEF
  5
7C
330
6E
100
AcDbEntity
  8
AM_6
100
AcDbText
 10
5.11953125
 20
-0.7430000000000003
 30
0.0
 40
0.5
  1
Labyrinth Seal
100
AcDbAttributeDefinition
  3

  2
ST
 70
     8
280
     0
  0
ATTDEF
  5
7D
330
6E
100
AcDbEntity
  8
AM_6
100
AcDbText
 10
5.11953125
 20
-1.243
 30
0.0
 40
0.5
  1
3-19/32
100
AcDbAttributeDefinition
  3

  2
A
 70
     8
280
     0
  0
ATTDEF
  5
7E
330
6E
100
AcDbEntity
  8
AM_6
100
AcDbText
 10
5.11953125
 20
-1.743
 30
0.0
 40
0.5
  1
7-3/16
100
AcDbAttributeDefinition
  3

  2
B
 70
     8
280
     0
  0
ATTDEF
  5
7F
330
6E
100
AcDbEntity
  8
AM_6
100
AcDbText
 10
5.11953125
 20
-2.243
 30
0.0
 40
0.5
  1
3-29/32
100
AcDbAttributeDefinition
  3

  2
C
 70
     8
280
     0
  0
ATTDEF
  5
80
330
6E
100
AcDbEntity
  8
AM_6
100
AcDbText
 10
5.11953125
 20
-2.743
 30
0.0
 40
0.5
  1
5-9/16
100
AcDbAttributeDefinition
  3

  2
D
 70
     8
280
     0
  0
ATTDEF
  5
81
330
6E
100
AcDbEntity
  8
AM_6
100
AcDbText
 10
5.11953125
 20
-3.243
 30
0.0
 40
0.5
  1
3/4
100
AcDbAttributeDefinition
  3

  2
F
 70
     8
280
     0
  0
ATTDEF
  5
82
330
6E
100
AcDbEntity
  8
AM_6
100
AcDbText
 10
5.11953125
 20
-3.743
 30
0.0
 40
0.5
  1
1-33/64
100
AcDbAttributeDefinition
  3

  2
G
 70
     8
280
     0
  0
ATTDEF
  5
83
330
6E
100
AcDbEntity
  8
AM_6
100
AcDbText
 10
5.11953125
 20
-4.243
 30
0.0
 40
0.5
  1
3/4
100
AcDbAttributeDefinition
  3

  2
H
 70
     8
280
     0
  0
ATTDEF
  5
84
330
6E
100
AcDbEntity
  8
AM_6
100
AcDbText
 10
5.11953125
 20
-4.743
 30
0.0
 40
0.5
  1
6-1/2
100
AcDbAttributeDefinition
  3

  2
J
 70
     8
280
     0
  0
ATTDEF
  5
85
330
6E
100
AcDbEntity
  8
AM_6
100
AcDbText
 10
5.11953125
 20
-5.243
 30
0.0
 40
0.5
  1
7-7/8
100
AcDbAttributeDefinition
  3

  2
K
 70
     8
280
     0
  0
ATTDEF
  5
86
330
6E
100
AcDbEntity
  8
AM_6
100
AcDbText
 10
5.11953125
 20
-5.743
 30
0.0
 40
0.5
  1
4-45/64
100
AcDbAttributeDefinition
  3

  2
L
 70
     8
280
     0
  0
ATTDEF
  5
87
330
6E
100
AcDbEntity
  8
AM_6
100
AcDbText
 10
5.11953125
 20
-6.243
 30
0.0
 40
0.5
  1
3-27/32
100
AcDbAttributeDefinition
  3

  2
N
 70
     8
280
     0
  0
ATTDEF
  5
88
330
6E
100
AcDbEntity
  8
AM_6
100
AcDbText
 10
5.11953125
 20
-6.743
 30
0.0
 40
0.5
  1
5/16
100
AcDbAttributeDefinition
  3

  2
P
 70
     8
280
     0
  0
ATTDEF
  5
89
330
6E
100
AcDbEntity
  8
AM_6
100
AcDbText
 10
5.11953125
 20
-7.243
 30
0.0
 40
0.5
  1
1/4
100
AcDbAttributeDefinition
  3

  2
X
 70
     8
280
     0
  0
ATTDEF
  5
8A
330
6E
100
AcDbEntity
  8
AM_6
100
AcDbText
 10
5.11953125
 20
-7.743
 30
0.0
 40
0.5
  1
0.025
100
AcDbAttributeDefinition
  3

  2
Y
 70
     8
280
     0
  0
ATTDEF
  5
8B
330
6E
100
AcDbEntity
  8
AM_6
100
AcDbText
 10
5.11953125
 20
-8.243
 30
0.0
 40
0.5
  1
3-15/32
100
AcDbAttributeDefinition
  3

  2
Z
 70
     8
280
     0
  0
ATTDEF
  5
8C
330
6E
100
AcDbEntity
  8
AM_6
100
AcDbText
 10
5.11953125
 20
-8.743
 30
0.0
 40
0.5
  1
baldor
100
AcDbAttributeDefinition
  3

  2
COMPANY
 70
     8
280
     0
  0
INSERT
  5
8E
330
6E
100
AcDbEntity
  8
0
100
AcDbBlockReference
  2
2_2_15_16CS2i_0_in_070866_2
 10
0.0
 20
0.0
 30
0.0
  0
INSERT
  5
E1
330
6E
100
AcDbEntity
  8
0
100
AcDbBlockReference
  2
3_070026i_0_in_070866_2
 10
0.0
 20
0.0
 30
0.0
  0
INSERT
  5
145
330
6E
100
AcDbEntity
  8
0
100
AcDbBlockReference
  2
4_405015E_Inch_0_in_070866_2
 10
0.0
 20
0.0
 30
0.0
  0
INSERT
  5
183
330
6E
100
AcDbEntity
  8
0
100
AcDbBlockReference
  2
5_070866H_0_in_070866_2
 10
0.0
 20
0.0
 30
0.0
  0
ENDBLK
  5
71
330
6E
100
AcDbEntity
  8
0
100
AcDbBlockEnd
  0
BLOCK
  5
8F
330
8D
100
AcDbEntity
  8
0
100
AcDbBlockBegin
  2
2_2_15_16CS2i_0_in_070866_2
 70
     2
 10
0.0
 20
0.0
 30
0.0
  3
2_2_15_16CS2i_0_in_070866_2
  1

  0
ATTDEF
  5
91
330
8D
100
AcDbEntity
  8
AM_6
100
AcDbText
 10
2.22775
 20
2.3125
 30
0.0
 40
0.5
  1
S-2000 Collar -Inch
100
AcDbAttributeDefinition
  3

  2
NN
 70
     8
280
     0
  0
ATTDEF
  5
92
330
8D
100
AcDbEntity
  8
AM_6
100
AcDbText
 10
2.22775
 20
1.8125
 30
0.0
 40
0.5
  1
S-2000 Bearings
100
AcDbAttributeDefinition
  3

  2
NT
 70
     8
280
     0
  0
ATTDEF
  5
93
330
8D
100
AcDbEntity
  8
AM_6
100
AcDbText
 10
2.22775
 20
1.3125
 30
0.0
 40
0.5
  1
2-15/16CS2i
100
AcDbAttributeDefinition
  3

  2
NB
 70
     8
280
     0
  0
ATTDEF
  5
94
330
8D
100
AcDbEntity
  8
AM_6
100
AcDbText
 10
2.22775
 20
0.8125
 30
0.0
 40
0.5
  1
$BORE.CS2i
100
AcDbAttributeDefinition
  3

  2
NBSYN
 70
     8
280
     0
  0
ATTDEF
  5
95
330
8D
100
AcDbEntity
  8
AM_6
100
AcDbText
 10
2.22775
 20
0.3125
 30
0.0
 40
0.5
  1
2-15/16CS2i
100
AcDbAttributeDefinition
  3

  2
LINA
 70
     8
280
     0
  0
ATTDEF
  5
96
330
8D
100
AcDbEntity
  8
AM_6
100
AcDbText
 10
2.22775
 20
-0.1875
 30
0.0
 40
0.5
  1
2-15/16
100
AcDbAttributeDefinition
  3

  2
BORE
 70
     8
280
     0
  0
ATTDEF
  5
97
330
8D
100
AcDbEntity
  8
AM_6
100
AcDbText
 10
2.22775
 20
-0.6875
 30
0.0
 40
0.5
  1
2.937500
100
AcDbAttributeDefinition
  3

  2
BORE1
 70
     8
280
     0
  0
ATTDEF
  5
98
330
8D
100
AcDbEntity
  8
AM_6
100
AcDbText
 10
2.22775
 20
-1.1875
 30
0.0
 40
0.5
  1
4-45/64
100
AcDbAttributeDefinition
  3

  2
L1
 70
     8
280
     0
  0
ATTDEF
  5
99
330
8D
100
AcDbEntity
  8
AM_6
100
AcDbText
 10
2.22775
 20
-1.6875
 30
0.0
 40
0.5
  1
4.70313
100
AcDbAttributeDefinition
  3

  2
L
 70
     8
280
     0
  0
ATTDEF
  5
9A
330
8D
100
AcDbEntity
  8
AM_6
100
AcDbText
 10
2.22775
 20
-2.1875
 30
0.0
 40
0.5
  1
4.62500
100
AcDbAttributeDefinition
  3

  2
L2
 70
     8
280
     0
  0
ATTDEF
  5
9B
330
8D
100
AcDbEntity
  8
AM_6
100
AcDbText
 10
2.22775
 20
-2.6875
 30
0.0
 40
0.5
  1
4.50
100
AcDbAttributeDefinition
  3

  2
A
 70
     8
280
     0
  0
ATTDEF
  5
9C
330
8D
100
AcDbEntity
  8
AM_6
100
AcDbText
 10
2.22775
 20
-3.1875
 30
0.0
 40
0.5
  1
1.94
100
AcDbAttributeDefinition
  3

  2
B
 70
     8
280
     0
  0
ATTDEF
  5
9D
330
8D
100
AcDbEntity
  8
AM_6
100
AcDbText
 10
2.22775
 20
-3.6875
 30
0.0
 40
0.5
  1
3.47
100
AcDbAttributeDefinition
  3

  2
C
 70
     8
280
     0
  0
ATTDEF
  5
9E
330
8D
100
AcDbEntity
  8
AM_6
100
AcDbText
 10
2.22775
 20
-4.1875
 30
0.0
 40
0.5
  1
4.78
100
AcDbAttributeDefinition
  3

  2
D
 70
     8
280
     0
  0
ATTDEF
  5
9F
330
8D
100
AcDbEntity
  8
AM_6
100
AcDbText
 10
2.22775
 20
-4.6875
 30
0.0
 40
0.5
  1
0.54
100
AcDbAttributeDefinition
  3

  2
E
 70
     8
280
     0
  0
ATTDEF
  5
A0
330
8D
100
AcDbEntity
  8
AM_6
100
AcDbText
 10
2.22775
 20
-5.1875
 30
0.0
 40
0.5
  1
0.442
100
AcDbAttributeDefinition
  3

  2
F
 70
     8
280
     0
  0
ATTDEF
  5
A1
330
8D
100
AcDbEntity
  8
AM_6
100
AcDbText
 10
2.22775
 20
-5.6875
 30
0.0
 40
0.5
  1
1/2-13
100
AcDbAttributeDefinition
  3

  2
CS
 70
     8
280
     0
  0
ATTDEF
  5
A2
330
8D
100
AcDbEntity
  8
AM_6
100
AcDbText
 10
2.22775
 20
-6.1875
 30
0.0
 40
0.5
  1
0.5000
100
AcDbAttributeDefinition
  3

  2
NDM
 70
     8
280
     0
  0
ATTDEF
  5
A3
330
8D
100
AcDbEntity
  8
AM_6
100
AcDbText
 10
2.22775
 20
-6.6875
 30
0.0
 40
0.5
  1
0.4170
100
AcDbAttributeDefinition
  3

  2
KDM
 70
     8
280
     0
  0
ATTDEF
  5
A4
330
8D
100
AcDbEntity
  8
AM_6
100
AcDbText
 10
2.22775
 20
-7.1875
 30
0.0
 40
0.5
  1
2
100
AcDbAttributeDefinition
  3

  2
DD
 70
     8
280
     0
  0
ATTDEF
  5
A5
330
8D
100
AcDbEntity
  8
AM_6
100
AcDbText
 10
2.22775
 20
-7.6875
 30
0.0
 40
0.5
  1
baldor
100
AcDbAttributeDefinition
  3

  2
COMPANY
 70
     8
280
     0
  0
LINE
  5
A8
330
8D
100
AcDbEntity
  8
AM_9
100
AcDbLine
 10
-3.0059
 20
2.309915
 30
0.0
 11
-3.003314999999999
 21
2.3125
 31
0.0
  0
LINE
  5
A9
330
8D
100
AcDbEntity
  8
AM_9
100
AcDbLine
 10
-3.425185
 20
2.3125
 30
0.0
 11
-3.4226
 21
2.309915
 31
0.0
  0
LINE
  5
AA
330
8D
100
AcDbEntity
  8
AM_9
100
AcDbLine
 10
-3.036878131528707
 20
2.309915
 30
0.0
 11
-3.0059
 21
2.309915
 31
0.0
  0
LINE
  5
AB
330
8D
100
AcDbEntity
  8
AM_9
100
AcDbLine
 10
-3.0059
 20
1.743316666666673
 30
0.0
 11
-3.0059
 21
2.309915
 31
0.0
  0
LINE
  5
AC
330
8D
100
AcDbEntity
  8
AM_9
100
AcDbLine
 10
-3.4226
 20
2.309915
 30
0.0
 11
-3.4226
 21
1.743316666666673
 31
0.0
  0
LINE
  5
AD
330
8D
100
AcDbEntity
  8
AM_9
100
AcDbLine
 10
-3.4226
 20
2.309915
 30
0.0
 11
-3.391621868471293
 21
2.309915
 31
0.0
  0
LINE
  5
AE
330
8D
100
AcDbEntity
  8
AM_9
100
AcDbLine
 10
-3.4226
 20
1.743316666666673
 30
0.0
 11
-3.0059
 21
1.743316666666673
 31
0.0
  0
LINE
  5
AF
330
8D
100
AcDbEntity
  8
AM_9
100
AcDbLine
 10
-3.4226
 20
1.743316666666673
 30
0.0
 11
-3.430633499926563
 21
1.735283166740109
 31
0.0
  0
LINE
  5
B0
330
8D
100
AcDbEntity
  8
AM_9
100
AcDbLine
 10
-2.997928349708304
 20
1.735345016374976
 30
0.0
 11
-3.0059
 21
1.743316666666673
 31
0.0
  0
LWPOLYLINE
  5
B1
330
8D
100
AcDbEntity
  8
AM_9
100
AcDbPolyline
 90
       39
 70
     0
 43
0.0
 10
-3.05380566875648
 20
0.5890254700626273
 10
-3.034309625999029
 20
0.6141961062210206
 10
-3.018740675361797
 20
0.6415065184640436
 10
-3.005654494522095
 20
0.6760599527747676
 10
-2.99871179702824
 20
0.7117782647958321
 10
-2.998210288434039
 20
0.7488859425485238
 10
-3.004420428180735
 20
0.7851620103667715
 10
-3.017437605814691
 20
0.8198680908671245
 10
-3.036879757231113
 20
0.8517504540015436
 10
-3.061891421991175
 20
0.8793522699106655
 10
-3.092104894468448
 20
0.9024724552481196
 10
-3.12487632375807
 20
0.9194273976470282
 10
-3.160687628082111
 20
0.9310007182481745
 10
-3.195568106206522
 20
0.9364023306210596
 10
-3.231028266969308
 20
0.9365686464404309
 10
-3.264256309297699
 20
0.9317852251762073
 10
-3.296105005921873
 20
0.9224310735818811
 10
-3.326072817727668
 20
0.9085724076092785
 10
-3.353118925596461
 20
0.8907712261375367
 10
-3.377964244414014
 20
0.868071826696889
 10
-3.398425428933717
 20
0.8420767489012022
 10
-3.414993085542849
 20
0.8112869058935409
 10
-3.425816887546216
 20
0.7782195829319841
 10
-3.430705950329139
 20
0.7420183810332125
 10
-3.428988766420176
 20
0.7051854586134593
 10
-3.420416359535579
 20
0.6681214688356902
 10
-3.405222840272985
 20
0.6325677012209977
 10
-3.383858146632974
 20
0.599975067788225
 10
-3.356775984542453
 20
0.5711544343957852
 10
-3.325959367588375
 20
0.54820018159056
 10
-3.291302376945248
 20
0.5307967420929365
 10
-3.256556650676083
 20
0.5204789177352633
 10
-3.220446659427123
 20
0.5162103991709194
 10
-3.18643254250781
 20
0.5180049648621361
 10
-3.153213263442652
 20
0.525220883512025
 10
-3.12201282646181
 20
0.537475964708005
 10
-3.093242724445744
 20
0.5542453298024016
 10
-3.072417613816586
 20
0.5705464301926298
 10
-3.05380566875648
 20
0.5890254700626274
  0
LINE
  5
B2
330
8D
100
AcDbEntity
  8
AM_9
100
AcDbLine
 10
-3.65625
 20
-1.735
 30
0.0
 11
-2.77225
 21
-1.735
 31
0.0
  0
LINE
  5
B3
330
8D
100
AcDbEntity
  8
AM_9
100
AcDbLine
 10
-2.77225
 20
1.735
 30
0.0
 11
-2.998388124101318
 21
1.735
 31
0.0
  0
LINE
  5
B4
330
8D
100
AcDbEntity
  8
AM_9
100
AcDbLine
 10
-3.430255839839127
 20
1.735
 30
0.0
 11
-3.65625
 21
1.735
 31
0.0
  0
LWPOLYLINE
  5
B5
330
8D
100
AcDbEntity
  8
AM_9
100
AcDbPolyline
 90
       21
 70
     0
 43
0.0
 10
-3.430916666666201
 20
1.734999999999933
 10
-3.430661114352767
 20
1.734963553231908
 10
-3.425317220647533
 20
1.734210872143319
 10
-3.413439965200798
 20
1.732602866727684
 10
-3.394590734915684
 20
1.730235875674304
 10
-3.370734769650648
 20
1.72756835787447
 10
-3.340660334238765
 20
1.724733588278365
 10
-3.308821293770885
 20
1.722381168611358
 10
-3.272596451783199
 20
1.720523846078997
 10
-3.238276229611859
 20
1.719574172208164
 10
-3.202081398016386
 20
1.719429892626525
 10
-3.169138599907359
 20
1.720064026576171
 10
-3.136545213212396
 20
1.721407489605135
 10
-3.106672082354886
 20
1.723261129001908
 10
-3.078904236130348
 20
1.725513960970386
 10
-3.053905096308983
 20
1.727974975329969
 10
-3.032638550425185
 20
1.730388278227267
 10
-3.015571425731911
 20
1.732535648310732
 10
-3.003823200158213
 20
1.734121883030203
 10
-2.998081299756215
 20
1.7349290183679
 10
-2.997583333333534
 20
1.734999999999971
  0
ELLIPSE
  5
B6
330
8D
100
AcDbEntity
  8
AM_9
100
AcDbEllipse
 10
-3.214250000000002
 20
0.7367574593302603
 30
0.0
 11
0.208349999999998
 21
0.0
 31
0.0
210
0.0
220
0.0
230
1.0
 40
0.9063077870366506
 41
2.454725024153217
 42
6.283185307179586
  0
LINE
  5
B7
330
8D
100
AcDbEntity
  8
AM_9
100
AcDbLine
 10
-3.0059
 20
0.7367574593302598
 30
0.0
 11
-3.0059
 21
0.9762122620687677
 31
0.0
  0
LINE
  5
B8
330
8D
100
AcDbEntity
  8
AM_9
100
AcDbLine
 10
-3.4226
 20
0.9762122620687677
 30
0.0
 11
-3.4226
 21
0.7367574593302598
 31
0.0
  0
ELLIPSE
  5
B9
330
8D
100
AcDbEntity
  8
AM_9
100
AcDbEllipse
 10
-3.214249999999999
 20
0.7367574593302595
 30
0.0
 11
0.2083499999999998
 21
0.0
 31
0.0
210
0.0
220
0.0
230
1.0
 40
0.9063077870366498
 41
0.0
 42
0.6860794039532391
  0
LINE
  5
BB
330
8D
100
AcDbEntity
  8
AM_5
100
AcDbLine
 10
-3.464249999999999
 20
2.3125
 30
0.0
 11
-3.464249999999999
 21
1.735
 31
0.0
  0
LINE
  5
BC
330
8D
100
AcDbEntity
  8
AM_5
100
AcDbLine
 10
-3.33925
 20
1.701666666666667
 30
0.0
 11
-3.464249999999999
 21
1.701666666666667
 31
0.0
  0
LINE
  5
BD
330
8D
100
AcDbEntity
  8
AM_5
100
AcDbLine
 10
-2.96425
 20
2.25609756097561
 30
0.0
 11
-2.96425
 21
1.735
 31
0.0
  0
LINE
  5
BE
330
8D
100
AcDbEntity
  8
AM_5
100
AcDbLine
 10
-3.08925
 20
1.701666666666667
 30
0.0
 11
-2.96425
 21
1.701666666666667
 31
0.0
  0
ELLIPSE
  5
C0
330
8D
100
AcDbEntity
  8
AM_4
100
AcDbEllipse
 10
-3.214249999999995
 20
0.9762122620687681
 30
0.0
 11
0.2083500000000047
 21
0.0
 31
0.0
210
0.0
220
0.0
230
1.0
 40
0.906307787036647
 41
2.589286508049191
 42
3.693898799130397
  0
ELLIPSE
  5
C1
330
8D
100
AcDbEntity
  8
AM_4
100
AcDbEllipse
 10
-3.214250000000278
 20
0.9762122620688026
 30
0.0
 11
0.2083500000002783
 21
0.0
 31
0.0
210
0.0
220
0.0
230
1.0
 40
0.9063077870366482
 41
5.730879161639466
 42
6.283185307179586
  0
ELLIPSE
  5
C2
330
8D
100
AcDbEntity
  8
AM_4
100
AcDbEllipse
 10
-3.214249999999998
 20
0.7367574593302575
 30
0.0
 11
0.208350000000002
 21
0.0
 31
0.0
210
0.0
220
0.0
230
1.0
 40
0.9063077870366529
 41
1.570796326794897
 42
2.454725024153216
  0
ELLIPSE
  5
C3
330
8D
100
AcDbEntity
  8
AM_4
100
AcDbEllipse
 10
-3.21425
 20
0.9762122620687688
 30
0.0
 11
0.2083500000000002
 21
3.104656934738163E-9
 31
0.0
210
0.0
220
0.0
230
1.0
 40
0.9063077870366473
 41
0.0000017304280906
 42
0.5523061299073195
  0
ELLIPSE
  5
C4
330
8D
100
AcDbEntity
  8
AM_4
100
AcDbEllipse
 10
-3.214249999999999
 20
0.7367574593302606
 30
0.0
 11
0.2083499999999989
 21
0.0
 31
0.0
210
0.0
220
0.0
230
1.0
 40
0.9063077870366509
 41
0.6860794039532347
 42
1.570796326794897
  0
LINE
  5
C5
330
8D
100
AcDbEntity
  8
AM_4
100
AcDbLine
 10
-2.827200058072008
 20
-2.202380952380952
 30
0.0
 11
-2.77225
 21
-2.202380952380952
 31
0.0
  0
LINE
  5
C6
330
8D
100
AcDbEntity
  8
AM_4
100
AcDbLine
 10
-2.77225
 20
2.202380952380952
 30
0.0
 11
-2.827200058072008
 21
2.202380952380952
 31
0.0
  0
LINE
  5
C7
330
8D
100
AcDbEntity
  8
AM_4
100
AcDbLine
 10
-2.77225
 20
2.202380952380952
 30
0.0
 11
-2.77225
 21
-2.202380952380952
 31
0.0
  0
LINE
  5
C8
330
8D
100
AcDbEntity
  8
AM_4
100
AcDbLine
 10
-2.827200058072008
 20
2.202380952380952
 30
0.0
 11
-2.880916666666666
 21
2.25609756097561
 31
0.0
  0
LINE
  5
C9
330
8D
100
AcDbEntity
  8
AM_4
100
AcDbLine
 10
-2.880916666666666
 20
-2.25609756097561
 30
0.0
 11
-2.827200058072008
 21
-2.202380952380952
 31
0.0
  0
LINE
  5
CA
330
8D
100
AcDbEntity
  8
AM_4
100
AcDbLine
 10
-2.827200058072008
 20
2.202380952380952
 30
0.0
 11
-2.827200058072008
 21
-2.202380952380952
 31
0.0
  0
LINE
  5
CB
330
8D
100
AcDbEntity
  8
AM_4
100
AcDbLine
 10
-2.96425
 20
-2.25609756097561
 30
0.0
 11
-2.880916666666666
 21
-2.25609756097561
 31
0.0
  0
LINE
  5
CC
330
8D
100
AcDbEntity
  8
AM_4
100
AcDbLine
 10
-2.880916666666666
 20
2.25609756097561
 30
0.0
 11
-2.96425
 21
2.25609756097561
 31
0.0
  0
LINE
  5
CD
330
8D
100
AcDbEntity
  8
AM_4
100
AcDbLine
 10
-2.880916666666666
 20
2.25609756097561
 30
0.0
 11
-2.880916666666666
 21
-2.25609756097561
 31
0.0
  0
LINE
  5
CE
330
8D
100
AcDbEntity
  8
AM_4
100
AcDbLine
 10
-2.96425
 20
2.25609756097561
 30
0.0
 11
-2.996813963353683
 21
2.3125
 31
0.0
  0
LINE
  5
CF
330
8D
100
AcDbEntity
  8
AM_4
100
AcDbLine
 10
-2.996813963353683
 20
-2.3125
 30
0.0
 11
-2.96425
 21
-2.25609756097561
 31
0.0
  0
LINE
  5
D0
330
8D
100
AcDbEntity
  8
AM_4
100
AcDbLine
 10
-2.96425
 20
2.25609756097561
 30
0.0
 11
-2.96425
 21
-2.25609756097561
 31
0.0
  0
LWPOLYLINE
  5
D1
330
8D
100
AcDbEntity
  8
AM_4
100
AcDbPolyline
 90
       13
 70
     0
 43
0.0
 10
-3.036878131528707
 20
2.309915
 10
-3.057779629022774
 20
2.308404662742254
 10
-3.083096169550632
 20
2.306826359902614
 10
-3.112171720354036
 20
2.305358442529732
 10
-3.144138550396747
 20
2.304161917675377
 10
-3.1780842616189
 20
2.303382563684018
 10
-3.213056869751475
 20
2.303095297867587
 10
-3.247938429328725
 20
2.303344971048241
 10
-3.281870168125475
 20
2.304087458113801
 10
-3.313864136057202
 20
2.305250665408642
 10
-3.343064203713099
 20
2.306694523897397
 10
-3.369725403854407
 20
2.30833758281135
 10
-3.391621868471293
 20
2.309914999999999
  0
LINE
  5
D2
330
8D
100
AcDbEntity
  8
AM_4
100
AcDbLine
 10
-3.391621868471293
 20
2.309915
 30
0.0
 11
-3.425184999999922
 21
2.312499999999993
 31
0.0
  0
LWPOLYLINE
  5
D3
330
8D
100
AcDbEntity
  8
AM_4
100
AcDbPolyline
 90
       13
 70
     0
 43
0.0
 10
-3.036878131528706
 20
0.8771426523500776
 10
-3.057779629022774
 20
0.8509176810520844
 10
-3.083096169550632
 20
0.8281847138923913
 10
-3.112171720354035
 20
0.8096949765267754
 10
-3.144138550396747
 20
0.7959640854058432
 10
-3.1780842616189
 20
0.7875084133639727
 10
-3.213056869751475
 20
0.784504000196556
 10
-3.247938429328725
 20
0.7871104261757476
 10
-3.281870168125475
 20
0.7951418651509049
 10
-3.313864136057202
 20
0.8084135115991802
 10
-3.343064203713099
 20
0.8264362431262525
 10
-3.369725403854406
 20
0.8498760425596207
 10
-3.391621868471293
 20
0.8771426523500775
  0
LWPOLYLINE
  5
D4
330
8D
100
AcDbEntity
  8
AM_4
100
AcDbPolyline
 90
        9
 70
     0
 43
0.0
 10
-3.391621868471293
 20
0.8771426523500776
 10
-3.403665941176018
 20
0.896041374061094
 10
-3.416551360017709
 20
0.9252559454487291
 10
-3.423742496888424
 20
0.9558876512163083
 10
-3.424936569585871
 20
0.9857655362824327
 10
-3.420572732606286
 20
1.015205836698636
 10
-3.41089883735203
 20
1.042981443025478
 10
-3.396298728254032
 20
1.068810686184985
 10
-3.391621868471293
 20
1.075281871787458
  0
LWPOLYLINE
  5
D5
330
8D
100
AcDbEntity
  8
AM_4
100
AcDbPolyline
 90
       13
 70
     0
 43
0.0
 10
-3.391621868471293
 20
1.075281871787458
 10
-3.370720370977225
 20
1.10023025087243
 10
-3.345403830449367
 20
1.121629178826944
 10
-3.316328279645964
 20
1.138878178815548
 10
-3.284361449603251
 20
1.151597723428326
 10
-3.250415738381098
 20
1.159394657011978
 10
-3.215443130248524
 20
1.1621562626194
 10
-3.180561570671274
 20
1.159760869531432
 10
-3.146629831874523
 20
1.152357007742298
 10
-3.114635863942797
 20
1.140068546584001
 10
-3.085435796286899
 20
1.123266216986364
 10
-3.058774596145593
 20
1.1012151909573
 10
-3.036878131528707
 20
1.075281871787458
  0
LWPOLYLINE
  5
D6
330
8D
100
AcDbEntity
  8
AM_4
100
AcDbPolyline
 90
        9
 70
     0
 43
0.0
 10
-3.036878131528707
 20
1.075281871787458
 10
-3.036251865382718
 20
1.074450625010707
 10
-3.019632342472555
 20
1.047279590613419
 10
-3.008580798587904
 20
1.017758916203462
 10
-3.003704618990659
 20
0.988070038139749
 10
-3.004503046922179
 20
0.957866610901139
 10
-3.014371818270481
 20
0.9184461844141483
 10
-3.02421304221478
 20
0.8971838710077163
 10
-3.036878131528694
 20
0.8771426523500598
  0
LINE
  5
D7
330
8D
100
AcDbEntity
  8
AM_4
100
AcDbLine
 10
-3.508916666666666
 20
-2.3125
 30
0.0
 11
-2.996813963353683
 21
-2.3125
 31
0.0
  0
LINE
  5
D8
330
8D
100
AcDbEntity
  8
AM_4
100
AcDbLine
 10
-2.996813963353683
 20
2.3125
 30
0.0
 11
-3.003314999999999
 21
2.3125
 31
0.0
  0
LINE
  5
D9
330
8D
100
AcDbEntity
  8
AM_4
100
AcDbLine
 10
-3.425185000000001
 20
2.3125
 30
0.0
 11
-3.508916666666666
 21
2.3125
 31
0.0
  0
LINE
  5
DA
330
8D
100
AcDbEntity
  8
AM_4
100
AcDbLine
 10
-3.003315000000077
 20
2.312499999999993
 30
0.0
 11
-3.036878131528707
 21
2.309915
 31
0.0
  0
LINE
  5
DB
330
8D
100
AcDbEntity
  8
AM_4
100
AcDbLine
 10
-2.996813963353683
 20
2.3125
 30
0.0
 11
-2.996813963353683
 21
-2.3125
 31
0.0
  0
LINE
  5
DC
330
8D
100
AcDbEntity
  8
AM_4
100
AcDbLine
 10
-3.65625
 20
2.165166666666666
 30
0.0
 11
-3.65625
 21
-2.165166666666666
 31
0.0
  0
ARC
  5
DD
330
8D
100
AcDbEntity
  8
AM_4
100
AcDbCircle
 10
-3.508916666666666
 20
-2.165166666666666
 30
0.0
 40
0.1473333333333335
100
AcDbArc
 50
180.0
 51
270.0
  0
ARC
  5
DE
330
8D
100
AcDbEntity
  8
AM_4
100
AcDbCircle
 10
-3.508916666666666
 20
2.165166666666666
 30
0.0
 40
0.147333333333334
100
AcDbArc
 50
90.0
 51
180.0
  0
LINE
  5
DF
330
8D
100
AcDbEntity
  8
AM_4
100
AcDbLine
 10
-3.508916666666666
 20
2.3125
 30
0.0
 11
-3.508916666666666
 21
-2.3125
 31
0.0
  0
ENDBLK
  5
90
330
8D
100
AcDbEntity
  8
0
100
AcDbBlockEnd
  0
BLOCK
  5
E2
330
E0
100
AcDbEntity
  8
0
100
AcDbBlockBegin
  2
3_070026i_0_in_070866_2
 70
     2
 10
0.0
 20
0.0
 30
0.0
  3
3_070026i_0_in_070866_2
  1

  0
ATTDEF
  5
E4
330
E0
100
AcDbEntity
  8
AM_6
100
AcDbText
 10
4.9375
 20
2.55905
 30
0.0
 40
0.5
  1
S-2000 Insert -Inch
100
AcDbAttributeDefinition
  3

  2
NN
 70
     8
280
     0
  0
ATTDEF
  5
E5
330
E0
100
AcDbEntity
  8
AM_6
100
AcDbText
 10
4.9375
 20
2.05905
 30
0.0
 40
0.5
  1
S-2000 Bearings
100
AcDbAttributeDefinition
  3

  2
NT
 70
     8
280
     0
  0
ATTDEF
  5
E6
330
E0
100
AcDbEntity
  8
AM_6
100
AcDbText
 10
4.9375
 20
1.55905
 30
0.0
 40
0.5
  1
070026i
100
AcDbAttributeDefinition
  3

  2
NB
 70
     8
280
     0
  0
ATTDEF
  5
E7
330
E0
100
AcDbEntity
  8
AM_6
100
AcDbText
 10
4.9375
 20
1.05905
 30
0.0
 40
0.5
  1
$PN.i
100
AcDbAttributeDefinition
  3

  2
NBSYN
 70
     8
280
     0
  0
ATTDEF
  5
E8
330
E0
100
AcDbEntity
  8
AM_6
100
AcDbText
 10
4.9375
 20
0.55905
 30
0.0
 40
0.5
  1
070026i
100
AcDbAttributeDefinition
  3

  2
LINA
 70
     8
280
     0
  0
ATTDEF
  5
E9
330
E0
100
AcDbEntity
  8
AM_6
100
AcDbText
 10
4.9375
 20
0.05905
 30
0.0
 40
0.5
  1
2-15/16
100
AcDbAttributeDefinition
  3

  2
SS
 70
     8
280
     0
  0
ATTDEF
  5
EA
330
E0
100
AcDbEntity
  8
AM_6
100
AcDbText
 10
4.9375
 20
-0.44095
 30
0.0
 40
0.5
  1
3.47
100
AcDbAttributeDefinition
  3

  2
CC
 70
     8
280
     0
  0
ATTDEF
  5
EB
330
E0
100
AcDbEntity
  8
AM_6
100
AcDbText
 10
4.9375
 20
-0.94095
 30
0.0
 40
0.5
  1
2.937500
100
AcDbAttributeDefinition
  3

  2
SS1
 70
     8
280
     0
  0
ATTDEF
  5
EC
330
E0
100
AcDbEntity
  8
AM_6
100
AcDbText
 10
4.9375
 20
-1.44095
 30
0.0
 40
0.5
  1
070026
100
AcDbAttributeDefinition
  3

  2
PN
 70
     8
280
     0
  0
ATTDEF
  5
ED
330
E0
100
AcDbEntity
  8
AM_6
100
AcDbText
 10
4.9375
 20
-1.94095
 30
0.0
 40
0.5
  1
INS-S2-215L
100
AcDbAttributeDefinition
  3

  2
DESCRIPTION
 70
     8
280
     0
  0
ATTDEF
  5
EE
330
E0
100
AcDbEntity
  8
AM_6
100
AcDbText
 10
4.9375
 20
-2.44095
 30
0.0
 40
0.5
  1
Labyrinth Seal
100
AcDbAttributeDefinition
  3

  2
ST
 70
     8
280
     0
  0
ATTDEF
  5
EF
330
E0
100
AcDbEntity
  8
AM_6
100
AcDbText
 10
4.9375
 20
-2.94095
 30
0.0
 40
0.5
  1
2
100
AcDbAttributeDefinition
  3

  2
ST1
 70
     8
280
     0
  0
ATTDEF
  5
F0
330
E0
100
AcDbEntity
  8
AM_6
100
AcDbText
 10
4.9375
 20
-3.44095
 30
0.0
 40
0.5
  1
5.1181
100
AcDbAttributeDefinition
  3

  2
A
 70
     8
280
     0
  0
ATTDEF
  5
F1
330
E0
100
AcDbEntity
  8
AM_6
100
AcDbText
 10
4.9375
 20
-3.94095
 30
0.0
 40
0.5
  1
1-9/32
100
AcDbAttributeDefinition
  3

  2
B
 70
     8
280
     0
  0
ATTDEF
  5
F2
330
E0
100
AcDbEntity
  8
AM_6
100
AcDbText
 10
4.9375
 20
-4.44095
 30
0.0
 40
0.5
  1
3-19/32
100
AcDbAttributeDefinition
  3

  2
C
 70
     8
280
     0
  0
ATTDEF
  5
F3
330
E0
100
AcDbEntity
  8
AM_6
100
AcDbText
 10
4.9375
 20
-4.94095
 30
0.0
 40
0.5
  1
1.219
100
AcDbAttributeDefinition
  3

  2
D
 70
     8
280
     0
  0
ATTDEF
  5
F4
330
E0
100
AcDbEntity
  8
AM_6
100
AcDbText
 10
4.9375
 20
-5.44095
 30
0.0
 40
0.5
  1
4-5/8
100
AcDbAttributeDefinition
  3

  2
E
 70
     8
280
     0
  0
ATTDEF
  5
F5
330
E0
100
AcDbEntity
  8
AM_6
100
AcDbText
 10
4.9375
 20
-5.94095
 30
0.0
 40
0.5
  1
0.53125
100
AcDbAttributeDefinition
  3

  2
F
 70
     8
280
     0
  0
ATTDEF
  5
F6
330
E0
100
AcDbEntity
  8
AM_6
100
AcDbText
 10
4.9375
 20
-6.44095
 30
0.0
 40
0.5
  1
2
100
AcDbAttributeDefinition
  3

  2
DD
 70
     8
280
     0
  0
ATTDEF
  5
F7
330
E0
100
AcDbEntity
  8
AM_6
100
AcDbText
 10
4.9375
 20
-6.94095
 30
0.0
 40
0.5
  1
baldor
100
AcDbAttributeDefinition
  3

  2
COMPANY
 70
     8
280
     0
  0
LINE
  5
F8
330
E0
100
AcDbEntity
  8
AM_9
100
AcDbLine
 10
-3.48425
 20
1.73486036491284
 30
0.0
 11
-3.48425
 21
1.46875
 31
0.0
  0
LINE
  5
F9
330
E0
100
AcDbEntity
  8
AM_9
100
AcDbLine
 10
-2.944249999999999
 20
1.46875
 30
0.0
 11
-2.94425
 21
1.734973151062446
 31
0.0
  0
LINE
  5
FA
330
E0
100
AcDbEntity
  8
AM_9
100
AcDbLine
 10
-3.48425
 20
0.7332426841201136
 30
0.0
 11
-3.48425
 21
0.6206955618835622
 31
0.0
  0
LINE
  5
FB
330
E0
100
AcDbEntity
  8
AM_9
100
AcDbLine
 10
-2.94425
 20
0.6206499805553662
 30
0.0
 11
-2.94425
 21
0.7332426841201136
 31
0.0
  0
LWPOLYLINE
  5
FC
330
E0
100
AcDbEntity
  8
AM_9
100
AcDbPolyline
 90
        4
 70
     0
 43
0.0
 10
-3.477234261832868
 20
0.6756027601165828
 10
-3.479626944257455
 20
0.6653098720791705
 10
-3.484216692613923
 20
0.6245615073396587
 10
-3.484249999106085
 20
0.6207404841358803
  0
LWPOLYLINE
  5
FD
330
E0
100
AcDbEntity
  8
AM_9
100
AcDbPolyline
 90
        5
 70
     0
 43
0.0
 10
-3.416840607978205
 20
0.7778829772637462
 10
-3.422054968285833
 20
0.7726655461656525
 10
-3.448110887924327
 20
0.7403436039702103
 10
-3.46754155592773
 20
0.7042066749722756
 10
-3.477234261832868
 20
0.6756027601165828
  0
LWPOLYLINE
  5
FE
330
E0
100
AcDbEntity
  8
AM_9
100
AcDbPolyline
 90
        4
 70
     0
 43
0.0
 10
-3.343781105392765
 20
0.8272976058589667
 10
-3.354003617367224
 20
0.8223669440423066
 10
-3.390474439305803
 20
0.8000369418766776
 10
-3.416840607978205
 20
0.7778829772637462
  0
LWPOLYLINE
  5
FF
330
E0
100
AcDbEntity
  8
AM_9
100
AcDbPolyline
 90
        4
 70
     0
 43
0.0
 10
-3.011046147415663
 20
0.7772860024426704
 10
-3.020882860483893
 20
0.7863741460022404
 10
-3.055298757767031
 20
0.8116062617096684
 10
-3.084867705046201
 20
0.8273656766053268
  0
LWPOLYLINE
  5
100
330
E0
100
AcDbEntity
  8
AM_9
100
AcDbPolyline
 90
        5
 70
     0
 43
0.0
 10
-2.951663641793947
 20
0.6771013106515782
 10
-2.954340870866986
 20
0.6861348313858582
 10
-2.969932606252527
 20
0.722979645615245
 10
-2.992374295413498
 20
0.7567053434360853
 10
-3.011046147415663
 20
0.7772860024426704
  0
LWPOLYLINE
  5
101
330
E0
100
AcDbEntity
  8
AM_9
100
AcDbPolyline
 90
        3
 70
     0
 43
0.0
 10
-2.944250000806485
 20
0.6207016584217604
 10
-2.945821172234286
 20
0.6469592368130527
 10
-2.951663641793947
 20
0.6771013106515782
  0
LWPOLYLINE
  5
102
330
E0
100
AcDbEntity
  8
AM_9
100
AcDbPolyline
 90
       11
 70
     0
 43
0.0
 10
-3.484249999106085
 20
0.6207404841358803
 10
-3.481156943755326
 20
0.583710316532876
 10
-3.470773380846527
 20
0.5433548452843008
 10
-3.453313744830583
 20
0.5047635787706979
 10
-3.429363218906886
 20
0.4689905595908775
 10
-3.399047800393847
 20
0.4367467240309134
 10
-3.363562625699886
 20
0.4095162568118757
 10
-3.323451056325796
 20
0.3881201778557085
 10
-3.280171522030644
 20
0.3734804889474336
 10
-3.247469978188489
 20
0.3674687348155154
 10
-3.21425
 20
0.3654392061398447
  0
LWPOLYLINE
  5
103
330
E0
100
AcDbEntity
  8
AM_9
100
AcDbPolyline
 90
        7
 70
     0
 43
0.0
 10
-3.023742345150553
 20
0.9021737012459508
 10
-3.005058406601096
 20
0.8843929389854571
 10
-2.979329103600343
 20
0.8516496473503784
 10
-2.960246897166227
 20
0.815198592935213
 10
-2.948503418495136
 20
0.7760819607321047
 10
-2.944259176900261
 20
0.735259596211835
 10
-2.944250000337886
 20
0.733254926266177
  0
LWPOLYLINE
  5
104
330
E0
100
AcDbEntity
  8
AM_9
100
AcDbPolyline
 90
       11
 70
     0
 43
0.0
 10
-3.405489319215369
 20
0.90154512632342
 10
-3.372076430692859
 20
0.9258893966518486
 10
-3.333031192761772
 20
0.9457982923585129
 10
-3.290501049515454
 20
0.9597448171546433
 10
-3.24577014864933
 20
0.9674620266758084
 10
-3.200588706378366
 20
0.9687007404748414
 10
-3.155795868557394
 20
0.9636303508581853
 10
-3.112914073453575
 20
0.9523662257738067
 10
-3.072853240050793
 20
0.9352349712857533
 10
-3.036477649049555
 20
0.9123427445949038
 10
-3.023742345150553
 20
0.9021737012459508
  0
LWPOLYLINE
  5
105
330
E0
100
AcDbEntity
  8
AM_9
100
AcDbPolyline
 90
        7
 70
     0
 43
0.0
 10
-3.484249999060577
 20
0.7332222712293913
 10
-3.482611689251915
 20
0.760051280386422
 10
-3.473936191475499
 20
0.7994754444077306
 10
-3.458124925706517
 20
0.8366164094441347
 10
-3.435435563952598
 20
0.8706134133622141
 10
-3.406644707038779
 20
0.9005423672521872
 10
-3.405489319215369
 20
0.90154512632342
  0
LWPOLYLINE
  5
106
330
E0
100
AcDbEntity
  8
AM_9
100
AcDbPolyline
 90
       11
 70
     0
 43
0.0
 10
-2.944250000337886
 20
0.733254926266177
 10
-2.94767719455302
 20
0.6943075068191419
 10
-2.958462070566499
 20
0.6539873103851299
 10
-2.976376624235077
 20
0.6155340832923069
 10
-3.000819579887676
 20
0.5800276648226287
 10
-3.031531807824553
 20
0.54829009896526
 10
-3.067371540818258
 20
0.5216369625882545
 10
-3.107656783534718
 20
0.5009130518079106
 10
-3.151010450401828
 20
0.4869062310260637
 10
-3.182403786116404
 20
0.4814468153714229
 10
-3.21425
 20
0.4796065289345783
  0
LWPOLYLINE
  5
107
330
E0
100
AcDbEntity
  8
AM_9
100
AcDbPolyline
 90
       11
 70
     0
 43
0.0
 10
-3.21425
 20
0.3654392061398447
 10
-3.16935601048721
 20
0.3691698828417416
 10
-3.125737998979805
 20
0.3801072372011741
 10
-3.084675230356317
 20
0.3979407072394607
 10
-3.047218102920861
 20
0.4219545975565779
 10
-3.01410240350302
 20
0.4517710214159965
 10
-2.986583918000719
 20
0.4861326302091234
 10
-2.965381336383516
 20
0.5243051473286796
 10
-2.951251963355146
 20
0.5648167380873815
 10
-2.944767190391
 20
0.6059632404989448
 10
-2.944250000806485
 20
0.6207016584217604
  0
LWPOLYLINE
  5
108
330
E0
100
AcDbEntity
  8
AM_9
100
AcDbPolyline
 90
       11
 70
     0
 43
0.0
 10
-3.21425
 20
1.443719696651673
 10
-3.169993999489902
 20
1.444397852421953
 10
-3.125737998979805
 20
1.446430412022852
 10
-3.085215620936412
 20
1.449474537023788
 10
-3.047218102920861
 20
1.453349998156623
 10
-3.014514153931263
 20
1.457470744373552
 10
-2.986583918000719
 20
1.4615602647147
 10
-2.965616911657267
 20
1.464972687499274
 10
-2.951251963355146
 20
1.467478970813227
 10
-2.944779647551703
 20
1.468652727280554
 10
-2.944250000000899
 20
1.468749999999835
  0
LINE
  5
109
330
E0
100
AcDbEntity
  8
AM_9
100
AcDbLine
 10
-0.0625
 20
1.46875
 30
0.0
 11
-2.94425
 21
1.46875
 31
0.0
  0
LINE
  5
10A
330
E0
100
AcDbEntity
  8
AM_9
100
AcDbLine
 10
-3.48425
 20
1.46875
 30
0.0
 11
-3.65625
 21
1.46875
 31
0.0
  0
LINE
  5
10B
330
E0
100
AcDbEntity
  8
AM_9
100
AcDbLine
 10
-3.65625
 20
-1.46875
 30
0.0
 11
-0.0625
 21
-1.46875
 31
0.0
  0
LINE
  5
10C
330
E0
100
AcDbEntity
  8
AM_9
100
AcDbLine
 10
-3.470014836372606
 20
1.466199922938446
 30
0.0
 11
-3.484249999999089
 21
1.468749999999833
 31
0.0
  0
LINE
  5
10D
330
E0
100
AcDbEntity
  8
AM_9
100
AcDbLine
 10
-3.197701545814893
 20
1.443814535816803
 30
0.0
 11
-3.221258918549216
 21
1.443736709874494
 31
0.0
  0
LWPOLYLINE
  5
10E
330
E0
100
AcDbEntity
  8
AM_9
100
AcDbPolyline
 90
       11
 70
     0
 43
0.0
 10
-3.484249999999089
 20
1.468749999999833
 10
-3.481280128095985
 20
1.468206951288189
 10
-3.470773380846527
 20
1.466332434143408
 10
-3.453624771366885
 20
1.4634298219139
 10
-3.429363218906886
 20
1.459657582944878
 10
-3.399530272999292
 20
1.455560147181384
 10
-3.363562625699886
 20
1.451420277760165
 10
-3.324075944241546
 20
1.447890983647784
 10
-3.280171522030644
 20
1.445223930595821
 10
-3.247731311854057
 20
1.444107877114265
 10
-3.21425
 20
1.443719696651673
  0
LINE
  5
10F
330
E0
100
AcDbEntity
  8
AM_9
100
AcDbLine
 10
-0.0625
 20
-1.735
 30
0.0
 11
-0.0625
 21
1.735
 31
0.0
  0
LINE
  5
110
330
E0
100
AcDbEntity
  8
AM_9
100
AcDbLine
 10
-0.0625
 20
1.735
 30
0.0
 11
-0.3220000000000003
 21
1.735
 31
0.0
  0
LINE
  5
111
330
E0
100
AcDbEntity
  8
AM_9
100
AcDbLine
 10
-0.3220000000000003
 20
-1.735
 30
0.0
 11
-0.0625
 21
-1.735
 31
0.0
  0
LWPOLYLINE
  5
112
330
E0
100
AcDbEntity
  8
AM_9
100
AcDbPolyline
 90
       11
 70
     0
 43
0.0
 10
-3.21425
 20
0.4796065289345783
 10
-3.259266402455498
 20
0.4833101015160274
 10
-3.303006420371638
 20
0.4941765714991641
 10
-3.344191422842957
 20
0.5119166763251392
 10
-3.381747412273244
 20
0.5358357738896399
 10
-3.414826240282542
 20
0.565477112603116
 10
-3.442282979761296
 20
0.5996662737626878
 10
-3.463357090367963
 20
0.6375998093529771
 10
-3.477367799535108
 20
0.6778983930364383
 10
-3.483767223934402
 20
0.7190153699496271
 10
-3.484249999060577
 20
0.7332222712293913
  0
LWPOLYLINE
  5
113
330
E0
100
AcDbEntity
  8
AM_9
100
AcDbPolyline
 90
       11
 70
     0
 43
0.0
 10
-3.21425
 20
1.713862596592854
 10
-3.258628210185819
 20
1.714437057911225
 10
-3.303006420371638
 20
1.716159288107368
 10
-3.343646105547303
 20
1.718740338774537
 10
-3.381747412273244
 20
1.72202798557928
 10
-3.414413761151045
 20
1.725511672310023
 10
-3.442282979761296
 20
1.728966176609252
 10
-3.463124938649829
 20
1.731838253154133
 10
-3.477367799535108
 20
1.733942322118068
 10
-3.483756065422807
 20
1.73492320270947
 10
-3.484249999999459
 20
1.734999999999916
  0
LINE
  5
114
330
E0
100
AcDbEntity
  8
AM_9
100
AcDbLine
 10
-2.77225
 20
1.735
 30
0.0
 11
-2.944424445653871
 21
1.735
 31
0.0
  0
LINE
  5
115
330
E0
100
AcDbEntity
  8
AM_9
100
AcDbLine
 10
-2.241
 20
1.735
 30
0.0
 11
-2.390625
 21
1.735
 31
0.0
  0
LINE
  5
116
330
E0
100
AcDbEntity
  8
AM_9
100
AcDbLine
 10
-3.483350169706478
 20
1.735
 30
0.0
 11
-3.65625
 21
1.735
 31
0.0
  0
LINE
  5
117
330
E0
100
AcDbEntity
  8
AM_9
100
AcDbLine
 10
-2.390625
 20
-1.735
 30
0.0
 11
-2.241
 21
-1.735
 31
0.0
  0
LINE
  5
118
330
E0
100
AcDbEntity
  8
AM_9
100
AcDbLine
 10
-3.65625
 20
-1.735
 30
0.0
 11
-2.77225
 21
-1.735
 31
0.0
  0
LINE
  5
119
330
E0
100
AcDbEntity
  8
AM_9
100
AcDbLine
 10
-2.947229891592183
 20
1.734538768172716
 30
0.0
 11
-2.944250000000178
 21
1.734999999999972
 31
0.0
  0
LINE
  5
11A
330
E0
100
AcDbEntity
  8
AM_9
100
AcDbLine
 10
-3.23015456953644
 20
1.713936391857096
 30
0.0
 11
-3.206133402334593
 21
1.713881815983139
 31
0.0
  0
LWPOLYLINE
  5
11B
330
E0
100
AcDbEntity
  8
AM_9
100
AcDbPolyline
 90
       11
 70
     0
 43
0.0
 10
-2.944250000000178
 20
1.734999999999972
 10
-2.947548762514923
 20
1.734489708841212
 10
-2.958462070566499
 20
1.732845193559966
 10
-2.976056273893857
 20
1.730335589172323
 10
-3.000819579887676
 20
1.727100907367408
 10
-3.031041180495765
 20
1.7236271265979
 10
-3.067371540818258
 20
1.720144843253499
 10
-3.107033910902559
 20
1.717212942462684
 10
-3.151010450401828
 20
1.715028932885209
 10
-3.18217568463712
 20
1.714162699893449
 10
-3.21425
 20
1.713862596592854
  0
LINE
  5
11C
330
E0
100
AcDbEntity
  8
AM_9
100
AcDbLine
 10
-0.3220000000000003
 20
-1.919115
 30
0.0
 11
-0.3220000000000003
 21
1.919115
 31
0.0
  0
ARC
  5
11D
330
E0
100
AcDbEntity
  8
AM_9
100
AcDbCircle
 10
-0.4501250000000006
 20
1.919115
 30
0.0
 40
0.1281250000000002
100
AcDbArc
 50
0.0
 51
90.0
  0
ARC
  5
11E
330
E0
100
AcDbEntity
  8
AM_9
100
AcDbCircle
 10
-0.4501250000000004
 20
-1.919115
 30
0.0
 40
0.128125
100
AcDbArc
 50
270.0
 51
0.0
  0
LINE
  5
11F
330
E0
100
AcDbEntity
  8
AM_9
100
AcDbLine
 10
-0.4501250000000004
 20
-2.04724
 30
0.0
 11
-0.4501250000000004
 21
2.04724
 31
0.0
  0
LINE
  5
120
330
E0
100
AcDbEntity
  8
AM_9
100
AcDbLine
 10
-0.4501250000000004
 20
2.04724
 30
0.0
 11
-0.6408750000000001
 21
2.04724
 31
0.0
  0
LINE
  5
121
330
E0
100
AcDbEntity
  8
AM_9
100
AcDbLine
 10
-0.6408750000000001
 20
-2.04724
 30
0.0
 11
-0.4501250000000004
 21
-2.04724
 31
0.0
  0
LINE
  5
122
330
E0
100
AcDbEntity
  8
AM_9
100
AcDbLine
 10
-2.241
 20
-1.919115
 30
0.0
 11
-2.241
 21
1.919115
 31
0.0
  0
ARC
  5
123
330
E0
100
AcDbEntity
  8
AM_9
100
AcDbCircle
 10
-2.112874999999999
 20
1.919115
 30
0.0
 40
0.1281250000000007
100
AcDbArc
 50
90.0
 51
180.0
  0
ARC
  5
124
330
E0
100
AcDbEntity
  8
AM_9
100
AcDbCircle
 10
-2.112874999999999
 20
-1.919114999999999
 30
0.0
 40
0.1281250000000012
100
AcDbArc
 50
180.0
 51
270.0
  0
LINE
  5
125
330
E0
100
AcDbEntity
  8
AM_9
100
AcDbLine
 10
-2.112875
 20
-2.04724
 30
0.0
 11
-2.112875
 21
2.04724
 31
0.0
  0
LINE
  5
126
330
E0
100
AcDbEntity
  8
AM_9
100
AcDbLine
 10
-1.922125
 20
2.04724
 30
0.0
 11
-2.112875
 21
2.04724
 31
0.0
  0
LINE
  5
127
330
E0
100
AcDbEntity
  8
AM_9
100
AcDbLine
 10
-2.112875
 20
-2.04724
 30
0.0
 11
-1.922125
 21
-2.04724
 31
0.0
  0
LINE
  5
128
330
E0
100
AcDbEntity
  8
AM_9
100
AcDbLine
 10
-1.217437500000004
 20
2.456688
 30
0.0
 11
-1.345562499999996
 21
2.456688
 31
0.0
  0
LINE
  5
129
330
E0
100
AcDbEntity
  8
AM_9
100
AcDbLine
 10
-1.345562499999996
 20
-2.456688
 30
0.0
 11
-1.217437500000004
 21
-2.456688
 31
0.0
  0
LINE
  5
12A
330
E0
100
AcDbEntity
  8
AM_9
100
AcDbLine
 10
-1.404661228254785
 20
2.55905
 30
0.0
 11
-1.794000000000001
 21
2.55905
 31
0.0
  0
LINE
  5
12B
330
E0
100
AcDbEntity
  8
AM_9
100
AcDbLine
 10
-1.794000000000001
 20
-2.55905
 30
0.0
 11
-1.404661228254785
 21
-2.55905
 31
0.0
  0
LINE
  5
12C
330
E0
100
AcDbEntity
  8
AM_9
100
AcDbLine
 10
-1.794000000000001
 20
-2.55905
 30
0.0
 11
-1.794000000000001
 21
2.55905
 31
0.0
  0
LINE
  5
12D
330
E0
100
AcDbEntity
  8
AM_9
100
AcDbLine
 10
-1.922125
 20
-2.430925
 30
0.0
 11
-1.922125
 21
2.430925
 31
0.0
  0
ARC
  5
12E
330
E0
100
AcDbEntity
  8
AM_9
100
AcDbCircle
 10
-1.794000000000001
 20
2.430925000000001
 30
0.0
 40
0.1281249999999989
100
AcDbArc
 50
90.0
 51
180.0
  0
ARC
  5
12F
330
E0
100
AcDbEntity
  8
AM_9
100
AcDbCircle
 10
-1.794000000000001
 20
-2.430925000000001
 30
0.0
 40
0.1281249999999987
100
AcDbArc
 50
180.0
 51
270.0
  0
LINE
  5
130
330
E0
100
AcDbEntity
  8
AM_9
100
AcDbLine
 10
-1.217437500000004
 20
-2.456688
 30
0.0
 11
-1.217437500000004
 21
2.456688
 31
0.0
  0
LINE
  5
131
330
E0
100
AcDbEntity
  8
AM_9
100
AcDbLine
 10
-1.217437500000004
 20
-2.456688
 30
0.0
 11
-1.158338771745216
 21
-2.55905
 31
0.0
  0
LINE
  5
132
330
E0
100
AcDbEntity
  8
AM_9
100
AcDbLine
 10
-1.158338771745216
 20
2.55905
 30
0.0
 11
-1.217437500000004
 21
2.456688
 31
0.0
  0
LINE
  5
133
330
E0
100
AcDbEntity
  8
AM_9
100
AcDbLine
 10
-1.158338771745216
 20
-2.55905
 30
0.0
 11
-1.158338771745216
 21
2.55905
 31
0.0
  0
LINE
  5
134
330
E0
100
AcDbEntity
  8
AM_9
100
AcDbLine
 10
-0.7690000000000002
 20
2.55905
 30
0.0
 11
-1.158338771745216
 21
2.55905
 31
0.0
  0
LINE
  5
135
330
E0
100
AcDbEntity
  8
AM_9
100
AcDbLine
 10
-1.158338771745216
 20
-2.55905
 30
0.0
 11
-0.7690000000000002
 21
-2.55905
 31
0.0
  0
LINE
  5
136
330
E0
100
AcDbEntity
  8
AM_9
100
AcDbLine
 10
-0.6408750000000005
 20
-2.430925000000001
 30
0.0
 11
-0.6408750000000005
 21
2.430925000000001
 31
0.0
  0
LINE
  5
137
330
E0
100
AcDbEntity
  8
AM_9
100
AcDbLine
 10
-0.7690000000000002
 20
-2.55905
 30
0.0
 11
-0.7690000000000002
 21
2.55905
 31
0.0
  0
ARC
  5
138
330
E0
100
AcDbEntity
  8
AM_9
100
AcDbCircle
 10
-0.7690000000000116
 20
2.430924999999989
 30
0.0
 40
0.128125000000011
100
AcDbArc
 50
0.0
 51
90.0
  0
ARC
  5
139
330
E0
100
AcDbEntity
  8
AM_9
100
AcDbCircle
 10
-0.7689999999999989
 20
-2.430925000000002
 30
0.0
 40
0.128124999999998
100
AcDbArc
 50
270.0
 51
0.0
  0
LINE
  5
13A
330
E0
100
AcDbEntity
  8
AM_9
100
AcDbLine
 10
-1.345562499999996
 20
-2.456688
 30
0.0
 11
-1.345562499999996
 21
2.456688
 31
0.0
  0
LINE
  5
13B
330
E0
100
AcDbEntity
  8
AM_9
100
AcDbLine
 10
-1.404661228254785
 20
-2.55905
 30
0.0
 11
-1.404661228254785
 21
2.55905
 31
0.0
  0
LINE
  5
13C
330
E0
100
AcDbEntity
  8
AM_9
100
AcDbLine
 10
-1.345562499999996
 20
2.456688
 30
0.0
 11
-1.404661228254785
 21
2.55905
 31
0.0
  0
LINE
  5
13D
330
E0
100
AcDbEntity
  8
AM_9
100
AcDbLine
 10
-1.404661228254785
 20
-2.55905
 30
0.0
 11
-1.345562499999996
 21
-2.456688
 31
0.0
  0
LINE
  5
140
330
E0
100
AcDbEntity
  8
AM_7
100
AcDbLine
 10
-3.21425
 20
-0.088974358974359
 30
0.0
 11
-3.21425
 21
2.384059916666667
 31
0.0
  0
LWPOLYLINE
  5
141
330
E0
100
AcDbEntity
  8
AM_4
100
AcDbPolyline
 90
        8
 70
     0
 43
0.0
 10
-3.084867705046201
 20
0.8273656766053268
 10
-3.094231793199859
 20
0.8314453870948442
 10
-3.136734272470211
 20
0.845399553312535
 10
-3.181495332013574
 20
0.8531951003489624
 10
-3.22656726801881
 20
0.8545917566269962
 10
-3.271287348670711
 20
0.8497989721307619
 10
-3.314027733958428
 20
0.8389569856055265
 10
-3.343781105392765
 20
0.8272976058589667
  0
LINE
  5
142
330
E0
100
AcDbEntity
  8
AM_4
100
AcDbLine
 10
-2.390625
 20
1.735
 30
0.0
 11
-2.77225
 21
1.735
 31
0.0
  0
LINE
  5
143
330
E0
100
AcDbEntity
  8
AM_4
100
AcDbLine
 10
-2.77225
 20
-1.735
 30
0.0
 11
-2.390625
 21
-1.735
 31
0.0
  0
ENDBLK
  5
E3
330
E0
100
AcDbEntity
  8
0
100
AcDbBlockEnd
  0
BLOCK
  5
146
330
144
100
AcDbEntity
  8
0
100
AcDbBlockBegin
  2
4_405015E_Inch_0_in_070866_2
 70
     2
 10
0.0
 20
0.0
 30
0.0
  3
4_405015E_Inch_0_in_070866_2
  1

  0
ATTDEF
  5
148
330
144
100
AcDbEntity
  8
AM_6
100
AcDbText
 10
3.682278242770462
 20
3.725
 30
0.0
 40
0.5
  1
405015E -Inch
100
AcDbAttributeDefinition
  3

  2
NN
 70
     8
280
     0
  0
ATTDEF
  5
149
330
144
100
AcDbEntity
  8
AM_6
100
AcDbText
 10
3.682278242770462
 20
3.225
 30
0.0
 40
0.5
  1
Grease Fitting
100
AcDbAttributeDefinition
  3

  2
NT
 70
     8
280
     0
  0
ATTDEF
  5
14A
330
144
100
AcDbEntity
  8
AM_6
100
AcDbText
 10
3.682278242770462
 20
2.725
 30
0.0
 40
0.5
  1
405015E-Inch
100
AcDbAttributeDefinition
  3

  2
NB
 70
     8
280
     0
  0
ATTDEF
  5
14B
330
144
100
AcDbEntity
  8
AM_6
100
AcDbText
 10
3.682278242770462
 20
2.225
 30
0.0
 40
0.5
  1
$MN.-Inch
100
AcDbAttributeDefinition
  3

  2
NBSYN
 70
     8
280
     0
  0
ATTDEF
  5
14C
330
144
100
AcDbEntity
  8
AM_6
100
AcDbText
 10
3.682278242770462
 20
1.725
 30
0.0
 40
0.5
  1
405015E
100
AcDbAttributeDefinition
  3

  2
LINA
 70
     8
280
     0
  0
ATTDEF
  5
14D
330
144
100
AcDbEntity
  8
AM_6
100
AcDbText
 10
3.682278242770462
 20
1.225
 30
0.0
 40
0.5
  1
405015E
100
AcDbAttributeDefinition
  3

  2
MN
 70
     8
280
     0
  0
ATTDEF
  5
14E
330
144
100
AcDbEntity
  8
AM_6
100
AcDbText
 10
3.682278242770462
 20
0.7250000000000001
 30
0.0
 40
0.5
  1
1/8 x 27PTF
100
AcDbAttributeDefinition
  3

  2
T
 70
     8
280
     0
  0
ATTDEF
  5
14F
330
144
100
AcDbEntity
  8
AM_6
100
AcDbText
 10
3.682278242770462
 20
0.2250000000000001
 30
0.0
 40
0.5
  1
baldor
100
AcDbAttributeDefinition
  3

  2
COMPANY
 70
     8
280
     0
  0
LINE
  5
150
330
144
100
AcDbEntity
  8
AM_9
100
AcDbLine
 10
-1.732215372472269
 20
3.085
 30
0.0
 11
-1.408409627527731
 21
3.085
 31
0.0
  0
LINE
  5
151
330
144
100
AcDbEntity
  8
AM_9
100
AcDbLine
 10
-1.408409627527731
 20
3.085
 30
0.0
 11
-1.371694873218785
 21
3.121714754308947
 31
0.0
  0
LINE
  5
152
330
144
100
AcDbEntity
  8
AM_9
100
AcDbLine
 10
-1.768930126781215
 20
3.121714754308947
 30
0.0
 11
-1.732215372472269
 21
3.085
 31
0.0
  0
LINE
  5
153
330
144
100
AcDbEntity
  8
AM_9
100
AcDbLine
 10
-1.768930126781215
 20
3.121714754308947
 30
0.0
 11
-1.371694873218785
 21
3.121714754308947
 31
0.0
  0
LINE
  5
154
330
144
100
AcDbEntity
  8
AM_9
100
AcDbLine
 10
-1.371694873218785
 20
3.121714754308947
 30
0.0
 11
-1.36456060277693
 21
3.35
 31
0.0
  0
LINE
  5
155
330
144
100
AcDbEntity
  8
AM_9
100
AcDbLine
 10
-1.77606439722307
 20
3.35
 30
0.0
 11
-1.768930126781215
 21
3.121714754308947
 31
0.0
  0
LINE
  5
156
330
144
100
AcDbEntity
  8
AM_5
100
AcDbLine
 10
-1.402163375147652
 20
3.284870087748463
 30
0.0
 11
-1.408409627527731
 21
3.085
 31
0.0
  0
LINE
  5
157
330
144
100
AcDbEntity
  8
AM_5
100
AcDbLine
 10
-1.36456060277693
 20
3.35
 30
0.0
 11
-1.402163375147652
 21
3.284870087748463
 31
0.0
  0
LINE
  5
158
330
144
100
AcDbEntity
  8
AM_5
100
AcDbLine
 10
-1.774028985751557
 20
3.284870087748463
 30
0.0
 11
-1.366596014248443
 21
3.284870087748463
 31
0.0
  0
LINE
  5
159
330
144
100
AcDbEntity
  8
AM_5
100
AcDbLine
 10
-1.738461624852348
 20
3.284870087748463
 30
0.0
 11
-1.732215372472269
 21
3.085
 31
0.0
  0
LINE
  5
15A
330
144
100
AcDbEntity
  8
AM_5
100
AcDbLine
 10
-1.77606439722307
 20
3.35
 30
0.0
 11
-1.738461624852348
 21
3.284870087748463
 31
0.0
  0
LINE
  5
15B
330
144
100
AcDbEntity
  8
AM_4
100
AcDbLine
 10
-1.4653125
 20
3.555
 30
0.0
 11
-1.4653125
 21
3.585
 31
0.0
  0
LINE
  5
15C
330
144
100
AcDbEntity
  8
AM_4
100
AcDbLine
 10
-1.6753125
 20
3.585
 30
0.0
 11
-1.6753125
 21
3.555
 31
0.0
  0
LINE
  5
15D
330
144
100
AcDbEntity
  8
AM_4
100
AcDbLine
 10
-1.7890625
 20
3.45
 30
0.0
 11
-1.3515625
 21
3.45
 31
0.0
  0
LINE
  5
15E
330
144
100
AcDbEntity
  8
AM_4
100
AcDbLine
 10
-1.317721757229539
 20
3.440932400303386
 30
0.0
 11
-1.3515625
 21
3.45
 31
0.0
  0
LINE
  5
15F
330
144
100
AcDbEntity
  8
AM_4
100
AcDbLine
 10
-1.7890625
 20
3.45
 30
0.0
 11
-1.822903242770461
 21
3.440932400303386
 31
0.0
  0
LINE
  5
160
330
144
100
AcDbEntity
  8
AM_4
100
AcDbLine
 10
-1.3515625
 20
3.35
 30
0.0
 11
-1.317721757229539
 21
3.359067599696615
 31
0.0
  0
LINE
  5
161
330
144
100
AcDbEntity
  8
AM_4
100
AcDbLine
 10
-1.822903242770461
 20
3.359067599696615
 30
0.0
 11
-1.7890625
 21
3.35
 31
0.0
  0
LINE
  5
162
330
144
100
AcDbEntity
  8
AM_4
100
AcDbLine
 10
-1.6753125
 20
3.555
 30
0.0
 11
-1.4653125
 21
3.555
 31
0.0
  0
LINE
  5
163
330
144
100
AcDbEntity
  8
AM_4
100
AcDbLine
 10
-1.6753125
 20
3.555
 30
0.0
 11
-1.689132590734897
 21
3.522753121618573
 31
0.0
  0
LINE
  5
164
330
144
100
AcDbEntity
  8
AM_4
100
AcDbLine
 10
-1.451492409265102
 20
3.522753121618573
 30
0.0
 11
-1.4653125
 21
3.555
 31
0.0
  0
LINE
  5
165
330
144
100
AcDbEntity
  8
AM_4
100
AcDbLine
 10
-1.6753125
 20
3.585
 30
0.0
 11
-1.4653125
 21
3.585
 31
0.0
  0
LINE
  5
166
330
144
100
AcDbEntity
  8
AM_4
100
AcDbLine
 10
-1.4653125
 20
3.585
 30
0.0
 11
-1.4353125
 21
3.645
 31
0.0
  0
LINE
  5
167
330
144
100
AcDbEntity
  8
AM_4
100
AcDbLine
 10
-1.7053125
 20
3.645
 30
0.0
 11
-1.6753125
 21
3.585
 31
0.0
  0
LINE
  5
168
330
144
100
AcDbEntity
  8
AM_4
100
AcDbLine
 10
-1.672990401933187
 20
3.725
 30
0.0
 11
-1.467634598066812
 21
3.725
 31
0.0
  0
LINE
  5
169
330
144
100
AcDbEntity
  8
AM_4
100
AcDbLine
 10
-1.7053125
 20
3.645
 30
0.0
 11
-1.4353125
 21
3.645
 31
0.0
  0
LINE
  5
16A
330
144
100
AcDbEntity
  8
AM_4
100
AcDbLine
 10
-1.672990401933187
 20
3.725
 30
0.0
 11
-1.7053125
 21
3.645
 31
0.0
  0
LINE
  5
16B
330
144
100
AcDbEntity
  8
AM_4
100
AcDbLine
 10
-1.4353125
 20
3.645
 30
0.0
 11
-1.467634598066812
 21
3.725
 31
0.0
  0
LINE
  5
16C
330
144
100
AcDbEntity
  8
AM_4
100
AcDbLine
 10
-1.689132590734897
 20
3.522753121618573
 30
0.0
 11
-1.451492409265102
 21
3.522753121618573
 31
0.0
  0
LINE
  5
16D
330
144
100
AcDbEntity
  8
AM_4
100
AcDbLine
 10
-1.689132590734897
 20
3.522753121618573
 30
0.0
 11
-1.742846553283015
 21
3.468318198540882
 31
0.0
  0
LINE
  5
16E
330
144
100
AcDbEntity
  8
AM_4
100
AcDbLine
 10
-1.397778446716984
 20
3.468318198540882
 30
0.0
 11
-1.451492409265102
 21
3.522753121618573
 31
0.0
  0
LINE
  5
16F
330
144
100
AcDbEntity
  8
AM_4
100
AcDbLine
 10
-1.742846553283015
 20
3.468318198540882
 30
0.0
 11
-1.397778446716984
 21
3.468318198540882
 31
0.0
  0
LINE
  5
170
330
144
100
AcDbEntity
  8
AM_4
100
AcDbLine
 10
-1.742846553283015
 20
3.468318198540882
 30
0.0
 11
-1.7840625
 21
3.45
 31
0.0
  0
LINE
  5
171
330
144
100
AcDbEntity
  8
AM_4
100
AcDbLine
 10
-1.3565625
 20
3.45
 30
0.0
 11
-1.397778446716984
 21
3.468318198540882
 31
0.0
  0
LINE
  5
172
330
144
100
AcDbEntity
  8
AM_4
100
AcDbLine
 10
-1.317721757229539
 20
3.440932400303386
 30
0.0
 11
-1.317721757229539
 21
3.359067599696615
 31
0.0
  0
LWPOLYLINE
  5
173
330
144
100
AcDbEntity
  8
AM_4
100
AcDbPolyline
 90
        4
 70
     0
 43
0.0
 10
-1.380869442922154
 20
3.45
 10
-1.365082521499
 20
3.449392585996001
 10
-1.333491300893662
 20
3.444737183504836
 10
-1.317721757229539
 20
3.440932400303386
  0
LWPOLYLINE
  5
174
330
144
100
AcDbEntity
  8
AM_4
100
AcDbPolyline
 90
        4
 70
     0
 43
0.0
 10
-1.444017128614769
 20
3.440932400303386
 10
-1.420458298561135
 20
3.446278587191169
 10
-1.396749461446461
 20
3.449385438185772
 10
-1.380869442922154
 20
3.45
  0
LWPOLYLINE
  5
175
330
144
100
AcDbEntity
  8
AM_4
100
AcDbPolyline
 90
        4
 70
     0
 43
0.0
 10
-1.380869442922154
 20
3.35
 10
-1.396656364345308
 20
3.350607414003999
 10
-1.412462288954207
 20
3.352396206041016
 10
-1.444017128614769
 20
3.359067599696615
  0
LWPOLYLINE
  5
176
330
144
100
AcDbEntity
  8
AM_4
100
AcDbPolyline
 90
        4
 70
     0
 43
0.0
 10
-1.317721757229539
 20
3.359067599696615
 10
-1.341280587283173
 20
3.353721412808832
 10
-1.364989424397847
 20
3.350614561814227
 10
-1.380869442922154
 20
3.35
  0
LINE
  5
177
330
144
100
AcDbEntity
  8
AM_4
100
AcDbLine
 10
-1.444017128614769
 20
3.440932400303386
 30
0.0
 11
-1.444017128614769
 21
3.359067599696615
 31
0.0
  0
LWPOLYLINE
  5
178
330
144
100
AcDbEntity
  8
AM_4
100
AcDbPolyline
 90
        4
 70
     0
 43
0.0
 10
-1.5703125
 20
3.45
 10
-1.521912683944101
 20
3.448582439282863
 10
-1.473512867888202
 20
3.444517587482156
 10
-1.444017128614769
 20
3.440932400303386
  0
LWPOLYLINE
  5
179
330
144
100
AcDbEntity
  8
AM_4
100
AcDbPolyline
 90
        5
 70
     0
 43
0.0
 10
-1.696607871385231
 20
3.440932400303386
 10
-1.665237654415046
 20
3.444719184458392
 10
-1.633744114691436
 20
3.44758547505038
 10
-1.602072537048614
 20
3.449385438185772
 10
-1.5703125
 20
3.45
  0
LWPOLYLINE
  5
17A
330
144
100
AcDbEntity
  8
AM_4
100
AcDbPolyline
 90
        5
 70
     0
 43
0.0
 10
-1.5703125
 20
3.35
 10
-1.601886342846307
 20
3.350607414003999
 10
-1.633460185692615
 20
3.352393380785035
 10
-1.665068784056983
 20
3.355262816495164
 10
-1.696607871385231
 20
3.359067599696615
  0
LWPOLYLINE
  5
17B
330
144
100
AcDbEntity
  8
AM_4
100
AcDbPolyline
 90
        4
 70
     0
 43
0.0
 10
-1.444017128614769
 20
3.359067599696615
 10
-1.473512867888202
 20
3.355482412517844
 10
-1.521770058752246
 20
3.351425828243072
 10
-1.5703125
 20
3.35
  0
LINE
  5
17C
330
144
100
AcDbEntity
  8
AM_4
100
AcDbLine
 10
-1.696607871385231
 20
3.440932400303386
 30
0.0
 11
-1.696607871385231
 21
3.359067599696615
 31
0.0
  0
LWPOLYLINE
  5
17D
330
144
100
AcDbEntity
  8
AM_4
100
AcDbPolyline
 90
        4
 70
     0
 43
0.0
 10
-1.759755557077846
 20
3.45
 10
-1.743968635654692
 20
3.449392585996001
 10
-1.728162711045793
 20
3.447603793958985
 10
-1.696607871385231
 20
3.440932400303386
  0
LWPOLYLINE
  5
17E
330
144
100
AcDbEntity
  8
AM_4
100
AcDbPolyline
 90
        4
 70
     0
 43
0.0
 10
-1.822903242770461
 20
3.440932400303386
 10
-1.799344412716827
 20
3.446278587191169
 10
-1.775635575602153
 20
3.449385438185772
 10
-1.759755557077846
 20
3.45
  0
LINE
  5
17F
330
144
100
AcDbEntity
  8
AM_4
100
AcDbLine
 10
-1.822903242770461
 20
3.440932400303386
 30
0.0
 11
-1.822903242770461
 21
3.359067599696615
 31
0.0
  0
LWPOLYLINE
  5
180
330
144
100
AcDbEntity
  8
AM_4
100
AcDbPolyline
 90
        4
 70
     0
 43
0.0
 10
-1.759755557077846
 20
3.35
 10
-1.775542478501
 20
3.350607414003999
 10
-1.791348403109899
 20
3.352396206041016
 10
-1.822903242770461
 20
3.359067599696615
  0
LWPOLYLINE
  5
181
330
144
100
AcDbEntity
  8
AM_4
100
AcDbPolyline
 90
        4
 70
     0
 43
0.0
 10
-1.696607871385231
 20
3.359067599696615
 10
-1.720166701438865
 20
3.353721412808832
 10
-1.743875538553539
 20
3.350614561814227
 10
-1.759755557077846
 20
3.35
  0
ENDBLK
  5
147
330
144
100
AcDbEntity
  8
0
100
AcDbBlockEnd
  0
BLOCK
  5
184
330
182
100
AcDbEntity
  8
0
100
AcDbBlockBegin
  2
5_070866H_0_in_070866_2
 70
     2
 10
0.0
 20
0.0
 30
0.0
  3
5_070866H_0_in_070866_2
  1

  0
ATTDEF
  5
186
330
182
100
AcDbEntity
  8
AM_6
100
AcDbText
 10
5.11953125
 20
3.757
 30
0.0
 40
0.5
  1
F4S-S2 -(Labyrinth Seal)-Housing
100
AcDbAttributeDefinition
  3

  2
NN
 70
     8
280
     0
  0
ATTDEF
  5
187
330
182
100
AcDbEntity
  8
AM_6
100
AcDbText
 10
5.11953125
 20
3.257
 30
0.0
 40
0.5
  1
S-2000 4 Bolt Square Flange Bearing -Inch
100
AcDbAttributeDefinition
  3

  2
NT
 70
     8
280
     0
  0
ATTDEF
  5
188
330
182
100
AcDbEntity
  8
AM_6
100
AcDbText
 10
5.11953125
 20
2.757
 30
0.0
 40
0.5
  1
070866H
100
AcDbAttributeDefinition
  3

  2
NB
 70
     8
280
     0
  0
ATTDEF
  5
189
330
182
100
AcDbEntity
  8
AM_6
100
AcDbText
 10
5.11953125
 20
2.257
 30
0.0
 40
0.5
  1
$PN.H
100
AcDbAttributeDefinition
  3

  2
NBSYN
 70
     8
280
     0
  0
ATTDEF
  5
18A
330
182
100
AcDbEntity
  8
AM_6
100
AcDbText
 10
5.11953125
 20
1.757
 30
0.0
 40
0.5
  1
070866
100
AcDbAttributeDefinition
  3

  2
LINA
 70
     8
280
     0
  0
ATTDEF
  5
18B
330
182
100
AcDbEntity
  8
AM_6
100
AcDbText
 10
5.11953125
 20
1.257
 30
0.0
 40
0.5
  1
2-15/16
100
AcDbAttributeDefinition
  3

  2
SS
 70
     8
280
     0
  0
ATTDEF
  5
18C
330
182
100
AcDbEntity
  8
AM_6
100
AcDbText
 10
5.11953125
 20
0.7569999999999997
 30
0.0
 40
0.5
  1
070866
100
AcDbAttributeDefinition
  3

  2
PN
 70
     8
280
     0
  0
ATTDEF
  5
18D
330
182
100
AcDbEntity
  8
AM_6
100
AcDbText
 10
5.11953125
 20
0.2569999999999997
 30
0.0
 40
0.5
  1
F4S-S2-215LE
100
AcDbAttributeDefinition
  3

  2
DESCRIPTION
 70
     8
280
     0
  0
ATTDEF
  5
18E
330
182
100
AcDbEntity
  8
AM_6
100
AcDbText
 10
5.11953125
 20
-0.2430000000000003
 30
0.0
 40
0.5
  1
Expansion Type
100
AcDbAttributeDefinition
  3

  2
EF
 70
     8
280
     0
  0
ATTDEF
  5
18F
330
182
100
AcDbEntity
  8
AM_6
100
AcDbText
 10
5.11953125
 20
-0.7430000000000003
 30
0.0
 40
0.5
  1
3-19/32
100
AcDbAttributeDefinition
  3

  2
A
 70
     8
280
     0
  0
ATTDEF
  5
190
330
182
100
AcDbEntity
  8
AM_6
100
AcDbText
 10
5.11953125
 20
-1.243
 30
0.0
 40
0.5
  1
7-3/16
100
AcDbAttributeDefinition
  3

  2
B
 70
     8
280
     0
  0
ATTDEF
  5
191
330
182
100
AcDbEntity
  8
AM_6
100
AcDbText
 10
5.11953125
 20
-1.743
 30
0.0
 40
0.5
  1
3-29/32
100
AcDbAttributeDefinition
  3

  2
C
 70
     8
280
     0
  0
ATTDEF
  5
192
330
182
100
AcDbEntity
  8
AM_6
100
AcDbText
 10
5.11953125
 20
-2.243
 30
0.0
 40
0.5
  1
3/4
100
AcDbAttributeDefinition
  3

  2
F
 70
     8
280
     0
  0
ATTDEF
  5
193
330
182
100
AcDbEntity
  8
AM_6
100
AcDbText
 10
5.11953125
 20
-2.743
 30
0.0
 40
0.5
  1
1-33/64
100
AcDbAttributeDefinition
  3

  2
G
 70
     8
280
     0
  0
ATTDEF
  5
194
330
182
100
AcDbEntity
  8
AM_6
100
AcDbText
 10
5.11953125
 20
-3.243
 30
0.0
 40
0.5
  1
3/4
100
AcDbAttributeDefinition
  3

  2
H
 70
     8
280
     0
  0
ATTDEF
  5
195
330
182
100
AcDbEntity
  8
AM_6
100
AcDbText
 10
5.11953125
 20
-3.743
 30
0.0
 40
0.5
  1
6-1/2
100
AcDbAttributeDefinition
  3

  2
J
 70
     8
280
     0
  0
ATTDEF
  5
196
330
182
100
AcDbEntity
  8
AM_6
100
AcDbText
 10
5.11953125
 20
-4.243
 30
0.0
 40
0.5
  1
7-7/8
100
AcDbAttributeDefinition
  3

  2
K
 70
     8
280
     0
  0
ATTDEF
  5
197
330
182
100
AcDbEntity
  8
AM_6
100
AcDbText
 10
5.11953125
 20
-4.743
 30
0.0
 40
0.5
  1
7.8750000
100
AcDbAttributeDefinition
  3

  2
K1
 70
     8
280
     0
  0
ATTDEF
  5
198
330
182
100
AcDbEntity
  8
AM_6
100
AcDbText
 10
5.11953125
 20
-5.243
 30
0.0
 40
0.5
  1
4-45/64
100
AcDbAttributeDefinition
  3

  2
L
 70
     8
280
     0
  0
ATTDEF
  5
199
330
182
100
AcDbEntity
  8
AM_6
100
AcDbText
 10
5.11953125
 20
-5.743
 30
0.0
 40
0.5
  1
3-27/32
100
AcDbAttributeDefinition
  3

  2
N
 70
     8
280
     0
  0
ATTDEF
  5
19A
330
182
100
AcDbEntity
  8
AM_6
100
AcDbText
 10
5.11953125
 20
-6.243
 30
0.0
 40
0.5
  1
3.843750
100
AcDbAttributeDefinition
  3

  2
N1
 70
     8
280
     0
  0
ATTDEF
  5
19B
330
182
100
AcDbEntity
  8
AM_6
100
AcDbText
 10
5.11953125
 20
-6.743
 30
0.0
 40
0.5
  1
5/16
100
AcDbAttributeDefinition
  3

  2
P
 70
     8
280
     0
  0
ATTDEF
  5
19C
330
182
100
AcDbEntity
  8
AM_6
100
AcDbText
 10
5.11953125
 20
-7.243
 30
0.0
 40
0.5
  1
1/4
100
AcDbAttributeDefinition
  3

  2
X
 70
     8
280
     0
  0
ATTDEF
  5
19D
330
182
100
AcDbEntity
  8
AM_6
100
AcDbText
 10
5.11953125
 20
-7.743
 30
0.0
 40
0.5
  1
0.025
100
AcDbAttributeDefinition
  3

  2
Y
 70
     8
280
     0
  0
ATTDEF
  5
19E
330
182
100
AcDbEntity
  8
AM_6
100
AcDbText
 10
5.11953125
 20
-8.243
 30
0.0
 40
0.5
  1
3-15/32
100
AcDbAttributeDefinition
  3

  2
Z
 70
     8
280
     0
  0
ATTDEF
  5
19F
330
182
100
AcDbEntity
  8
AM_6
100
AcDbText
 10
5.11953125
 20
-8.743
 30
0.0
 40
0.5
  1
baldor
100
AcDbAttributeDefinition
  3

  2
COMPANY
 70
     8
280
     0
  0
LINE
  5
1A0
330
182
100
AcDbEntity
  8
AM_9
100
AcDbLine
 10
-0.6999999999999997
 20
-3.59375
 30
0.0
 11
-0.6999999999999997
 21
-2.980004125814408
 31
0.0
  0
LINE
  5
1A1
330
182
100
AcDbEntity
  8
AM_9
100
AcDbLine
 10
-0.6999999999999997
 20
-3.013497774868299
 30
0.0
 11
-0.7499999999999998
 21
-3.013497774868299
 31
0.0
  0
LINE
  5
1A2
330
182
100
AcDbEntity
  8
AM_9
100
AcDbLine
 10
-0.6999999999999997
 20
-2.980004125814408
 30
0.0
 11
-0.7499999999999998
 21
-2.980004125814408
 31
0.0
  0
LINE
  5
1A3
330
182
100
AcDbEntity
  8
AM_9
100
AcDbLine
 10
-0.6999999999999997
 20
3.013497774868298
 30
0.0
 11
-0.7499999999999998
 21
3.013497774868298
 31
0.0
  0
LINE
  5
1A4
330
182
100
AcDbEntity
  8
AM_9
100
AcDbLine
 10
-0.7499999999999998
 20
2.980004125814407
 30
0.0
 11
-0.6999999999999997
 21
2.980004125814407
 31
0.0
  0
LINE
  5
1A5
330
182
100
AcDbEntity
  8
AM_9
100
AcDbLine
 10
-0.6999999999999997
 20
-2.999289545399093
 30
0.0
 11
-0.7499999999999998
 21
-2.999289545399093
 31
0.0
  0
LINE
  5
1A6
330
182
100
AcDbEntity
  8
AM_9
100
AcDbLine
 10
-0.7499999999999999
 20
-3.25
 30
0.0
 11
-0.7
 21
-3.25
 31
0.0
  0
LINE
  5
1A7
330
182
100
AcDbEntity
  8
AM_9
100
AcDbLine
 10
-0.6999999999999997
 20
2.999289545399093
 30
0.0
 11
-0.7499999999999998
 21
2.999289545399093
 31
0.0
  0
LINE
  5
1A8
330
182
100
AcDbEntity
  8
AM_9
100
AcDbLine
 10
-2.062763624550773
 20
3.24884719709489
 30
0.0
 11
-2.0703125
 21
3.25
 31
0.0
  0
LINE
  5
1A9
330
182
100
AcDbEntity
  8
AM_9
100
AcDbLine
 10
-0.7
 20
3.25
 30
0.0
 11
-0.7499999999999999
 21
3.25
 31
0.0
  0
LINE
  5
1AA
330
182
100
AcDbEntity
  8
AM_9
100
AcDbLine
 10
-0.6999999999999997
 20
3.521929621657743
 30
0.0
 11
-0.7499999999999998
 21
3.521929621657743
 31
0.0
  0
LINE
  5
1AB
330
182
100
AcDbEntity
  8
AM_9
100
AcDbLine
 10
-0.6999999999999997
 20
-3.521929621657744
 30
0.0
 11
-0.7499999999999998
 21
-3.521929621657744
 31
0.0
  0
LINE
  5
1AC
330
182
100
AcDbEntity
  8
AM_9
100
AcDbLine
 10
-0.6999999999999997
 20
3.59375
 30
0.0
 11
-0.6999999999999997
 21
2.980004125814407
 31
0.0
  0
LINE
  5
1AD
330
182
100
AcDbEntity
  8
AM_9
100
AcDbLine
 10
-2.390625
 20
-2.55905
 30
0.0
 11
-0.1071428571428573
 21
-2.55905
 31
0.0
  0
LINE
  5
1AE
330
182
100
AcDbEntity
  8
AM_9
100
AcDbLine
 10
-0.1071428571428573
 20
2.55905
 30
0.0
 11
-2.390625
 21
2.55905
 31
0.0
  0
LINE
  5
1AF
330
182
100
AcDbEntity
  8
AM_9
100
AcDbLine
 10
-0.1071428571428571
 20
2.829525
 30
0.0
 11
-0.1071428571428571
 21
-2.829525
 31
0.0
  0
ARC
  5
1B0
330
182
100
AcDbEntity
  8
AM_9
100
AcDbCircle
 10
-0.0321428571428565
 20
-2.829524999999999
 30
0.0
 40
0.0750000000000006
100
AcDbArc
 50
180.0
 51
270.0
  0
ARC
  5
1B1
330
182
100
AcDbEntity
  8
AM_9
100
AcDbCircle
 10
-0.0321428571428565
 20
2.829524999999999
 30
0.0
 40
0.0750000000000006
100
AcDbArc
 50
90.0
 51
180.0
  0
LINE
  5
1B2
330
182
100
AcDbEntity
  8
AM_9
100
AcDbLine
 10
-0.0321428571428563
 20
-2.904525
 30
0.0
 11
0.0
 21
-2.904525
 31
0.0
  0
LINE
  5
1B3
330
182
100
AcDbEntity
  8
AM_9
100
AcDbLine
 10
0.0
 20
2.904525
 30
0.0
 11
-0.0321428571428563
 21
2.904525
 31
0.0
  0
LINE
  5
1B4
330
182
100
AcDbEntity
  8
AM_9
100
AcDbLine
 10
-0.0321428571428563
 20
2.904525
 30
0.0
 11
-0.0321428571428563
 21
-2.904525
 31
0.0
  0
LINE
  5
1B5
330
182
100
AcDbEntity
  8
AM_9
100
AcDbLine
 10
-0.7499999999999998
 20
2.40625
 30
0.0
 11
0.0000000000000002
 21
2.40625
 31
0.0
  0
LINE
  5
1B6
330
182
100
AcDbEntity
  8
AM_9
100
AcDbLine
 10
0.0000000000000002
 20
3.15625
 30
0.0
 11
-0.7499999999999998
 21
3.15625
 31
0.0
  0
LINE
  5
1B7
330
182
100
AcDbEntity
  8
AM_9
100
AcDbLine
 10
-0.7499999999999998
 20
-3.15625
 30
0.0
 11
0.0000000000000002
 21
-3.15625
 31
0.0
  0
LINE
  5
1B8
330
182
100
AcDbEntity
  8
AM_9
100
AcDbLine
 10
0.0000000000000002
 20
-2.40625
 30
0.0
 11
-0.7499999999999998
 21
-2.40625
 31
0.0
  0
LINE
  5
1B9
330
182
100
AcDbEntity
  8
AM_7
100
AcDbLine
 10
0.0374999999999998
 20
2.78125
 30
0.0
 11
-0.7875000000000001
 21
2.78125
 31
0.0
  0
LINE
  5
1BA
330
182
100
AcDbEntity
  8
AM_7
100
AcDbLine
 10
0.0374999999999998
 20
-2.78125
 30
0.0
 11
-0.7875000000000001
 21
-2.78125
 31
0.0
  0
LINE
  5
1BB
330
182
100
AcDbEntity
  8
AM_7
100
AcDbLine
 10
-3.8359375
 20
0.0
 30
0.0
 11
0.11953125
 21
0.0
 31
0.0
  0
LINE
  5
1BC
330
182
100
AcDbEntity
  8
AM_7
100
AcDbLine
 10
-1.5703125
 20
3.757
 30
0.0
 11
-1.5703125
 21
2.6245025
 31
0.0
  0
LINE
  5
1BD
330
182
100
AcDbEntity
  8
AM_4
100
AcDbLine
 10
-1.970312499999999
 20
3.35
 30
0.0
 11
-1.170312500139223
 21
3.35
 31
0.0
  0
ARC
  5
1BE
330
182
100
AcDbEntity
  8
AM_4
100
AcDbCircle
 10
-1.1703125
 20
3.25
 30
0.0
 40
0.1000000000000001
100
AcDbArc
 50
0.0
 51
90.0
  0
ARC
  5
1BF
330
182
100
AcDbEntity
  8
AM_4
100
AcDbCircle
 10
-1.970312499999999
 20
3.25
 30
0.0
 40
0.1000000000000005
100
AcDbArc
 50
90.0
 51
180.0
  0
LINE
  5
1C0
330
182
100
AcDbEntity
  8
AM_4
100
AcDbLine
 10
-2.0703125
 20
3.25
 30
0.0
 11
-1.0703125
 21
3.25
 31
0.0
  0
LINE
  5
1C1
330
182
100
AcDbEntity
  8
AM_4
100
AcDbLine
 10
-2.390625
 20
-3.25
 30
0.0
 11
-0.7499999999999999
 21
-3.25
 31
0.0
  0
LWPOLYLINE
  5
1C2
330
182
100
AcDbEntity
  8
AM_4
100
AcDbPolyline
 90
       38
 70
     0
 43
0.0
 10
-2.0703125
 20
3.25
 10
-2.068605461633795
 20
3.249737390810993
 10
-2.063509101160011
 20
3.248960277903654
 10
-2.054751376249794
 20
3.247641982010073
 10
-2.042511133609994
 20
3.245839113323879
 10
-2.027361838407498
 20
3.243669627978183
 10
-2.009120915297956
 20
3.241149923304429
 10
-1.98725504777694
 20
3.238261994753854
 10
-1.962410982755644
 20
3.235157062675517
 10
-1.935359202817562
 20
3.231990119943039
 10
-1.905804196895293
 20
3.228785325580764
 10
-1.872987607903883
 20
3.225541040486374
 10
-1.83796367791829
 20
3.22244273076203
 10
-1.801853180534933
 20
3.219645177279677
 10
-1.764118605791764
 20
3.217151038829567
 10
-1.723840890498574
 20
3.21497695843851
 10
-1.682412071687249
 20
3.21326412141493
 10
-1.641686490027015
 20
3.212102133833276
 10
-1.600460762687323
 20
3.211449659848813
 10
-1.557796165635274
 20
3.211333602539598
 10
-1.515224696301355
 20
3.211780606784395
 10
-1.474609846928733
 20
3.212734738402015
 10
-1.434653448443771
 20
3.214172269538323
 10
-1.394522111341819
 20
3.216116822813662
 10
-1.355661667678918
 20
3.218474014158904
 10
-1.319220394321476
 20
3.221110163315064
 10
-1.284494377064355
 20
3.224002481295332
 10
-1.250817745379389
 20
3.227162715863785
 10
-1.21943255258785
 20
3.230420520225803
 10
-1.191052566517346
 20
3.233626260067547
 10
-1.165287158942988
 20
3.236749222120606
 10
-1.141698803628275
 20
3.239785328189395
 10
-1.121238129735526
 20
3.242555749717873
 10
-1.104502367163369
 20
3.244915607217529
 10
-1.090987174467947
 20
3.246883546987235
 10
-1.080552791253598
 20
3.24843988252262
 10
-1.07371906867542
 20
3.24947765587559
 10
-1.070312499999999
 20
3.25
  0
LINE
  5
1C3
330
182
100
AcDbEntity
  8
AM_4
100
AcDbLine
 10
-0.7499999999999999
 20
3.25
 30
0.0
 11
-1.0703125
 21
3.25
 31
0.0
  0
LINE
  5
1C4
330
182
100
AcDbEntity
  8
AM_4
100
AcDbLine
 10
-2.0703125
 20
3.25
 30
0.0
 11
-2.390625
 21
3.25
 31
0.0
  0
LINE
  5
1C5
330
182
100
AcDbEntity
  8
AM_4
100
AcDbLine
 10
-2.390625
 20
2.703299165621847
 30
0.0
 11
-0.7499999999999998
 21
2.703299165621847
 31
0.0
  0
LINE
  5
1C6
330
182
100
AcDbEntity
  8
AM_4
100
AcDbLine
 10
-2.390625
 20
-2.703299165621849
 30
0.0
 11
-0.7499999999999998
 21
-2.703299165621849
 31
0.0
  0
LINE
  5
1C7
330
182
100
AcDbEntity
  8
AM_4
100
AcDbLine
 10
-2.390625
 20
2.569359791083238
 30
0.0
 11
-0.7499999999999998
 21
2.569359791083238
 31
0.0
  0
LINE
  5
1C8
330
182
100
AcDbEntity
  8
AM_4
100
AcDbLine
 10
-2.390625
 20
-2.569359781018786
 30
0.0
 11
-0.7499999999999998
 21
-2.569359781018786
 31
0.0
  0
LINE
  5
1C9
330
182
100
AcDbEntity
  8
AM_4
100
AcDbLine
 10
-2.390625
 20
-1.904091575800198
 30
0.0
 11
-0.7499999999999998
 21
-1.904091575800198
 31
0.0
  0
LINE
  5
1CA
330
182
100
AcDbEntity
  8
AM_4
100
AcDbLine
 10
-2.390625
 20
-3.25
 30
0.0
 11
-2.390625
 21
3.25
 31
0.0
  0
LINE
  5
1CB
330
182
100
AcDbEntity
  8
AM_4
100
AcDbLine
 10
-2.390625
 20
1.904091587552427
 30
0.0
 11
-0.7499999999999998
 21
1.904091587552426
 31
0.0
  0
LINE
  5
1CC
330
182
100
AcDbEntity
  8
AM_4
100
AcDbLine
 10
-2.390625
 20
1.804071401344256
 30
0.0
 11
-0.7499999999999998
 21
1.804071401344256
 31
0.0
  0
LINE
  5
1CD
330
182
100
AcDbEntity
  8
AM_4
100
AcDbLine
 10
-2.390625
 20
-1.804071401344256
 30
0.0
 11
-0.7499999999999998
 21
-1.804071401344257
 31
0.0
  0
LINE
  5
1CE
330
182
100
AcDbEntity
  8
AM_4
100
AcDbLine
 10
-0.6999999999999997
 20
-1.25170372806815
 30
0.0
 11
-0.7499999999999998
 21
-1.25170372806815
 31
0.0
  0
LINE
  5
1CF
330
182
100
AcDbEntity
  8
AM_4
100
AcDbLine
 10
-0.6999999999999997
 20
1.251703728068149
 30
0.0
 11
-0.7499999999999998
 21
1.251703728068149
 31
0.0
  0
LINE
  5
1D0
330
182
100
AcDbEntity
  8
AM_4
100
AcDbLine
 10
-0.6999999999999997
 20
-1.472988630227239
 30
0.0
 11
-0.7499999999999998
 21
-1.472988630227239
 31
0.0
  0
LINE
  5
1D1
330
182
100
AcDbEntity
  8
AM_4
100
AcDbLine
 10
-0.6999999999999997
 20
1.472988630227236
 30
0.0
 11
-0.7499999999999998
 21
1.472988630227236
 31
0.0
  0
LINE
  5
1D2
330
182
100
AcDbEntity
  8
AM_4
100
AcDbLine
 10
-0.6999999999999996
 20
-2.353618421052632
 30
0.0
 11
-0.7499999999999997
 21
-2.353618421052632
 31
0.0
  0
LINE
  5
1D3
330
182
100
AcDbEntity
  8
AM_4
100
AcDbLine
 10
-0.6999999999999996
 20
-2.514194164542175
 30
0.0
 11
-0.6999999999999996
 21
2.514194164542169
 31
0.0
  0
LINE
  5
1D4
330
182
100
AcDbEntity
  8
AM_4
100
AcDbLine
 10
-0.7499999999999997
 20
-2.514194164542175
 30
0.0
 11
-0.6999999999999996
 21
-2.514194164542175
 31
0.0
  0
LINE
  5
1D5
330
182
100
AcDbEntity
  8
AM_4
100
AcDbLine
 10
-0.6999999999999996
 20
2.514194164542169
 30
0.0
 11
-0.7499999999999997
 21
2.514194164542169
 31
0.0
  0
LINE
  5
1D6
330
182
100
AcDbEntity
  8
AM_4
100
AcDbLine
 10
-0.6999999999999996
 20
2.353618421052631
 30
0.0
 11
-0.7499999999999997
 21
2.353618421052631
 31
0.0
  0
LINE
  5
1D7
330
182
100
AcDbEntity
  8
AM_4
100
AcDbLine
 10
0.0000000000000002
 20
-3.59375
 30
0.0
 11
0.0000000000000002
 21
3.59375
 31
0.0
  0
LINE
  5
1D8
330
182
100
AcDbEntity
  8
AM_4
100
AcDbLine
 10
-0.7499999999999998
 20
3.59375
 30
0.0
 11
0.0000000000000002
 21
3.59375
 31
0.0
  0
LINE
  5
1D9
330
182
100
AcDbEntity
  8
AM_4
100
AcDbLine
 10
-0.7499999999999998
 20
1.251703728068149
 30
0.0
 11
-0.7499999999999998
 21
3.59375
 31
0.0
  0
LINE
  5
1DA
330
182
100
AcDbEntity
  8
AM_4
100
AcDbLine
 10
-0.7499999999999997
 20
2.78125
 30
0.0
 11
0.0000000000000002
 21
2.78125
 31
0.0
  0
LINE
  5
1DB
330
182
100
AcDbEntity
  8
AM_4
100
AcDbLine
 10
-0.7499999999999997
 20
-2.781250000000001
 30
0.0
 11
0.0000000000000002
 21
-2.781250000000001
 31
0.0
  0
LINE
  5
1DC
330
182
100
AcDbEntity
  8
AM_4
100
AcDbLine
 10
-0.7499999999999998
 20
-3.59375
 30
0.0
 11
-0.7499999999999998
 21
-1.25170372806815
 31
0.0
  0
LINE
  5
1DD
330
182
100
AcDbEntity
  8
AM_4
100
AcDbLine
 10
-0.7499999999999998
 20
-3.59375
 30
0.0
 11
0.0000000000000002
 21
-3.59375
 31
0.0
  0
ENDBLK
  5
185
330
182
100
AcDbEntity
  8
0
100
AcDbBlockEnd
  0
ENDSEC
  0
SECTION
  2
ENTITIES
  0
INSERT
  5
6F
330
1F
100
AcDbEntity
  8
0
100
AcDbBlockReference
  2
1_070866_2
 10
0.0
 20
0.0
 30
0.0
  0
POINT
  5
1DF
330
1F
100
AcDbEntity
  8
ConnectionPoints
100
AcDbPoint
 10
-3.65625
 20
0.0
 30
0.0000000000000002
  0
POINT
  5
1E0
330
1F
100
AcDbEntity
  8
ConnectionPoints
100
AcDbPoint
 10
1.093249999999999
 20
0.0
 30
-0.0000000000000001
  0
POINT
  5
1E1
330
1F
100
AcDbEntity
  8
ConnectionPoints
100
AcDbPoint
 10
-3.65625
 20
0.0
 30
0.0000000000000002
  0
POINT
  5
1E2
330
1F
100
AcDbEntity
  8
ConnectionPoints
100
AcDbPoint
 10
-1.5703125
 20
3.35
 30
0.0000000000000001
  0
POINT
  5
1E3
330
1F
100
AcDbEntity
  8
ConnectionPoints
100
AcDbPoint
 10
-1.5703125
 20
3.35
 30
0.0000000000000001
  0
POINT
  5
1E4
330
1F
100
AcDbEntity
  8
ConnectionPoints
100
AcDbPoint
 10
-3.65625
 20
0.0
 30
0.0000000000000002
  0
POINT
  5
1E5
330
1F
100
AcDbEntity
  8
ConnectionPoints
100
AcDbPoint
 10
-3.90625
 20
0.0
 30
0.0000000000000002
  0
ENDSEC
  0
SECTION
  2
OBJECTS
  0
DICTIONARY
  5
C
330
0
100
AcDbDictionary
281
     1
  3
ACAD_DETAILVIEWSTYLE
350
1ED
  3
ACAD_GROUP
350
D
  3
ACAD_LAYOUT
350
1A
  3
ACAD_MATERIAL
350
43
  3
ACAD_MLEADERSTYLE
350
6B
  3
ACAD_MLINESTYLE
350
17
  3
ACAD_PLOTSETTINGS
350
19
  3
ACAD_PLOTSTYLENAME
350
E
  3
ACAD_SCALELIST
350
47
  3
ACAD_SECTIONVIEWSTYLE
350
1EE
  3
ACAD_TABLESTYLE
350
69
  3
ACAD_VISUALSTYLE
350
2A
  3
ACDB_RECOMPOSE_DATA
350
1EA
  3
AcDbVariableDictionary
350
1E6
  0
SUN
  5
6D
330
29
100
AcDbSun
 90
        1
290
     0
 63
     7
421
 16777215
 40
1.0
291
     1
 91
  2455826
 92
 54000000
292
     0
 70
     2
 71
   256
280
     1
  0
DICTIONARY
  5
1ED
102
{ACAD_REACTORS
330
C
102
}
330
C
100
AcDbDictionary
281
     1
  0
DICTIONARY
  5
D
102
{ACAD_REACTORS
330
C
102
}
330
C
100
AcDbDictionary
281
     1
  0
DICTIONARY
  5
1A
102
{ACAD_REACTORS
330
C
102
}
330
C
100
AcDbDictionary
281
     1
  3
Layout1
350
1E
  3
Layout2
350
26
  3
Model
350
22
  0
DICTIONARY
  5
43
102
{ACAD_REACTORS
330
C
102
}
330
C
100
AcDbDictionary
281
     1
  3
ByBlock
350
45
  3
ByLayer
350
44
  3
Global
350
46
  0
DICTIONARY
  5
6B
102
{ACAD_REACTORS
330
C
102
}
330
C
100
AcDbDictionary
281
     1
  3
Standard
350
6C
  0
DICTIONARY
  5
17
102
{ACAD_REACTORS
330
C
102
}
330
C
100
AcDbDictionary
281
     1
  3
Standard
350
18
  0
DICTIONARY
  5
19
102
{ACAD_REACTORS
330
C
102
}
330
C
100
AcDbDictionary
281
     1
  0
ACDBDICTIONARYWDFLT
  5
E
102
{ACAD_REACTORS
330
C
102
}
330
C
100
AcDbDictionary
281
     1
  3
Normal
350
F
100
AcDbDictionaryWithDefault
340
F
  0
DICTIONARY
  5
47
102
{ACAD_REACTORS
330
C
102
}
330
C
100
AcDbDictionary
281
     1
  3
A0
350
48
  3
A1
350
49
  3
A2
350
4A
  3
A3
350
4B
  3
A4
350
4C
  3
A5
350
4D
  3
A6
350
4E
  3
A7
350
4F
  3
A8
350
50
  3
A9
350
51
  3
B0
350
52
  3
B1
350
53
  3
B2
350
54
  3
B3
350
55
  3
B4
350
56
  3
B5
350
57
  3
B6
350
58
  3
B7
350
59
  3
B8
350
5A
  3
B9
350
5B
  3
C0
350
5C
  3
C1
350
5D
  3
C2
350
5E
  3
C3
350
5F
  3
C4
350
60
  3
C5
350
61
  3
C6
350
62
  3
C7
350
63
  3
C8
350
64
  3
C9
350
65
  3
D0
350
66
  3
D1
350
67
  3
D2
350
68
  0
DICTIONARY
  5
1EE
102
{ACAD_REACTORS
330
C
102
}
330
C
100
AcDbDictionary
281
     1
  0
DICTIONARY
  5
69
102
{ACAD_REACTORS
330
C
102
}
330
C
100
AcDbDictionary
281
     1
  3
Standard
350
6A
  0
DICTIONARY
  5
2A
102
{ACAD_REACTORS
330
C
102
}
330
C
100
AcDbDictionary
281
     1
  3
2dWireframe
350
2F
  3
Basic
350
32
  3
Brighten
350
36
  3
ColorChange
350
3A
  3
Conceptual
350
34
  3
Dim
350
35
  3
EdgeColorOff
350
3D
  3
Facepattern
350
39
  3
Flat
350
2B
  3
FlatWithEdges
350
2C
  3
Gouraud
350
2D
  3
GouraudWithEdges
350
2E
  3
Hidden
350
31
  3
JitterOff
350
3B
  3
Linepattern
350
38
  3
OverhangOff
350
3C
  3
Realistic
350
33
  3
Shaded
350
42
  3
Shaded with edges
350
41
  3
Shades of Gray
350
3E
  3
Sketchy
350
3F
  3
Thicken
350
37
  3
Wireframe
350
30
  3
X-Ray
350
40
  0
XRECORD
  5
1EA
102
{ACAD_REACTORS
330
C
102
}
330
C
100
AcDbXrecord
280
     1
 90
        1
330
6A
  0
DICTIONARY
  5
1E6
102
{ACAD_REACTORS
330
C
102
}
330
C
100
AcDbDictionary
281
     1
  3
CANNOSCALE
350
1E7
  3
CMLEADERSTYLE
350
1EC
  3
CTABLESTYLE
350
1EB
  0
LAYOUT
  5
1E
102
{ACAD_REACTORS
330
1A
102
}
330
1A
100
AcDbPlotSettings
  1

  2
none_device
  4

  6

 40
0.0
 41
0.0
 42
0.0
 43
0.0
 44
0.0
 45
0.0
 46
0.0
 47
0.0
 48
0.0
 49
0.0
140
0.0
141
0.0
142
1.0
143
1.0
 70
   688
 72
     0
 73
     0
 74
     5
  7

 75
    16
 76
     0
 77
     2
 78
   300
147
1.0
148
0.0
149
0.0
100
AcDbLayout
  1
Layout1
 70
     1
 71
     1
 10
0.0
 20
0.0
 11
12.0
 21
9.0
 12
0.0
 22
0.0
 32
0.0
 14
1.000000000000000E+20
 24
1.000000000000000E+20
 34
1.000000000000000E+20
 15
-1.000000000000000E+20
 25
-1.000000000000000E+20
 35
-1.000000000000000E+20
146
0.0
 13
0.0
 23
0.0
 33
0.0
 16
1.0
 26
0.0
 36
0.0
 17
0.0
 27
1.0
 37
0.0
 76
     0
330
1B
  0
LAYOUT
  5
26
102
{ACAD_REACTORS
330
1A
102
}
330
1A
100
AcDbPlotSettings
  1

  2
none_device
  4

  6

 40
0.0
 41
0.0
 42
0.0
 43
0.0
 44
0.0
 45
0.0
 46
0.0
 47
0.0
 48
0.0
 49
0.0
140
0.0
141
0.0
142
1.0
143
1.0
 70
   688
 72
     0
 73
     0
 74
     5
  7

 75
    16
 76
     0
 77
     2
 78
   300
147
1.0
148
0.0
149
0.0
100
AcDbLayout
  1
Layout2
 70
     1
 71
     2
 10
0.0
 20
0.0
 11
0.0
 21
0.0
 12
0.0
 22
0.0
 32
0.0
 14
0.0
 24
0.0
 34
0.0
 15
0.0
 25
0.0
 35
0.0
146
0.0
 13
0.0
 23
0.0
 33
0.0
 16
1.0
 26
0.0
 36
0.0
 17
0.0
 27
1.0
 37
0.0
 76
     0
330
23
  0
LAYOUT
  5
22
102
{ACAD_REACTORS
330
1A
102
}
330
1A
100
AcDbPlotSettings
  1

  2
none_device
  4
Letter_(8.50_x_11.00_Inches)
  6

 40
6.35
 41
6.35
 42
6.35000508
 43
6.35000508
 44
215.9
 45
279.4
 46
0.0
 47
0.0
 48
0.0
 49
0.0
140
0.0
141
0.0
142
1.0
143
1.0
 70
  1712
 72
     0
 73
     0
 74
     0
  7

 75
     0
 76
     0
 77
     2
 78
   300
147
1.0
148
0.0
149
0.0
100
AcDbLayout
  1
Model
 70
     1
 71
     0
 10
0.0
 20
0.0
 11
12.0
 21
9.0
 12
0.0
 22
0.0
 32
0.0
 14
1.000000000000000E+20
 24
1.000000000000000E+20
 34
1.000000000000000E+20
 15
-1.000000000000000E+20
 25
-1.000000000000000E+20
 35
-1.000000000000000E+20
146
0.0
 13
0.0
 23
0.0
 33
0.0
 16
1.0
 26
0.0
 36
0.0
 17
0.0
 27
1.0
 37
0.0
 76
     0
330
1F
331
29
  0
MATERIAL
  5
45
102
{ACAD_REACTORS
330
43
102
}
330
43
100
AcDbMaterial
  1
ByBlock
 72
     1
 94
      127
  0
MATERIAL
  5
44
102
{ACAD_REACTORS
330
43
102
}
330
43
100
AcDbMaterial
  1
ByLayer
 72
     1
 94
      127
  0
MATERIAL
  5
46
102
{ACAD_REACTORS
330
43
102
}
330
43
100
AcDbMaterial
  1
Global
 72
     1
 94
      127
  0
MLEADERSTYLE
  5
6C
102
{ACAD_REACTORS
330
6B
102
}
330
6B
100
AcDbMLeaderStyle
179
     2
170
     2
171
     1
172
     0
 90
        2
 40
0.0
 41
0.0
173
     1
 91
-1056964608
340
14
 92
       -2
290
     1
 42
0.09
291
     1
 43
0.36
  3
Standard
341
0
 44
0.18
300

342
11
174
     1
178
     6
175
     1
176
     0
 93
-1056964608
 45
0.18
292
     0
297
     0
 46
0.18
343
0
 94
-1056964608
 47
1.0
 49
1.0
140
1.0
293
     1
141
0.0
294
     1
177
     0
142
1.0
295
     0
296
     0
143
0.125
271
     0
272
     9
273
     9
298
     0
  0
MLINESTYLE
  5
18
102
{ACAD_REACTORS
330
17
102
}
330
17
100
AcDbMlineStyle
  2
Standard
 70
     0
  3

 62
   256
 51
90.0
 52
90.0
 71
     2
 49
0.5
 62
   256
  6
BYLAYER
 49
-0.5
 62
   256
  6
BYLAYER
  0
ACDBPLACEHOLDER
  5
F
102
{ACAD_REACTORS
330
E
102
}
330
E
  0
SCALE
  5
48
102
{ACAD_REACTORS
330
47
102
}
330
47
100
AcDbScale
 70
     0
300
1:1
140
1.0
141
1.0
290
     1
  0
SCALE
  5
49
102
{ACAD_REACTORS
330
47
102
}
330
47
100
AcDbScale
 70
     0
300
1:2
140
1.0
141
2.0
290
     0
  0
SCALE
  5
4A
102
{ACAD_REACTORS
330
47
102
}
330
47
100
AcDbScale
 70
     0
300
1:4
140
1.0
141
4.0
290
     0
  0
SCALE
  5
4B
102
{ACAD_REACTORS
330
47
102
}
330
47
100
AcDbScale
 70
     0
300
1:5
140
1.0
141
5.0
290
     0
  0
SCALE
  5
4C
102
{ACAD_REACTORS
330
47
102
}
330
47
100
AcDbScale
 70
     0
300
1:8
140
1.0
141
8.0
290
     0
  0
SCALE
  5
4D
102
{ACAD_REACTORS
330
47
102
}
330
47
100
AcDbScale
 70
     0
300
1:10
140
1.0
141
10.0
290
     0
  0
SCALE
  5
4E
102
{ACAD_REACTORS
330
47
102
}
330
47
100
AcDbScale
 70
     0
300
1:16
140
1.0
141
16.0
290
     0
  0
SCALE
  5
4F
102
{ACAD_REACTORS
330
47
102
}
330
47
100
AcDbScale
 70
     0
300
1:20
140
1.0
141
20.0
290
     0
  0
SCALE
  5
50
102
{ACAD_REACTORS
330
47
102
}
330
47
100
AcDbScale
 70
     0
300
1:30
140
1.0
141
30.0
290
     0
  0
SCALE
  5
51
102
{ACAD_REACTORS
330
47
102
}
330
47
100
AcDbScale
 70
     0
300
1:40
140
1.0
141
40.0
290
     0
  0
SCALE
  5
52
102
{ACAD_REACTORS
330
47
102
}
330
47
100
AcDbScale
 70
     0
300
1:50
140
1.0
141
50.0
290
     0
  0
SCALE
  5
53
102
{ACAD_REACTORS
330
47
102
}
330
47
100
AcDbScale
 70
     0
300
1:100
140
1.0
141
100.0
290
     0
  0
SCALE
  5
54
102
{ACAD_REACTORS
330
47
102
}
330
47
100
AcDbScale
 70
     0
300
2:1
140
2.0
141
1.0
290
     0
  0
SCALE
  5
55
102
{ACAD_REACTORS
330
47
102
}
330
47
100
AcDbScale
 70
     0
300
4:1
140
4.0
141
1.0
290
     0
  0
SCALE
  5
56
102
{ACAD_REACTORS
330
47
102
}
330
47
100
AcDbScale
 70
     0
300
8:1
140
8.0
141
1.0
290
     0
  0
SCALE
  5
57
102
{ACAD_REACTORS
330
47
102
}
330
47
100
AcDbScale
 70
     0
300
10:1
140
10.0
141
1.0
290
     0
  0
SCALE
  5
58
102
{ACAD_REACTORS
330
47
102
}
330
47
100
AcDbScale
 70
     0
300
100:1
140
100.0
141
1.0
290
     0
  0
SCALE
  5
59
102
{ACAD_REACTORS
330
47
102
}
330
47
100
AcDbScale
 70
     0
300
1/128" = 1'-0"
140
0.0078125
141
12.0
290
     0
  0
SCALE
  5
5A
102
{ACAD_REACTORS
330
47
102
}
330
47
100
AcDbScale
 70
     0
300
1/64" = 1'-0"
140
0.015625
141
12.0
290
     0
  0
SCALE
  5
5B
102
{ACAD_REACTORS
330
47
102
}
330
47
100
AcDbScale
 70
     0
300
1/32" = 1'-0"
140
0.03125
141
12.0
290
     0
  0
SCALE
  5
5C
102
{ACAD_REACTORS
330
47
102
}
330
47
100
AcDbScale
 70
     0
300
1/16" = 1'-0"
140
0.0625
141
12.0
290
     0
  0
SCALE
  5
5D
102
{ACAD_REACTORS
330
47
102
}
330
47
100
AcDbScale
 70
     0
300
3/32" = 1'-0"
140
0.09375
141
12.0
290
     0
  0
SCALE
  5
5E
102
{ACAD_REACTORS
330
47
102
}
330
47
100
AcDbScale
 70
     0
300
1/8" = 1'-0"
140
0.125
141
12.0
290
     0
  0
SCALE
  5
5F
102
{ACAD_REACTORS
330
47
102
}
330
47
100
AcDbScale
 70
     0
300
3/16" = 1'-0"
140
0.1875
141
12.0
290
     0
  0
SCALE
  5
60
102
{ACAD_REACTORS
330
47
102
}
330
47
100
AcDbScale
 70
     0
300
1/4" = 1'-0"
140
0.25
141
12.0
290
     0
  0
SCALE
  5
61
102
{ACAD_REACTORS
330
47
102
}
330
47
100
AcDbScale
 70
     0
300
3/8" = 1'-0"
140
0.375
141
12.0
290
     0
  0
SCALE
  5
62
102
{ACAD_REACTORS
330
47
102
}
330
47
100
AcDbScale
 70
     0
300
1/2" = 1'-0"
140
0.5
141
12.0
290
     0
  0
SCALE
  5
63
102
{ACAD_REACTORS
330
47
102
}
330
47
100
AcDbScale
 70
     0
300
3/4" = 1'-0"
140
0.75
141
12.0
290
     0
  0
SCALE
  5
64
102
{ACAD_REACTORS
330
47
102
}
330
47
100
AcDbScale
 70
     0
300
1" = 1'-0"
140
1.0
141
12.0
290
     0
  0
SCALE
  5
65
102
{ACAD_REACTORS
330
47
102
}
330
47
100
AcDbScale
 70
     0
300
1-1/2" = 1'-0"
140
1.5
141
12.0
290
     0
  0
SCALE
  5
66
102
{ACAD_REACTORS
330
47
102
}
330
47
100
AcDbScale
 70
     0
300
3" = 1'-0"
140
3.0
141
12.0
290
     0
  0
SCALE
  5
67
102
{ACAD_REACTORS
330
47
102
}
330
47
100
AcDbScale
 70
     0
300
6" = 1'-0"
140
6.0
141
12.0
290
     0
  0
SCALE
  5
68
102
{ACAD_REACTORS
330
47
102
}
330
47
100
AcDbScale
 70
     0
300
1'-0" = 1'-0"
140
12.0
141
12.0
290
     0
  0
TABLESTYLE
  5
6A
102
{ACAD_REACTORS
330
69
102
}
102
{ACAD_XDICTIONARY
360
1E8
102
}
330
69
100
AcDbTableStyle
  3
Standard
 70
     0
 71
     0
 40
0.06
 41
0.06
280
     0
281
     0
  7
Standard
140
0.18
170
     2
 62
     0
 63
   257
283
     0
 90
        4
 91
        0
  1

274
    -2
284
     1
 64
     0
275
    -2
285
     1
 65
     0
276
    -2
286
     1
 66
     0
277
    -2
287
     1
 67
     0
278
    -2
288
     1
 68
     0
279
    -2
289
     1
 69
     0
  7
Standard
140
0.25
170
     5
 62
     0
 63
   257
283
     0
 90
        4
 91
        0
  1

274
    -2
284
     1
 64
     0
275
    -2
285
     1
 65
     0
276
    -2
286
     1
 66
     0
277
    -2
287
     1
 67
     0
278
    -2
288
     1
 68
     0
279
    -2
289
     1
 69
     0
  7
Standard
140
0.18
170
     5
 62
     0
 63
   257
283
     0
 90
        4
 91
        0
  1

274
    -2
284
     1
 64
     0
275
    -2
285
     1
 65
     0
276
    -2
286
     1
 66
     0
277
    -2
287
     1
 67
     0
278
    -2
288
     1
 68
     0
279
    -2
289
     1
 69
     0
  0
VISUALSTYLE
  5
2F
102
{ACAD_REACTORS
330
2A
102
}
330
2A
100
AcDbVisualStyle
  2
2dWireframe
 70
     4
177
     3
291
     0
 70
    58
 90
        0
176
     1
 90
        2
176
     1
 90
        0
176
     1
 90
        0
176
     1
 40
0.6
176
     1
 40
30.0
176
     1
 62
     7
420
 16777215
176
     1
 90
        1
176
     1
 90
        4
176
     1
 62
     7
176
     1
 62
   257
176
     1
 90
        1
176
     1
 90
        1
176
     1
 40
1.0
176
     1
 90
        0
176
     1
 62
   257
176
     1
 40
1.0
176
     1
 90
        1
176
     1
 90
        6
176
     1
 90
        2
176
     1
 62
     7
176
     1
 90
        5
176
     1
 90
        0
176
     1
 90
        0
176
     1
290
     0
176
     1
 90
        1
176
     1
 40
0.0
176
     1
 90
        0
176
     1
290
     1
176
     1
290
     1
176
     1
290
     0
176
     1
290
     0
176
     1
290
     0
176
     1
290
     0
176
     1
290
     0
176
     1
290
     0
176
     1
290
     0
176
     1
 90
       50
176
     1
 40
0.0
176
     1
 40
1.0
176
     1
 90
        0
176
     1
 62
    18
420
        0
176
     1
 90
       50
176
     1
 90
        3
176
     1
 62
     5
420
      255
176
     1
290
     0
176
     1
 90
       50
176
     1
 90
       50
176
     1
 90
       50
176
     1
290
     0
176
     1
 90
       50
176
     1
 62
   256
176
     0
 40
1.0
176
     0
 90
        2
176
     1
  1
strokes_ogs.tif
176
     1
290
     0
176
     1
 40
1.0
176
     1
 40
1.0
176
     1
  0
VISUALSTYLE
  5
32
102
{ACAD_REACTORS
330
2A
102
}
330
2A
100
AcDbVisualStyle
  2
Basic
 70
     7
177
     3
291
     1
 70
    58
 90
        1
176
     1
 90
        0
176
     1
 90
        1
176
     1
 90
        0
176
     1
 40
0.6
176
     1
 40
30.0
176
     1
 62
     7
420
 16777215
176
     1
 90
        0
176
     1
 90
        4
176
     1
 62
     7
176
     1
 62
   257
176
     1
 90
        1
176
     1
 90
        1
176
     1
 40
1.0
176
     1
 90
        8
176
     1
 62
     7
176
     1
 40
1.0
176
     1
 90
        1
176
     1
 90
        6
176
     1
 90
        2
176
     1
 62
     7
176
     1
 90
        5
176
     1
 90
        0
176
     1
 90
        0
176
     1
290
     0
176
     1
 90
        1
176
     1
 40
0.0
176
     1
 90
        0
176
     1
290
     0
176
     1
290
     1
176
     1
290
     1
176
     1
290
     0
176
     1
290
     0
176
     1
290
     0
176
     1
290
     0
176
     1
290
     0
176
     1
290
     0
176
     1
 90
       50
176
     1
 40
0.0
176
     1
 40
1.0
176
     1
 90
        0
176
     1
 62
    18
420
        0
176
     1
 90
       50
176
     1
 90
        3
176
     1
 62
     5
420
      255
176
     1
290
     0
176
     1
 90
       50
176
     1
 90
       50
176
     1
 90
       50
176
     1
290
     0
176
     1
 90
       50
176
     1
 62
   256
176
     0
 40
1.0
176
     0
 90
        2
176
     1
  1
strokes_ogs.tif
176
     1
290
     0
176
     1
 40
1.0
176
     1
 40
1.0
176
     1
  0
VISUALSTYLE
  5
36
102
{ACAD_REACTORS
330
2A
102
}
330
2A
100
AcDbVisualStyle
  2
Brighten
 70
    12
177
     3
291
     1
 70
    58
 90
        2
176
     1
 90
        2
176
     1
 90
        0
176
     1
 90
        0
176
     1
 40
0.6
176
     1
 40
30.0
176
     1
 62
     7
420
 16777215
176
     1
 90
        1
176
     1
 90
        4
176
     1
 62
     7
176
     1
 62
   257
176
     1
 90
        1
176
     1
 90
        1
176
     1
 40
1.0
176
     1
 90
        8
176
     1
 62
     7
176
     1
 40
1.0
176
     1
 90
        1
176
     1
 90
        6
176
     1
 90
        2
176
     1
 62
     7
176
     1
 90
        5
176
     1
 90
        0
176
     1
 90
        0
176
     1
290
     0
176
     1
 90
        1
176
     1
 40
50.0
176
     1
 90
        0
176
     1
290
     0
176
     1
290
     1
176
     1
290
     1
176
     1
290
     0
176
     1
290
     0
176
     1
290
     0
176
     1
290
     0
176
     1
290
     0
176
     1
290
     0
176
     1
 90
       50
176
     1
 40
0.0
176
     1
 40
1.0
176
     1
 90
        0
176
     1
 62
    18
420
        0
176
     1
 90
       50
176
     1
 90
        3
176
     1
 62
     5
420
      255
176
     1
290
     0
176
     1
 90
       50
176
     1
 90
       50
176
     1
 90
       50
176
     1
290
     0
176
     1
 90
       50
176
     1
 62
   256
176
     0
 40
1.0
176
     0
 90
        2
176
     1
  1
strokes_ogs.tif
176
     1
290
     0
176
     1
 40
1.0
176
     1
 40
1.0
176
     1
  0
VISUALSTYLE
  5
3A
102
{ACAD_REACTORS
330
2A
102
}
330
2A
100
AcDbVisualStyle
  2
ColorChange
 70
    16
177
     3
291
     1
 70
    58
 90
        2
176
     1
 90
        2
176
     1
 90
        3
176
     1
 90
        0
176
     1
 40
0.6
176
     1
 40
30.0
176
     1
 62
     8
420
  8421504
176
     1
 90
        1
176
     1
 90
        4
176
     1
 62
     7
176
     1
 62
   257
176
     1
 90
        1
176
     1
 90
        1
176
     1
 40
1.0
176
     1
 90
        8
176
     1
 62
     8
420
  8421504
176
     1
 40
1.0
176
     1
 90
        1
176
     1
 90
        6
176
     1
 90
        2
176
     1
 62
     7
176
     1
 90
        5
176
     1
 90
        0
176
     1
 90
        0
176
     1
290
     0
176
     1
 90
        1
176
     1
 40
0.0
176
     1
 90
        0
176
     1
290
     0
176
     1
290
     1
176
     1
290
     1
176
     1
290
     0
176
     1
290
     0
176
     1
290
     0
176
     1
290
     0
176
     1
290
     0
176
     1
290
     0
176
     1
 90
       50
176
     1
 40
0.0
176
     1
 40
1.0
176
     1
 90
        0
176
     1
 62
    18
420
        0
176
     1
 90
       50
176
     1
 90
        3
176
     1
 62
     5
420
      255
176
     1
290
     0
176
     1
 90
       50
176
     1
 90
       50
176
     1
 90
       50
176
     1
290
     0
176
     1
 90
       50
176
     1
 62
   256
176
     0
 40
1.0
176
     0
 90
        2
176
     1
  1
strokes_ogs.tif
176
     1
290
     0
176
     1
 40
1.0
176
     1
 40
1.0
176
     1
  0
VISUALSTYLE
  5
34
102
{ACAD_REACTORS
330
2A
102
}
330
2A
100
AcDbVisualStyle
  2
Conceptual
 70
     9
177
     3
291
     0
 70
    58
 90
        3
176
     1
 90
        2
176
     1
 90
        0
176
     1
 90
        0
176
     1
 40
0.6
176
     1
 40
30.0
176
     1
 62
     7
420
 16777215
176
     1
 90
        2
176
     1
 90
        2
176
     1
 62
     7
176
     1
 62
   257
176
     1
 90
        1
176
     1
 90
        1
176
     1
 40
179.0
176
     1
 90
        8
176
     1
 62
     7
176
     1
 40
1.0
176
     1
 90
        1
176
     1
 90
        6
176
     1
 90
        2
176
     1
 62
     7
176
     1
 90
        3
176
     1
 90
        0
176
     1
 90
        0
176
     1
290
     0
176
     1
 90
        1
176
     1
 40
0.0
176
     1
 90
        0
176
     1
290
     0
176
     1
290
     1
176
     1
290
     1
176
     1
290
     0
176
     1
290
     0
176
     1
290
     0
176
     1
290
     0
176
     1
290
     0
176
     1
290
     0
176
     1
 90
       50
176
     1
 40
0.0
176
     1
 40
1.0
176
     1
 90
        0
176
     1
 62
    18
420
        0
176
     1
 90
       50
176
     1
 90
        3
176
     1
 62
     5
420
      255
176
     1
290
     0
176
     1
 90
       50
176
     1
 90
       50
176
     1
 90
       50
176
     1
290
     0
176
     1
 90
       50
176
     1
 62
   256
176
     0
 40
1.0
176
     0
 90
        2
176
     1
  1
strokes_ogs.tif
176
     1
290
     0
176
     1
 40
1.0
176
     1
 40
1.0
176
     1
  0
VISUALSTYLE
  5
35
102
{ACAD_REACTORS
330
2A
102
}
330
2A
100
AcDbVisualStyle
  2
Dim
 70
    11
177
     3
291
     1
 70
    58
 90
        2
176
     1
 90
        2
176
     1
 90
        0
176
     1
 90
        0
176
     1
 40
0.6
176
     1
 40
30.0
176
     1
 62
     7
420
 16777215
176
     1
 90
        1
176
     1
 90
        4
176
     1
 62
     7
176
     1
 62
   257
176
     1
 90
        1
176
     1
 90
        1
176
     1
 40
1.0
176
     1
 90
        8
176
     1
 62
     7
176
     1
 40
1.0
176
     1
 90
        1
176
     1
 90
        6
176
     1
 90
        2
176
     1
 62
     7
176
     1
 90
        5
176
     1
 90
        0
176
     1
 90
        0
176
     1
290
     0
176
     1
 90
        1
176
     1
 40
-50.0
176
     1
 90
        0
176
     1
290
     0
176
     1
290
     1
176
     1
290
     1
176
     1
290
     0
176
     1
290
     0
176
     1
290
     0
176
     1
290
     0
176
     1
290
     0
176
     1
290
     0
176
     1
 90
       50
176
     1
 40
0.0
176
     1
 40
1.0
176
     1
 90
        0
176
     1
 62
    18
420
        0
176
     1
 90
       50
176
     1
 90
        3
176
     1
 62
     5
420
      255
176
     1
290
     0
176
     1
 90
       50
176
     1
 90
       50
176
     1
 90
       50
176
     1
290
     0
176
     1
 90
       50
176
     1
 62
   256
176
     0
 40
1.0
176
     0
 90
        2
176
     1
  1
strokes_ogs.tif
176
     1
290
     0
176
     1
 40
1.0
176
     1
 40
1.0
176
     1
  0
VISUALSTYLE
  5
3D
102
{ACAD_REACTORS
330
2A
102
}
330
2A
100
AcDbVisualStyle
  2
EdgeColorOff
 70
    22
177
     3
291
     1
 70
    58
 90
        2
176
     0
 90
        2
176
     0
 90
        0
176
     0
 90
        0
176
     0
 40
0.6
176
     0
 40
30.0
176
     0
 62
     7
420
 16777215
176
     0
 90
        1
176
     0
 90
        4
176
     0
 62
     7
176
     0
 62
   257
176
     0
 90
        1
176
     0
 90
        1
176
     0
 40
1.0
176
     0
 90
        8
176
     2
 62
     7
176
     0
 40
1.0
176
     0
 90
        1
176
     0
 90
        6
176
     0
 90
        2
176
     0
 62
     7
176
     0
 90
        5
176
     0
 90
        0
176
     0
 90
        0
176
     0
290
     0
176
     0
 90
        1
176
     0
 40
0.0
176
     0
 90
        0
176
     0
290
     0
176
     0
290
     1
176
     0
290
     1
176
     0
290
     0
176
     0
290
     0
176
     0
290
     0
176
     0
290
     0
176
     0
290
     0
176
     0
290
     0
176
     0
 90
       50
176
     0
 40
0.0
176
     0
 40
1.0
176
     0
 90
        0
176
     0
 62
    18
420
        0
176
     0
 90
       50
176
     0
 90
        3
176
     0
 62
     5
420
      255
176
     0
290
     0
176
     0
 90
       50
176
     0
 90
       50
176
     0
 90
       50
176
     0
290
     0
176
     0
 90
       50
176
     0
 62
   256
176
     0
 40
1.0
176
     0
 90
        2
176
     0
  1
strokes_ogs.tif
176
     0
290
     0
176
     0
 40
1.0
176
     0
 40
1.0
176
     0
  0
VISUALSTYLE
  5
39
102
{ACAD_REACTORS
330
2A
102
}
330
2A
100
AcDbVisualStyle
  2
Facepattern
 70
    15
177
     3
291
     1
 70
    58
 90
        2
176
     1
 90
        2
176
     1
 90
        0
176
     1
 90
        0
176
     1
 40
0.6
176
     1
 40
30.0
176
     1
 62
     7
420
 16777215
176
     1
 90
        1
176
     1
 90
        4
176
     1
 62
     7
176
     1
 62
   257
176
     1
 90
        1
176
     1
 90
        1
176
     1
 40
1.0
176
     1
 90
        8
176
     1
 62
     7
176
     1
 40
1.0
176
     1
 90
        1
176
     1
 90
        6
176
     1
 90
        2
176
     1
 62
     7
176
     1
 90
        5
176
     1
 90
        0
176
     1
 90
        0
176
     1
290
     0
176
     1
 90
        1
176
     1
 40
0.0
176
     1
 90
        0
176
     1
290
     0
176
     1
290
     1
176
     1
290
     1
176
     1
290
     0
176
     1
290
     0
176
     1
290
     0
176
     1
290
     0
176
     1
290
     0
176
     1
290
     0
176
     1
 90
       50
176
     1
 40
0.0
176
     1
 40
1.0
176
     1
 90
        0
176
     1
 62
    18
420
        0
176
     1
 90
       50
176
     1
 90
        3
176
     1
 62
     5
420
      255
176
     1
290
     0
176
     1
 90
       50
176
     1
 90
       50
176
     1
 90
       50
176
     1
290
     0
176
     1
 90
       50
176
     1
 62
   256
176
     0
 40
1.0
176
     0
 90
        2
176
     1
  1
strokes_ogs.tif
176
     1
290
     0
176
     1
 40
1.0
176
     1
 40
1.0
176
     1
  0
VISUALSTYLE
  5
2B
102
{ACAD_REACTORS
330
2A
102
}
330
2A
100
AcDbVisualStyle
  2
Flat
 70
     0
177
     3
291
     1
 70
    58
 90
        2
176
     1
 90
        1
176
     1
 90
        1
176
     1
 90
        2
176
     1
 40
0.6
176
     1
 40
30.0
176
     1
 62
     7
420
 16777215
176
     1
 90
        0
176
     1
 90
        0
176
     1
 62
     7
176
     1
 62
   257
176
     1
 90
        1
176
     1
 90
        1
176
     1
 40
1.0
176
     1
 90
        8
176
     1
 62
     7
176
     1
 40
1.0
176
     1
 90
        1
176
     1
 90
        6
176
     1
 90
        2
176
     1
 62
     7
176
     1
 90
        5
176
     1
 90
        0
176
     1
 90
        0
176
     1
290
     0
176
     1
 90
       13
176
     1
 40
0.0
176
     1
 90
        0
176
     1
290
     0
176
     1
290
     1
176
     1
290
     1
176
     1
290
     0
176
     1
290
     0
176
     1
290
     0
176
     1
290
     0
176
     1
290
     0
176
     1
290
     0
176
     1
 90
       50
176
     1
 40
0.0
176
     1
 40
1.0
176
     1
 90
        0
176
     1
 62
    18
420
        0
176
     1
 90
       50
176
     1
 90
        3
176
     1
 62
     5
420
      255
176
     1
290
     0
176
     1
 90
       50
176
     1
 90
       50
176
     1
 90
       50
176
     1
290
     0
176
     1
 90
       50
176
     1
 62
   256
176
     0
 40
1.0
176
     0
 90
        2
176
     1
  1
strokes_ogs.tif
176
     1
290
     0
176
     1
 40
1.0
176
     1
 40
1.0
176
     1
  0
VISUALSTYLE
  5
2C
102
{ACAD_REACTORS
330
2A
102
}
330
2A
100
AcDbVisualStyle
  2
FlatWithEdges
 70
     1
177
     3
291
     1
 70
    58
 90
        2
176
     1
 90
        1
176
     1
 90
        1
176
     1
 90
        2
176
     1
 40
0.6
176
     1
 40
30.0
176
     1
 62
     7
420
 16777215
176
     1
 90
        1
176
     1
 90
        0
176
     1
 62
     7
176
     1
 62
   257
176
     1
 90
        1
176
     1
 90
        1
176
     1
 40
1.0
176
     1
 90
        0
176
     1
 62
   257
176
     1
 40
1.0
176
     1
 90
        1
176
     1
 90
        6
176
     1
 90
        2
176
     1
 62
     7
176
     1
 90
        5
176
     1
 90
        0
176
     1
 90
        0
176
     1
290
     0
176
     1
 90
       13
176
     1
 40
0.0
176
     1
 90
        0
176
     1
290
     0
176
     1
290
     1
176
     1
290
     1
176
     1
290
     0
176
     1
290
     0
176
     1
290
     0
176
     1
290
     0
176
     1
290
     0
176
     1
290
     0
176
     1
 90
       50
176
     1
 40
0.0
176
     1
 40
1.0
176
     1
 90
        0
176
     1
 62
    18
420
        0
176
     1
 90
       50
176
     1
 90
        3
176
     1
 62
     5
420
      255
176
     1
290
     0
176
     1
 90
       50
176
     1
 90
       50
176
     1
 90
       50
176
     1
290
     0
176
     1
 90
       50
176
     1
 62
   256
176
     0
 40
1.0
176
     0
 90
        2
176
     1
  1
strokes_ogs.tif
176
     1
290
     0
176
     1
 40
1.0
176
     1
 40
1.0
176
     1
  0
VISUALSTYLE
  5
2D
102
{ACAD_REACTORS
330
2A
102
}
330
2A
100
AcDbVisualStyle
  2
Gouraud
 70
     2
177
     3
291
     1
 70
    58
 90
        2
176
     1
 90
        2
176
     1
 90
        1
176
     1
 90
        2
176
     1
 40
0.6
176
     1
 40
30.0
176
     1
 62
     7
420
 16777215
176
     1
 90
        0
176
     1
 90
        0
176
     1
 62
     7
176
     1
 62
   257
176
     1
 90
        1
176
     1
 90
        1
176
     1
 40
1.0
176
     1
 90
        0
176
     1
 62
     7
176
     1
 40
1.0
176
     1
 90
        1
176
     1
 90
        6
176
     1
 90
        2
176
     1
 62
     7
176
     1
 90
        5
176
     1
 90
        0
176
     1
 90
        0
176
     1
290
     0
176
     1
 90
       13
176
     1
 40
0.0
176
     1
 90
        0
176
     1
290
     0
176
     1
290
     1
176
     1
290
     1
176
     1
290
     0
176
     1
290
     0
176
     1
290
     0
176
     1
290
     0
176
     1
290
     0
176
     1
290
     0
176
     1
 90
       50
176
     1
 40
0.0
176
     1
 40
1.0
176
     1
 90
        0
176
     1
 62
    18
420
        0
176
     1
 90
       50
176
     1
 90
        3
176
     1
 62
     5
420
      255
176
     1
290
     0
176
     1
 90
       50
176
     1
 90
       50
176
     1
 90
       50
176
     1
290
     0
176
     1
 90
       50
176
     1
 62
   256
176
     0
 40
1.0
176
     0
 90
        2
176
     1
  1
strokes_ogs.tif
176
     1
290
     0
176
     1
 40
1.0
176
     1
 40
1.0
176
     1
  0
VISUALSTYLE
  5
2E
102
{ACAD_REACTORS
330
2A
102
}
330
2A
100
AcDbVisualStyle
  2
GouraudWithEdges
 70
     3
177
     3
291
     1
 70
    58
 90
        2
176
     1
 90
        2
176
     1
 90
        1
176
     1
 90
        2
176
     1
 40
0.6
176
     1
 40
30.0
176
     1
 62
     7
420
 16777215
176
     1
 90
        1
176
     1
 90
        0
176
     1
 62
     7
176
     1
 62
   257
176
     1
 90
        1
176
     1
 90
        1
176
     1
 40
1.0
176
     1
 90
        0
176
     1
 62
   257
176
     1
 40
1.0
176
     1
 90
        1
176
     1
 90
        6
176
     1
 90
        2
176
     1
 62
     7
176
     1
 90
        5
176
     1
 90
        0
176
     1
 90
        0
176
     1
290
     0
176
     1
 90
       13
176
     1
 40
0.0
176
     1
 90
        0
176
     1
290
     0
176
     1
290
     1
176
     1
290
     1
176
     1
290
     0
176
     1
290
     0
176
     1
290
     0
176
     1
290
     0
176
     1
290
     0
176
     1
290
     0
176
     1
 90
       50
176
     1
 40
0.0
176
     1
 40
1.0
176
     1
 90
        0
176
     1
 62
    18
420
        0
176
     1
 90
       50
176
     1
 90
        3
176
     1
 62
     5
420
      255
176
     1
290
     0
176
     1
 90
       50
176
     1
 90
       50
176
     1
 90
       50
176
     1
290
     0
176
     1
 90
       50
176
     1
 62
   256
176
     0
 40
1.0
176
     0
 90
        2
176
     1
  1
strokes_ogs.tif
176
     1
290
     0
176
     1
 40
1.0
176
     1
 40
1.0
176
     1
  0
VISUALSTYLE
  5
31
102
{ACAD_REACTORS
330
2A
102
}
330
2A
100
AcDbVisualStyle
  2
Hidden
 70
     6
177
     3
291
     0
 70
    58
 90
        1
176
     1
 90
        2
176
     1
 90
        2
176
     1
 90
        0
176
     1
 40
0.6
176
     1
 40
30.0
176
     1
 62
     7
420
 16777215
176
     1
 90
        2
176
     1
 90
        2
176
     1
 62
     7
176
     1
 62
   257
176
     1
 90
        2
176
     1
 90
        1
176
     1
 40
40.0
176
     1
 90
        0
176
     1
 62
   257
176
     1
 40
1.0
176
     1
 90
        1
176
     1
 90
        6
176
     1
 90
        2
176
     1
 62
     7
176
     1
 90
        3
176
     1
 90
        0
176
     1
 90
        0
176
     1
290
     0
176
     1
 90
        1
176
     1
 40
0.0
176
     1
 90
        0
176
     1
290
     0
176
     1
290
     1
176
     1
290
     1
176
     1
290
     0
176
     1
290
     0
176
     1
290
     0
176
     1
290
     0
176
     1
290
     0
176
     1
290
     0
176
     1
 90
       50
176
     1
 40
0.0
176
     1
 40
1.0
176
     1
 90
        0
176
     1
 62
    18
420
        0
176
     1
 90
       50
176
     1
 90
        3
176
     1
 62
     5
420
      255
176
     1
290
     0
176
     1
 90
       50
176
     1
 90
       50
176
     1
 90
       50
176
     1
290
     0
176
     1
 90
       50
176
     1
 62
   256
176
     0
 40
1.0
176
     0
 90
        2
176
     1
  1
strokes_ogs.tif
176
     1
290
     0
176
     1
 40
1.0
176
     1
 40
1.0
176
     1
  0
VISUALSTYLE
  5
3B
102
{ACAD_REACTORS
330
2A
102
}
330
2A
100
AcDbVisualStyle
  2
JitterOff
 70
    20
177
     3
291
     1
 70
    58
 90
        2
176
     0
 90
        2
176
     0
 90
        0
176
     0
 90
        0
176
     0
 40
0.6
176
     0
 40
30.0
176
     0
 62
     7
420
 16777215
176
     0
 90
        1
176
     0
 90
        4
176
     0
 62
     7
176
     0
 62
   257
176
     0
 90
        1
176
     0
 90
        1
176
     0
 40
1.0
176
     0
 90
       10
176
     2
 62
     7
176
     0
 40
1.0
176
     0
 90
        1
176
     0
 90
        6
176
     0
 90
        2
176
     0
 62
     7
176
     0
 90
        5
176
     0
 90
        0
176
     0
 90
        0
176
     0
290
     0
176
     0
 90
        1
176
     0
 40
0.0
176
     0
 90
        0
176
     0
290
     0
176
     0
290
     1
176
     0
290
     1
176
     0
290
     0
176
     0
290
     0
176
     0
290
     0
176
     0
290
     0
176
     0
290
     0
176
     0
290
     0
176
     0
 90
       50
176
     0
 40
0.0
176
     0
 40
1.0
176
     0
 90
        0
176
     0
 62
    18
420
        0
176
     0
 90
       50
176
     0
 90
        3
176
     0
 62
     5
420
      255
176
     0
290
     0
176
     0
 90
       50
176
     0
 90
       50
176
     0
 90
       50
176
     0
290
     0
176
     0
 90
       50
176
     0
 62
   256
176
     0
 40
1.0
176
     0
 90
        2
176
     0
  1
strokes_ogs.tif
176
     0
290
     0
176
     0
 40
1.0
176
     0
 40
1.0
176
     0
  0
VISUALSTYLE
  5
38
102
{ACAD_REACTORS
330
2A
102
}
330
2A
100
AcDbVisualStyle
  2
Linepattern
 70
    14
177
     3
291
     1
 70
    58
 90
        2
176
     1
 90
        2
176
     1
 90
        0
176
     1
 90
        0
176
     1
 40
0.6
176
     1
 40
30.0
176
     1
 62
     7
420
 16777215
176
     1
 90
        1
176
     1
 90
        4
176
     1
 62
     7
176
     1
 62
   257
176
     1
 90
        7
176
     1
 90
        7
176
     1
 40
1.0
176
     1
 90
        8
176
     1
 62
     7
176
     1
 40
1.0
176
     1
 90
        1
176
     1
 90
        6
176
     1
 90
        2
176
     1
 62
     7
176
     1
 90
        5
176
     1
 90
        0
176
     1
 90
        0
176
     1
290
     0
176
     1
 90
        1
176
     1
 40
0.0
176
     1
 90
        0
176
     1
290
     0
176
     1
290
     1
176
     1
290
     1
176
     1
290
     0
176
     1
290
     0
176
     1
290
     0
176
     1
290
     0
176
     1
290
     0
176
     1
290
     0
176
     1
 90
       50
176
     1
 40
0.0
176
     1
 40
1.0
176
     1
 90
        0
176
     1
 62
    18
420
        0
176
     1
 90
       50
176
     1
 90
        3
176
     1
 62
     5
420
      255
176
     1
290
     0
176
     1
 90
       50
176
     1
 90
       50
176
     1
 90
       50
176
     1
290
     0
176
     1
 90
       50
176
     1
 62
   256
176
     0
 40
1.0
176
     0
 90
        2
176
     1
  1
strokes_ogs.tif
176
     1
290
     0
176
     1
 40
1.0
176
     1
 40
1.0
176
     1
  0
VISUALSTYLE
  5
3C
102
{ACAD_REACTORS
330
2A
102
}
330
2A
100
AcDbVisualStyle
  2
OverhangOff
 70
    21
177
     3
291
     1
 70
    58
 90
        2
176
     0
 90
        2
176
     0
 90
        0
176
     0
 90
        0
176
     0
 40
0.6
176
     0
 40
30.0
176
     0
 62
     7
420
 16777215
176
     0
 90
        1
176
     0
 90
        4
176
     0
 62
     7
176
     0
 62
   257
176
     0
 90
        1
176
     0
 90
        1
176
     0
 40
1.0
176
     0
 90
        9
176
     2
 62
     7
176
     0
 40
1.0
176
     0
 90
        1
176
     0
 90
        6
176
     0
 90
        2
176
     0
 62
     7
176
     0
 90
        5
176
     0
 90
        0
176
     0
 90
        0
176
     0
290
     0
176
     0
 90
        1
176
     0
 40
0.0
176
     0
 90
        0
176
     0
290
     0
176
     0
290
     1
176
     0
290
     1
176
     0
290
     0
176
     0
290
     0
176
     0
290
     0
176
     0
290
     0
176
     0
290
     0
176
     0
290
     0
176
     0
 90
       50
176
     0
 40
0.0
176
     0
 40
1.0
176
     0
 90
        0
176
     0
 62
    18
420
        0
176
     0
 90
       50
176
     0
 90
        3
176
     0
 62
     5
420
      255
176
     0
290
     0
176
     0
 90
       50
176
     0
 90
       50
176
     0
 90
       50
176
     0
290
     0
176
     0
 90
       50
176
     0
 62
   256
176
     0
 40
1.0
176
     0
 90
        2
176
     0
  1
strokes_ogs.tif
176
     0
290
     0
176
     0
 40
1.0
176
     0
 40
1.0
176
     0
  0
VISUALSTYLE
  5
33
102
{ACAD_REACTORS
330
2A
102
}
330
2A
100
AcDbVisualStyle
  2
Realistic
 70
     8
177
     3
291
     0
 70
    58
 90
        2
176
     1
 90
        3
176
     1
 90
        0
176
     1
 90
        2
176
     1
 40
0.6
176
     1
 40
30.0
176
     1
 62
     7
420
 16777215
176
     1
 90
        0
176
     1
 90
        0
176
     1
 62
     7
176
     1
 62
   257
176
     1
 90
        1
176
     1
 90
        1
176
     1
 40
1.0
176
     1
 90
        8
176
     1
 62
   257
176
     1
 40
1.0
176
     1
 90
        1
176
     1
 90
        6
176
     1
 90
        2
176
     1
 62
     7
176
     1
 90
        3
176
     1
 90
        0
176
     1
 90
        0
176
     1
290
     0
176
     1
 90
       13
176
     1
 40
0.0
176
     1
 90
        0
176
     1
290
     0
176
     1
290
     1
176
     1
290
     1
176
     1
290
     0
176
     1
290
     0
176
     1
290
     0
176
     1
290
     0
176
     1
290
     0
176
     1
290
     0
176
     1
 90
       50
176
     1
 40
0.0
176
     1
 40
1.0
176
     1
 90
        0
176
     1
 62
    18
420
        0
176
     1
 90
       50
176
     1
 90
        3
176
     1
 62
     5
420
      255
176
     1
290
     0
176
     1
 90
       50
176
     1
 90
       50
176
     1
 90
       50
176
     1
290
     0
176
     1
 90
       50
176
     1
 62
   256
176
     0
 40
1.0
176
     0
 90
        2
176
     1
  1
strokes_ogs.tif
176
     1
290
     0
176
     1
 40
1.0
176
     1
 40
1.0
176
     1
  0
VISUALSTYLE
  5
42
102
{ACAD_REACTORS
330
2A
102
}
330
2A
100
AcDbVisualStyle
  2
Shaded
 70
    27
177
     3
291
     0
 70
    58
 90
        2
176
     1
 90
        2
176
     1
 90
        1
176
     1
 90
        2
176
     1
 40
0.6
176
     1
 40
30.0
176
     1
 62
     7
420
 16777215
176
     1
 90
        0
176
     1
 90
        4
176
     1
 62
     7
176
     1
 62
   257
176
     1
 90
        1
176
     1
 90
        1
176
     1
 40
1.0
176
     1
 90
        8
176
     1
 62
   257
176
     1
 40
1.0
176
     1
 90
        1
176
     1
 90
        6
176
     1
 90
        2
176
     1
 62
     8
420
  7895160
176
     1
 90
        3
176
     1
 90
        0
176
     1
 90
        0
176
     1
290
     0
176
     1
 90
        5
176
     1
 40
0.0
176
     1
 90
        0
176
     1
290
     0
176
     1
290
     1
176
     1
290
     1
176
     1
290
     0
176
     1
290
     0
176
     1
290
     0
176
     1
290
     0
176
     1
290
     0
176
     1
290
     0
176
     1
 90
       50
176
     1
 40
0.0
176
     1
 40
1.0
176
     1
 90
        0
176
     1
 62
    18
420
        0
176
     1
 90
       50
176
     1
 90
        3
176
     1
 62
     5
420
      255
176
     1
290
     0
176
     1
 90
       50
176
     1
 90
       50
176
     1
 90
       50
176
     1
290
     0
176
     1
 90
       50
176
     1
 62
   256
176
     0
 40
1.0
176
     0
 90
        2
176
     1
  1
strokes_ogs.tif
176
     1
290
     0
176
     1
 40
1.0
176
     1
 40
1.0
176
     1
  0
VISUALSTYLE
  5
41
102
{ACAD_REACTORS
330
2A
102
}
330
2A
100
AcDbVisualStyle
  2
Shaded with edges
 70
    26
177
     3
291
     0
 70
    58
 90
        2
176
     1
 90
        2
176
     1
 90
        1
176
     1
 90
        2
176
     1
 40
0.6
176
     1
 40
30.0
176
     1
 62
     7
420
 16777215
176
     1
 90
        1
176
     1
 90
       10
176
     1
 62
     7
176
     1
 62
   257
176
     1
 90
        2
176
     1
 90
        1
176
     1
 40
1.0
176
     1
 90
        8
176
     1
 62
   257
176
     1
 40
1.0
176
     1
 90
        1
176
     1
 90
        6
176
     1
 90
        2
176
     1
 62
     7
176
     1
 90
        3
176
     1
 90
        0
176
     1
 90
        0
176
     1
290
     0
176
     1
 90
        5
176
     1
 40
0.0
176
     1
 90
        0
176
     1
290
     0
176
     1
290
     1
176
     1
290
     1
176
     1
290
     0
176
     1
290
     0
176
     1
290
     0
176
     1
290
     0
176
     1
290
     0
176
     1
290
     0
176
     1
 90
       50
176
     1
 40
0.0
176
     1
 40
1.0
176
     1
 90
        0
176
     1
 62
    18
420
        0
176
     1
 90
       50
176
     1
 90
        3
176
     1
 62
     5
420
      255
176
     1
290
     0
176
     1
 90
       50
176
     1
 90
       50
176
     1
 90
       50
176
     1
290
     0
176
     1
 90
       50
176
     1
 62
   256
176
     0
 40
1.0
176
     0
 90
        2
176
     1
  1
strokes_ogs.tif
176
     1
290
     0
176
     1
 40
1.0
176
     1
 40
1.0
176
     1
  0
VISUALSTYLE
  5
3E
102
{ACAD_REACTORS
330
2A
102
}
330
2A
100
AcDbVisualStyle
  2
Shades of Gray
 70
    23
177
     3
291
     0
 70
    58
 90
        2
176
     1
 90
        2
176
     1
 90
        3
176
     1
 90
        0
176
     1
 40
0.6
176
     1
 40
30.0
176
     1
 62
     7
420
 16777215
176
     1
 90
        2
176
     1
 90
        2
176
     1
 62
     7
176
     1
 62
     7
176
     1
 90
        1
176
     1
 90
        1
176
     1
 40
40.0
176
     1
 90
        8
176
     1
 62
     7
176
     1
 40
1.0
176
     1
 90
        1
176
     1
 90
        6
176
     1
 90
        2
176
     1
 62
     7
176
     1
 90
        3
176
     1
 90
        0
176
     1
 90
        0
176
     1
290
     0
176
     1
 90
        1
176
     1
 40
0.0
176
     1
 90
        0
176
     1
290
     0
176
     1
290
     1
176
     1
290
     1
176
     1
290
     0
176
     1
290
     0
176
     1
290
     0
176
     1
290
     0
176
     1
290
     0
176
     1
290
     0
176
     1
 90
       50
176
     1
 40
0.0
176
     1
 40
1.0
176
     1
 90
        0
176
     1
 62
    18
420
        0
176
     1
 90
       50
176
     1
 90
        3
176
     1
 62
     5
420
      255
176
     1
290
     0
176
     1
 90
       50
176
     1
 90
       50
176
     1
 90
       50
176
     1
290
     0
176
     1
 90
       50
176
     1
 62
   256
176
     0
 40
1.0
176
     0
 90
        2
176
     1
  1
strokes_ogs.tif
176
     1
290
     0
176
     1
 40
1.0
176
     1
 40
1.0
176
     1
  0
VISUALSTYLE
  5
3F
102
{ACAD_REACTORS
330
2A
102
}
330
2A
100
AcDbVisualStyle
  2
Sketchy
 70
    24
177
     3
291
     0
 70
    58
 90
        1
176
     1
 90
        2
176
     1
 90
        2
176
     1
 90
        0
176
     1
 40
0.6
176
     1
 40
30.0
176
     1
 62
     7
420
 16777215
176
     1
 90
        2
176
     1
 90
        2
176
     1
 62
     7
176
     1
 62
     7
176
     1
 90
        1
176
     1
 90
        1
176
     1
 40
40.0
176
     1
 90
       11
176
     1
 62
     7
176
     1
 40
1.0
176
     1
 90
        1
176
     1
 90
        6
176
     1
 90
        2
176
     1
 62
     7
176
     1
 90
        6
176
     1
 90
        0
176
     1
 90
        0
176
     1
290
     0
176
     1
 90
        1
176
     1
 40
0.0
176
     1
 90
        0
176
     1
290
     0
176
     1
290
     1
176
     1
290
     1
176
     1
290
     0
176
     1
290
     0
176
     1
290
     0
176
     1
290
     0
176
     1
290
     0
176
     1
290
     0
176
     1
 90
       50
176
     1
 40
0.0
176
     1
 40
1.0
176
     1
 90
        0
176
     1
 62
    18
420
        0
176
     1
 90
       50
176
     1
 90
        3
176
     1
 62
     5
420
      255
176
     1
290
     0
176
     1
 90
       50
176
     1
 90
       50
176
     1
 90
       50
176
     1
290
     0
176
     1
 90
       50
176
     1
 62
   256
176
     0
 40
1.0
176
     0
 90
        2
176
     1
  1
strokes_ogs.tif
176
     1
290
     0
176
     1
 40
1.0
176
     1
 40
1.0
176
     1
  0
VISUALSTYLE
  5
37
102
{ACAD_REACTORS
330
2A
102
}
330
2A
100
AcDbVisualStyle
  2
Thicken
 70
    13
177
     3
291
     1
 70
    58
 90
        2
176
     1
 90
        2
176
     1
 90
        0
176
     1
 90
        0
176
     1
 40
0.6
176
     1
 40
30.0
176
     1
 62
     7
420
 16777215
176
     1
 90
        1
176
     1
 90
        4
176
     1
 62
     7
176
     1
 62
   257
176
     1
 90
        1
176
     1
 90
        1
176
     1
 40
1.0
176
     1
 90
       12
176
     1
 62
     7
176
     1
 40
1.0
176
     1
 90
        1
176
     1
 90
        6
176
     1
 90
        2
176
     1
 62
     7
176
     1
 90
        5
176
     1
 90
        0
176
     1
 90
        0
176
     1
290
     0
176
     1
 90
        1
176
     1
 40
0.0
176
     1
 90
        0
176
     1
290
     0
176
     1
290
     1
176
     1
290
     1
176
     1
290
     0
176
     1
290
     0
176
     1
290
     0
176
     1
290
     0
176
     1
290
     0
176
     1
290
     0
176
     1
 90
       50
176
     1
 40
0.0
176
     1
 40
1.0
176
     1
 90
        0
176
     1
 62
    18
420
        0
176
     1
 90
       50
176
     1
 90
        3
176
     1
 62
     5
420
      255
176
     1
290
     0
176
     1
 90
       50
176
     1
 90
       50
176
     1
 90
       50
176
     1
290
     0
176
     1
 90
       50
176
     1
 62
   256
176
     0
 40
1.0
176
     0
 90
        2
176
     1
  1
strokes_ogs.tif
176
     1
290
     0
176
     1
 40
1.0
176
     1
 40
1.0
176
     1
  0
VISUALSTYLE
  5
30
102
{ACAD_REACTORS
330
2A
102
}
330
2A
100
AcDbVisualStyle
  2
Wireframe
 70
     5
177
     3
291
     0
 70
    58
 90
        0
176
     1
 90
        2
176
     1
 90
        0
176
     1
 90
        0
176
     1
 40
0.6
176
     1
 40
30.0
176
     1
 62
     7
420
 16777215
176
     1
 90
        1
176
     1
 90
        4
176
     1
 62
     7
176
     1
 62
   257
176
     1
 90
        1
176
     1
 90
        1
176
     1
 40
1.0
176
     1
 90
        0
176
     1
 62
   257
176
     1
 40
1.0
176
     1
 90
        1
176
     1
 90
        6
176
     1
 90
        2
176
     1
 62
     7
176
     1
 90
        3
176
     1
 90
        0
176
     1
 90
        0
176
     1
290
     0
176
     1
 90
        1
176
     1
 40
0.0
176
     1
 90
        0
176
     1
290
     0
176
     1
290
     1
176
     1
290
     1
176
     1
290
     0
176
     1
290
     0
176
     1
290
     0
176
     1
290
     0
176
     1
290
     0
176
     1
290
     0
176
     1
 90
       50
176
     1
 40
0.0
176
     1
 40
1.0
176
     1
 90
        0
176
     1
 62
    18
420
        0
176
     1
 90
       50
176
     1
 90
        3
176
     1
 62
     5
420
      255
176
     1
290
     0
176
     1
 90
       50
176
     1
 90
       50
176
     1
 90
       50
176
     1
290
     0
176
     1
 90
       50
176
     1
 62
   256
176
     0
 40
1.0
176
     0
 90
        2
176
     1
  1
strokes_ogs.tif
176
     1
290
     0
176
     1
 40
1.0
176
     1
 40
1.0
176
     1
  0
VISUALSTYLE
  5
40
102
{ACAD_REACTORS
330
2A
102
}
330
2A
100
AcDbVisualStyle
  2
X-Ray
 70
    25
177
     3
291
     0
 70
    58
 90
        2
176
     1
 90
        2
176
     1
 90
        1
176
     1
 90
        1
176
     1
 40
0.5
176
     1
 40
30.0
176
     1
 62
     7
420
 16777215
176
     1
 90
        1
176
     1
 90
        0
176
     1
 62
     7
176
     1
 62
   257
176
     1
 90
        1
176
     1
 90
        1
176
     1
 40
1.0
176
     1
 90
        8
176
     1
 62
     7
176
     1
 40
1.0
176
     1
 90
        1
176
     1
 90
        6
176
     1
 90
        2
176
     1
 62
     7
176
     1
 90
        3
176
     1
 90
        0
176
     1
 90
        0
176
     1
290
     0
176
     1
 90
       13
176
     1
 40
0.0
176
     1
 90
        0
176
     1
290
     0
176
     1
290
     1
176
     1
290
     1
176
     1
290
     0
176
     1
290
     0
176
     1
290
     0
176
     1
290
     0
176
     1
290
     0
176
     1
290
     0
176
     1
 90
       50
176
     1
 40
0.0
176
     1
 40
1.0
176
     1
 90
        0
176
     1
 62
    18
420
        0
176
     1
 90
       50
176
     1
 90
        3
176
     1
 62
     5
420
      255
176
     1
290
     0
176
     1
 90
       50
176
     1
 90
       50
176
     1
 90
       50
176
     1
290
     0
176
     1
 90
       50
176
     1
 62
   256
176
     0
 40
1.0
176
     0
 90
        2
176
     1
  1
strokes_ogs.tif
176
     1
290
     0
176
     1
 40
1.0
176
     1
 40
1.0
176
     1
  0
DICTIONARYVAR
  5
1E7
102
{ACAD_REACTORS
330
1E6
102
}
330
1E6
100
DictionaryVariables
280
     0
  1
1:1
  0
DICTIONARYVAR
  5
1EC
102
{ACAD_REACTORS
330
1E6
102
}
330
1E6
100
DictionaryVariables
280
     0
  1
Standard
  0
DICTIONARYVAR
  5
1EB
102
{ACAD_REACTORS
330
1E6
102
}
330
1E6
100
DictionaryVariables
280
     0
  1
Standard
  0
DICTIONARY
  5
1E8
330
6A
100
AcDbDictionary
280
     1
281
     1
  3
ACAD_ROUNDTRIP_2008_TABLESTYLE_CELLSTYLEMAP
360
1E9
  0
CELLSTYLEMAP
  5
1E9
102
{ACAD_REACTORS
330
1E8
102
}
330
1E8
100
AcDbCellStyleMap
 90
        3
300
CELLSTYLE
  1
TABLEFORMAT_BEGIN
 90
        5
170
     1
 91
        0
 92
    32768
 62
   257
 93
        1
300
CONTENTFORMAT
  1
CONTENTFORMAT_BEGIN
 90
        0
 91
        0
 92
        4
 93
        0
300

 40
0.0
140
1.0
 94
        5
 62
     0
340
11
144
0.25
309
CONTENTFORMAT_END
171
     1
301
MARGIN
  1
CELLMARGIN_BEGIN
 40
0.06
 40
0.06
 40
0.06
 40
0.06
 40
0.06
 40
0.06
309
CELLMARGIN_END
 94
        6
 95
        1
302
GRIDFORMAT
  1
GRIDFORMAT_BEGIN
 90
        0
 91
        1
 62
     0
 92
       -2
340
14
 93
        0
 40
0.045
309
GRIDFORMAT_END
 95
        2
302
GRIDFORMAT
  1
GRIDFORMAT_BEGIN
 90
        0
 91
        1
 62
     0
 92
       -2
340
14
 93
        0
 40
0.045
309
GRIDFORMAT_END
 95
        4
302
GRIDFORMAT
  1
GRIDFORMAT_BEGIN
 90
        0
 91
        1
 62
     0
 92
       -2
340
14
 93
        0
 40
0.045
309
GRIDFORMAT_END
 95
        8
302
GRIDFORMAT
  1
GRIDFORMAT_BEGIN
 90
        0
 91
        1
 62
     0
 92
       -2
340
14
 93
        0
 40
0.045
309
GRIDFORMAT_END
 95
       16
302
GRIDFORMAT
  1
GRIDFORMAT_BEGIN
 90
        0
 91
        1
 62
     0
 92
       -2
340
14
 93
        0
 40
0.045
309
GRIDFORMAT_END
 95
       32
302
GRIDFORMAT
  1
GRIDFORMAT_BEGIN
 90
        0
 91
        1
 62
     0
 92
       -2
340
14
 93
        0
 40
0.045
309
GRIDFORMAT_END
309
TABLEFORMAT_END
  1
CELLSTYLE_BEGIN
 90
        1
 91
        1
300
_TITLE
309
CELLSTYLE_END
300
CELLSTYLE
  1
TABLEFORMAT_BEGIN
 90
        5
170
     1
 91
        0
 92
        0
 62
   257
 93
        1
300
CONTENTFORMAT
  1
CONTENTFORMAT_BEGIN
 90
        0
 91
        0
 92
        4
 93
        0
300

 40
0.0
140
1.0
 94
        5
 62
     0
340
11
144
0.18
309
CONTENTFORMAT_END
171
     1
301
MARGIN
  1
CELLMARGIN_BEGIN
 40
0.06
 40
0.06
 40
0.06
 40
0.06
 40
0.06
 40
0.06
309
CELLMARGIN_END
 94
        6
 95
        1
302
GRIDFORMAT
  1
GRIDFORMAT_BEGIN
 90
        0
 91
        1
 62
     0
 92
       -2
340
14
 93
        0
 40
0.045
309
GRIDFORMAT_END
 95
        2
302
GRIDFORMAT
  1
GRIDFORMAT_BEGIN
 90
        0
 91
        1
 62
     0
 92
       -2
340
14
 93
        0
 40
0.045
309
GRIDFORMAT_END
 95
        4
302
GRIDFORMAT
  1
GRIDFORMAT_BEGIN
 90
        0
 91
        1
 62
     0
 92
       -2
340
14
 93
        0
 40
0.045
309
GRIDFORMAT_END
 95
        8
302
GRIDFORMAT
  1
GRIDFORMAT_BEGIN
 90
        0
 91
        1
 62
     0
 92
       -2
340
14
 93
        0
 40
0.045
309
GRIDFORMAT_END
 95
       16
302
GRIDFORMAT
  1
GRIDFORMAT_BEGIN
 90
        0
 91
        1
 62
     0
 92
       -2
340
14
 93
        0
 40
0.045
309
GRIDFORMAT_END
 95
       32
302
GRIDFORMAT
  1
GRIDFORMAT_BEGIN
 90
        0
 91
        1
 62
     0
 92
       -2
340
14
 93
        0
 40
0.045
309
GRIDFORMAT_END
309
TABLEFORMAT_END
  1
CELLSTYLE_BEGIN
 90
        2
 91
        1
300
_HEADER
309
CELLSTYLE_END
300
CELLSTYLE
  1
TABLEFORMAT_BEGIN
 90
        5
170
     1
 91
        0
 92
        0
 62
   257
 93
        1
300
CONTENTFORMAT
  1
CONTENTFORMAT_BEGIN
 90
        0
 91
        0
 92
        4
 93
        0
300

 40
0.0
140
1.0
 94
        2
 62
     0
340
11
144
0.18
309
CONTENTFORMAT_END
171
     1
301
MARGIN
  1
CELLMARGIN_BEGIN
 40
0.06
 40
0.06
 40
0.06
 40
0.06
 40
0.06
 40
0.06
309
CELLMARGIN_END
 94
        6
 95
        1
302
GRIDFORMAT
  1
GRIDFORMAT_BEGIN
 90
        0
 91
        1
 62
     0
 92
       -2
340
14
 93
        0
 40
0.045
309
GRIDFORMAT_END
 95
        2
302
GRIDFORMAT
  1
GRIDFORMAT_BEGIN
 90
        0
 91
        1
 62
     0
 92
       -2
340
14
 93
        0
 40
0.045
309
GRIDFORMAT_END
 95
        4
302
GRIDFORMAT
  1
GRIDFORMAT_BEGIN
 90
        0
 91
        1
 62
     0
 92
       -2
340
14
 93
        0
 40
0.045
309
GRIDFORMAT_END
 95
        8
302
GRIDFORMAT
  1
GRIDFORMAT_BEGIN
 90
        0
 91
        1
 62
     0
 92
       -2
340
14
 93
        0
 40
0.045
309
GRIDFORMAT_END
 95
       16
302
GRIDFORMAT
  1
GRIDFORMAT_BEGIN
 90
        0
 91
        1
 62
     0
 92
       -2
340
14
 93
        0
 40
0.045
309
GRIDFORMAT_END
 95
       32
302
GRIDFORMAT
  1
GRIDFORMAT_BEGIN
 90
        0
 91
        1
 62
     0
 92
       -2
340
14
 93
        0
 40
0.045
309
GRIDFORMAT_END
309
TABLEFORMAT_END
  1
CELLSTYLE_BEGIN
 90
        3
 91
        2
300
_DATA
309
CELLSTYLE_END
  0
ENDSEC
  0
EOF