0
SECTION
  2
HEADER
  9
$ACADVER
  1
AC1027
  9
$ACADMAINTVER
 70
     8
  9
$DWGCODEPAGE
  3
ANSI_1252
  9
$REQUIREDVERSIONS
160
                 0
  9
$COMMENTS
  1
File was created by Cadenas
  9
$CUSTOMPROPERTYTAG
  1
NN
  9
$CUSTOMPROPERTY
  1
S-2000 Flange Bearing - Square Labyrinth Seal
  9
$CUSTOMPROPERTYTAG
  1
NT
  9
$CUSTOMPROPERTY
  1
S-2000 4 Bolt Square Flange Bearing -Inch
  9
$CUSTOMPROPERTYTAG
  1
NB
  9
$CUSTOMPROPERTY
  1
070861
  9
$CUSTOMPROPERTYTAG
  1
NBSYN
  9
$CUSTOMPROPERTY
  1
$PN.
  9
$CUSTOMPROPERTYTAG
  1
LINA
  9
$CUSTOMPROPERTY
  1
070861
  9
$CUSTOMPROPERTYTAG
  1
SS
  9
$CUSTOMPROPERTY
  1
2-3/16
  9
$CUSTOMPROPERTYTAG
  1
PN
  9
$CUSTOMPROPERTY
  1
070861
  9
$CUSTOMPROPERTYTAG
  1
DESCRIPTION
  9
$CUSTOMPROPERTY
  1
F4S-S2-203LE
  9
$CUSTOMPROPERTYTAG
  1
EF
  9
$CUSTOMPROPERTY
  1
Expansion Type
  9
$CUSTOMPROPERTYTAG
  1
ST
  9
$CUSTOMPROPERTY
  1
Labyrinth Seal
  9
$CUSTOMPROPERTYTAG
  1
A
  9
$CUSTOMPROPERTY
  1
2-15/16
  9
$CUSTOMPROPERTYTAG
  1
B
  9
$CUSTOMPROPERTY
  1
5-7/8
  9
$CUSTOMPROPERTYTAG
  1
C
  9
$CUSTOMPROPERTY
  1
3-1/4
  9
$CUSTOMPROPERTYTAG
  1
D
  9
$CUSTOMPROPERTY
  1
4-33/64
  9
$CUSTOMPROPERTYTAG
  1
F
  9
$CUSTOMPROPERTY
  1
5/8
  9
$CUSTOMPROPERTYTAG
  1
G
  9
$CUSTOMPROPERTY
  1
1-13/64
  9
$CUSTOMPROPERTYTAG
  1
H
  9
$CUSTOMPROPERTY
  1
9/16
  9
$CUSTOMPROPERTYTAG
  1
J
  9
$CUSTOMPROPERTY
  1
5-1/64
  9
$CUSTOMPROPERTYTAG
  1
K
  9
$CUSTOMPROPERTY
  1
6-3/8
  9
$CUSTOMPROPERTYTAG
  1
L
  9
$CUSTOMPROPERTY
  1
3-3/4
  9
$CUSTOMPROPERTYTAG
  1
N
  9
$CUSTOMPROPERTY
  1
3-3/32
  9
$CUSTOMPROPERTYTAG
  1
P
  9
$CUSTOMPROPERTY
  1
5/16
  9
$CUSTOMPROPERTYTAG
  1
X
  9
$CUSTOMPROPERTY
  1
1/4
  9
$CUSTOMPROPERTYTAG
  1
Y
  9
$CUSTOMPROPERTY
  1
0.025
  9
$CUSTOMPROPERTYTAG
  1
Z
  9
$CUSTOMPROPERTY
  1
2-19/32
  9
$CUSTOMPROPERTYTAG
  1
COMPANY
  9
$CUSTOMPROPERTY
  1
baldor
  9
$INSBASE
 10
0.0
 20
0.0
 30
0.0
  9
$EXTMIN
 10
1.000000000000000E+20
 20
1.000000000000000E+20
 30
1.000000000000000E+20
  9
$EXTMAX
 10
-1.000000000000000E+20
 20
-1.000000000000000E+20
 30
-1.000000000000000E+20
  9
$LIMMIN
 10
0.0
 20
0.0
  9
$LIMMAX
 10
12.0
 20
9.0
  9
$ORTHOMODE
 70
     0
  9
$REGENMODE
 70
     1
  9
$FILLMODE
 70
     1
  9
$QTEXTMODE
 70
     0
  9
$MIRRTEXT
 70
     1
  9
$LTSCALE
 40
1.0
  9
$ATTMODE
 70
     1
  9
$TEXTSIZE
 40
0.2
  9
$TRACEWID
 40
0.05
  9
$TEXTSTYLE
  7
Standard
  9
$CLAYER
  8
0
  9
$CELTYPE
  6
ByLayer
  9
$CECOLOR
 62
   256
  9
$CELTSCALE
 40
1.0
  9
$DISPSILH
 70
     0
  9
$DIMSCALE
 40
1.0
  9
$DIMASZ
 40
0.18
  9
$DIMEXO
 40
0.0625
  9
$DIMDLI
 40
0.38
  9
$DIMRND
 40
0.0
  9
$DIMDLE
 40
0.0
  9
$DIMEXE
 40
0.18
  9
$DIMTP
 40
0.0
  9
$DIMTM
 40
0.0
  9
$DIMTXT
 40
0.18
  9
$DIMCEN
 40
0.09
  9
$DIMTSZ
 40
0.0
  9
$DIMTOL
 70
     0
  9
$DIMLIM
 70
     0
  9
$DIMTIH
 70
     1
  9
$DIMTOH
 70
     1
  9
$DIMSE1
 70
     0
  9
$DIMSE2
 70
     0
  9
$DIMTAD
 70
     0
  9
$DIMZIN
 70
     0
  9
$DIMBLK
  1

  9
$DIMASO
 70
     1
  9
$DIMSHO
 70
     1
  9
$DIMPOST
  1

  9
$DIMAPOST
  1

  9
$DIMALT
 70
     0
  9
$DIMALTD
 70
     2
  9
$DIMALTF
 40
25.4
  9
$DIMLFAC
 40
1.0
  9
$DIMTOFL
 70
     0
  9
$DIMTVP
 40
0.0
  9
$DIMTIX
 70
     0
  9
$DIMSOXD
 70
     0
  9
$DIMSAH
 70
     0
  9
$DIMBLK1
  1

  9
$DIMBLK2
  1

  9
$DIMSTYLE
  2
Standard
  9
$DIMCLRD
 70
     0
  9
$DIMCLRE
 70
     0
  9
$DIMCLRT
 70
     0
  9
$DIMTFAC
 40
1.0
  9
$DIMGAP
 40
0.09
  9
$DIMJUST
 70
     0
  9
$DIMSD1
 70
     0
  9
$DIMSD2
 70
     0
  9
$DIMTOLJ
 70
     1
  9
$DIMTZIN
 70
     0
  9
$DIMALTZ
 70
     0
  9
$DIMALTTZ
 70
     0
  9
$DIMUPT
 70
     0
  9
$DIMDEC
 70
     4
  9
$DIMTDEC
 70
     4
  9
$DIMALTU
 70
     2
  9
$DIMALTTD
 70
     2
  9
$DIMTXSTY
  7
Standard
  9
$DIMAUNIT
 70
     0
  9
$DIMADEC
 70
     0
  9
$DIMALTRND
 40
0.0
  9
$DIMAZIN
 70
     0
  9
$DIMDSEP
 70
    46
  9
$DIMATFIT
 70
     3
  9
$DIMFRAC
 70
     0
  9
$DIMLDRBLK
  1

  9
$DIMLUNIT
 70
     2
  9
$DIMLWD
 70
    -2
  9
$DIMLWE
 70
    -2
  9
$DIMTMOVE
 70
     0
  9
$DIMFXL
 40
1.0
  9
$DIMFXLON
 70
     0
  9
$DIMJOGANG
 40
0.7853981633974483
  9
$DIMTFILL
 70
     0
  9
$DIMTFILLCLR
 70
     0
  9
$DIMARCSYM
 70
     0
  9
$DIMLTYPE
  6

  9
$DIMLTEX1
  6

  9
$DIMLTEX2
  6

  9
$DIMTXTDIRECTION
 70
     0
  9
$LUNITS
 70
     2
  9
$LUPREC
 70
     4
  9
$SKETCHINC
 40
0.1
  9
$FILLETRAD
 40
0.5
  9
$AUNITS
 70
     0
  9
$AUPREC
 70
     0
  9
$MENU
  1
.
  9
$ELEVATION
 40
0.0
  9
$PELEVATION
 40
0.0
  9
$THICKNESS
 40
0.0
  9
$LIMCHECK
 70
     0
  9
$CHAMFERA
 40
0.0
  9
$CHAMFERB
 40
0.0
  9
$CHAMFERC
 40
0.0
  9
$CHAMFERD
 40
0.0
  9
$SKPOLY
 70
     0
  9
$TDCREATE
 40
2458168.984408333
  9
$TDUCREATE
 40
2458168.942741666
  9
$TDUPDATE
 40
2458168.984408518
  9
$TDUUPDATE
 40
2458168.942741852
  9
$TDINDWG
 40
0.0000000116
  9
$TDUSRTIMER
 40
0.0000000116
  9
$USRTIMER
 70
     1
  9
$ANGBASE
 50
0.0
  9
$ANGDIR
 70
     0
  9
$PDMODE
 70
     0
  9
$PDSIZE
 40
0.0
  9
$PLINEWID
 40
0.0
  9
$SPLFRAME
 70
     0
  9
$SPLINETYPE
 70
     6
  9
$SPLINESEGS
 70
     8
  9
$HANDSEED
  5
1E2
  9
$SURFTAB1
 70
     6
  9
$SURFTAB2
 70
     6
  9
$SURFTYPE
 70
     6
  9
$SURFU
 70
     6
  9
$SURFV
 70
     6
  9
$UCSBASE
  2

  9
$UCSNAME
  2

  9
$UCSORG
 10
0.0
 20
0.0
 30
0.0
  9
$UCSXDIR
 10
1.0
 20
0.0
 30
0.0
  9
$UCSYDIR
 10
0.0
 20
1.0
 30
0.0
  9
$UCSORTHOREF
  2

  9
$UCSORTHOVIEW
 70
     0
  9
$UCSORGTOP
 10
0.0
 20
0.0
 30
0.0
  9
$UCSORGBOTTOM
 10
0.0
 20
0.0
 30
0.0
  9
$UCSORGLEFT
 10
0.0
 20
0.0
 30
0.0
  9
$UCSORGRIGHT
 10
0.0
 20
0.0
 30
0.0
  9
$UCSORGFRONT
 10
0.0
 20
0.0
 30
0.0
  9
$UCSORGBACK
 10
0.0
 20
0.0
 30
0.0
  9
$PUCSBASE
  2

  9
$PUCSNAME
  2

  9
$PUCSORG
 10
0.0
 20
0.0
 30
0.0
  9
$PUCSXDIR
 10
1.0
 20
0.0
 30
0.0
  9
$PUCSYDIR
 10
0.0
 20
1.0
 30
0.0
  9
$PUCSORTHOREF
  2

  9
$PUCSORTHOVIEW
 70
     0
  9
$PUCSORGTOP
 10
0.0
 20
0.0
 30
0.0
  9
$PUCSORGBOTTOM
 10
0.0
 20
0.0
 30
0.0
  9
$PUCSORGLEFT
 10
0.0
 20
0.0
 30
0.0
  9
$PUCSORGRIGHT
 10
0.0
 20
0.0
 30
0.0
  9
$PUCSORGFRONT
 10
0.0
 20
0.0
 30
0.0
  9
$PUCSORGBACK
 10
0.0
 20
0.0
 30
0.0
  9
$USERI1
 70
     0
  9
$USERI2
 70
     0
  9
$USERI3
 70
     0
  9
$USERI4
 70
     0
  9
$USERI5
 70
     0
  9
$USERR1
 40
0.0
  9
$USERR2
 40
0.0
  9
$USERR3
 40
0.0
  9
$USERR4
 40
0.0
  9
$USERR5
 40
0.0
  9
$WORLDVIEW
 70
     1
  9
$SHADEDGE
 70
     3
  9
$SHADEDIF
 70
    70
  9
$TILEMODE
 70
     1
  9
$MAXACTVP
 70
    64
  9
$PINSBASE
 10
0.0
 20
0.0
 30
0.0
  9
$PLIMCHECK
 70
     0
  9
$PEXTMIN
 10
1.000000000000000E+20
 20
1.000000000000000E+20
 30
1.000000000000000E+20
  9
$PEXTMAX
 10
-1.000000000000000E+20
 20
-1.000000000000000E+20
 30
-1.000000000000000E+20
  9
$PLIMMIN
 10
0.0
 20
0.0
  9
$PLIMMAX
 10
12.0
 20
9.0
  9
$UNITMODE
 70
     0
  9
$VISRETAIN
 70
     1
  9
$PLINEGEN
 70
     0
  9
$PSLTSCALE
 70
     1
  9
$TREEDEPTH
 70
  3020
  9
$CMLSTYLE
  2
Standard
  9
$CMLJUST
 70
     0
  9
$CMLSCALE
 40
1.0
  9
$PROXYGRAPHICS
 70
     1
  9
$MEASUREMENT
 70
     0
  9
$CELWEIGHT
370
    -1
  9
$ENDCAPS
280
     0
  9
$JOINSTYLE
280
     0
  9
$LWDISPLAY
290
     0
  9
$INSUNITS
 70
     1
  9
$HYPERLINKBASE
  1

  9
$STYLESHEET
  1

  9
$XEDIT
290
     1
  9
$CEPSNTYPE
380
     0
  9
$PSTYLEMODE
290
     1
  9
$FINGERPRINTGUID
  2
{4DEAC4B6-5FEC-441A-85C2-4587E826FE9F}
  9
$VERSIONGUID
  2
{FAEB1C32-E019-11D5-929B-00C0DF256EC4}
  9
$EXTNAMES
290
     1
  9
$PSVPSCALE
 40
0.0
  9
$OLESTARTUP
290
     0
  9
$SORTENTS
280
   127
  9
$INDEXCTL
280
     0
  9
$HIDETEXT
280
     1
  9
$XCLIPFRAME
280
     2
  9
$HALOGAP
280
     0
  9
$OBSCOLOR
 70
   257
  9
$OBSLTYPE
280
     0
  9
$INTERSECTIONDISPLAY
280
     0
  9
$INTERSECTIONCOLOR
 70
   257
  9
$DIMASSOC
280
     2
  9
$PROJECTNAME
  1

  9
$CAMERADISPLAY
290
     0
  9
$LENSLENGTH
 40
50.0
  9
$CAMERAHEIGHT
 40
0.0
  9
$STEPSPERSEC
 40
2.0
  9
$STEPSIZE
 40
6.0
  9
$3DDWFPREC
 40
2.0
  9
$PSOLWIDTH
 40
0.25
  9
$PSOLHEIGHT
 40
4.0
  9
$LOFTANG1
 40
1.570796326794897
  9
$LOFTANG2
 40
1.570796326794897
  9
$LOFTMAG1
 40
0.0
  9
$LOFTMAG2
 40
0.0
  9
$LOFTPARAM
 70
     7
  9
$LOFTNORMALS
280
     1
  9
$LATITUDE
 40
37.795
  9
$LONGITUDE
 40
-122.394
  9
$NORTHDIRECTION
 40
0.0
  9
$TIMEZONE
 70
 -8000
  9
$LIGHTGLYPHDISPLAY
280
     1
  9
$TILEMODELIGHTSYNCH
280
     1
  9
$CMATERIAL
347
44
  9
$SOLIDHIST
280
     0
  9
$SHOWHIST
280
     1
  9
$DWFFRAME
280
     2
  9
$DGNFRAME
280
     2
  9
$REALWORLDSCALE
290
     1
  9
$INTERFERECOLOR
 62
   256
  9
$CSHADOW
280
     0
  9
$SHADOWPLANELOCATION
 40
0.0
  0
ENDSEC
  0
SECTION
  2
CLASSES
  0
CLASS
  1
ACDBDICTIONARYWDFLT
  2
AcDbDictionaryWithDefault
  3
ObjectDBX Classes
 90
        0
 91
        4
280
     0
281
     0
  0
CLASS
  1
VISUALSTYLE
  2
AcDbVisualStyle
  3
ObjectDBX Classes
 90
     4095
 91
        4
280
     0
281
     0
  0
CLASS
  1
MATERIAL
  2
AcDbMaterial
  3
ObjectDBX Classes
 90
     1153
 91
        4
280
     0
281
     0
  0
CLASS
  1
SCALE
  2
AcDbScale
  3
ObjectDBX Classes
 90
     1153
 91
        4
280
     0
281
     0
  0
CLASS
  1
TABLESTYLE
  2
AcDbTableStyle
  3
ObjectDBX Classes
 90
     4095
 91
        4
280
     0
281
     0
  0
CLASS
  1
MLEADERSTYLE
  2
AcDbMLeaderStyle
  3
ACDB_MLEADERSTYLE_CLASS
 90
     4095
 91
        4
280
     0
281
     0
  0
CLASS
  1
SUN
  2
AcDbSun
  3
SCENEOE
 90
     1153
 91
        4
280
     0
281
     0
  0
CLASS
  1
DICTIONARYVAR
  2
AcDbDictionaryVar
  3
ObjectDBX Classes
 90
        0
 91
        4
280
     0
281
     0
  0
CLASS
  1
CELLSTYLEMAP
  2
AcDbCellStyleMap
  3
ObjectDBX Classes
 90
     1152
 91
        4
280
     0
281
     0
  0
ENDSEC
  0
SECTION
  2
TABLES
  0
TABLE
  2
VPORT
  5
8
330
0
100
AcDbSymbolTable
 70
     1
  0
VPORT
  5
29
330
8
100
AcDbSymbolTableRecord
100
AcDbViewportTableRecord
  2
*Active
 70
     0
 10
0.0
 20
0.0
 11
1.0
 21
1.0
 12
-1.237500000000001
 22
0.0386562499999998
 13
0.0
 23
0.0
 14
0.5
 24
0.5
 15
0.5
 25
0.5
 16
0.0
 26
0.0
 36
1.0
 17
0.0
 27
0.0
 37
0.0
 40
6.07135875
 41
0.6762077763894282
 42
50.0
 43
0.0
 44
0.0
 50
0.0
 51
0.0
 71
     0
 72
   100
 73
     1
 74
     3
 75
     0
 76
     0
 77
     0
 78
     0
281
     0
 65
     1
110
0.0
120
0.0
130
0.0
111
1.0
121
0.0
131
0.0
112
0.0
122
1.0
132
0.0
 79
     0
146
0.0
348
2F
 60
     3
 61
     5
292
     1
282
     1
141
0.0
142
0.0
 63
   250
361
6D
  0
ENDTAB
  0
TABLE
  2
LTYPE
  5
5
330
0
100
AcDbSymbolTable
 70
     3
  0
LTYPE
  5
14
330
5
100
AcDbSymbolTableRecord
100
AcDbLinetypeTableRecord
  2
ByBlock
 70
     0
  3

 72
    65
 73
     0
 40
0.0
  0
LTYPE
  5
15
330
5
100
AcDbSymbolTableRecord
100
AcDbLinetypeTableRecord
  2
ByLayer
 70
     0
  3

 72
    65
 73
     0
 40
0.0
  0
LTYPE
  5
16
330
5
100
AcDbSymbolTableRecord
100
AcDbLinetypeTableRecord
  2
Continuous
 70
     0
  3
Solid line
 72
    65
 73
     0
 40
0.0
  0
LTYPE
  5
A6
330
5
100
AcDbSymbolTableRecord
100
AcDbLinetypeTableRecord
  2
Dashed
 70
     0
  3

 72
    65
 73
     2
 40
2.0
 49
1.0
 74
     0
 49
-1.0
 74
     0
  0
LTYPE
  5
BE
330
5
100
AcDbSymbolTableRecord
100
AcDbLinetypeTableRecord
  2
Center
 70
     0
  3

 72
    65
 73
     4
 40
1.5
 49
0.45
 74
     0
 49
-0.5
 74
     0
 49
0.05
 74
     0
 49
-0.5
 74
     0
  0
ENDTAB
  0
TABLE
  2
LAYER
  5
2
330
0
100
AcDbSymbolTable
 70
     7
  0
LAYER
  5
10
330
2
100
AcDbSymbolTableRecord
100
AcDbLayerTableRecord
  2
0
 70
     0
 62
     7
  6
Continuous
370
    -3
390
F
347
46
348
0
  0
LAYER
  5
72
330
2
100
AcDbSymbolTableRecord
100
AcDbLayerTableRecord
  2
AM_6
 70
     0
 62
    -2
  6
Continuous
370
    35
390
F
347
46
348
0
  0
LAYER
  5
A7
330
2
100
AcDbSymbolTableRecord
100
AcDbLayerTableRecord
  2
AM_9
 70
     0
 62
     6
  6
Dashed
370
    25
390
F
347
46
348
0
  0
LAYER
  5
B9
330
2
100
AcDbSymbolTableRecord
100
AcDbLayerTableRecord
  2
AM_5
 70
     0
 62
     3
  6
Continuous
370
    25
390
F
347
46
348
0
  0
LAYER
  5
BF
330
2
100
AcDbSymbolTableRecord
100
AcDbLayerTableRecord
  2
AM_7
 70
     0
 62
     7
  6
Center
370
    25
390
F
347
46
348
0
  0
LAYER
  5
C1
330
2
100
AcDbSymbolTableRecord
100
AcDbLayerTableRecord
  2
AM_4
 70
     0
 62
     7
  6
Continuous
370
    50
390
F
347
46
348
0
  0
LAYER
  5
1D1
330
2
100
AcDbSymbolTableRecord
100
AcDbLayerTableRecord
  2
ConnectionPoints
 70
     0
 62
     7
  6
Continuous
370
    50
390
F
347
46
348
0
  0
ENDTAB
  0
TABLE
  2
STYLE
  5
3
330
0
100
AcDbSymbolTable
 70
     1
  0
STYLE
  5
11
330
3
100
AcDbSymbolTableRecord
100
AcDbTextStyleTableRecord
  2
Standard
 70
     0
 40
0.0
 41
1.0
 50
0.0
 71
     0
 42
0.2
  3
txt
  4

  0
ENDTAB
  0
TABLE
  2
VIEW
  5
6
330
0
100
AcDbSymbolTable
 70
     0
  0
ENDTAB
  0
TABLE
  2
UCS
  5
7
330
0
100
AcDbSymbolTable
 70
     0
  0
ENDTAB
  0
TABLE
  2
APPID
  5
9
330
0
100
AcDbSymbolTable
 70
     1
  0
APPID
  5
12
330
9
100
AcDbSymbolTableRecord
100
AcDbRegAppTableRecord
  2
ACAD
 70
     0
  0
ENDTAB
  0
TABLE
  2
DIMSTYLE
  5
A
330
0
100
AcDbSymbolTable
 70
     1
100
AcDbDimStyleTable
  0
DIMSTYLE
105
27
330
A
100
AcDbSymbolTableRecord
100
AcDbDimStyleTableRecord
  2
Standard
 70
     0
178
     0
340
11
  0
ENDTAB
  0
TABLE
  2
BLOCK_RECORD
  5
1
330
0
100
AcDbSymbolTable
 70
     6
  0
BLOCK_RECORD
  5
1F
330
1
100
AcDbSymbolTableRecord
100
AcDbBlockTableRecord
  2
*Model_Space
340
22
 70
     0
280
     1
281
     0
  0
BLOCK_RECORD
  5
1B
330
1
100
AcDbSymbolTableRecord
100
AcDbBlockTableRecord
  2
*Paper_Space
340
1E
 70
     0
280
     1
281
     0
  0
BLOCK_RECORD
  5
23
330
1
100
AcDbSymbolTableRecord
100
AcDbBlockTableRecord
  2
*Paper_Space0
340
26
 70
     0
280
     1
281
     0
  0
BLOCK_RECORD
  5
6E
330
1
100
AcDbSymbolTableRecord
100
AcDbBlockTableRecord
  2
1_070861_2
340
0
102
{BLKREFS
331
6F
102
}
 70
     0
280
     1
281
     0
  0
BLOCK_RECORD
  5
8D
330
1
100
AcDbSymbolTableRecord
100
AcDbBlockTableRecord
  2
2_2_3_16CS2i_0_in_070861_2
340
0
102
{BLKREFS
331
8E
102
}
 70
     0
280
     1
281
     0
  0
BLOCK_RECORD
  5
D6
330
1
100
AcDbSymbolTableRecord
100
AcDbBlockTableRecord
  2
3_070023i_0_in_070861_2
340
0
102
{BLKREFS
331
D7
102
}
 70
     0
280
     1
281
     0
  0
BLOCK_RECORD
  5
138
330
1
100
AcDbSymbolTableRecord
100
AcDbBlockTableRecord
  2
4_405015E_Inch_0_in_070861_2
340
0
102
{BLKREFS
331
139
102
}
 70
     0
280
     1
281
     0
  0
BLOCK_RECORD
  5
176
330
1
100
AcDbSymbolTableRecord
100
AcDbBlockTableRecord
  2
5_070861H_0_in_070861_2
340
0
102
{BLKREFS
331
177
102
}
 70
     0
280
     1
281
     0
  0
ENDTAB
  0
ENDSEC
  0
SECTION
  2
BLOCKS
  0
BLOCK
  5
20
330
1F
100
AcDbEntity
  8
0
100
AcDbBlockBegin
  2
*Model_Space
 70
     0
 10
0.0
 20
0.0
 30
0.0
  3
*Model_Space
  1

  0
ENDBLK
  5
21
330
1F
100
AcDbEntity
  8
0
100
AcDbBlockEnd
  0
BLOCK
  5
1C
330
1B
100
AcDbEntity
 67
     1
  8
0
100
AcDbBlockBegin
  2
*Paper_Space
 70
     0
 10
0.0
 20
0.0
 30
0.0
  3
*Paper_Space
  1

  0
ENDBLK
  5
1D
330
1B
100
AcDbEntity
 67
     1
  8
0
100
AcDbBlockEnd
  0
BLOCK
  5
24
330
23
100
AcDbEntity
  8
0
100
AcDbBlockBegin
  2
*Paper_Space0
 70
     0
 10
0.0
 20
0.0
 30
0.0
  3
*Paper_Space0
  1

  0
ENDBLK
  5
25
330
23
100
AcDbEntity
  8
0
100
AcDbBlockEnd
  0
BLOCK
  5
70
330
6E
100
AcDbEntity
  8
0
100
AcDbBlockBegin
  2
1_070861_2
 70
     2
 10
0.0
 20
0.0
 30
0.0
  3
1_070861_2
  1

  0
ATTDEF
  5
73
330
6E
100
AcDbEntity
  8
AM_6
100
AcDbText
 10
5.102343749999999
 20
3.0148125
 30
0.0
 40
0.5
  1
S-2000 Flange Bearing - Square Labyrinth Seal
100
AcDbAttributeDefinition
  3

  2
NN
 70
     8
280
     0
  0
ATTDEF
  5
74
330
6E
100
AcDbEntity
  8
AM_6
100
AcDbText
 10
5.102343749999999
 20
2.5148125
 30
0.0
 40
0.5
  1
S-2000 4 Bolt Square Flange Bearing -Inch
100
AcDbAttributeDefinition
  3

  2
NT
 70
     8
280
     0
  0
ATTDEF
  5
75
330
6E
100
AcDbEntity
  8
AM_6
100
AcDbText
 10
5.102343749999999
 20
2.0148125
 30
0.0
 40
0.5
  1
070861
100
AcDbAttributeDefinition
  3

  2
NB
 70
     8
280
     0
  0
ATTDEF
  5
76
330
6E
100
AcDbEntity
  8
AM_6
100
AcDbText
 10
5.102343749999999
 20
1.5148125
 30
0.0
 40
0.5
  1
$PN.
100
AcDbAttributeDefinition
  3

  2
NBSYN
 70
     8
280
     0
  0
ATTDEF
  5
77
330
6E
100
AcDbEntity
  8
AM_6
100
AcDbText
 10
5.102343749999999
 20
1.0148125
 30
0.0
 40
0.5
  1
070861
100
AcDbAttributeDefinition
  3

  2
LINA
 70
     8
280
     0
  0
ATTDEF
  5
78
330
6E
100
AcDbEntity
  8
AM_6
100
AcDbText
 10
5.102343749999999
 20
0.5148124999999997
 30
0.0
 40
0.5
  1
2-3/16
100
AcDbAttributeDefinition
  3

  2
SS
 70
     8
280
     0
  0
ATTDEF
  5
79
330
6E
100
AcDbEntity
  8
AM_6
100
AcDbText
 10
5.102343749999999
 20
0.0148124999999997
 30
0.0
 40
0.5
  1
070861
100
AcDbAttributeDefinition
  3

  2
PN
 70
     8
280
     0
  0
ATTDEF
  5
7A
330
6E
100
AcDbEntity
  8
AM_6
100
AcDbText
 10
5.102343749999999
 20
-0.4851875000000003
 30
0.0
 40
0.5
  1
F4S-S2-203LE
100
AcDbAttributeDefinition
  3

  2
DESCRIPTION
 70
     8
280
     0
  0
ATTDEF
  5
7B
330
6E
100
AcDbEntity
  8
AM_6
100
AcDbText
 10
5.102343749999999
 20
-0.9851875000000003
 30
0.0
 40
0.5
  1
Expansion Type
100
AcDbAttributeDefinition
  3

  2
EF
 70
     8
280
     0
  0
ATTDEF
  5
7C
330
6E
100
AcDbEntity
  8
AM_6
100
AcDbText
 10
5.102343749999999
 20
-1.4851875
 30
0.0
 40
0.5
  1
Labyrinth Seal
100
AcDbAttributeDefinition
  3

  2
ST
 70
     8
280
     0
  0
ATTDEF
  5
7D
330
6E
100
AcDbEntity
  8
AM_6
100
AcDbText
 10
5.102343749999999
 20
-1.9851875
 30
0.0
 40
0.5
  1
2-15/16
100
AcDbAttributeDefinition
  3

  2
A
 70
     8
280
     0
  0
ATTDEF
  5
7E
330
6E
100
AcDbEntity
  8
AM_6
100
AcDbText
 10
5.102343749999999
 20
-2.4851875
 30
0.0
 40
0.5
  1
5-7/8
100
AcDbAttributeDefinition
  3

  2
B
 70
     8
280
     0
  0
ATTDEF
  5
7F
330
6E
100
AcDbEntity
  8
AM_6
100
AcDbText
 10
5.102343749999999
 20
-2.9851875
 30
0.0
 40
0.5
  1
3-1/4
100
AcDbAttributeDefinition
  3

  2
C
 70
     8
280
     0
  0
ATTDEF
  5
80
330
6E
100
AcDbEntity
  8
AM_6
100
AcDbText
 10
5.102343749999999
 20
-3.4851875
 30
0.0
 40
0.5
  1
4-33/64
100
AcDbAttributeDefinition
  3

  2
D
 70
     8
280
     0
  0
ATTDEF
  5
81
330
6E
100
AcDbEntity
  8
AM_6
100
AcDbText
 10
5.102343749999999
 20
-3.9851875
 30
0.0
 40
0.5
  1
5/8
100
AcDbAttributeDefinition
  3

  2
F
 70
     8
280
     0
  0
ATTDEF
  5
82
330
6E
100
AcDbEntity
  8
AM_6
100
AcDbText
 10
5.102343749999999
 20
-4.4851875
 30
0.0
 40
0.5
  1
1-13/64
100
AcDbAttributeDefinition
  3

  2
G
 70
     8
280
     0
  0
ATTDEF
  5
83
330
6E
100
AcDbEntity
  8
AM_6
100
AcDbText
 10
5.102343749999999
 20
-4.9851875
 30
0.0
 40
0.5
  1
9/16
100
AcDbAttributeDefinition
  3

  2
H
 70
     8
280
     0
  0
ATTDEF
  5
84
330
6E
100
AcDbEntity
  8
AM_6
100
AcDbText
 10
5.102343749999999
 20
-5.4851875
 30
0.0
 40
0.5
  1
5-1/64
100
AcDbAttributeDefinition
  3

  2
J
 70
     8
280
     0
  0
ATTDEF
  5
85
330
6E
100
AcDbEntity
  8
AM_6
100
AcDbText
 10
5.102343749999999
 20
-5.9851875
 30
0.0
 40
0.5
  1
6-3/8
100
AcDbAttributeDefinition
  3

  2
K
 70
     8
280
     0
  0
ATTDEF
  5
86
330
6E
100
AcDbEntity
  8
AM_6
100
AcDbText
 10
5.102343749999999
 20
-6.4851875
 30
0.0
 40
0.5
  1
3-3/4
100
AcDbAttributeDefinition
  3

  2
L
 70
     8
280
     0
  0
ATTDEF
  5
87
330
6E
100
AcDbEntity
  8
AM_6
100
AcDbText
 10
5.102343749999999
 20
-6.9851875
 30
0.0
 40
0.5
  1
3-3/32
100
AcDbAttributeDefinition
  3

  2
N
 70
     8
280
     0
  0
ATTDEF
  5
88
330
6E
100
AcDbEntity
  8
AM_6
100
AcDbText
 10
5.102343749999999
 20
-7.4851875
 30
0.0
 40
0.5
  1
5/16
100
AcDbAttributeDefinition
  3

  2
P
 70
     8
280
     0
  0
ATTDEF
  5
89
330
6E
100
AcDbEntity
  8
AM_6
100
AcDbText
 10
5.102343749999999
 20
-7.9851875
 30
0.0
 40
0.5
  1
1/4
100
AcDbAttributeDefinition
  3

  2
X
 70
     8
280
     0
  0
ATTDEF
  5
8A
330
6E
100
AcDbEntity
  8
AM_6
100
AcDbText
 10
5.102343749999999
 20
-8.4851875
 30
0.0
 40
0.5
  1
0.025
100
AcDbAttributeDefinition
  3

  2
Y
 70
     8
280
     0
  0
ATTDEF
  5
8B
330
6E
100
AcDbEntity
  8
AM_6
100
AcDbText
 10
5.102343749999999
 20
-8.9851875
 30
0.0
 40
0.5
  1
2-19/32
100
AcDbAttributeDefinition
  3

  2
Z
 70
     8
280
     0
  0
ATTDEF
  5
8C
330
6E
100
AcDbEntity
  8
AM_6
100
AcDbText
 10
5.102343749999999
 20
-9.4851875
 30
0.0
 40
0.5
  1
baldor
100
AcDbAttributeDefinition
  3

  2
COMPANY
 70
     8
280
     0
  0
INSERT
  5
8E
330
6E
100
AcDbEntity
  8
0
100
AcDbBlockReference
  2
2_2_3_16CS2i_0_in_070861_2
 10
0.0
 20
0.0
 30
0.0
  0
INSERT
  5
D7
330
6E
100
AcDbEntity
  8
0
100
AcDbBlockReference
  2
3_070023i_0_in_070861_2
 10
0.0
 20
0.0
 30
0.0
  0
INSERT
  5
139
330
6E
100
AcDbEntity
  8
0
100
AcDbBlockReference
  2
4_405015E_Inch_0_in_070861_2
 10
0.0
 20
0.0
 30
0.0
  0
INSERT
  5
177
330
6E
100
AcDbEntity
  8
0
100
AcDbBlockReference
  2
5_070861H_0_in_070861_2
 10
0.0
 20
0.0
 30
0.0
  0
ENDBLK
  5
71
330
6E
100
AcDbEntity
  8
0
100
AcDbBlockEnd
  0
BLOCK
  5
8F
330
8D
100
AcDbEntity
  8
0
100
AcDbBlockBegin
  2
2_2_3_16CS2i_0_in_070861_2
 70
     2
 10
0.0
 20
0.0
 30
0.0
  3
2_2_3_16CS2i_0_in_070861_2
  1

  0
ATTDEF
  5
91
330
8D
100
AcDbEntity
  8
AM_6
100
AcDbText
 10
2.634
 20
1.9045
 30
0.0
 40
0.5
  1
S-2000 Collar -Inch
100
AcDbAttributeDefinition
  3

  2
NN
 70
     8
280
     0
  0
ATTDEF
  5
92
330
8D
100
AcDbEntity
  8
AM_6
100
AcDbText
 10
2.634
 20
1.4045
 30
0.0
 40
0.5
  1
S-2000 Bearings
100
AcDbAttributeDefinition
  3

  2
NT
 70
     8
280
     0
  0
ATTDEF
  5
93
330
8D
100
AcDbEntity
  8
AM_6
100
AcDbText
 10
2.634
 20
0.9045000000000001
 30
0.0
 40
0.5
  1
2-3/16CS2i
100
AcDbAttributeDefinition
  3

  2
NB
 70
     8
280
     0
  0
ATTDEF
  5
94
330
8D
100
AcDbEntity
  8
AM_6
100
AcDbText
 10
2.634
 20
0.4045000000000001
 30
0.0
 40
0.5
  1
$BORE.CS2i
100
AcDbAttributeDefinition
  3

  2
NBSYN
 70
     8
280
     0
  0
ATTDEF
  5
95
330
8D
100
AcDbEntity
  8
AM_6
100
AcDbText
 10
2.634
 20
-0.0954999999999999
 30
0.0
 40
0.5
  1
2-3/16CS2i
100
AcDbAttributeDefinition
  3

  2
LINA
 70
     8
280
     0
  0
ATTDEF
  5
96
330
8D
100
AcDbEntity
  8
AM_6
100
AcDbText
 10
2.634
 20
-0.5954999999999999
 30
0.0
 40
0.5
  1
2-3/16
100
AcDbAttributeDefinition
  3

  2
BORE
 70
     8
280
     0
  0
ATTDEF
  5
97
330
8D
100
AcDbEntity
  8
AM_6
100
AcDbText
 10
2.634
 20
-1.0955
 30
0.0
 40
0.5
  1
2.187500
100
AcDbAttributeDefinition
  3

  2
BORE1
 70
     8
280
     0
  0
ATTDEF
  5
98
330
8D
100
AcDbEntity
  8
AM_6
100
AcDbText
 10
2.634
 20
-1.5955
 30
0.0
 40
0.5
  1
3-3/4
100
AcDbAttributeDefinition
  3

  2
L1
 70
     8
280
     0
  0
ATTDEF
  5
99
330
8D
100
AcDbEntity
  8
AM_6
100
AcDbText
 10
2.634
 20
-2.0955
 30
0.0
 40
0.5
  1
3.75000
100
AcDbAttributeDefinition
  3

  2
L
 70
     8
280
     0
  0
ATTDEF
  5
9A
330
8D
100
AcDbEntity
  8
AM_6
100
AcDbText
 10
2.634
 20
-2.5955
 30
0.0
 40
0.5
  1
3.65625
100
AcDbAttributeDefinition
  3

  2
L2
 70
     8
280
     0
  0
ATTDEF
  5
9B
330
8D
100
AcDbEntity
  8
AM_6
100
AcDbText
 10
2.634
 20
-3.0955
 30
0.0
 40
0.5
  1
3.75
100
AcDbAttributeDefinition
  3

  2
A
 70
     8
280
     0
  0
ATTDEF
  5
9C
330
8D
100
AcDbEntity
  8
AM_6
100
AcDbText
 10
2.634
 20
-3.5955
 30
0.0
 40
0.5
  1
1.66
100
AcDbAttributeDefinition
  3

  2
B
 70
     8
280
     0
  0
ATTDEF
  5
9D
330
8D
100
AcDbEntity
  8
AM_6
100
AcDbText
 10
2.634
 20
-4.095499999999999
 30
0.0
 40
0.5
  1
2.62
100
AcDbAttributeDefinition
  3

  2
C
 70
     8
280
     0
  0
ATTDEF
  5
9E
330
8D
100
AcDbEntity
  8
AM_6
100
AcDbText
 10
2.634
 20
-4.595499999999999
 30
0.0
 40
0.5
  1
3.81
100
AcDbAttributeDefinition
  3

  2
D
 70
     8
280
     0
  0
ATTDEF
  5
9F
330
8D
100
AcDbEntity
  8
AM_6
100
AcDbText
 10
2.634
 20
-5.095499999999999
 30
0.0
 40
0.5
  1
0.41
100
AcDbAttributeDefinition
  3

  2
E
 70
     8
280
     0
  0
ATTDEF
  5
A0
330
8D
100
AcDbEntity
  8
AM_6
100
AcDbText
 10
2.634
 20
-5.595499999999999
 30
0.0
 40
0.5
  1
0.317
100
AcDbAttributeDefinition
  3

  2
F
 70
     8
280
     0
  0
ATTDEF
  5
A1
330
8D
100
AcDbEntity
  8
AM_6
100
AcDbText
 10
2.634
 20
-6.095499999999999
 30
0.0
 40
0.5
  1
3/8-16
100
AcDbAttributeDefinition
  3

  2
CS
 70
     8
280
     0
  0
ATTDEF
  5
A2
330
8D
100
AcDbEntity
  8
AM_6
100
AcDbText
 10
2.634
 20
-6.595499999999999
 30
0.0
 40
0.5
  1
0.3750
100
AcDbAttributeDefinition
  3

  2
NDM
 70
     8
280
     0
  0
ATTDEF
  5
A3
330
8D
100
AcDbEntity
  8
AM_6
100
AcDbText
 10
2.634
 20
-7.095499999999999
 30
0.0
 40
0.5
  1
0.3070
100
AcDbAttributeDefinition
  3

  2
KDM
 70
     8
280
     0
  0
ATTDEF
  5
A4
330
8D
100
AcDbEntity
  8
AM_6
100
AcDbText
 10
2.634
 20
-7.595499999999999
 30
0.0
 40
0.5
  1
1
100
AcDbAttributeDefinition
  3

  2
DD
 70
     8
280
     0
  0
ATTDEF
  5
A5
330
8D
100
AcDbEntity
  8
AM_6
100
AcDbText
 10
2.634
 20
-8.0955
 30
0.0
 40
0.5
  1
baldor
100
AcDbAttributeDefinition
  3

  2
COMPANY
 70
     8
280
     0
  0
LINE
  5
A8
330
8D
100
AcDbEntity
  8
AM_9
100
AcDbLine
 10
-2.52935
 20
1.318849999999998
 30
0.0
 11
-2.52935
 21
1.84115
 31
0.0
  0
LINE
  5
A9
330
8D
100
AcDbEntity
  8
AM_9
100
AcDbLine
 10
-2.83665
 20
1.828083329217944
 30
0.0
 11
-2.83665
 21
1.318849999999998
 31
0.0
  0
LINE
  5
AA
330
8D
100
AcDbEntity
  8
AM_9
100
AcDbLine
 10
-2.83665
 20
1.318849999999998
 30
0.0
 11
-2.52935
 21
1.318849999999998
 31
0.0
  0
LINE
  5
AB
330
8D
100
AcDbEntity
  8
AM_9
100
AcDbLine
 10
-2.83665
 20
1.318849999999998
 30
0.0
 11
-2.845285576035069
 21
1.310214423964929
 31
0.0
  0
LINE
  5
AC
330
8D
100
AcDbEntity
  8
AM_9
100
AcDbLine
 10
-2.520757778627882
 20
1.310257778627881
 30
0.0
 11
-2.52935
 21
1.318849999999998
 31
0.0
  0
LINE
  5
AD
330
8D
100
AcDbEntity
  8
AM_9
100
AcDbLine
 10
-2.683
 20
1.84115
 30
0.0
 11
-2.52935
 21
1.84115
 31
0.0
  0
LINE
  5
AE
330
8D
100
AcDbEntity
  8
AM_9
100
AcDbLine
 10
-2.52935
 20
1.84115
 30
0.0
 11
-2.4955
 21
1.875
 31
0.0
  0
LWPOLYLINE
  5
AF
330
8D
100
AcDbEntity
  8
AM_9
100
AcDbPolyline
 90
       39
 70
     0
 43
0.0
 10
-2.562739795400335
 20
0.4454553340870209
 10
-2.548102157395506
 20
0.4643138121682407
 10
-2.53640969285707
 20
0.4847808473524228
 10
-2.52658177062218
 20
0.5106664144202897
 10
-2.521357915908208
 20
0.5374299934606555
 10
-2.520961035959137
 20
0.5652383606843941
 10
-2.525594424418918
 20
0.5924289346763261
 10
-2.535330223445364
 20
0.6184493365590064
 10
-2.549882177892986
 20
0.642358272311616
 10
-2.568611480547189
 20
0.663065224660515
 10
-2.591240600676215
 20
0.6804170158894296
 10
-2.615799513172281
 20
0.6931552315099777
 10
-2.642640596075073
 20
0.7018609413282767
 10
-2.668806879059509
 20
0.705941141979617
 10
-2.695413312255015
 20
0.7060923853880126
 10
-2.720358590402661
 20
0.7025249528871632
 10
-2.744272864413716
 20
0.6955229844667069
 10
-2.766771781918626
 20
0.6851391771507512
 10
-2.787080400446549
 20
0.6717929184556499
 10
-2.805728298023223
 20
0.6547784583698778
 10
-2.821088966392303
 20
0.6352898679140677
 10
-2.833524895961858
 20
0.6122153586641237
 10
-2.841655558172997
 20
0.5874328238680538
 10
-2.84533772390218
 20
0.560305729893561
 10
-2.844068765370067
 20
0.5327047496794325
 10
-2.837661891818041
 20
0.5049295051250278
 10
-2.826292117539707
 20
0.478284828221489
 10
-2.81029549681806
 20
0.4538558976382238
 10
-2.790013127851825
 20
0.4322506495427493
 10
-2.766924217417115
 20
0.4150329933045249
 10
-2.740954832298562
 20
0.4019704520501974
 10
-2.714898493763943
 20
0.3942096675082308
 10
-2.687814561680349
 20
0.3909818634271393
 10
-2.662284004110847
 20
0.3923016508464801
 10
-2.637345489956255
 20
0.3976903300900806
 10
-2.613920787962261
 20
0.4068619817596912
 10
-2.592317549032613
 20
0.419424355920897
 10
-2.576700541198619
 20
0.4316234110462981
 10
-2.562739795400335
 20
0.4454553340870212
  0
LINE
  5
B0
330
8D
100
AcDbEntity
  8
AM_9
100
AcDbLine
 10
-3.0
 20
-1.31
 30
0.0
 11
-2.366
 21
-1.31
 31
0.0
  0
LINE
  5
B1
330
8D
100
AcDbEntity
  8
AM_9
100
AcDbLine
 10
-2.366
 20
1.31
 30
0.0
 11
-2.52110054714185
 21
1.31
 31
0.0
  0
LINE
  5
B2
330
8D
100
AcDbEntity
  8
AM_9
100
AcDbLine
 10
-2.845000242803868
 20
1.31
 30
0.0
 11
-3.0
 21
1.31
 31
0.0
  0
LWPOLYLINE
  5
B3
330
8D
100
AcDbEntity
  8
AM_9
100
AcDbPolyline
 90
       21
 70
     0
 43
0.0
 10
-2.845499999999662
 20
1.309999999999953
 10
-2.845302778927689
 20
1.309972087359224
 10
-2.84127641594891
 20
1.309409357790498
 10
-2.83235444446062
 20
1.308210936201127
 10
-2.818207843527011
 20
1.306448665357621
 10
-2.800312488178497
 20
1.304463909932972
 10
-2.777760408416193
 20
1.302355736591321
 10
-2.753884898216064
 20
1.300606511345046
 10
-2.726727222146959
 20
1.29922599636072
 10
-2.700982440638728
 20
1.298520061078894
 10
-2.673834429079859
 20
1.298413625064043
 10
-2.649111648408038
 20
1.298886781313496
 10
-2.624652034726319
 20
1.299888341515009
 10
-2.602235988033971
 20
1.301269778693122
 10
-2.581401601548725
 20
1.302948380784639
 10
-2.562657391076654
 20
1.304780658154192
 10
-2.546716068578944
 20
1.306576741861005
 10
-2.533935850865356
 20
1.30817306980801
 10
-2.525146488292913
 20
1.309351040898662
 10
-2.52086444620377
 20
1.309948445529012
 10
-2.520500000000161
 20
1.309999999999977
  0
ELLIPSE
  5
B4
330
8D
100
AcDbEntity
  8
AM_9
100
AcDbEllipse
 10
-2.682999999999999
 20
0.5573700944967194
 30
0.0
 11
0.1536500000000012
 21
0.0
 31
0.0
210
0.0
220
0.0
230
1.0
 40
0.9063077870366526
 41
2.264856646086779
 42
3.141592653589793
  0
LINE
  5
B5
330
8D
100
AcDbEntity
  8
AM_9
100
AcDbLine
 10
-2.52935
 20
0.5573700944967208
 30
0.0
 11
-2.52935
 21
0.7781036126038889
 31
0.0
  0
LINE
  5
B6
330
8D
100
AcDbEntity
  8
AM_9
100
AcDbLine
 10
-2.83665
 20
0.7725814182623202
 30
0.0
 11
-2.83665
 21
0.5573700944967208
 31
0.0
  0
ELLIPSE
  5
B7
330
8D
100
AcDbEntity
  8
AM_9
100
AcDbEllipse
 10
-2.683
 20
0.5573700944967213
 30
0.0
 11
0.1536500000000003
 21
0.0
 31
0.0
210
0.0
220
0.0
230
1.0
 40
0.9063077870366516
 41
3.141592653589793
 42
7.198174671110776
  0
LINE
  5
B8
330
8D
100
AcDbEntity
  8
AM_9
100
AcDbLine
 10
-2.683
 20
0.6388494211257076
 30
0.0
 11
-2.683
 21
0.9091195285357462
 31
0.0
  0
LINE
  5
BA
330
8D
100
AcDbEntity
  8
AM_5
100
AcDbLine
 10
-2.8705
 20
1.828125
 30
0.0
 11
-2.8705
 21
1.31
 31
0.0
  0
LINE
  5
BB
330
8D
100
AcDbEntity
  8
AM_5
100
AcDbLine
 10
-2.77675
 20
1.285
 30
0.0
 11
-2.8705
 21
1.285
 31
0.0
  0
LINE
  5
BC
330
8D
100
AcDbEntity
  8
AM_5
100
AcDbLine
 10
-2.4955
 20
1.875
 30
0.0
 11
-2.4955
 21
1.31
 31
0.0
  0
LINE
  5
BD
330
8D
100
AcDbEntity
  8
AM_5
100
AcDbLine
 10
-2.58925
 20
1.285
 30
0.0
 11
-2.4955
 21
1.285
 31
0.0
  0
LINE
  5
C0
330
8D
100
AcDbEntity
  8
AM_7
100
AcDbLine
 10
-2.683
 20
1.9045
 30
0.0
 11
-2.683
 21
-0.0671794871794872
 31
0.0
  0
ELLIPSE
  5
C2
330
8D
100
AcDbEntity
  8
AM_4
100
AcDbEllipse
 10
-2.683
 20
0.5573700944967189
 30
0.0
 11
0.1536500000000007
 21
0.0
 31
0.0
210
0.0
220
0.0
230
1.0
 40
0.9063077870366567
 41
1.570796326794897
 42
2.264856646086774
  0
LWPOLYLINE
  5
C3
330
8D
100
AcDbEntity
  8
AM_4
100
AcDbPolyline
 90
       11
 70
     0
 43
0.0
 10
-2.836649999327498
 20
0.7725859809452943
 10
-2.835646716688784
 20
0.7884511023625607
 10
-2.830547203614806
 20
0.8111928557821327
 10
-2.821319800313571
 20
0.8327158002328813
 10
-2.808153009545071
 20
0.8524401189313028
 10
-2.791480178782845
 20
0.8698476952719474
 10
-2.771658694300661
 20
0.884493413076928
 10
-2.749332860650557
 20
0.8959843133612968
 10
-2.725098999109214
 20
0.9039823090238623
 10
-2.699670305966226
 20
0.908329740602742
 10
-2.683
 20
0.9091195285357463
  0
ELLIPSE
  5
C4
330
8D
100
AcDbEntity
  8
AM_4
100
AcDbEllipse
 10
-2.683
 20
0.7781036126038883
 30
0.0
 11
0.1536500000000003
 21
0.0
 31
0.0
210
0.0
220
0.0
230
1.0
 40
0.9063077870366502
 41
0.0
 42
1.570796326794897
  0
ELLIPSE
  5
C5
330
8D
100
AcDbEntity
  8
AM_4
100
AcDbEllipse
 10
-2.682999999999999
 20
0.557370094496721
 30
0.0
 11
0.1536499999999994
 21
0.0
 31
0.0
210
0.0
220
0.0
230
1.0
 40
0.9063077870366516
 41
0.9149893639311921
 42
1.570796326794897
  0
LINE
  5
C6
330
8D
100
AcDbEntity
  8
AM_4
100
AcDbLine
 10
-2.683
 20
-1.875
 30
0.0
 11
-2.683
 21
0.6388494211257076
 31
0.0
  0
ELLIPSE
  5
C7
330
8D
100
AcDbEntity
  8
AM_4
100
AcDbEllipse
 10
-2.683
 20
0.7781036126038893
 30
0.0
 11
0.1536500000000007
 21
0.0
 31
0.0
210
0.0
220
0.0
230
1.0
 40
0.9063077870366487
 41
4.71238898038469
 42
6.283185307179586
  0
LWPOLYLINE
  5
C8
330
8D
100
AcDbEntity
  8
AM_4
100
AcDbPolyline
 90
       11
 70
     0
 43
0.0
 10
-2.683
 20
0.6306111455793838
 10
-2.708742001669665
 20
0.6326715615160058
 10
-2.73375716217025
 20
0.6387275175994213
 10
-2.757318464068364
 20
0.6486412483761171
 10
-2.778790533406881
 20
0.6620494027104202
 10
-2.797576072959489
 20
0.678624305216736
 10
-2.813137133692954
 20
0.6977944319457977
 10
-2.82500015575863
 20
0.7190480958209339
 10
-2.832853561651678
 20
0.7417016029853343
 10
-2.836408641025081
 20
0.7650447766126816
 10
-2.836649999327498
 20
0.7725859809452943
  0
LWPOLYLINE
  5
C9
330
8D
100
AcDbEntity
  8
AM_4
100
AcDbPolyline
 90
       11
 70
     0
 43
0.0
 10
-2.683
 20
1.821656579359842
 10
-2.708378581085125
 20
1.821833352835241
 10
-2.73375716217025
 20
1.822363570376827
 10
-2.757003068523618
 20
1.823159111892298
 10
-2.778790533406881
 20
1.824173379757356
 10
-2.797340658393713
 20
1.825241485197755
 10
-2.813137133692954
 20
1.826299090152218
 10
-2.824871482833742
 20
1.827172736980947
 10
-2.832853561651678
 20
1.827809832303321
 10
-2.836403588022121
 20
1.828104306089524
 10
-2.836649999999966
 20
1.828124999999997
  0
LINE
  5
CA
330
8D
100
AcDbEntity
  8
AM_4
100
AcDbLine
 10
-2.894333333333333
 20
-1.828125
 30
0.0
 11
-2.683
 21
-1.828125
 31
0.0
  0
LINE
  5
CB
330
8D
100
AcDbEntity
  8
AM_4
100
AcDbLine
 10
-2.836152582670806
 20
1.828125
 30
0.0
 11
-2.894333333333333
 21
1.828125
 31
0.0
  0
LINE
  5
CC
330
8D
100
AcDbEntity
  8
AM_4
100
AcDbLine
 10
-3.0
 20
1.722458333333333
 30
0.0
 11
-3.0
 21
-1.722458333333333
 31
0.0
  0
ARC
  5
CD
330
8D
100
AcDbEntity
  8
AM_4
100
AcDbCircle
 10
-2.894333333333335
 20
-1.722458333333335
 30
0.0
 40
0.1056666666666648
100
AcDbArc
 50
180.0
 51
270.0
  0
ARC
  5
CE
330
8D
100
AcDbEntity
  8
AM_4
100
AcDbCircle
 10
-2.894333333333335
 20
1.722458333333335
 30
0.0
 40
0.1056666666666652
100
AcDbArc
 50
90.0
 51
180.0
  0
LINE
  5
CF
330
8D
100
AcDbEntity
  8
AM_4
100
AcDbLine
 10
-2.894333333333333
 20
1.828125
 30
0.0
 11
-2.894333333333333
 21
-1.828125
 31
0.0
  0
LINE
  5
D0
330
8D
100
AcDbEntity
  8
AM_4
100
AcDbLine
 10
-2.683
 20
1.866441760747098
 30
0.0
 11
-2.683
 21
0.9091195285357462
 31
0.0
  0
LWPOLYLINE
  5
D1
330
8D
100
AcDbEntity
  8
AM_4
100
AcDbPolyline
 90
       20
 70
     0
 43
0.0
 10
-2.683
 20
0.9509686837583332
 10
-2.659548747672894
 20
0.9497457225902538
 10
-2.636437321172983
 20
0.9461032026400715
 10
-2.605321107221946
 20
0.9369778880164144
 10
-2.576448797452761
 20
0.9233682836411279
 10
-2.551136994364871
 20
0.905800530010022
 10
-2.529702054368457
 20
0.8845362938933454
 10
-2.513524472185907
 20
0.8610305271157318
 10
-2.502236115849509
 20
0.8351969922119378
 10
-2.4965221591861
 20
0.8090871796794104
 10
-2.495865128966385
 20
0.7822885537201293
 10
-2.500158322171802
 20
0.7564098740115107
 10
-2.509076016102374
 20
0.7313679146634914
 10
-2.522454347795304
 20
0.7077554413852051
 10
-2.539762372346376
 20
0.6863127232992426
 10
-2.561337160993076
 20
0.6669855299075292
 10
-2.585939649917972
 20
0.6510432254022286
 10
-2.614219315209771
 20
0.6384454793256094
 10
-2.64429387625647
 20
0.6302703343762718
 10
-2.683
 20
0.626616061376045
  0
LINE
  5
D2
330
8D
100
AcDbEntity
  8
AM_4
100
AcDbLine
 10
-2.683
 20
-1.875
 30
0.0
 11
-2.366
 21
-1.875
 31
0.0
  0
LINE
  5
D3
330
8D
100
AcDbEntity
  8
AM_4
100
AcDbLine
 10
-2.366
 20
1.875
 30
0.0
 11
-2.4955
 21
1.875
 31
0.0
  0
LWPOLYLINE
  5
D4
330
8D
100
AcDbEntity
  8
AM_4
100
AcDbPolyline
 90
       11
 70
     0
 43
0.0
 10
-2.495500000000039
 20
1.874999999999996
 10
-2.495865128966385
 20
1.87496683824421
 10
-2.500047077974398
 20
1.874591560735137
 10
-2.509076016102374
 20
1.873809810684511
 10
-2.522236501685281
 20
1.872740227696645
 10
-2.539762372346376
 20
1.871444967628002
 10
-2.561025438991017
 20
1.870072237051632
 10
-2.585939649917972
 20
1.868742094251962
 10
-2.613822784430437
 20
1.867610918815138
 10
-2.64429387625647
 20
1.866807925783103
 10
-2.683
 20
1.866441760747098
  0
LINE
  5
D5
330
8D
100
AcDbEntity
  8
AM_4
100
AcDbLine
 10
-2.366
 20
1.875
 30
0.0
 11
-2.366
 21
-1.875
 31
0.0
  0
ENDBLK
  5
90
330
8D
100
AcDbEntity
  8
0
100
AcDbBlockEnd
  0
BLOCK
  5
D8
330
D6
100
AcDbEntity
  8
0
100
AcDbBlockBegin
  2
3_070023i_0_in_070861_2
 70
     2
 10
0.0
 20
0.0
 30
0.0
  3
3_070023i_0_in_070861_2
  1

  0
ATTDEF
  5
DA
330
D6
100
AcDbEntity
  8
AM_6
100
AcDbText
 10
4.9375
 20
1.9685
 30
0.0
 40
0.5
  1
S-2000 Insert -Inch
100
AcDbAttributeDefinition
  3

  2
NN
 70
     8
280
     0
  0
ATTDEF
  5
DB
330
D6
100
AcDbEntity
  8
AM_6
100
AcDbText
 10
4.9375
 20
1.4685
 30
0.0
 40
0.5
  1
S-2000 Bearings
100
AcDbAttributeDefinition
  3

  2
NT
 70
     8
280
     0
  0
ATTDEF
  5
DC
330
D6
100
AcDbEntity
  8
AM_6
100
AcDbText
 10
4.9375
 20
0.9684999999999999
 30
0.0
 40
0.5
  1
070023i
100
AcDbAttributeDefinition
  3

  2
NB
 70
     8
280
     0
  0
ATTDEF
  5
DD
330
D6
100
AcDbEntity
  8
AM_6
100
AcDbText
 10
4.9375
 20
0.4684999999999999
 30
0.0
 40
0.5
  1
$PN.i
100
AcDbAttributeDefinition
  3

  2
NBSYN
 70
     8
280
     0
  0
ATTDEF
  5
DE
330
D6
100
AcDbEntity
  8
AM_6
100
AcDbText
 10
4.9375
 20
-0.0315000000000001
 30
0.0
 40
0.5
  1
070023i
100
AcDbAttributeDefinition
  3

  2
LINA
 70
     8
280
     0
  0
ATTDEF
  5
DF
330
D6
100
AcDbEntity
  8
AM_6
100
AcDbText
 10
4.9375
 20
-0.5315000000000001
 30
0.0
 40
0.5
  1
2-3/16
100
AcDbAttributeDefinition
  3

  2
SS
 70
     8
280
     0
  0
ATTDEF
  5
E0
330
D6
100
AcDbEntity
  8
AM_6
100
AcDbText
 10
4.9375
 20
-1.0315
 30
0.0
 40
0.5
  1
2.62
100
AcDbAttributeDefinition
  3

  2
CC
 70
     8
280
     0
  0
ATTDEF
  5
E1
330
D6
100
AcDbEntity
  8
AM_6
100
AcDbText
 10
4.9375
 20
-1.5315
 30
0.0
 40
0.5
  1
2.187500
100
AcDbAttributeDefinition
  3

  2
SS1
 70
     8
280
     0
  0
ATTDEF
  5
E2
330
D6
100
AcDbEntity
  8
AM_6
100
AcDbText
 10
4.9375
 20
-2.0315
 30
0.0
 40
0.5
  1
070023
100
AcDbAttributeDefinition
  3

  2
PN
 70
     8
280
     0
  0
ATTDEF
  5
E3
330
D6
100
AcDbEntity
  8
AM_6
100
AcDbText
 10
4.9375
 20
-2.5315
 30
0.0
 40
0.5
  1
INS-S2-203L
100
AcDbAttributeDefinition
  3

  2
DESCRIPTION
 70
     8
280
     0
  0
ATTDEF
  5
E4
330
D6
100
AcDbEntity
  8
AM_6
100
AcDbText
 10
4.9375
 20
-3.0315
 30
0.0
 40
0.5
  1
Labyrinth Seal
100
AcDbAttributeDefinition
  3

  2
ST
 70
     8
280
     0
  0
ATTDEF
  5
E5
330
D6
100
AcDbEntity
  8
AM_6
100
AcDbText
 10
4.9375
 20
-3.5315
 30
0.0
 40
0.5
  1
2
100
AcDbAttributeDefinition
  3

  2
ST1
 70
     8
280
     0
  0
ATTDEF
  5
E6
330
D6
100
AcDbEntity
  8
AM_6
100
AcDbText
 10
4.9375
 20
-4.0315
 30
0.0
 40
0.5
  1
3.9370
100
AcDbAttributeDefinition
  3

  2
A
 70
     8
280
     0
  0
ATTDEF
  5
E7
330
D6
100
AcDbEntity
  8
AM_6
100
AcDbText
 10
4.9375
 20
-4.5315
 30
0.0
 40
0.5
  1
1-3/64
100
AcDbAttributeDefinition
  3

  2
B
 70
     8
280
     0
  0
ATTDEF
  5
E8
330
D6
100
AcDbEntity
  8
AM_6
100
AcDbText
 10
4.9375
 20
-5.0315
 30
0.0
 40
0.5
  1
2-15/16
100
AcDbAttributeDefinition
  3

  2
C
 70
     8
280
     0
  0
ATTDEF
  5
E9
330
D6
100
AcDbEntity
  8
AM_6
100
AcDbText
 10
4.9375
 20
-5.5315
 30
0.0
 40
0.5
  1
1.050
100
AcDbAttributeDefinition
  3

  2
D
 70
     8
280
     0
  0
ATTDEF
  5
EA
330
D6
100
AcDbEntity
  8
AM_6
100
AcDbText
 10
4.9375
 20
-6.0315
 30
0.0
 40
0.5
  1
3-21/32
100
AcDbAttributeDefinition
  3

  2
E
 70
     8
280
     0
  0
ATTDEF
  5
EB
330
D6
100
AcDbEntity
  8
AM_6
100
AcDbText
 10
4.9375
 20
-6.5315
 30
0.0
 40
0.5
  1
0.40625
100
AcDbAttributeDefinition
  3

  2
F
 70
     8
280
     0
  0
ATTDEF
  5
EC
330
D6
100
AcDbEntity
  8
AM_6
100
AcDbText
 10
4.9375
 20
-7.0315
 30
0.0
 40
0.5
  1
1
100
AcDbAttributeDefinition
  3

  2
DD
 70
     8
280
     0
  0
ATTDEF
  5
ED
330
D6
100
AcDbEntity
  8
AM_6
100
AcDbText
 10
4.9375
 20
-7.5315
 30
0.0
 40
0.5
  1
baldor
100
AcDbAttributeDefinition
  3

  2
COMPANY
 70
     8
280
     0
  0
LINE
  5
EE
330
D6
100
AcDbEntity
  8
AM_9
100
AcDbLine
 10
-2.888
 20
1.309893343729898
 30
0.0
 11
-2.888
 21
1.09375
 31
0.0
  0
LINE
  5
EF
330
D6
100
AcDbEntity
  8
AM_9
100
AcDbLine
 10
-2.478
 20
1.09375
 30
0.0
 11
-2.478
 21
1.309979004003506
 31
0.0
  0
LINE
  5
F0
330
D6
100
AcDbEntity
  8
AM_9
100
AcDbLine
 10
-2.888
 20
0.5536299228803162
 30
0.0
 11
-2.888
 21
0.4622182288331491
 31
0.0
  0
LINE
  5
F1
330
D6
100
AcDbEntity
  8
AM_9
100
AcDbLine
 10
-2.478
 20
0.4621839774865027
 30
0.0
 11
-2.478
 21
0.5536299228803162
 31
0.0
  0
LWPOLYLINE
  5
F2
330
D6
100
AcDbEntity
  8
AM_9
100
AcDbPolyline
 90
        4
 70
     0
 43
0.0
 10
-2.881801377757419
 20
0.5070975772719796
 10
-2.884449829596604
 20
0.4962786578354733
 10
-2.887971255466082
 20
0.4653476622504734
 10
-2.887999999263455
 20
0.4622544732447242
  0
LWPOLYLINE
  5
F3
330
D6
100
AcDbEntity
  8
AM_9
100
AcDbPolyline
 90
        5
 70
     0
 43
0.0
 10
-2.832895720308604
 20
0.5851864186428286
 10
-2.84063019505583
 20
0.577692190416864
 10
-2.86044781651697
 20
0.5531943244937183
 10
-2.875237562367084
 20
0.525789123689773
 10
-2.881801377757419
 20
0.5070975772719796
  0
LWPOLYLINE
  5
F4
330
D6
100
AcDbEntity
  8
AM_9
100
AcDbPolyline
 90
        6
 70
     0
 43
0.0
 10
-2.723771134865255
 20
0.6364553927909335
 10
-2.726156960913158
 20
0.6360425348356541
 10
-2.758592788977798
 20
0.6278534448373143
 10
-2.788935554185032
 20
0.6153121716665402
 10
-2.816635862579424
 20
0.5984150989118975
 10
-2.832895720308604
 20
0.5851864186428286
  0
LWPOLYLINE
  5
F5
330
D6
100
AcDbEntity
  8
AM_9
100
AcDbPolyline
 90
        7
 70
     0
 43
0.0
 10
-2.533356783424252
 20
0.5854165375414032
 10
-2.536081848137523
 20
0.587846423751119
 10
-2.562196050986026
 20
0.6069940469390253
 10
-2.591744082465577
 20
0.6220514658817197
 10
-2.624011661326747
 20
0.6326485166386171
 10
-2.658000272164696
 20
0.6385763295462018
 10
-2.679453922495508
 20
0.6398148087502644
  0
LWPOLYLINE
  5
F6
330
D6
100
AcDbEntity
  8
AM_9
100
AcDbPolyline
 90
        5
 70
     0
 43
0.0
 10
-2.484540371987768
 20
0.5082847803023045
 10
-2.485638227981815
 20
0.5118200844270712
 10
-2.497453382857473
 20
0.539765421327479
 10
-2.514466311747424
 20
0.5653453642049191
 10
-2.533356783424252
 20
0.5854165375414032
  0
LWPOLYLINE
  5
F7
330
D6
100
AcDbEntity
  8
AM_9
100
AcDbPolyline
 90
        3
 70
     0
 43
0.0
 10
-2.478000000598485
 20
0.4622245268108323
 10
-2.479185919992239
 20
0.4821007191227428
 10
-2.484540371987768
 20
0.5082847803023045
  0
LWPOLYLINE
  5
F8
330
D6
100
AcDbEntity
  8
AM_9
100
AcDbPolyline
 90
       11
 70
     0
 43
0.0
 10
-2.887999999263455
 20
0.4622544732447242
 10
-2.885685776092236
 20
0.4343422182949456
 10
-2.87784402015236
 20
0.4036995398140625
 10
-2.864635464307554
 20
0.3743867523214272
 10
-2.846502689581855
 20
0.3472005841005791
 10
-2.823527891358673
 20
0.3226689183680379
 10
-2.796623733254016
 20
0.3019357855998276
 10
-2.766187443334288
 20
0.2856211346975015
 10
-2.733335312723606
 20
0.2744396870130477
 10
-2.70836813203633
 20
0.2698154075035102
 10
-2.683
 20
0.2682539413190878
  0
LWPOLYLINE
  5
F9
330
D6
100
AcDbEntity
  8
AM_9
100
AcDbPolyline
 90
        8
 70
     0
 43
0.0
 10
-2.558938712713886
 20
0.6972251678807216
 10
-2.548057946768477
 20
0.6896166789525782
 10
-2.52419903062212
 20
0.6684084307928593
 10
-2.504656766026592
 20
0.6435572250935263
 10
-2.490160917379447
 20
0.6158884430004011
 10
-2.481237237715455
 20
0.5861937140470106
 10
-2.478007330194224
 20
0.5552006020308803
 10
-2.478000000267581
 20
0.5536394156829167
  0
LWPOLYLINE
  5
FA
330
D6
100
AcDbEntity
  8
AM_9
100
AcDbPolyline
 90
       10
 70
     0
 43
0.0
 10
-2.810732271223129
 20
0.6947861646093846
 10
-2.802855437236501
 20
0.6998587553742849
 10
-2.773212331163462
 20
0.7149728906240802
 10
-2.740921540617336
 20
0.7255617860156123
 10
-2.706958571218725
 20
0.7314226882240419
 10
-2.672656547522722
 20
0.7323666324403301
 10
-2.638648783836642
 20
0.7285230869284877
 10
-2.606093384884042
 20
0.7199801600845697
 10
-2.575678600926211
 20
0.7069852325773576
 10
-2.558938712713886
 20
0.6972251678807216
  0
LWPOLYLINE
  5
FB
330
D6
100
AcDbEntity
  8
AM_9
100
AcDbPolyline
 90
        7
 70
     0
 43
0.0
 10
-2.887999999289625
 20
0.553614455644713
 10
-2.886757559447961
 20
0.5739722612883434
 10
-2.880173984341719
 20
0.6038998236435441
 10
-2.868173897281876
 20
0.6320926815568071
 10
-2.8509521331698
 20
0.6578989426016884
 10
-2.82909848665385
 20
0.6806167012475527
 10
-2.810732271223129
 20
0.6947861646093846
  0
LWPOLYLINE
  5
FC
330
D6
100
AcDbEntity
  8
AM_9
100
AcDbPolyline
 90
       11
 70
     0
 43
0.0
 10
-2.478000000267581
 20
0.5536394156829167
 10
-2.4805947362227
 20
0.5241094091564467
 10
-2.488774543775759
 20
0.4934948914797351
 10
-2.502366491030943
 20
0.4642954315170981
 10
-2.520914395415116
 20
0.4373305067264196
 10
-2.544224482383055
 20
0.4132219087172119
 10
-2.571428635743626
 20
0.3929722563492812
 10
-2.602011909521857
 20
0.3772226223025424
 10
-2.634927054067792
 20
0.3665740063789005
 10
-2.658790928435694
 20
0.3624172260917353
 10
-2.683
 20
0.3610159801704899
  0
LWPOLYLINE
  5
FD
330
D6
100
AcDbEntity
  8
AM_9
100
AcDbPolyline
 90
       11
 70
     0
 43
0.0
 10
-2.683
 20
0.2682539413190878
 10
-2.648926809952118
 20
0.2710889446686107
 10
-2.615822377970733
 20
0.2793995490425911
 10
-2.584658066171018
 20
0.2929478083981996
 10
-2.556228904633594
 20
0.3111883198535711
 10
-2.531081647604525
 20
0.33384279718671
 10
-2.510181480916717
 20
0.3599480618745632
 10
-2.494069561302902
 20
0.3889543411791222
 10
-2.483329080184507
 20
0.4197344304079162
 10
-2.478396399590419
 20
0.4509779725123085
 10
-2.478000000598485
 20
0.4622245268108323
  0
LWPOLYLINE
  5
FE
330
D6
100
AcDbEntity
  8
AM_9
100
AcDbPolyline
 90
       11
 70
     0
 43
0.0
 10
-2.683
 20
1.074366819340583
 10
-2.649411188985366
 20
1.074891748375331
 10
-2.615822377970733
 20
1.076464999617501
 10
-2.585067842799307
 20
1.078821009210509
 10
-2.556228904633593
 20
1.081820212937621
 10
-2.531394193220719
 20
1.085010775591283
 10
-2.510181480916717
 20
1.088177514488394
 10
-2.494248788877667
 20
1.090821287929488
 10
-2.483329080184507
 20
1.092763715869064
 10
-2.47840599654159
 20
1.09367397735849
 10
-2.47800000000072
 20
1.093749999999865
  0
LINE
  5
FF
330
D6
100
AcDbEntity
  8
AM_9
100
AcDbLine
 10
-0.0625000000000001
 20
1.09375
 30
0.0
 11
-2.478
 21
1.09375
 31
0.0
  0
LINE
  5
100
330
D6
100
AcDbEntity
  8
AM_9
100
AcDbLine
 10
-2.888
 20
1.09375
 30
0.0
 11
-3.0
 21
1.09375
 31
0.0
  0
LINE
  5
101
330
D6
100
AcDbEntity
  8
AM_9
100
AcDbLine
 10
-3.0
 20
-1.09375
 30
0.0
 11
-0.0625000000000001
 21
-1.09375
 31
0.0
  0
LINE
  5
102
330
D6
100
AcDbEntity
  8
AM_9
100
AcDbLine
 10
-2.882609746264078
 20
1.092752539829402
 30
0.0
 11
-2.887999999999189
 21
1.093749999999848
 31
0.0
  0
LINE
  5
103
330
D6
100
AcDbEntity
  8
AM_9
100
AcDbLine
 10
-2.670366823913492
 20
1.074441091748643
 30
0.0
 11
-2.688210646843653
 21
1.074379455006717
 31
0.0
  0
LWPOLYLINE
  5
104
330
D6
100
AcDbEntity
  8
AM_9
100
AcDbPolyline
 90
       11
 70
     0
 43
0.0
 10
-2.887999999999189
 20
1.093749999999848
 10
-2.885778757985552
 20
1.093335852878777
 10
-2.87784402015236
 20
1.091892052672394
 10
-2.864870646114056
 20
1.089651776678194
 10
-2.846502689581855
 20
1.086736947011787
 10
-2.823893327383059
 20
1.083565868879723
 10
-2.796623733254016
 20
1.080358466092889
 10
-2.766662079714042
 20
1.077619323361491
 10
-2.733335312723606
 20
1.075545306440869
 10
-2.708570268450788
 20
1.074671066479714
 10
-2.683
 20
1.074366819340583
  0
LWPOLYLINE
  5
105
330
D6
100
AcDbEntity
  8
AM_9
100
AcDbPolyline
 90
       11
 70
     0
 43
0.0
 10
-2.683
 20
0.3610159801704899
 10
-2.717176491401275
 20
0.3638286216734344
 10
-2.750383885282032
 20
0.3720808611847762
 10
-2.781651355867768
 20
0.3855525929836366
 10
-2.810163968963368
 20
0.4037159041225188
 10
-2.835280176973312
 20
0.4262256408506708
 10
-2.85612829518394
 20
0.4521882775907386
 10
-2.872131762130507
 20
0.4809951964714891
 10
-2.88277206533389
 20
0.5115971180560214
 10
-2.887632720287751
 20
0.5428162977041567
 10
-2.887999999289625
 20
0.553614455644713
  0
LWPOLYLINE
  5
106
330
D6
100
AcDbEntity
  8
AM_9
100
AcDbPolyline
 90
       11
 70
     0
 43
0.0
 10
-2.683
 20
1.293860502527224
 10
-2.716691942641016
 20
1.294299094876808
 10
-2.750383885282032
 20
1.295613981089932
 10
-2.781237424949583
 20
1.297584521971777
 10
-2.810163968963368
 20
1.30009448695182
 10
-2.834967013607561
 20
1.30275437946867
 10
-2.85612829518394
 20
1.30539205091547
 10
-2.871955425548667
 20
1.307585237315058
 10
-2.88277206533389
 20
1.309192070739724
 10
-2.887624220358585
 20
1.309941247368506
 10
-2.887999999999582
 20
1.309999999999934
  0
LINE
  5
107
330
D6
100
AcDbEntity
  8
AM_9
100
AcDbLine
 10
-2.366
 20
1.31
 30
0.0
 11
-2.478135651812219
 21
1.31
 31
0.0
  0
LINE
  5
108
330
D6
100
AcDbEntity
  8
AM_9
100
AcDbLine
 10
-1.95975
 20
1.31
 30
0.0
 11
-2.046875
 21
1.31
 31
0.0
  0
LINE
  5
109
330
D6
100
AcDbEntity
  8
AM_9
100
AcDbLine
 10
-2.887316511093212
 20
1.31
 30
0.0
 11
-3.0
 21
1.31
 31
0.0
  0
LINE
  5
10A
330
D6
100
AcDbEntity
  8
AM_9
100
AcDbLine
 10
-2.046875
 20
-1.31
 30
0.0
 11
-1.95975
 21
-1.31
 31
0.0
  0
LINE
  5
10B
330
D6
100
AcDbEntity
  8
AM_9
100
AcDbLine
 10
-3.0
 20
-1.31
 30
0.0
 11
-2.366
 21
-1.31
 31
0.0
  0
LINE
  5
10C
330
D6
100
AcDbEntity
  8
AM_9
100
AcDbLine
 10
-2.489073689664347
 20
1.308312811922439
 30
0.0
 11
-2.478000000000145
 21
1.309999999999977
 31
0.0
  0
LINE
  5
10D
330
D6
100
AcDbEntity
  8
AM_9
100
AcDbLine
 10
-2.695089482086714
 20
1.293916981717573
 30
0.0
 11
-2.67686242165621
 21
1.293875059605032
 31
0.0
  0
LWPOLYLINE
  5
10E
330
D6
100
AcDbEntity
  8
AM_9
100
AcDbPolyline
 90
       11
 70
     0
 43
0.0
 10
-2.478000000000145
 20
1.309999999999977
 10
-2.480497337465819
 20
1.309611518097421
 10
-2.488774543775759
 20
1.30835718664496
 10
-2.502123465982591
 20
1.306442237742699
 10
-2.520914395415116
 20
1.303973444213358
 10
-2.543852140414748
 20
1.301321300381715
 10
-2.571428635743626
 20
1.298662068947125
 10
-2.601538939551794
 20
1.296422347990556
 10
-2.634927054067792
 20
1.294753261486759
 10
-2.658617058809412
 20
1.294090231715356
 10
-2.683
 20
1.293860502527224
  0
LINE
  5
10F
330
D6
100
AcDbEntity
  8
AM_9
100
AcDbLine
 10
-0.0625000000000001
 20
-1.31
 30
0.0
 11
-0.0625000000000001
 21
1.31
 31
0.0
  0
LINE
  5
110
330
D6
100
AcDbEntity
  8
AM_9
100
AcDbLine
 10
-0.0625000000000001
 20
1.31
 30
0.0
 11
-0.26525
 21
1.31
 31
0.0
  0
LINE
  5
111
330
D6
100
AcDbEntity
  8
AM_9
100
AcDbLine
 10
-0.26525
 20
-1.31
 30
0.0
 11
-0.0625000000000001
 21
-1.31
 31
0.0
  0
LINE
  5
112
330
D6
100
AcDbEntity
  8
AM_9
100
AcDbLine
 10
-0.3699375000000001
 20
1.5748
 30
0.0
 11
-0.5890624999999999
 21
1.5748
 31
0.0
  0
LINE
  5
113
330
D6
100
AcDbEntity
  8
AM_9
100
AcDbLine
 10
-0.5890624999999999
 20
-1.5748
 30
0.0
 11
-0.3699375000000001
 21
-1.5748
 31
0.0
  0
LINE
  5
114
330
D6
100
AcDbEntity
  8
AM_9
100
AcDbLine
 10
-0.26525
 20
-1.470112500000001
 30
0.0
 11
-0.26525
 21
1.470112500000001
 31
0.0
  0
LINE
  5
115
330
D6
100
AcDbEntity
  8
AM_9
100
AcDbLine
 10
-0.3699375000000001
 20
-1.5748
 30
0.0
 11
-0.3699375000000001
 21
1.5748
 31
0.0
  0
ARC
  5
116
330
D6
100
AcDbEntity
  8
AM_9
100
AcDbCircle
 10
-0.3699374999999999
 20
1.4701125
 30
0.0
 40
0.1046874999999999
100
AcDbArc
 50
0.0
 51
90.0
  0
ARC
  5
117
330
D6
100
AcDbEntity
  8
AM_9
100
AcDbCircle
 10
-0.3699374999999999
 20
-1.4701125
 30
0.0
 40
0.1046875
100
AcDbArc
 50
270.0
 51
0.0
  0
LINE
  5
118
330
D6
100
AcDbEntity
  8
AM_9
100
AcDbLine
 10
-1.95975
 20
-1.4701125
 30
0.0
 11
-1.95975
 21
1.4701125
 31
0.0
  0
ARC
  5
119
330
D6
100
AcDbEntity
  8
AM_9
100
AcDbCircle
 10
-1.8550625
 20
1.470112499999999
 30
0.0
 40
0.1046875000000005
100
AcDbArc
 50
90.0
 51
179.9999991462263
  0
ARC
  5
11A
330
D6
100
AcDbEntity
  8
AM_9
100
AcDbCircle
 10
-1.8550625
 20
-1.470112499999999
 30
0.0
 40
0.1046875000000003
100
AcDbArc
 50
180.0
 51
270.0
  0
LINE
  5
11B
330
D6
100
AcDbEntity
  8
AM_9
100
AcDbLine
 10
-1.8550625
 20
-1.5748
 30
0.0
 11
-1.8550625
 21
1.5748
 31
0.0
  0
LINE
  5
11C
330
D6
100
AcDbEntity
  8
AM_9
100
AcDbLine
 10
-1.6359375
 20
1.5748
 30
0.0
 11
-1.8550625
 21
1.5748
 31
0.0
  0
LINE
  5
11D
330
D6
100
AcDbEntity
  8
AM_9
100
AcDbLine
 10
-1.8550625
 20
-1.5748
 30
0.0
 11
-1.6359375
 21
-1.5748
 31
0.0
  0
LINE
  5
11E
330
D6
100
AcDbEntity
  8
AM_9
100
AcDbLine
 10
-1.060156249999997
 20
1.88976
 30
0.0
 11
-1.164843750000003
 21
1.88976
 31
0.0
  0
LINE
  5
11F
330
D6
100
AcDbEntity
  8
AM_9
100
AcDbLine
 10
-1.164843750000003
 20
-1.88976
 30
0.0
 11
-1.060156249999997
 21
-1.88976
 31
0.0
  0
LINE
  5
120
330
D6
100
AcDbEntity
  8
AM_9
100
AcDbLine
 10
-1.6359375
 20
-1.8638125
 30
0.0
 11
-1.6359375
 21
1.8638125
 31
0.0
  0
ARC
  5
121
330
D6
100
AcDbEntity
  8
AM_9
100
AcDbCircle
 10
-1.531250000000001
 20
1.8638125
 30
0.0
 40
0.1046874999999994
100
AcDbArc
 50
90.0
 51
179.9999991462263
  0
ARC
  5
122
330
D6
100
AcDbEntity
  8
AM_9
100
AcDbCircle
 10
-1.531250000000001
 20
-1.8638125
 30
0.0
 40
0.1046874999999994
100
AcDbArc
 50
179.9999991462263
 51
270.0
  0
LINE
  5
123
330
D6
100
AcDbEntity
  8
AM_9
100
AcDbLine
 10
-1.060156249999997
 20
-1.88976
 30
0.0
 11
-1.060156249999997
 21
1.88976
 31
0.0
  0
LINE
  5
124
330
D6
100
AcDbEntity
  8
AM_9
100
AcDbLine
 10
-1.060156249999997
 20
-1.88976
 30
0.0
 11
-1.014695689804006
 21
-1.9685
 31
0.0
  0
LINE
  5
125
330
D6
100
AcDbEntity
  8
AM_9
100
AcDbLine
 10
-1.014695689804006
 20
1.968499999999999
 30
0.0
 11
-1.060156249999997
 21
1.88976
 31
0.0
  0
LINE
  5
126
330
D6
100
AcDbEntity
  8
AM_9
100
AcDbLine
 10
-1.164843750000003
 20
-1.88976
 30
0.0
 11
-1.164843750000003
 21
1.88976
 31
0.0
  0
LINE
  5
127
330
D6
100
AcDbEntity
  8
AM_9
100
AcDbLine
 10
-1.164843750000003
 20
1.88976
 30
0.0
 11
-1.210304310195994
 21
1.9685
 31
0.0
  0
LINE
  5
128
330
D6
100
AcDbEntity
  8
AM_9
100
AcDbLine
 10
-1.210304310195994
 20
-1.968499999999999
 30
0.0
 11
-1.164843750000003
 21
-1.88976
 31
0.0
  0
LINE
  5
129
330
D6
100
AcDbEntity
  8
AM_9
100
AcDbLine
 10
-1.210304310195994
 20
-1.9685
 30
0.0
 11
-1.210304310195994
 21
1.9685
 31
0.0
  0
LINE
  5
12A
330
D6
100
AcDbEntity
  8
AM_9
100
AcDbLine
 10
-1.531250000000001
 20
-1.9685
 30
0.0
 11
-1.531250000000001
 21
1.9685
 31
0.0
  0
LINE
  5
12B
330
D6
100
AcDbEntity
  8
AM_9
100
AcDbLine
 10
-1.210304310195994
 20
1.9685
 30
0.0
 11
-1.531250000000001
 21
1.9685
 31
0.0
  0
LINE
  5
12C
330
D6
100
AcDbEntity
  8
AM_9
100
AcDbLine
 10
-1.531250000000001
 20
-1.9685
 30
0.0
 11
-1.210304310195994
 21
-1.9685
 31
0.0
  0
LINE
  5
12D
330
D6
100
AcDbEntity
  8
AM_9
100
AcDbLine
 10
-1.014695689804006
 20
-1.9685
 30
0.0
 11
-1.014695689804006
 21
1.9685
 31
0.0
  0
LINE
  5
12E
330
D6
100
AcDbEntity
  8
AM_9
100
AcDbLine
 10
-0.6937500000000001
 20
1.9685
 30
0.0
 11
-1.014695689804006
 21
1.9685
 31
0.0
  0
LINE
  5
12F
330
D6
100
AcDbEntity
  8
AM_9
100
AcDbLine
 10
-1.014695689804006
 20
-1.9685
 30
0.0
 11
-0.6937500000000001
 21
-1.9685
 31
0.0
  0
LINE
  5
130
330
D6
100
AcDbEntity
  8
AM_9
100
AcDbLine
 10
-0.5890625000000003
 20
-1.863812501559965
 30
0.0
 11
-0.5890625000000003
 21
1.863812501559965
 31
0.0
  0
LINE
  5
131
330
D6
100
AcDbEntity
  8
AM_9
100
AcDbLine
 10
-0.6937500000000001
 20
-1.9685
 30
0.0
 11
-0.6937500000000001
 21
1.9685
 31
0.0
  0
ARC
  5
132
330
D6
100
AcDbEntity
  8
AM_9
100
AcDbCircle
 10
-0.6937499999999992
 20
1.863812500000001
 30
0.0
 40
0.1046874999999989
100
AcDbArc
 50
0.0
 51
90.0
  0
ARC
  5
133
330
D6
100
AcDbEntity
  8
AM_9
100
AcDbCircle
 10
-0.6937499999999992
 20
-1.863812500000001
 30
0.0
 40
0.1046874999999987
100
AcDbArc
 50
270.0
 51
0.0
  0
LWPOLYLINE
  5
134
330
D6
100
AcDbEntity
  8
AM_4
100
AcDbPolyline
 90
        3
 70
     0
 43
0.0
 10
-2.682140337814586
 20
0.639838645742329
 10
-2.692210247936746
 20
0.6396532354069758
 10
-2.723771134865255
 20
0.6364553927909335
  0
LINE
  5
135
330
D6
100
AcDbEntity
  8
AM_4
100
AcDbLine
 10
-2.679453922495508
 20
0.6398148087502644
 30
0.0
 11
-2.682140337814586
 21
0.639838645742329
 31
0.0
  0
LINE
  5
136
330
D6
100
AcDbEntity
  8
AM_4
100
AcDbLine
 10
-2.046875
 20
1.31
 30
0.0
 11
-2.366
 21
1.31
 31
0.0
  0
LINE
  5
137
330
D6
100
AcDbEntity
  8
AM_4
100
AcDbLine
 10
-2.366
 20
-1.31
 30
0.0
 11
-2.046875
 21
-1.31
 31
0.0
  0
ENDBLK
  5
D9
330
D6
100
AcDbEntity
  8
0
100
AcDbBlockEnd
  0
BLOCK
  5
13A
330
138
100
AcDbEntity
  8
0
100
AcDbBlockBegin
  2
4_405015E_Inch_0_in_070861_2
 70
     2
 10
0.0
 20
0.0
 30
0.0
  3
4_405015E_Inch_0_in_070861_2
  1

  0
ATTDEF
  5
13C
330
138
100
AcDbEntity
  8
AM_6
100
AcDbText
 10
3.947903242770462
 20
2.9828125
 30
0.0
 40
0.5
  1
405015E -Inch
100
AcDbAttributeDefinition
  3

  2
NN
 70
     8
280
     0
  0
ATTDEF
  5
13D
330
138
100
AcDbEntity
  8
AM_6
100
AcDbText
 10
3.947903242770462
 20
2.4828125
 30
0.0
 40
0.5
  1
Grease Fitting
100
AcDbAttributeDefinition
  3

  2
NT
 70
     8
280
     0
  0
ATTDEF
  5
13E
330
138
100
AcDbEntity
  8
AM_6
100
AcDbText
 10
3.947903242770462
 20
1.9828125
 30
0.0
 40
0.5
  1
405015E-Inch
100
AcDbAttributeDefinition
  3

  2
NB
 70
     8
280
     0
  0
ATTDEF
  5
13F
330
138
100
AcDbEntity
  8
AM_6
100
AcDbText
 10
3.947903242770462
 20
1.4828125
 30
0.0
 40
0.5
  1
$MN.-Inch
100
AcDbAttributeDefinition
  3

  2
NBSYN
 70
     8
280
     0
  0
ATTDEF
  5
140
330
138
100
AcDbEntity
  8
AM_6
100
AcDbText
 10
3.947903242770462
 20
0.9828125000000001
 30
0.0
 40
0.5
  1
405015E
100
AcDbAttributeDefinition
  3

  2
LINA
 70
     8
280
     0
  0
ATTDEF
  5
141
330
138
100
AcDbEntity
  8
AM_6
100
AcDbText
 10
3.947903242770462
 20
0.4828125000000001
 30
0.0
 40
0.5
  1
405015E
100
AcDbAttributeDefinition
  3

  2
MN
 70
     8
280
     0
  0
ATTDEF
  5
142
330
138
100
AcDbEntity
  8
AM_6
100
AcDbText
 10
3.947903242770462
 20
-0.0171874999999999
 30
0.0
 40
0.5
  1
1/8 x 27PTF
100
AcDbAttributeDefinition
  3

  2
T
 70
     8
280
     0
  0
ATTDEF
  5
143
330
138
100
AcDbEntity
  8
AM_6
100
AcDbText
 10
3.947903242770462
 20
-0.5171874999999999
 30
0.0
 40
0.5
  1
baldor
100
AcDbAttributeDefinition
  3

  2
COMPANY
 70
     8
280
     0
  0
LINE
  5
144
330
138
100
AcDbEntity
  8
AM_9
100
AcDbLine
 10
-1.466590372472269
 20
2.3428125
 30
0.0
 11
-1.142784627527731
 21
2.3428125
 31
0.0
  0
LINE
  5
145
330
138
100
AcDbEntity
  8
AM_9
100
AcDbLine
 10
-1.142784627527731
 20
2.3428125
 30
0.0
 11
-1.106069873218785
 21
2.379527254308946
 31
0.0
  0
LINE
  5
146
330
138
100
AcDbEntity
  8
AM_9
100
AcDbLine
 10
-1.503305126781215
 20
2.379527254308946
 30
0.0
 11
-1.466590372472269
 21
2.3428125
 31
0.0
  0
LINE
  5
147
330
138
100
AcDbEntity
  8
AM_9
100
AcDbLine
 10
-1.503305126781215
 20
2.379527254308946
 30
0.0
 11
-1.106069873218785
 21
2.379527254308946
 31
0.0
  0
LINE
  5
148
330
138
100
AcDbEntity
  8
AM_9
100
AcDbLine
 10
-1.106069873218785
 20
2.379527254308946
 30
0.0
 11
-1.09893560277693
 21
2.6078125
 31
0.0
  0
LINE
  5
149
330
138
100
AcDbEntity
  8
AM_9
100
AcDbLine
 10
-1.51043939722307
 20
2.6078125
 30
0.0
 11
-1.503305126781215
 21
2.379527254308946
 31
0.0
  0
LINE
  5
14A
330
138
100
AcDbEntity
  8
AM_5
100
AcDbLine
 10
-1.136538375147652
 20
2.542682587748463
 30
0.0
 11
-1.142784627527731
 21
2.3428125
 31
0.0
  0
LINE
  5
14B
330
138
100
AcDbEntity
  8
AM_5
100
AcDbLine
 10
-1.09893560277693
 20
2.6078125
 30
0.0
 11
-1.136538375147652
 21
2.542682587748463
 31
0.0
  0
LINE
  5
14C
330
138
100
AcDbEntity
  8
AM_5
100
AcDbLine
 10
-1.508403985751557
 20
2.542682587748463
 30
0.0
 11
-1.100971014248443
 21
2.542682587748463
 31
0.0
  0
LINE
  5
14D
330
138
100
AcDbEntity
  8
AM_5
100
AcDbLine
 10
-1.472836624852348
 20
2.542682587748463
 30
0.0
 11
-1.466590372472269
 21
2.3428125
 31
0.0
  0
LINE
  5
14E
330
138
100
AcDbEntity
  8
AM_5
100
AcDbLine
 10
-1.51043939722307
 20
2.6078125
 30
0.0
 11
-1.472836624852348
 21
2.542682587748463
 31
0.0
  0
LINE
  5
14F
330
138
100
AcDbEntity
  8
AM_4
100
AcDbLine
 10
-1.1996875
 20
2.8128125
 30
0.0
 11
-1.1996875
 21
2.8428125
 31
0.0
  0
LINE
  5
150
330
138
100
AcDbEntity
  8
AM_4
100
AcDbLine
 10
-1.4096875
 20
2.8428125
 30
0.0
 11
-1.4096875
 21
2.8128125
 31
0.0
  0
LINE
  5
151
330
138
100
AcDbEntity
  8
AM_4
100
AcDbLine
 10
-1.5234375
 20
2.7078125
 30
0.0
 11
-1.0859375
 21
2.7078125
 31
0.0
  0
LINE
  5
152
330
138
100
AcDbEntity
  8
AM_4
100
AcDbLine
 10
-1.052096757229539
 20
2.698744900303386
 30
0.0
 11
-1.0859375
 21
2.7078125
 31
0.0
  0
LINE
  5
153
330
138
100
AcDbEntity
  8
AM_4
100
AcDbLine
 10
-1.5234375
 20
2.7078125
 30
0.0
 11
-1.557278242770461
 21
2.698744900303386
 31
0.0
  0
LINE
  5
154
330
138
100
AcDbEntity
  8
AM_4
100
AcDbLine
 10
-1.0859375
 20
2.6078125
 30
0.0
 11
-1.052096757229539
 21
2.616880099696615
 31
0.0
  0
LINE
  5
155
330
138
100
AcDbEntity
  8
AM_4
100
AcDbLine
 10
-1.557278242770461
 20
2.616880099696615
 30
0.0
 11
-1.5234375
 21
2.6078125
 31
0.0
  0
LINE
  5
156
330
138
100
AcDbEntity
  8
AM_4
100
AcDbLine
 10
-1.4096875
 20
2.8128125
 30
0.0
 11
-1.1996875
 21
2.8128125
 31
0.0
  0
LINE
  5
157
330
138
100
AcDbEntity
  8
AM_4
100
AcDbLine
 10
-1.4096875
 20
2.8128125
 30
0.0
 11
-1.423507590734897
 21
2.780565621618573
 31
0.0
  0
LINE
  5
158
330
138
100
AcDbEntity
  8
AM_4
100
AcDbLine
 10
-1.185867409265102
 20
2.780565621618573
 30
0.0
 11
-1.1996875
 21
2.8128125
 31
0.0
  0
LINE
  5
159
330
138
100
AcDbEntity
  8
AM_4
100
AcDbLine
 10
-1.4096875
 20
2.8428125
 30
0.0
 11
-1.1996875
 21
2.8428125
 31
0.0
  0
LINE
  5
15A
330
138
100
AcDbEntity
  8
AM_4
100
AcDbLine
 10
-1.1996875
 20
2.8428125
 30
0.0
 11
-1.1696875
 21
2.9028125
 31
0.0
  0
LINE
  5
15B
330
138
100
AcDbEntity
  8
AM_4
100
AcDbLine
 10
-1.4396875
 20
2.9028125
 30
0.0
 11
-1.4096875
 21
2.8428125
 31
0.0
  0
LINE
  5
15C
330
138
100
AcDbEntity
  8
AM_4
100
AcDbLine
 10
-1.407365401933187
 20
2.9828125
 30
0.0
 11
-1.202009598066812
 21
2.9828125
 31
0.0
  0
LINE
  5
15D
330
138
100
AcDbEntity
  8
AM_4
100
AcDbLine
 10
-1.4396875
 20
2.9028125
 30
0.0
 11
-1.1696875
 21
2.9028125
 31
0.0
  0
LINE
  5
15E
330
138
100
AcDbEntity
  8
AM_4
100
AcDbLine
 10
-1.407365401933187
 20
2.9828125
 30
0.0
 11
-1.4396875
 21
2.9028125
 31
0.0
  0
LINE
  5
15F
330
138
100
AcDbEntity
  8
AM_4
100
AcDbLine
 10
-1.1696875
 20
2.9028125
 30
0.0
 11
-1.202009598066812
 21
2.9828125
 31
0.0
  0
LINE
  5
160
330
138
100
AcDbEntity
  8
AM_4
100
AcDbLine
 10
-1.423507590734897
 20
2.780565621618573
 30
0.0
 11
-1.185867409265102
 21
2.780565621618573
 31
0.0
  0
LINE
  5
161
330
138
100
AcDbEntity
  8
AM_4
100
AcDbLine
 10
-1.423507590734897
 20
2.780565621618573
 30
0.0
 11
-1.477221553283015
 21
2.726130698540882
 31
0.0
  0
LINE
  5
162
330
138
100
AcDbEntity
  8
AM_4
100
AcDbLine
 10
-1.132153446716984
 20
2.726130698540882
 30
0.0
 11
-1.185867409265102
 21
2.780565621618573
 31
0.0
  0
LINE
  5
163
330
138
100
AcDbEntity
  8
AM_4
100
AcDbLine
 10
-1.477221553283015
 20
2.726130698540882
 30
0.0
 11
-1.132153446716984
 21
2.726130698540882
 31
0.0
  0
LINE
  5
164
330
138
100
AcDbEntity
  8
AM_4
100
AcDbLine
 10
-1.477221553283015
 20
2.726130698540882
 30
0.0
 11
-1.5184375
 21
2.7078125
 31
0.0
  0
LINE
  5
165
330
138
100
AcDbEntity
  8
AM_4
100
AcDbLine
 10
-1.0909375
 20
2.7078125
 30
0.0
 11
-1.132153446716984
 21
2.726130698540882
 31
0.0
  0
LINE
  5
166
330
138
100
AcDbEntity
  8
AM_4
100
AcDbLine
 10
-1.430982871385231
 20
2.698744900303386
 30
0.0
 11
-1.430982871385231
 21
2.616880099696615
 31
0.0
  0
LWPOLYLINE
  5
167
330
138
100
AcDbEntity
  8
AM_4
100
AcDbPolyline
 90
        4
 70
     0
 43
0.0
 10
-1.557278242770461
 20
2.698744900303386
 10
-1.525830416771337
 20
2.705400354654039
 10
-1.510010575602153
 20
2.707197938185772
 10
-1.494130557077846
 20
2.7078125
  0
LINE
  5
168
330
138
100
AcDbEntity
  8
AM_4
100
AcDbLine
 10
-1.557278242770461
 20
2.698744900303386
 30
0.0
 11
-1.557278242770461
 21
2.616880099696615
 31
0.0
  0
LWPOLYLINE
  5
169
330
138
100
AcDbEntity
  8
AM_4
100
AcDbPolyline
 90
        4
 70
     0
 43
0.0
 10
-1.494130557077846
 20
2.6078125
 10
-1.509917478501
 20
2.608419914003999
 10
-1.525723403109899
 20
2.610208706041016
 10
-1.557278242770461
 20
2.616880099696615
  0
LWPOLYLINE
  5
16A
330
138
100
AcDbEntity
  8
AM_4
100
AcDbPolyline
 90
        5
 70
     0
 43
0.0
 10
-1.3046875
 20
2.6078125
 10
-1.336261342846308
 20
2.608419914003999
 10
-1.367835185692615
 20
2.610205880785035
 10
-1.399443784056983
 20
2.613075316495164
 10
-1.430982871385231
 20
2.616880099696615
  0
LWPOLYLINE
  5
16B
330
138
100
AcDbEntity
  8
AM_4
100
AcDbPolyline
 90
        4
 70
     0
 43
0.0
 10
-1.430982871385231
 20
2.616880099696615
 10
-1.462430697384355
 20
2.610224645345961
 10
-1.478250538553539
 20
2.608427061814227
 10
-1.494130557077846
 20
2.6078125
  0
LINE
  5
16C
330
138
100
AcDbEntity
  8
AM_4
100
AcDbLine
 10
-1.052096757229539
 20
2.698744900303386
 30
0.0
 11
-1.052096757229539
 21
2.616880099696615
 31
0.0
  0
LWPOLYLINE
  5
16D
330
138
100
AcDbEntity
  8
AM_4
100
AcDbPolyline
 90
        4
 70
     0
 43
0.0
 10
-1.115244442922154
 20
2.7078125
 10
-1.099457521499
 20
2.707205085996001
 10
-1.083651596890101
 20
2.705416293958984
 10
-1.052096757229539
 20
2.698744900303386
  0
LINE
  5
16E
330
138
100
AcDbEntity
  8
AM_4
100
AcDbLine
 10
-1.178392128614769
 20
2.698744900303386
 30
0.0
 11
-1.178392128614769
 21
2.616880099696615
 31
0.0
  0
LWPOLYLINE
  5
16F
330
138
100
AcDbEntity
  8
AM_4
100
AcDbPolyline
 90
        4
 70
     0
 43
0.0
 10
-1.052096757229539
 20
2.616880099696615
 10
-1.075655587283173
 20
2.611533912808832
 10
-1.099364424397847
 20
2.608427061814227
 10
-1.115244442922154
 20
2.6078125
  0
LWPOLYLINE
  5
170
330
138
100
AcDbEntity
  8
AM_4
100
AcDbPolyline
 90
        4
 70
     0
 43
0.0
 10
-1.3046875
 20
2.7078125
 10
-1.256287683944101
 20
2.706394939282863
 10
-1.207887867888202
 20
2.702330087482156
 10
-1.178392128614769
 20
2.698744900303386
  0
LWPOLYLINE
  5
171
330
138
100
AcDbEntity
  8
AM_4
100
AcDbPolyline
 90
        4
 70
     0
 43
0.0
 10
-1.178392128614769
 20
2.698744900303386
 10
-1.146944302615645
 20
2.705400354654039
 10
-1.131124461446461
 20
2.707197938185772
 10
-1.115244442922154
 20
2.7078125
  0
LWPOLYLINE
  5
172
330
138
100
AcDbEntity
  8
AM_4
100
AcDbPolyline
 90
        4
 70
     0
 43
0.0
 10
-1.494130557077846
 20
2.7078125
 10
-1.478343635654692
 20
2.707205085996001
 10
-1.462537711045793
 20
2.705416293958984
 10
-1.430982871385231
 20
2.698744900303386
  0
LWPOLYLINE
  5
173
330
138
100
AcDbEntity
  8
AM_4
100
AcDbPolyline
 90
        5
 70
     0
 43
0.0
 10
-1.430982871385231
 20
2.698744900303386
 10
-1.399612654415046
 20
2.702531684458392
 10
-1.368119114691437
 20
2.70539797505038
 10
-1.336447537048614
 20
2.707197938185772
 10
-1.3046875
 20
2.7078125
  0
LWPOLYLINE
  5
174
330
138
100
AcDbEntity
  8
AM_4
100
AcDbPolyline
 90
        4
 70
     0
 43
0.0
 10
-1.115244442922154
 20
2.6078125
 10
-1.131031364345308
 20
2.608419914003999
 10
-1.146818285768462
 20
2.610205880785035
 10
-1.178392128614769
 20
2.616880099696615
  0
LWPOLYLINE
  5
175
330
138
100
AcDbEntity
  8
AM_4
100
AcDbPolyline
 90
        4
 70
     0
 43
0.0
 10
-1.178392128614769
 20
2.616880099696615
 10
-1.207887867888202
 20
2.613294912517844
 10
-1.256145058752246
 20
2.609238328243072
 10
-1.3046875
 20
2.6078125
  0
ENDBLK
  5
13B
330
138
100
AcDbEntity
  8
0
100
AcDbBlockEnd
  0
BLOCK
  5
178
330
176
100
AcDbEntity
  8
0
100
AcDbBlockBegin
  2
5_070861H_0_in_070861_2
 70
     2
 10
0.0
 20
0.0
 30
0.0
  3
5_070861H_0_in_070861_2
  1

  0
ATTDEF
  5
17A
330
176
100
AcDbEntity
  8
AM_6
100
AcDbText
 10
5.102343749999999
 20
3.0148125
 30
0.0
 40
0.5
  1
F4S-S2 -(Labyrinth Seal)-Housing
100
AcDbAttributeDefinition
  3

  2
NN
 70
     8
280
     0
  0
ATTDEF
  5
17B
330
176
100
AcDbEntity
  8
AM_6
100
AcDbText
 10
5.102343749999999
 20
2.5148125
 30
0.0
 40
0.5
  1
S-2000 4 Bolt Square Flange Bearing -Inch
100
AcDbAttributeDefinition
  3

  2
NT
 70
     8
280
     0
  0
ATTDEF
  5
17C
330
176
100
AcDbEntity
  8
AM_6
100
AcDbText
 10
5.102343749999999
 20
2.0148125
 30
0.0
 40
0.5
  1
070861H
100
AcDbAttributeDefinition
  3

  2
NB
 70
     8
280
     0
  0
ATTDEF
  5
17D
330
176
100
AcDbEntity
  8
AM_6
100
AcDbText
 10
5.102343749999999
 20
1.5148125
 30
0.0
 40
0.5
  1
$PN.H
100
AcDbAttributeDefinition
  3

  2
NBSYN
 70
     8
280
     0
  0
ATTDEF
  5
17E
330
176
100
AcDbEntity
  8
AM_6
100
AcDbText
 10
5.102343749999999
 20
1.0148125
 30
0.0
 40
0.5
  1
070861
100
AcDbAttributeDefinition
  3

  2
LINA
 70
     8
280
     0
  0
ATTDEF
  5
17F
330
176
100
AcDbEntity
  8
AM_6
100
AcDbText
 10
5.102343749999999
 20
0.5148124999999997
 30
0.0
 40
0.5
  1
2-3/16
100
AcDbAttributeDefinition
  3

  2
SS
 70
     8
280
     0
  0
ATTDEF
  5
180
330
176
100
AcDbEntity
  8
AM_6
100
AcDbText
 10
5.102343749999999
 20
0.0148124999999997
 30
0.0
 40
0.5
  1
070861
100
AcDbAttributeDefinition
  3

  2
PN
 70
     8
280
     0
  0
ATTDEF
  5
181
330
176
100
AcDbEntity
  8
AM_6
100
AcDbText
 10
5.102343749999999
 20
-0.4851875000000003
 30
0.0
 40
0.5
  1
F4S-S2-203LE
100
AcDbAttributeDefinition
  3

  2
DESCRIPTION
 70
     8
280
     0
  0
ATTDEF
  5
182
330
176
100
AcDbEntity
  8
AM_6
100
AcDbText
 10
5.102343749999999
 20
-0.9851875000000003
 30
0.0
 40
0.5
  1
Expansion Type
100
AcDbAttributeDefinition
  3

  2
EF
 70
     8
280
     0
  0
ATTDEF
  5
183
330
176
100
AcDbEntity
  8
AM_6
100
AcDbText
 10
5.102343749999999
 20
-1.4851875
 30
0.0
 40
0.5
  1
2-15/16
100
AcDbAttributeDefinition
  3

  2
A
 70
     8
280
     0
  0
ATTDEF
  5
184
330
176
100
AcDbEntity
  8
AM_6
100
AcDbText
 10
5.102343749999999
 20
-1.9851875
 30
0.0
 40
0.5
  1
5-7/8
100
AcDbAttributeDefinition
  3

  2
B
 70
     8
280
     0
  0
ATTDEF
  5
185
330
176
100
AcDbEntity
  8
AM_6
100
AcDbText
 10
5.102343749999999
 20
-2.4851875
 30
0.0
 40
0.5
  1
3-1/4
100
AcDbAttributeDefinition
  3

  2
C
 70
     8
280
     0
  0
ATTDEF
  5
186
330
176
100
AcDbEntity
  8
AM_6
100
AcDbText
 10
5.102343749999999
 20
-2.9851875
 30
0.0
 40
0.5
  1
5/8
100
AcDbAttributeDefinition
  3

  2
F
 70
     8
280
     0
  0
ATTDEF
  5
187
330
176
100
AcDbEntity
  8
AM_6
100
AcDbText
 10
5.102343749999999
 20
-3.4851875
 30
0.0
 40
0.5
  1
1-13/64
100
AcDbAttributeDefinition
  3

  2
G
 70
     8
280
     0
  0
ATTDEF
  5
188
330
176
100
AcDbEntity
  8
AM_6
100
AcDbText
 10
5.102343749999999
 20
-3.9851875
 30
0.0
 40
0.5
  1
9/16
100
AcDbAttributeDefinition
  3

  2
H
 70
     8
280
     0
  0
ATTDEF
  5
189
330
176
100
AcDbEntity
  8
AM_6
100
AcDbText
 10
5.102343749999999
 20
-4.4851875
 30
0.0
 40
0.5
  1
5-1/64
100
AcDbAttributeDefinition
  3

  2
J
 70
     8
280
     0
  0
ATTDEF
  5
18A
330
176
100
AcDbEntity
  8
AM_6
100
AcDbText
 10
5.102343749999999
 20
-4.9851875
 30
0.0
 40
0.5
  1
6-3/8
100
AcDbAttributeDefinition
  3

  2
K
 70
     8
280
     0
  0
ATTDEF
  5
18B
330
176
100
AcDbEntity
  8
AM_6
100
AcDbText
 10
5.102343749999999
 20
-5.4851875
 30
0.0
 40
0.5
  1
6.3750000
100
AcDbAttributeDefinition
  3

  2
K1
 70
     8
280
     0
  0
ATTDEF
  5
18C
330
176
100
AcDbEntity
  8
AM_6
100
AcDbText
 10
5.102343749999999
 20
-5.9851875
 30
0.0
 40
0.5
  1
3-3/4
100
AcDbAttributeDefinition
  3

  2
L
 70
     8
280
     0
  0
ATTDEF
  5
18D
330
176
100
AcDbEntity
  8
AM_6
100
AcDbText
 10
5.102343749999999
 20
-6.4851875
 30
0.0
 40
0.5
  1
3-3/32
100
AcDbAttributeDefinition
  3

  2
N
 70
     8
280
     0
  0
ATTDEF
  5
18E
330
176
100
AcDbEntity
  8
AM_6
100
AcDbText
 10
5.102343749999999
 20
-6.9851875
 30
0.0
 40
0.5
  1
3.093750
100
AcDbAttributeDefinition
  3

  2
N1
 70
     8
280
     0
  0
ATTDEF
  5
18F
330
176
100
AcDbEntity
  8
AM_6
100
AcDbText
 10
5.102343749999999
 20
-7.4851875
 30
0.0
 40
0.5
  1
5/16
100
AcDbAttributeDefinition
  3

  2
P
 70
     8
280
     0
  0
ATTDEF
  5
190
330
176
100
AcDbEntity
  8
AM_6
100
AcDbText
 10
5.102343749999999
 20
-7.9851875
 30
0.0
 40
0.5
  1
1/4
100
AcDbAttributeDefinition
  3

  2
X
 70
     8
280
     0
  0
ATTDEF
  5
191
330
176
100
AcDbEntity
  8
AM_6
100
AcDbText
 10
5.102343749999999
 20
-8.4851875
 30
0.0
 40
0.5
  1
0.025
100
AcDbAttributeDefinition
  3

  2
Y
 70
     8
280
     0
  0
ATTDEF
  5
192
330
176
100
AcDbEntity
  8
AM_6
100
AcDbText
 10
5.102343749999999
 20
-8.9851875
 30
0.0
 40
0.5
  1
2-19/32
100
AcDbAttributeDefinition
  3

  2
Z
 70
     8
280
     0
  0
ATTDEF
  5
193
330
176
100
AcDbEntity
  8
AM_6
100
AcDbText
 10
5.102343749999999
 20
-9.4851875
 30
0.0
 40
0.5
  1
baldor
100
AcDbAttributeDefinition
  3

  2
COMPANY
 70
     8
280
     0
  0
LINE
  5
194
330
176
100
AcDbEntity
  8
AM_9
100
AcDbLine
 10
-0.5249999999999999
 20
-2.383482541006236
 30
0.0
 11
-0.5624999999999999
 21
-2.383482541006236
 31
0.0
  0
LINE
  5
195
330
176
100
AcDbEntity
  8
AM_9
100
AcDbLine
 10
-0.5249999999999999
 20
-2.349988891952346
 30
0.0
 11
-0.5624999999999999
 21
-2.349988891952346
 31
0.0
  0
LINE
  5
196
330
176
100
AcDbEntity
  8
AM_9
100
AcDbLine
 10
-0.5249999999999999
 20
2.383482541006236
 30
0.0
 11
-0.5624999999999999
 21
2.383482541006236
 31
0.0
  0
LINE
  5
197
330
176
100
AcDbEntity
  8
AM_9
100
AcDbLine
 10
-0.5624999999999999
 20
2.349988891952345
 30
0.0
 11
-0.5249999999999999
 21
2.349988891952345
 31
0.0
  0
LINE
  5
198
330
176
100
AcDbEntity
  8
AM_9
100
AcDbLine
 10
-0.5249999999999999
 20
-2.364295847922671
 30
0.0
 11
-0.5624999999999999
 21
-2.364295847922671
 31
0.0
  0
LINE
  5
199
330
176
100
AcDbEntity
  8
AM_9
100
AcDbLine
 10
-0.5625000000000001
 20
-2.5078125
 30
0.0
 11
-0.525
 21
-2.5078125
 31
0.0
  0
LINE
  5
19A
330
176
100
AcDbEntity
  8
AM_9
100
AcDbLine
 10
-0.5249999999999999
 20
2.364295847922671
 30
0.0
 11
-0.5624999999999999
 21
2.364295847922671
 31
0.0
  0
LINE
  5
19B
330
176
100
AcDbEntity
  8
AM_9
100
AcDbLine
 10
-0.525
 20
2.5078125
 30
0.0
 11
-0.5625000000000007
 21
2.5078125
 31
0.0
  0
LINE
  5
19C
330
176
100
AcDbEntity
  8
AM_9
100
AcDbLine
 10
-0.5249999999999999
 20
-2.877419491194459
 30
0.0
 11
-0.5624999999999999
 21
-2.877419491194459
 31
0.0
  0
LINE
  5
19D
330
176
100
AcDbEntity
  8
AM_9
100
AcDbLine
 10
-0.5249999999999999
 20
2.877419491194458
 30
0.0
 11
-0.5624999999999999
 21
2.877419491194458
 31
0.0
  0
LINE
  5
19E
330
176
100
AcDbEntity
  8
AM_9
100
AcDbLine
 10
-2.046875
 20
-1.9685
 30
0.0
 11
-0.0803571428571425
 21
-1.9685
 31
0.0
  0
LINE
  5
19F
330
176
100
AcDbEntity
  8
AM_9
100
AcDbLine
 10
-0.0803571428571425
 20
1.9685
 30
0.0
 11
-2.046875
 21
1.9685
 31
0.0
  0
LINE
  5
1A0
330
176
100
AcDbEntity
  8
AM_9
100
AcDbLine
 10
-0.5249999999999999
 20
-2.349988891952346
 30
0.0
 11
-0.5249999999999999
 21
-2.9375
 31
0.0
  0
LINE
  5
1A1
330
176
100
AcDbEntity
  8
AM_9
100
AcDbLine
 10
-0.5249999999999999
 20
2.9375
 30
0.0
 11
-0.5249999999999999
 21
2.349988891952345
 31
0.0
  0
LINE
  5
1A2
330
176
100
AcDbEntity
  8
AM_9
100
AcDbLine
 10
-0.0241071428571432
 20
-2.23815625
 30
0.0
 11
0.0
 21
-2.23815625
 31
0.0
  0
LINE
  5
1A3
330
176
100
AcDbEntity
  8
AM_9
100
AcDbLine
 10
0.0
 20
2.23815625
 30
0.0
 11
-0.0241071428571432
 21
2.23815625
 31
0.0
  0
LINE
  5
1A4
330
176
100
AcDbEntity
  8
AM_9
100
AcDbLine
 10
-0.0803571428571429
 20
2.18190625
 30
0.0
 11
-0.0803571428571429
 21
-2.18190625
 31
0.0
  0
ARC
  5
1A5
330
176
100
AcDbEntity
  8
AM_9
100
AcDbCircle
 10
-0.0241071428571426
 20
-2.181906249999999
 30
0.0
 40
0.0562500000000003
100
AcDbArc
 50
180.0
 51
270.0
  0
ARC
  5
1A6
330
176
100
AcDbEntity
  8
AM_9
100
AcDbCircle
 10
-0.0241071428571426
 20
2.181906249999999
 30
0.0
 40
0.0562500000000004
100
AcDbArc
 50
90.0
 51
179.9999991462263
  0
LINE
  5
1A7
330
176
100
AcDbEntity
  8
AM_9
100
AcDbLine
 10
-0.0241071428571432
 20
2.23815625
 30
0.0
 11
-0.0241071428571432
 21
-2.23815625
 31
0.0
  0
LINE
  5
1A8
330
176
100
AcDbEntity
  8
AM_9
100
AcDbLine
 10
-0.5624999999999999
 20
-2.5703125
 30
0.0
 11
0.0000000000000001
 21
-2.5703125
 31
0.0
  0
LINE
  5
1A9
330
176
100
AcDbEntity
  8
AM_9
100
AcDbLine
 10
0.0000000000000001
 20
-1.9453125
 30
0.0
 11
-0.5624999999999999
 21
-1.9453125
 31
0.0
  0
LINE
  5
1AA
330
176
100
AcDbEntity
  8
AM_9
100
AcDbLine
 10
-0.5624999999999999
 20
1.9453125
 30
0.0
 11
0.0000000000000001
 21
1.9453125
 31
0.0
  0
LINE
  5
1AB
330
176
100
AcDbEntity
  8
AM_9
100
AcDbLine
 10
0.0000000000000001
 20
2.5703125
 30
0.0
 11
-0.5624999999999999
 21
2.5703125
 31
0.0
  0
LINE
  5
1AC
330
176
100
AcDbEntity
  8
AM_7
100
AcDbLine
 10
0.0281249999999999
 20
2.2578125
 30
0.0
 11
-0.5906250000000001
 21
2.2578125
 31
0.0
  0
LINE
  5
1AD
330
176
100
AcDbEntity
  8
AM_7
100
AcDbLine
 10
0.0281249999999999
 20
-2.2578125
 30
0.0
 11
-0.5906250000000001
 21
-2.2578125
 31
0.0
  0
LINE
  5
1AE
330
176
100
AcDbEntity
  8
AM_7
100
AcDbLine
 10
-3.146875000000001
 20
0.0
 30
0.0
 11
0.1023437499999994
 21
0.0
 31
0.0
  0
LINE
  5
1AF
330
176
100
AcDbEntity
  8
AM_7
100
AcDbLine
 10
-1.3046875
 20
3.0148125
 30
0.0
 11
-1.3046875
 21
2.041534375
 31
0.0
  0
LINE
  5
1B0
330
176
100
AcDbEntity
  8
AM_4
100
AcDbLine
 10
-1.704687500000001
 20
2.6078125
 30
0.0
 11
-0.9046875001557744
 21
2.6078125
 31
0.0
  0
ARC
  5
1B1
330
176
100
AcDbEntity
  8
AM_4
100
AcDbCircle
 10
-0.9046874999999986
 20
2.507812500000001
 30
0.0
 40
0.0999999999999989
100
AcDbArc
 50
0.0
 51
90.0
  0
ARC
  5
1B2
330
176
100
AcDbEntity
  8
AM_4
100
AcDbCircle
 10
-1.704687500000002
 20
2.507812500000001
 30
0.0
 40
0.0999999999999988
100
AcDbArc
 50
90.0
 51
180.0
  0
LINE
  5
1B3
330
176
100
AcDbEntity
  8
AM_4
100
AcDbLine
 10
-1.8046875
 20
2.5078125
 30
0.0
 11
-0.8046875000000009
 21
2.5078125
 31
0.0
  0
LINE
  5
1B4
330
176
100
AcDbEntity
  8
AM_4
100
AcDbLine
 10
-2.046875
 20
-2.5078125
 30
0.0
 11
-0.5625000000000001
 21
-2.5078125
 31
0.0
  0
LWPOLYLINE
  5
1B5
330
176
100
AcDbEntity
  8
AM_4
100
AcDbPolyline
 90
       38
 70
     0
 43
0.0
 10
-1.8046875
 20
2.5078125
 10
-1.80299560936858
 20
2.507475191232706
 10
-1.797945298904491
 20
2.506476968044262
 10
-1.789267223511601
 20
2.504783133666736
 10
-1.777141756749172
 20
2.502466095649782
 10
-1.762142582780532
 20
2.499677434225512
 10
-1.744088771643483
 20
2.49643686334707
 10
-1.722459966952792
 20
2.492720796406805
 10
-1.697890961628935
 20
2.488721056565646
 10
-1.671001961851204
 20
2.484614804240492
 10
-1.641611886076399
 20
2.480451889694539
 10
-1.608969571451137
 20
2.476229735276936
 10
-1.574111577946115
 20
2.472187870881452
 10
-1.538009110923923
 20
2.468515021122118
 10
-1.50025124505191
 20
2.465231979659313
 10
-1.459903114229939
 20
2.462360933984194
 10
-1.418369981257554
 20
2.460090901105308
 10
-1.377744308640281
 20
2.458549728438271
 10
-1.336600736442755
 20
2.457670032737613
 10
-1.293988880544692
 20
2.457487534097416
 10
-1.25145773001983
 20
2.458039247768105
 10
-1.21113342140865
 20
2.459244057838197
 10
-1.171452009430745
 20
2.461071967883808
 10
-1.131588585744409
 20
2.463552674987839
 10
-1.092968753577126
 20
2.466566107515289
 10
-1.056626737719905
 20
2.469951617434105
 10
-1.021968373370282
 20
2.473672096240429
 10
-0.9883336962489893
 20
2.477742004632801
 10
-0.9569399962149788
 20
2.481945176982152
 10
-0.9282903016415646
 20
2.486121289027586
 10
-0.9022343513455865
 20
2.490199203280352
 10
-0.8783267744471782
 20
2.494174475213363
 10
-0.8575275116617702
 20
2.497814162488253
 10
-0.8404366848405793
 20
2.500929952545605
 10
-0.8265623633657533
 20
2.503542925822876
 10
-0.8157573135195143
 20
2.505628345729461
 10
-0.8085649630773195
 20
2.507042302554715
 10
-0.8046874999999998
 20
2.5078125
  0
LINE
  5
1B6
330
176
100
AcDbEntity
  8
AM_4
100
AcDbLine
 10
-0.5625000000000007
 20
2.5078125
 30
0.0
 11
-0.8046875
 21
2.5078125
 31
0.0
  0
LINE
  5
1B7
330
176
100
AcDbEntity
  8
AM_4
100
AcDbLine
 10
-1.8046875
 20
2.5078125
 30
0.0
 11
-2.046875
 21
2.5078125
 31
0.0
  0
LINE
  5
1B8
330
176
100
AcDbEntity
  8
AM_4
100
AcDbLine
 10
-2.046875
 20
-2.117892992979543
 30
0.0
 11
-0.5625
 21
-2.117892992979543
 31
0.0
  0
LINE
  5
1B9
330
176
100
AcDbEntity
  8
AM_4
100
AcDbLine
 10
-2.046875
 20
2.117892992979542
 30
0.0
 11
-0.5625
 21
2.117892992979542
 31
0.0
  0
LINE
  5
1BA
330
176
100
AcDbEntity
  8
AM_4
100
AcDbLine
 10
-2.046875
 20
-1.986806524886585
 30
0.0
 11
-0.5625
 21
-1.986806524886585
 31
0.0
  0
LINE
  5
1BB
330
176
100
AcDbEntity
  8
AM_4
100
AcDbLine
 10
-2.046875
 20
1.98680651076983
 30
0.0
 11
-0.5625
 21
1.98680651076983
 31
0.0
  0
LINE
  5
1BC
330
176
100
AcDbEntity
  8
AM_4
100
AcDbLine
 10
-2.046875
 20
-1.445959500583009
 30
0.0
 11
-0.5624999999999999
 21
-1.445959500583009
 31
0.0
  0
LINE
  5
1BD
330
176
100
AcDbEntity
  8
AM_4
100
AcDbLine
 10
-2.046875
 20
-2.5078125
 30
0.0
 11
-2.046875
 21
2.5078125
 31
0.0
  0
LINE
  5
1BE
330
176
100
AcDbEntity
  8
AM_4
100
AcDbLine
 10
-2.046875
 20
1.445959492656393
 30
0.0
 11
-0.5624999999999999
 21
1.445959492656393
 31
0.0
  0
LINE
  5
1BF
330
176
100
AcDbEntity
  8
AM_4
100
AcDbLine
 10
-2.046875
 20
1.343001416769323
 30
0.0
 11
-0.5624999999999999
 21
1.343001416769323
 31
0.0
  0
LINE
  5
1C0
330
176
100
AcDbEntity
  8
AM_4
100
AcDbLine
 10
-2.046875
 20
-1.343001429353623
 30
0.0
 11
-0.5624999999999999
 21
-1.343001429353623
 31
0.0
  0
LINE
  5
1C1
330
176
100
AcDbEntity
  8
AM_4
100
AcDbLine
 10
-0.5249999999999999
 20
-0.8361989468134174
 30
0.0
 11
-0.5624999999999999
 21
-0.8361989468134174
 31
0.0
  0
LINE
  5
1C2
330
176
100
AcDbEntity
  8
AM_4
100
AcDbLine
 10
-0.5249999999999999
 20
0.8361989468134176
 30
0.0
 11
-0.5624999999999999
 21
0.8361989468134176
 31
0.0
  0
LINE
  5
1C3
330
176
100
AcDbEntity
  8
AM_4
100
AcDbLine
 10
-0.5249999999999999
 20
-1.044558343380487
 30
0.0
 11
-0.5624999999999999
 21
-1.044558343380487
 31
0.0
  0
LINE
  5
1C4
330
176
100
AcDbEntity
  8
AM_4
100
AcDbLine
 10
-0.5249999999999999
 20
1.044558343380487
 30
0.0
 11
-0.5624999999999999
 21
1.044558343380487
 31
0.0
  0
LINE
  5
1C5
330
176
100
AcDbEntity
  8
AM_4
100
AcDbLine
 10
-0.5249999999999998
 20
-1.900082236842106
 30
0.0
 11
-0.5624999999999998
 21
-1.900082236842106
 31
0.0
  0
LINE
  5
1C6
330
176
100
AcDbEntity
  8
AM_4
100
AcDbLine
 10
-0.5249999999999998
 20
-2.034410022261247
 30
0.0
 11
-0.5249999999999998
 21
2.034410022261242
 31
0.0
  0
LINE
  5
1C7
330
176
100
AcDbEntity
  8
AM_4
100
AcDbLine
 10
-0.5624999999999998
 20
-2.034410022261247
 30
0.0
 11
-0.5249999999999998
 21
-2.034410022261247
 31
0.0
  0
LINE
  5
1C8
330
176
100
AcDbEntity
  8
AM_4
100
AcDbLine
 10
-0.5249999999999998
 20
2.034410022261242
 30
0.0
 11
-0.5624999999999998
 21
2.034410022261242
 31
0.0
  0
LINE
  5
1C9
330
176
100
AcDbEntity
  8
AM_4
100
AcDbLine
 10
-0.5249999999999998
 20
1.900082236842105
 30
0.0
 11
-0.5624999999999998
 21
1.900082236842105
 31
0.0
  0
LINE
  5
1CA
330
176
100
AcDbEntity
  8
AM_4
100
AcDbLine
 10
0.0000000000000001
 20
-2.9375
 30
0.0
 11
0.0000000000000001
 21
2.9375
 31
0.0
  0
LINE
  5
1CB
330
176
100
AcDbEntity
  8
AM_4
100
AcDbLine
 10
-0.5624999999999999
 20
2.9375
 30
0.0
 11
0.0000000000000001
 21
2.9375
 31
0.0
  0
LINE
  5
1CC
330
176
100
AcDbEntity
  8
AM_4
100
AcDbLine
 10
-0.5624999999999999
 20
0.8361989468134176
 30
0.0
 11
-0.5624999999999999
 21
2.9375
 31
0.0
  0
LINE
  5
1CD
330
176
100
AcDbEntity
  8
AM_4
100
AcDbLine
 10
-0.5624999999999998
 20
2.2578125
 30
0.0
 11
0.0000000000000002
 21
2.2578125
 31
0.0
  0
LINE
  5
1CE
330
176
100
AcDbEntity
  8
AM_4
100
AcDbLine
 10
-0.5624999999999998
 20
-2.2578125
 30
0.0
 11
0.0000000000000002
 21
-2.2578125
 31
0.0
  0
LINE
  5
1CF
330
176
100
AcDbEntity
  8
AM_4
100
AcDbLine
 10
-0.5624999999999999
 20
-2.9375
 30
0.0
 11
-0.5624999999999999
 21
-0.8361989468134174
 31
0.0
  0
LINE
  5
1D0
330
176
100
AcDbEntity
  8
AM_4
100
AcDbLine
 10
-0.5624999999999999
 20
-2.9375
 30
0.0
 11
0.0000000000000001
 21
-2.9375
 31
0.0
  0
ENDBLK
  5
179
330
176
100
AcDbEntity
  8
0
100
AcDbBlockEnd
  0
ENDSEC
  0
SECTION
  2
ENTITIES
  0
INSERT
  5
6F
330
1F
100
AcDbEntity
  8
0
100
AcDbBlockReference
  2
1_070861_2
 10
0.0
 20
0.0
 30
0.0
  0
POINT
  5
1D2
330
1F
100
AcDbEntity
  8
ConnectionPoints
100
AcDbPoint
 10
-3.0
 20
0.0
 30
0.0000000000000002
  0
POINT
  5
1D3
330
1F
100
AcDbEntity
  8
ConnectionPoints
100
AcDbPoint
 10
0.7749999999999999
 20
0.0
 30
0.0
  0
POINT
  5
1D4
330
1F
100
AcDbEntity
  8
ConnectionPoints
100
AcDbPoint
 10
-3.0
 20
0.0
 30
0.0000000000000002
  0
POINT
  5
1D5
330
1F
100
AcDbEntity
  8
ConnectionPoints
100
AcDbPoint
 10
-1.3046875
 20
2.6078125
 30
0.0000000000000001
  0
POINT
  5
1D6
330
1F
100
AcDbEntity
  8
ConnectionPoints
100
AcDbPoint
 10
-1.3046875
 20
2.6078125
 30
0.0000000000000001
  0
POINT
  5
1D7
330
1F
100
AcDbEntity
  8
ConnectionPoints
100
AcDbPoint
 10
-3.0
 20
0.0
 30
0.0000000000000002
  0
POINT
  5
1D8
330
1F
100
AcDbEntity
  8
ConnectionPoints
100
AcDbPoint
 10
-3.25
 20
0.0
 30
0.0000000000000002
  0
ENDSEC
  0
SECTION
  2
OBJECTS
  0
DICTIONARY
  5
C
330
0
100
AcDbDictionary
281
     1
  3
ACAD_DETAILVIEWSTYLE
350
1E0
  3
ACAD_GROUP
350
D
  3
ACAD_LAYOUT
350
1A
  3
ACAD_MATERIAL
350
43
  3
ACAD_MLEADERSTYLE
350
6B
  3
ACAD_MLINESTYLE
350
17
  3
ACAD_PLOTSETTINGS
350
19
  3
ACAD_PLOTSTYLENAME
350
E
  3
ACAD_SCALELIST
350
47
  3
ACAD_SECTIONVIEWSTYLE
350
1E1
  3
ACAD_TABLESTYLE
350
69
  3
ACAD_VISUALSTYLE
350
2A
  3
ACDB_RECOMPOSE_DATA
350
1DD
  3
AcDbVariableDictionary
350
1D9
  0
SUN
  5
6D
330
29
100
AcDbSun
 90
        1
290
     0
 63
     7
421
 16777215
 40
1.0
291
     1
 91
  2455826
 92
 54000000
292
     0
 70
     2
 71
   256
280
     1
  0
DICTIONARY
  5
1E0
102
{ACAD_REACTORS
330
C
102
}
330
C
100
AcDbDictionary
281
     1
  0
DICTIONARY
  5
D
102
{ACAD_REACTORS
330
C
102
}
330
C
100
AcDbDictionary
281
     1
  0
DICTIONARY
  5
1A
102
{ACAD_REACTORS
330
C
102
}
330
C
100
AcDbDictionary
281
     1
  3
Layout1
350
1E
  3
Layout2
350
26
  3
Model
350
22
  0
DICTIONARY
  5
43
102
{ACAD_REACTORS
330
C
102
}
330
C
100
AcDbDictionary
281
     1
  3
ByBlock
350
45
  3
ByLayer
350
44
  3
Global
350
46
  0
DICTIONARY
  5
6B
102
{ACAD_REACTORS
330
C
102
}
330
C
100
AcDbDictionary
281
     1
  3
Standard
350
6C
  0
DICTIONARY
  5
17
102
{ACAD_REACTORS
330
C
102
}
330
C
100
AcDbDictionary
281
     1
  3
Standard
350
18
  0
DICTIONARY
  5
19
102
{ACAD_REACTORS
330
C
102
}
330
C
100
AcDbDictionary
281
     1
  0
ACDBDICTIONARYWDFLT
  5
E
102
{ACAD_REACTORS
330
C
102
}
330
C
100
AcDbDictionary
281
     1
  3
Normal
350
F
100
AcDbDictionaryWithDefault
340
F
  0
DICTIONARY
  5
47
102
{ACAD_REACTORS
330
C
102
}
330
C
100
AcDbDictionary
281
     1
  3
A0
350
48
  3
A1
350
49
  3
A2
350
4A
  3
A3
350
4B
  3
A4
350
4C
  3
A5
350
4D
  3
A6
350
4E
  3
A7
350
4F
  3
A8
350
50
  3
A9
350
51
  3
B0
350
52
  3
B1
350
53
  3
B2
350
54
  3
B3
350
55
  3
B4
350
56
  3
B5
350
57
  3
B6
350
58
  3
B7
350
59
  3
B8
350
5A
  3
B9
350
5B
  3
C0
350
5C
  3
C1
350
5D
  3
C2
350
5E
  3
C3
350
5F
  3
C4
350
60
  3
C5
350
61
  3
C6
350
62
  3
C7
350
63
  3
C8
350
64
  3
C9
350
65
  3
D0
350
66
  3
D1
350
67
  3
D2
350
68
  0
DICTIONARY
  5
1E1
102
{ACAD_REACTORS
330
C
102
}
330
C
100
AcDbDictionary
281
     1
  0
DICTIONARY
  5
69
102
{ACAD_REACTORS
330
C
102
}
330
C
100
AcDbDictionary
281
     1
  3
Standard
350
6A
  0
DICTIONARY
  5
2A
102
{ACAD_REACTORS
330
C
102
}
330
C
100
AcDbDictionary
281
     1
  3
2dWireframe
350
2F
  3
Basic
350
32
  3
Brighten
350
36
  3
ColorChange
350
3A
  3
Conceptual
350
34
  3
Dim
350
35
  3
EdgeColorOff
350
3D
  3
Facepattern
350
39
  3
Flat
350
2B
  3
FlatWithEdges
350
2C
  3
Gouraud
350
2D
  3
GouraudWithEdges
350
2E
  3
Hidden
350
31
  3
JitterOff
350
3B
  3
Linepattern
350
38
  3
OverhangOff
350
3C
  3
Realistic
350
33
  3
Shaded
350
42
  3
Shaded with edges
350
41
  3
Shades of Gray
350
3E
  3
Sketchy
350
3F
  3
Thicken
350
37
  3
Wireframe
350
30
  3
X-Ray
350
40
  0
XRECORD
  5
1DD
102
{ACAD_REACTORS
330
C
102
}
330
C
100
AcDbXrecord
280
     1
 90
        1
330
6A
  0
DICTIONARY
  5
1D9
102
{ACAD_REACTORS
330
C
102
}
330
C
100
AcDbDictionary
281
     1
  3
CANNOSCALE
350
1DA
  3
CMLEADERSTYLE
350
1DF
  3
CTABLESTYLE
350
1DE
  0
LAYOUT
  5
1E
102
{ACAD_REACTORS
330
1A
102
}
330
1A
100
AcDbPlotSettings
  1

  2
none_device
  4

  6

 40
0.0
 41
0.0
 42
0.0
 43
0.0
 44
0.0
 45
0.0
 46
0.0
 47
0.0
 48
0.0
 49
0.0
140
0.0
141
0.0
142
1.0
143
1.0
 70
   688
 72
     0
 73
     0
 74
     5
  7

 75
    16
 76
     0
 77
     2
 78
   300
147
1.0
148
0.0
149
0.0
100
AcDbLayout
  1
Layout1
 70
     1
 71
     1
 10
0.0
 20
0.0
 11
12.0
 21
9.0
 12
0.0
 22
0.0
 32
0.0
 14
1.000000000000000E+20
 24
1.000000000000000E+20
 34
1.000000000000000E+20
 15
-1.000000000000000E+20
 25
-1.000000000000000E+20
 35
-1.000000000000000E+20
146
0.0
 13
0.0
 23
0.0
 33
0.0
 16
1.0
 26
0.0
 36
0.0
 17
0.0
 27
1.0
 37
0.0
 76
     0
330
1B
  0
LAYOUT
  5
26
102
{ACAD_REACTORS
330
1A
102
}
330
1A
100
AcDbPlotSettings
  1

  2
none_device
  4

  6

 40
0.0
 41
0.0
 42
0.0
 43
0.0
 44
0.0
 45
0.0
 46
0.0
 47
0.0
 48
0.0
 49
0.0
140
0.0
141
0.0
142
1.0
143
1.0
 70
   688
 72
     0
 73
     0
 74
     5
  7

 75
    16
 76
     0
 77
     2
 78
   300
147
1.0
148
0.0
149
0.0
100
AcDbLayout
  1
Layout2
 70
     1
 71
     2
 10
0.0
 20
0.0
 11
0.0
 21
0.0
 12
0.0
 22
0.0
 32
0.0
 14
0.0
 24
0.0
 34
0.0
 15
0.0
 25
0.0
 35
0.0
146
0.0
 13
0.0
 23
0.0
 33
0.0
 16
1.0
 26
0.0
 36
0.0
 17
0.0
 27
1.0
 37
0.0
 76
     0
330
23
  0
LAYOUT
  5
22
102
{ACAD_REACTORS
330
1A
102
}
330
1A
100
AcDbPlotSettings
  1

  2
none_device
  4
Letter_(8.50_x_11.00_Inches)
  6

 40
6.35
 41
6.35
 42
6.35000508
 43
6.35000508
 44
215.9
 45
279.4
 46
0.0
 47
0.0
 48
0.0
 49
0.0
140
0.0
141
0.0
142
1.0
143
1.0
 70
  1712
 72
     0
 73
     0
 74
     0
  7

 75
     0
 76
     0
 77
     2
 78
   300
147
1.0
148
0.0
149
0.0
100
AcDbLayout
  1
Model
 70
     1
 71
     0
 10
0.0
 20
0.0
 11
12.0
 21
9.0
 12
0.0
 22
0.0
 32
0.0
 14
1.000000000000000E+20
 24
1.000000000000000E+20
 34
1.000000000000000E+20
 15
-1.000000000000000E+20
 25
-1.000000000000000E+20
 35
-1.000000000000000E+20
146
0.0
 13
0.0
 23
0.0
 33
0.0
 16
1.0
 26
0.0
 36
0.0
 17
0.0
 27
1.0
 37
0.0
 76
     0
330
1F
331
29
  0
MATERIAL
  5
45
102
{ACAD_REACTORS
330
43
102
}
330
43
100
AcDbMaterial
  1
ByBlock
 72
     1
 94
      127
  0
MATERIAL
  5
44
102
{ACAD_REACTORS
330
43
102
}
330
43
100
AcDbMaterial
  1
ByLayer
 72
     1
 94
      127
  0
MATERIAL
  5
46
102
{ACAD_REACTORS
330
43
102
}
330
43
100
AcDbMaterial
  1
Global
 72
     1
 94
      127
  0
MLEADERSTYLE
  5
6C
102
{ACAD_REACTORS
330
6B
102
}
330
6B
100
AcDbMLeaderStyle
179
     2
170
     2
171
     1
172
     0
 90
        2
 40
0.0
 41
0.0
173
     1
 91
-1056964608
340
14
 92
       -2
290
     1
 42
0.09
291
     1
 43
0.36
  3
Standard
341
0
 44
0.18
300

342
11
174
     1
178
     6
175
     1
176
     0
 93
-1056964608
 45
0.18
292
     0
297
     0
 46
0.18
343
0
 94
-1056964608
 47
1.0
 49
1.0
140
1.0
293
     1
141
0.0
294
     1
177
     0
142
1.0
295
     0
296
     0
143
0.125
271
     0
272
     9
273
     9
298
     0
  0
MLINESTYLE
  5
18
102
{ACAD_REACTORS
330
17
102
}
330
17
100
AcDbMlineStyle
  2
Standard
 70
     0
  3

 62
   256
 51
90.0
 52
90.0
 71
     2
 49
0.5
 62
   256
  6
BYLAYER
 49
-0.5
 62
   256
  6
BYLAYER
  0
ACDBPLACEHOLDER
  5
F
102
{ACAD_REACTORS
330
E
102
}
330
E
  0
SCALE
  5
48
102
{ACAD_REACTORS
330
47
102
}
330
47
100
AcDbScale
 70
     0
300
1:1
140
1.0
141
1.0
290
     1
  0
SCALE
  5
49
102
{ACAD_REACTORS
330
47
102
}
330
47
100
AcDbScale
 70
     0
300
1:2
140
1.0
141
2.0
290
     0
  0
SCALE
  5
4A
102
{ACAD_REACTORS
330
47
102
}
330
47
100
AcDbScale
 70
     0
300
1:4
140
1.0
141
4.0
290
     0
  0
SCALE
  5
4B
102
{ACAD_REACTORS
330
47
102
}
330
47
100
AcDbScale
 70
     0
300
1:5
140
1.0
141
5.0
290
     0
  0
SCALE
  5
4C
102
{ACAD_REACTORS
330
47
102
}
330
47
100
AcDbScale
 70
     0
300
1:8
140
1.0
141
8.0
290
     0
  0
SCALE
  5
4D
102
{ACAD_REACTORS
330
47
102
}
330
47
100
AcDbScale
 70
     0
300
1:10
140
1.0
141
10.0
290
     0
  0
SCALE
  5
4E
102
{ACAD_REACTORS
330
47
102
}
330
47
100
AcDbScale
 70
     0
300
1:16
140
1.0
141
16.0
290
     0
  0
SCALE
  5
4F
102
{ACAD_REACTORS
330
47
102
}
330
47
100
AcDbScale
 70
     0
300
1:20
140
1.0
141
20.0
290
     0
  0
SCALE
  5
50
102
{ACAD_REACTORS
330
47
102
}
330
47
100
AcDbScale
 70
     0
300
1:30
140
1.0
141
30.0
290
     0
  0
SCALE
  5
51
102
{ACAD_REACTORS
330
47
102
}
330
47
100
AcDbScale
 70
     0
300
1:40
140
1.0
141
40.0
290
     0
  0
SCALE
  5
52
102
{ACAD_REACTORS
330
47
102
}
330
47
100
AcDbScale
 70
     0
300
1:50
140
1.0
141
50.0
290
     0
  0
SCALE
  5
53
102
{ACAD_REACTORS
330
47
102
}
330
47
100
AcDbScale
 70
     0
300
1:100
140
1.0
141
100.0
290
     0
  0
SCALE
  5
54
102
{ACAD_REACTORS
330
47
102
}
330
47
100
AcDbScale
 70
     0
300
2:1
140
2.0
141
1.0
290
     0
  0
SCALE
  5
55
102
{ACAD_REACTORS
330
47
102
}
330
47
100
AcDbScale
 70
     0
300
4:1
140
4.0
141
1.0
290
     0
  0
SCALE
  5
56
102
{ACAD_REACTORS
330
47
102
}
330
47
100
AcDbScale
 70
     0
300
8:1
140
8.0
141
1.0
290
     0
  0
SCALE
  5
57
102
{ACAD_REACTORS
330
47
102
}
330
47
100
AcDbScale
 70
     0
300
10:1
140
10.0
141
1.0
290
     0
  0
SCALE
  5
58
102
{ACAD_REACTORS
330
47
102
}
330
47
100
AcDbScale
 70
     0
300
100:1
140
100.0
141
1.0
290
     0
  0
SCALE
  5
59
102
{ACAD_REACTORS
330
47
102
}
330
47
100
AcDbScale
 70
     0
300
1/128" = 1'-0"
140
0.0078125
141
12.0
290
     0
  0
SCALE
  5
5A
102
{ACAD_REACTORS
330
47
102
}
330
47
100
AcDbScale
 70
     0
300
1/64" = 1'-0"
140
0.015625
141
12.0
290
     0
  0
SCALE
  5
5B
102
{ACAD_REACTORS
330
47
102
}
330
47
100
AcDbScale
 70
     0
300
1/32" = 1'-0"
140
0.03125
141
12.0
290
     0
  0
SCALE
  5
5C
102
{ACAD_REACTORS
330
47
102
}
330
47
100
AcDbScale
 70
     0
300
1/16" = 1'-0"
140
0.0625
141
12.0
290
     0
  0
SCALE
  5
5D
102
{ACAD_REACTORS
330
47
102
}
330
47
100
AcDbScale
 70
     0
300
3/32" = 1'-0"
140
0.09375
141
12.0
290
     0
  0
SCALE
  5
5E
102
{ACAD_REACTORS
330
47
102
}
330
47
100
AcDbScale
 70
     0
300
1/8" = 1'-0"
140
0.125
141
12.0
290
     0
  0
SCALE
  5
5F
102
{ACAD_REACTORS
330
47
102
}
330
47
100
AcDbScale
 70
     0
300
3/16" = 1'-0"
140
0.1875
141
12.0
290
     0
  0
SCALE
  5
60
102
{ACAD_REACTORS
330
47
102
}
330
47
100
AcDbScale
 70
     0
300
1/4" = 1'-0"
140
0.25
141
12.0
290
     0
  0
SCALE
  5
61
102
{ACAD_REACTORS
330
47
102
}
330
47
100
AcDbScale
 70
     0
300
3/8" = 1'-0"
140
0.375
141
12.0
290
     0
  0
SCALE
  5
62
102
{ACAD_REACTORS
330
47
102
}
330
47
100
AcDbScale
 70
     0
300
1/2" = 1'-0"
140
0.5
141
12.0
290
     0
  0
SCALE
  5
63
102
{ACAD_REACTORS
330
47
102
}
330
47
100
AcDbScale
 70
     0
300
3/4" = 1'-0"
140
0.75
141
12.0
290
     0
  0
SCALE
  5
64
102
{ACAD_REACTORS
330
47
102
}
330
47
100
AcDbScale
 70
     0
300
1" = 1'-0"
140
1.0
141
12.0
290
     0
  0
SCALE
  5
65
102
{ACAD_REACTORS
330
47
102
}
330
47
100
AcDbScale
 70
     0
300
1-1/2" = 1'-0"
140
1.5
141
12.0
290
     0
  0
SCALE
  5
66
102
{ACAD_REACTORS
330
47
102
}
330
47
100
AcDbScale
 70
     0
300
3" = 1'-0"
140
3.0
141
12.0
290
     0
  0
SCALE
  5
67
102
{ACAD_REACTORS
330
47
102
}
330
47
100
AcDbScale
 70
     0
300
6" = 1'-0"
140
6.0
141
12.0
290
     0
  0
SCALE
  5
68
102
{ACAD_REACTORS
330
47
102
}
330
47
100
AcDbScale
 70
     0
300
1'-0" = 1'-0"
140
12.0
141
12.0
290
     0
  0
TABLESTYLE
  5
6A
102
{ACAD_REACTORS
330
69
102
}
102
{ACAD_XDICTIONARY
360
1DB
102
}
330
69
100
AcDbTableStyle
  3
Standard
 70
     0
 71
     0
 40
0.06
 41
0.06
280
     0
281
     0
  7
Standard
140
0.18
170
     2
 62
     0
 63
   257
283
     0
 90
        4
 91
        0
  1

274
    -2
284
     1
 64
     0
275
    -2
285
     1
 65
     0
276
    -2
286
     1
 66
     0
277
    -2
287
     1
 67
     0
278
    -2
288
     1
 68
     0
279
    -2
289
     1
 69
     0
  7
Standard
140
0.25
170
     5
 62
     0
 63
   257
283
     0
 90
        4
 91
        0
  1

274
    -2
284
     1
 64
     0
275
    -2
285
     1
 65
     0
276
    -2
286
     1
 66
     0
277
    -2
287
     1
 67
     0
278
    -2
288
     1
 68
     0
279
    -2
289
     1
 69
     0
  7
Standard
140
0.18
170
     5
 62
     0
 63
   257
283
     0
 90
        4
 91
        0
  1

274
    -2
284
     1
 64
     0
275
    -2
285
     1
 65
     0
276
    -2
286
     1
 66
     0
277
    -2
287
     1
 67
     0
278
    -2
288
     1
 68
     0
279
    -2
289
     1
 69
     0
  0
VISUALSTYLE
  5
2F
102
{ACAD_REACTORS
330
2A
102
}
330
2A
100
AcDbVisualStyle
  2
2dWireframe
 70
     4
177
     3
291
     0
 70
    58
 90
        0
176
     1
 90
        2
176
     1
 90
        0
176
     1
 90
        0
176
     1
 40
0.6
176
     1
 40
30.0
176
     1
 62
     7
420
 16777215
176
     1
 90
        1
176
     1
 90
        4
176
     1
 62
     7
176
     1
 62
   257
176
     1
 90
        1
176
     1
 90
        1
176
     1
 40
1.0
176
     1
 90
        0
176
     1
 62
   257
176
     1
 40
1.0
176
     1
 90
        1
176
     1
 90
        6
176
     1
 90
        2
176
     1
 62
     7
176
     1
 90
        5
176
     1
 90
        0
176
     1
 90
        0
176
     1
290
     0
176
     1
 90
        1
176
     1
 40
0.0
176
     1
 90
        0
176
     1
290
     1
176
     1
290
     1
176
     1
290
     0
176
     1
290
     0
176
     1
290
     0
176
     1
290
     0
176
     1
290
     0
176
     1
290
     0
176
     1
290
     0
176
     1
 90
       50
176
     1
 40
0.0
176
     1
 40
1.0
176
     1
 90
        0
176
     1
 62
    18
420
        0
176
     1
 90
       50
176
     1
 90
        3
176
     1
 62
     5
420
      255
176
     1
290
     0
176
     1
 90
       50
176
     1
 90
       50
176
     1
 90
       50
176
     1
290
     0
176
     1
 90
       50
176
     1
 62
   256
176
     0
 40
1.0
176
     0
 90
        2
176
     1
  1
strokes_ogs.tif
176
     1
290
     0
176
     1
 40
1.0
176
     1
 40
1.0
176
     1
  0
VISUALSTYLE
  5
32
102
{ACAD_REACTORS
330
2A
102
}
330
2A
100
AcDbVisualStyle
  2
Basic
 70
     7
177
     3
291
     1
 70
    58
 90
        1
176
     1
 90
        0
176
     1
 90
        1
176
     1
 90
        0
176
     1
 40
0.6
176
     1
 40
30.0
176
     1
 62
     7
420
 16777215
176
     1
 90
        0
176
     1
 90
        4
176
     1
 62
     7
176
     1
 62
   257
176
     1
 90
        1
176
     1
 90
        1
176
     1
 40
1.0
176
     1
 90
        8
176
     1
 62
     7
176
     1
 40
1.0
176
     1
 90
        1
176
     1
 90
        6
176
     1
 90
        2
176
     1
 62
     7
176
     1
 90
        5
176
     1
 90
        0
176
     1
 90
        0
176
     1
290
     0
176
     1
 90
        1
176
     1
 40
0.0
176
     1
 90
        0
176
     1
290
     0
176
     1
290
     1
176
     1
290
     1
176
     1
290
     0
176
     1
290
     0
176
     1
290
     0
176
     1
290
     0
176
     1
290
     0
176
     1
290
     0
176
     1
 90
       50
176
     1
 40
0.0
176
     1
 40
1.0
176
     1
 90
        0
176
     1
 62
    18
420
        0
176
     1
 90
       50
176
     1
 90
        3
176
     1
 62
     5
420
      255
176
     1
290
     0
176
     1
 90
       50
176
     1
 90
       50
176
     1
 90
       50
176
     1
290
     0
176
     1
 90
       50
176
     1
 62
   256
176
     0
 40
1.0
176
     0
 90
        2
176
     1
  1
strokes_ogs.tif
176
     1
290
     0
176
     1
 40
1.0
176
     1
 40
1.0
176
     1
  0
VISUALSTYLE
  5
36
102
{ACAD_REACTORS
330
2A
102
}
330
2A
100
AcDbVisualStyle
  2
Brighten
 70
    12
177
     3
291
     1
 70
    58
 90
        2
176
     1
 90
        2
176
     1
 90
        0
176
     1
 90
        0
176
     1
 40
0.6
176
     1
 40
30.0
176
     1
 62
     7
420
 16777215
176
     1
 90
        1
176
     1
 90
        4
176
     1
 62
     7
176
     1
 62
   257
176
     1
 90
        1
176
     1
 90
        1
176
     1
 40
1.0
176
     1
 90
        8
176
     1
 62
     7
176
     1
 40
1.0
176
     1
 90
        1
176
     1
 90
        6
176
     1
 90
        2
176
     1
 62
     7
176
     1
 90
        5
176
     1
 90
        0
176
     1
 90
        0
176
     1
290
     0
176
     1
 90
        1
176
     1
 40
50.0
176
     1
 90
        0
176
     1
290
     0
176
     1
290
     1
176
     1
290
     1
176
     1
290
     0
176
     1
290
     0
176
     1
290
     0
176
     1
290
     0
176
     1
290
     0
176
     1
290
     0
176
     1
 90
       50
176
     1
 40
0.0
176
     1
 40
1.0
176
     1
 90
        0
176
     1
 62
    18
420
        0
176
     1
 90
       50
176
     1
 90
        3
176
     1
 62
     5
420
      255
176
     1
290
     0
176
     1
 90
       50
176
     1
 90
       50
176
     1
 90
       50
176
     1
290
     0
176
     1
 90
       50
176
     1
 62
   256
176
     0
 40
1.0
176
     0
 90
        2
176
     1
  1
strokes_ogs.tif
176
     1
290
     0
176
     1
 40
1.0
176
     1
 40
1.0
176
     1
  0
VISUALSTYLE
  5
3A
102
{ACAD_REACTORS
330
2A
102
}
330
2A
100
AcDbVisualStyle
  2
ColorChange
 70
    16
177
     3
291
     1
 70
    58
 90
        2
176
     1
 90
        2
176
     1
 90
        3
176
     1
 90
        0
176
     1
 40
0.6
176
     1
 40
30.0
176
     1
 62
     8
420
  8421504
176
     1
 90
        1
176
     1
 90
        4
176
     1
 62
     7
176
     1
 62
   257
176
     1
 90
        1
176
     1
 90
        1
176
     1
 40
1.0
176
     1
 90
        8
176
     1
 62
     8
420
  8421504
176
     1
 40
1.0
176
     1
 90
        1
176
     1
 90
        6
176
     1
 90
        2
176
     1
 62
     7
176
     1
 90
        5
176
     1
 90
        0
176
     1
 90
        0
176
     1
290
     0
176
     1
 90
        1
176
     1
 40
0.0
176
     1
 90
        0
176
     1
290
     0
176
     1
290
     1
176
     1
290
     1
176
     1
290
     0
176
     1
290
     0
176
     1
290
     0
176
     1
290
     0
176
     1
290
     0
176
     1
290
     0
176
     1
 90
       50
176
     1
 40
0.0
176
     1
 40
1.0
176
     1
 90
        0
176
     1
 62
    18
420
        0
176
     1
 90
       50
176
     1
 90
        3
176
     1
 62
     5
420
      255
176
     1
290
     0
176
     1
 90
       50
176
     1
 90
       50
176
     1
 90
       50
176
     1
290
     0
176
     1
 90
       50
176
     1
 62
   256
176
     0
 40
1.0
176
     0
 90
        2
176
     1
  1
strokes_ogs.tif
176
     1
290
     0
176
     1
 40
1.0
176
     1
 40
1.0
176
     1
  0
VISUALSTYLE
  5
34
102
{ACAD_REACTORS
330
2A
102
}
330
2A
100
AcDbVisualStyle
  2
Conceptual
 70
     9
177
     3
291
     0
 70
    58
 90
        3
176
     1
 90
        2
176
     1
 90
        0
176
     1
 90
        0
176
     1
 40
0.6
176
     1
 40
30.0
176
     1
 62
     7
420
 16777215
176
     1
 90
        2
176
     1
 90
        2
176
     1
 62
     7
176
     1
 62
   257
176
     1
 90
        1
176
     1
 90
        1
176
     1
 40
179.0
176
     1
 90
        8
176
     1
 62
     7
176
     1
 40
1.0
176
     1
 90
        1
176
     1
 90
        6
176
     1
 90
        2
176
     1
 62
     7
176
     1
 90
        3
176
     1
 90
        0
176
     1
 90
        0
176
     1
290
     0
176
     1
 90
        1
176
     1
 40
0.0
176
     1
 90
        0
176
     1
290
     0
176
     1
290
     1
176
     1
290
     1
176
     1
290
     0
176
     1
290
     0
176
     1
290
     0
176
     1
290
     0
176
     1
290
     0
176
     1
290
     0
176
     1
 90
       50
176
     1
 40
0.0
176
     1
 40
1.0
176
     1
 90
        0
176
     1
 62
    18
420
        0
176
     1
 90
       50
176
     1
 90
        3
176
     1
 62
     5
420
      255
176
     1
290
     0
176
     1
 90
       50
176
     1
 90
       50
176
     1
 90
       50
176
     1
290
     0
176
     1
 90
       50
176
     1
 62
   256
176
     0
 40
1.0
176
     0
 90
        2
176
     1
  1
strokes_ogs.tif
176
     1
290
     0
176
     1
 40
1.0
176
     1
 40
1.0
176
     1
  0
VISUALSTYLE
  5
35
102
{ACAD_REACTORS
330
2A
102
}
330
2A
100
AcDbVisualStyle
  2
Dim
 70
    11
177
     3
291
     1
 70
    58
 90
        2
176
     1
 90
        2
176
     1
 90
        0
176
     1
 90
        0
176
     1
 40
0.6
176
     1
 40
30.0
176
     1
 62
     7
420
 16777215
176
     1
 90
        1
176
     1
 90
        4
176
     1
 62
     7
176
     1
 62
   257
176
     1
 90
        1
176
     1
 90
        1
176
     1
 40
1.0
176
     1
 90
        8
176
     1
 62
     7
176
     1
 40
1.0
176
     1
 90
        1
176
     1
 90
        6
176
     1
 90
        2
176
     1
 62
     7
176
     1
 90
        5
176
     1
 90
        0
176
     1
 90
        0
176
     1
290
     0
176
     1
 90
        1
176
     1
 40
-50.0
176
     1
 90
        0
176
     1
290
     0
176
     1
290
     1
176
     1
290
     1
176
     1
290
     0
176
     1
290
     0
176
     1
290
     0
176
     1
290
     0
176
     1
290
     0
176
     1
290
     0
176
     1
 90
       50
176
     1
 40
0.0
176
     1
 40
1.0
176
     1
 90
        0
176
     1
 62
    18
420
        0
176
     1
 90
       50
176
     1
 90
        3
176
     1
 62
     5
420
      255
176
     1
290
     0
176
     1
 90
       50
176
     1
 90
       50
176
     1
 90
       50
176
     1
290
     0
176
     1
 90
       50
176
     1
 62
   256
176
     0
 40
1.0
176
     0
 90
        2
176
     1
  1
strokes_ogs.tif
176
     1
290
     0
176
     1
 40
1.0
176
     1
 40
1.0
176
     1
  0
VISUALSTYLE
  5
3D
102
{ACAD_REACTORS
330
2A
102
}
330
2A
100
AcDbVisualStyle
  2
EdgeColorOff
 70
    22
177
     3
291
     1
 70
    58
 90
        2
176
     0
 90
        2
176
     0
 90
        0
176
     0
 90
        0
176
     0
 40
0.6
176
     0
 40
30.0
176
     0
 62
     7
420
 16777215
176
     0
 90
        1
176
     0
 90
        4
176
     0
 62
     7
176
     0
 62
   257
176
     0
 90
        1
176
     0
 90
        1
176
     0
 40
1.0
176
     0
 90
        8
176
     2
 62
     7
176
     0
 40
1.0
176
     0
 90
        1
176
     0
 90
        6
176
     0
 90
        2
176
     0
 62
     7
176
     0
 90
        5
176
     0
 90
        0
176
     0
 90
        0
176
     0
290
     0
176
     0
 90
        1
176
     0
 40
0.0
176
     0
 90
        0
176
     0
290
     0
176
     0
290
     1
176
     0
290
     1
176
     0
290
     0
176
     0
290
     0
176
     0
290
     0
176
     0
290
     0
176
     0
290
     0
176
     0
290
     0
176
     0
 90
       50
176
     0
 40
0.0
176
     0
 40
1.0
176
     0
 90
        0
176
     0
 62
    18
420
        0
176
     0
 90
       50
176
     0
 90
        3
176
     0
 62
     5
420
      255
176
     0
290
     0
176
     0
 90
       50
176
     0
 90
       50
176
     0
 90
       50
176
     0
290
     0
176
     0
 90
       50
176
     0
 62
   256
176
     0
 40
1.0
176
     0
 90
        2
176
     0
  1
strokes_ogs.tif
176
     0
290
     0
176
     0
 40
1.0
176
     0
 40
1.0
176
     0
  0
VISUALSTYLE
  5
39
102
{ACAD_REACTORS
330
2A
102
}
330
2A
100
AcDbVisualStyle
  2
Facepattern
 70
    15
177
     3
291
     1
 70
    58
 90
        2
176
     1
 90
        2
176
     1
 90
        0
176
     1
 90
        0
176
     1
 40
0.6
176
     1
 40
30.0
176
     1
 62
     7
420
 16777215
176
     1
 90
        1
176
     1
 90
        4
176
     1
 62
     7
176
     1
 62
   257
176
     1
 90
        1
176
     1
 90
        1
176
     1
 40
1.0
176
     1
 90
        8
176
     1
 62
     7
176
     1
 40
1.0
176
     1
 90
        1
176
     1
 90
        6
176
     1
 90
        2
176
     1
 62
     7
176
     1
 90
        5
176
     1
 90
        0
176
     1
 90
        0
176
     1
290
     0
176
     1
 90
        1
176
     1
 40
0.0
176
     1
 90
        0
176
     1
290
     0
176
     1
290
     1
176
     1
290
     1
176
     1
290
     0
176
     1
290
     0
176
     1
290
     0
176
     1
290
     0
176
     1
290
     0
176
     1
290
     0
176
     1
 90
       50
176
     1
 40
0.0
176
     1
 40
1.0
176
     1
 90
        0
176
     1
 62
    18
420
        0
176
     1
 90
       50
176
     1
 90
        3
176
     1
 62
     5
420
      255
176
     1
290
     0
176
     1
 90
       50
176
     1
 90
       50
176
     1
 90
       50
176
     1
290
     0
176
     1
 90
       50
176
     1
 62
   256
176
     0
 40
1.0
176
     0
 90
        2
176
     1
  1
strokes_ogs.tif
176
     1
290
     0
176
     1
 40
1.0
176
     1
 40
1.0
176
     1
  0
VISUALSTYLE
  5
2B
102
{ACAD_REACTORS
330
2A
102
}
330
2A
100
AcDbVisualStyle
  2
Flat
 70
     0
177
     3
291
     1
 70
    58
 90
        2
176
     1
 90
        1
176
     1
 90
        1
176
     1
 90
        2
176
     1
 40
0.6
176
     1
 40
30.0
176
     1
 62
     7
420
 16777215
176
     1
 90
        0
176
     1
 90
        0
176
     1
 62
     7
176
     1
 62
   257
176
     1
 90
        1
176
     1
 90
        1
176
     1
 40
1.0
176
     1
 90
        8
176
     1
 62
     7
176
     1
 40
1.0
176
     1
 90
        1
176
     1
 90
        6
176
     1
 90
        2
176
     1
 62
     7
176
     1
 90
        5
176
     1
 90
        0
176
     1
 90
        0
176
     1
290
     0
176
     1
 90
       13
176
     1
 40
0.0
176
     1
 90
        0
176
     1
290
     0
176
     1
290
     1
176
     1
290
     1
176
     1
290
     0
176
     1
290
     0
176
     1
290
     0
176
     1
290
     0
176
     1
290
     0
176
     1
290
     0
176
     1
 90
       50
176
     1
 40
0.0
176
     1
 40
1.0
176
     1
 90
        0
176
     1
 62
    18
420
        0
176
     1
 90
       50
176
     1
 90
        3
176
     1
 62
     5
420
      255
176
     1
290
     0
176
     1
 90
       50
176
     1
 90
       50
176
     1
 90
       50
176
     1
290
     0
176
     1
 90
       50
176
     1
 62
   256
176
     0
 40
1.0
176
     0
 90
        2
176
     1
  1
strokes_ogs.tif
176
     1
290
     0
176
     1
 40
1.0
176
     1
 40
1.0
176
     1
  0
VISUALSTYLE
  5
2C
102
{ACAD_REACTORS
330
2A
102
}
330
2A
100
AcDbVisualStyle
  2
FlatWithEdges
 70
     1
177
     3
291
     1
 70
    58
 90
        2
176
     1
 90
        1
176
     1
 90
        1
176
     1
 90
        2
176
     1
 40
0.6
176
     1
 40
30.0
176
     1
 62
     7
420
 16777215
176
     1
 90
        1
176
     1
 90
        0
176
     1
 62
     7
176
     1
 62
   257
176
     1
 90
        1
176
     1
 90
        1
176
     1
 40
1.0
176
     1
 90
        0
176
     1
 62
   257
176
     1
 40
1.0
176
     1
 90
        1
176
     1
 90
        6
176
     1
 90
        2
176
     1
 62
     7
176
     1
 90
        5
176
     1
 90
        0
176
     1
 90
        0
176
     1
290
     0
176
     1
 90
       13
176
     1
 40
0.0
176
     1
 90
        0
176
     1
290
     0
176
     1
290
     1
176
     1
290
     1
176
     1
290
     0
176
     1
290
     0
176
     1
290
     0
176
     1
290
     0
176
     1
290
     0
176
     1
290
     0
176
     1
 90
       50
176
     1
 40
0.0
176
     1
 40
1.0
176
     1
 90
        0
176
     1
 62
    18
420
        0
176
     1
 90
       50
176
     1
 90
        3
176
     1
 62
     5
420
      255
176
     1
290
     0
176
     1
 90
       50
176
     1
 90
       50
176
     1
 90
       50
176
     1
290
     0
176
     1
 90
       50
176
     1
 62
   256
176
     0
 40
1.0
176
     0
 90
        2
176
     1
  1
strokes_ogs.tif
176
     1
290
     0
176
     1
 40
1.0
176
     1
 40
1.0
176
     1
  0
VISUALSTYLE
  5
2D
102
{ACAD_REACTORS
330
2A
102
}
330
2A
100
AcDbVisualStyle
  2
Gouraud
 70
     2
177
     3
291
     1
 70
    58
 90
        2
176
     1
 90
        2
176
     1
 90
        1
176
     1
 90
        2
176
     1
 40
0.6
176
     1
 40
30.0
176
     1
 62
     7
420
 16777215
176
     1
 90
        0
176
     1
 90
        0
176
     1
 62
     7
176
     1
 62
   257
176
     1
 90
        1
176
     1
 90
        1
176
     1
 40
1.0
176
     1
 90
        0
176
     1
 62
     7
176
     1
 40
1.0
176
     1
 90
        1
176
     1
 90
        6
176
     1
 90
        2
176
     1
 62
     7
176
     1
 90
        5
176
     1
 90
        0
176
     1
 90
        0
176
     1
290
     0
176
     1
 90
       13
176
     1
 40
0.0
176
     1
 90
        0
176
     1
290
     0
176
     1
290
     1
176
     1
290
     1
176
     1
290
     0
176
     1
290
     0
176
     1
290
     0
176
     1
290
     0
176
     1
290
     0
176
     1
290
     0
176
     1
 90
       50
176
     1
 40
0.0
176
     1
 40
1.0
176
     1
 90
        0
176
     1
 62
    18
420
        0
176
     1
 90
       50
176
     1
 90
        3
176
     1
 62
     5
420
      255
176
     1
290
     0
176
     1
 90
       50
176
     1
 90
       50
176
     1
 90
       50
176
     1
290
     0
176
     1
 90
       50
176
     1
 62
   256
176
     0
 40
1.0
176
     0
 90
        2
176
     1
  1
strokes_ogs.tif
176
     1
290
     0
176
     1
 40
1.0
176
     1
 40
1.0
176
     1
  0
VISUALSTYLE
  5
2E
102
{ACAD_REACTORS
330
2A
102
}
330
2A
100
AcDbVisualStyle
  2
GouraudWithEdges
 70
     3
177
     3
291
     1
 70
    58
 90
        2
176
     1
 90
        2
176
     1
 90
        1
176
     1
 90
        2
176
     1
 40
0.6
176
     1
 40
30.0
176
     1
 62
     7
420
 16777215
176
     1
 90
        1
176
     1
 90
        0
176
     1
 62
     7
176
     1
 62
   257
176
     1
 90
        1
176
     1
 90
        1
176
     1
 40
1.0
176
     1
 90
        0
176
     1
 62
   257
176
     1
 40
1.0
176
     1
 90
        1
176
     1
 90
        6
176
     1
 90
        2
176
     1
 62
     7
176
     1
 90
        5
176
     1
 90
        0
176
     1
 90
        0
176
     1
290
     0
176
     1
 90
       13
176
     1
 40
0.0
176
     1
 90
        0
176
     1
290
     0
176
     1
290
     1
176
     1
290
     1
176
     1
290
     0
176
     1
290
     0
176
     1
290
     0
176
     1
290
     0
176
     1
290
     0
176
     1
290
     0
176
     1
 90
       50
176
     1
 40
0.0
176
     1
 40
1.0
176
     1
 90
        0
176
     1
 62
    18
420
        0
176
     1
 90
       50
176
     1
 90
        3
176
     1
 62
     5
420
      255
176
     1
290
     0
176
     1
 90
       50
176
     1
 90
       50
176
     1
 90
       50
176
     1
290
     0
176
     1
 90
       50
176
     1
 62
   256
176
     0
 40
1.0
176
     0
 90
        2
176
     1
  1
strokes_ogs.tif
176
     1
290
     0
176
     1
 40
1.0
176
     1
 40
1.0
176
     1
  0
VISUALSTYLE
  5
31
102
{ACAD_REACTORS
330
2A
102
}
330
2A
100
AcDbVisualStyle
  2
Hidden
 70
     6
177
     3
291
     0
 70
    58
 90
        1
176
     1
 90
        2
176
     1
 90
        2
176
     1
 90
        0
176
     1
 40
0.6
176
     1
 40
30.0
176
     1
 62
     7
420
 16777215
176
     1
 90
        2
176
     1
 90
        2
176
     1
 62
     7
176
     1
 62
   257
176
     1
 90
        2
176
     1
 90
        1
176
     1
 40
40.0
176
     1
 90
        0
176
     1
 62
   257
176
     1
 40
1.0
176
     1
 90
        1
176
     1
 90
        6
176
     1
 90
        2
176
     1
 62
     7
176
     1
 90
        3
176
     1
 90
        0
176
     1
 90
        0
176
     1
290
     0
176
     1
 90
        1
176
     1
 40
0.0
176
     1
 90
        0
176
     1
290
     0
176
     1
290
     1
176
     1
290
     1
176
     1
290
     0
176
     1
290
     0
176
     1
290
     0
176
     1
290
     0
176
     1
290
     0
176
     1
290
     0
176
     1
 90
       50
176
     1
 40
0.0
176
     1
 40
1.0
176
     1
 90
        0
176
     1
 62
    18
420
        0
176
     1
 90
       50
176
     1
 90
        3
176
     1
 62
     5
420
      255
176
     1
290
     0
176
     1
 90
       50
176
     1
 90
       50
176
     1
 90
       50
176
     1
290
     0
176
     1
 90
       50
176
     1
 62
   256
176
     0
 40
1.0
176
     0
 90
        2
176
     1
  1
strokes_ogs.tif
176
     1
290
     0
176
     1
 40
1.0
176
     1
 40
1.0
176
     1
  0
VISUALSTYLE
  5
3B
102
{ACAD_REACTORS
330
2A
102
}
330
2A
100
AcDbVisualStyle
  2
JitterOff
 70
    20
177
     3
291
     1
 70
    58
 90
        2
176
     0
 90
        2
176
     0
 90
        0
176
     0
 90
        0
176
     0
 40
0.6
176
     0
 40
30.0
176
     0
 62
     7
420
 16777215
176
     0
 90
        1
176
     0
 90
        4
176
     0
 62
     7
176
     0
 62
   257
176
     0
 90
        1
176
     0
 90
        1
176
     0
 40
1.0
176
     0
 90
       10
176
     2
 62
     7
176
     0
 40
1.0
176
     0
 90
        1
176
     0
 90
        6
176
     0
 90
        2
176
     0
 62
     7
176
     0
 90
        5
176
     0
 90
        0
176
     0
 90
        0
176
     0
290
     0
176
     0
 90
        1
176
     0
 40
0.0
176
     0
 90
        0
176
     0
290
     0
176
     0
290
     1
176
     0
290
     1
176
     0
290
     0
176
     0
290
     0
176
     0
290
     0
176
     0
290
     0
176
     0
290
     0
176
     0
290
     0
176
     0
 90
       50
176
     0
 40
0.0
176
     0
 40
1.0
176
     0
 90
        0
176
     0
 62
    18
420
        0
176
     0
 90
       50
176
     0
 90
        3
176
     0
 62
     5
420
      255
176
     0
290
     0
176
     0
 90
       50
176
     0
 90
       50
176
     0
 90
       50
176
     0
290
     0
176
     0
 90
       50
176
     0
 62
   256
176
     0
 40
1.0
176
     0
 90
        2
176
     0
  1
strokes_ogs.tif
176
     0
290
     0
176
     0
 40
1.0
176
     0
 40
1.0
176
     0
  0
VISUALSTYLE
  5
38
102
{ACAD_REACTORS
330
2A
102
}
330
2A
100
AcDbVisualStyle
  2
Linepattern
 70
    14
177
     3
291
     1
 70
    58
 90
        2
176
     1
 90
        2
176
     1
 90
        0
176
     1
 90
        0
176
     1
 40
0.6
176
     1
 40
30.0
176
     1
 62
     7
420
 16777215
176
     1
 90
        1
176
     1
 90
        4
176
     1
 62
     7
176
     1
 62
   257
176
     1
 90
        7
176
     1
 90
        7
176
     1
 40
1.0
176
     1
 90
        8
176
     1
 62
     7
176
     1
 40
1.0
176
     1
 90
        1
176
     1
 90
        6
176
     1
 90
        2
176
     1
 62
     7
176
     1
 90
        5
176
     1
 90
        0
176
     1
 90
        0
176
     1
290
     0
176
     1
 90
        1
176
     1
 40
0.0
176
     1
 90
        0
176
     1
290
     0
176
     1
290
     1
176
     1
290
     1
176
     1
290
     0
176
     1
290
     0
176
     1
290
     0
176
     1
290
     0
176
     1
290
     0
176
     1
290
     0
176
     1
 90
       50
176
     1
 40
0.0
176
     1
 40
1.0
176
     1
 90
        0
176
     1
 62
    18
420
        0
176
     1
 90
       50
176
     1
 90
        3
176
     1
 62
     5
420
      255
176
     1
290
     0
176
     1
 90
       50
176
     1
 90
       50
176
     1
 90
       50
176
     1
290
     0
176
     1
 90
       50
176
     1
 62
   256
176
     0
 40
1.0
176
     0
 90
        2
176
     1
  1
strokes_ogs.tif
176
     1
290
     0
176
     1
 40
1.0
176
     1
 40
1.0
176
     1
  0
VISUALSTYLE
  5
3C
102
{ACAD_REACTORS
330
2A
102
}
330
2A
100
AcDbVisualStyle
  2
OverhangOff
 70
    21
177
     3
291
     1
 70
    58
 90
        2
176
     0
 90
        2
176
     0
 90
        0
176
     0
 90
        0
176
     0
 40
0.6
176
     0
 40
30.0
176
     0
 62
     7
420
 16777215
176
     0
 90
        1
176
     0
 90
        4
176
     0
 62
     7
176
     0
 62
   257
176
     0
 90
        1
176
     0
 90
        1
176
     0
 40
1.0
176
     0
 90
        9
176
     2
 62
     7
176
     0
 40
1.0
176
     0
 90
        1
176
     0
 90
        6
176
     0
 90
        2
176
     0
 62
     7
176
     0
 90
        5
176
     0
 90
        0
176
     0
 90
        0
176
     0
290
     0
176
     0
 90
        1
176
     0
 40
0.0
176
     0
 90
        0
176
     0
290
     0
176
     0
290
     1
176
     0
290
     1
176
     0
290
     0
176
     0
290
     0
176
     0
290
     0
176
     0
290
     0
176
     0
290
     0
176
     0
290
     0
176
     0
 90
       50
176
     0
 40
0.0
176
     0
 40
1.0
176
     0
 90
        0
176
     0
 62
    18
420
        0
176
     0
 90
       50
176
     0
 90
        3
176
     0
 62
     5
420
      255
176
     0
290
     0
176
     0
 90
       50
176
     0
 90
       50
176
     0
 90
       50
176
     0
290
     0
176
     0
 90
       50
176
     0
 62
   256
176
     0
 40
1.0
176
     0
 90
        2
176
     0
  1
strokes_ogs.tif
176
     0
290
     0
176
     0
 40
1.0
176
     0
 40
1.0
176
     0
  0
VISUALSTYLE
  5
33
102
{ACAD_REACTORS
330
2A
102
}
330
2A
100
AcDbVisualStyle
  2
Realistic
 70
     8
177
     3
291
     0
 70
    58
 90
        2
176
     1
 90
        3
176
     1
 90
        0
176
     1
 90
        2
176
     1
 40
0.6
176
     1
 40
30.0
176
     1
 62
     7
420
 16777215
176
     1
 90
        0
176
     1
 90
        0
176
     1
 62
     7
176
     1
 62
   257
176
     1
 90
        1
176
     1
 90
        1
176
     1
 40
1.0
176
     1
 90
        8
176
     1
 62
   257
176
     1
 40
1.0
176
     1
 90
        1
176
     1
 90
        6
176
     1
 90
        2
176
     1
 62
     7
176
     1
 90
        3
176
     1
 90
        0
176
     1
 90
        0
176
     1
290
     0
176
     1
 90
       13
176
     1
 40
0.0
176
     1
 90
        0
176
     1
290
     0
176
     1
290
     1
176
     1
290
     1
176
     1
290
     0
176
     1
290
     0
176
     1
290
     0
176
     1
290
     0
176
     1
290
     0
176
     1
290
     0
176
     1
 90
       50
176
     1
 40
0.0
176
     1
 40
1.0
176
     1
 90
        0
176
     1
 62
    18
420
        0
176
     1
 90
       50
176
     1
 90
        3
176
     1
 62
     5
420
      255
176
     1
290
     0
176
     1
 90
       50
176
     1
 90
       50
176
     1
 90
       50
176
     1
290
     0
176
     1
 90
       50
176
     1
 62
   256
176
     0
 40
1.0
176
     0
 90
        2
176
     1
  1
strokes_ogs.tif
176
     1
290
     0
176
     1
 40
1.0
176
     1
 40
1.0
176
     1
  0
VISUALSTYLE
  5
42
102
{ACAD_REACTORS
330
2A
102
}
330
2A
100
AcDbVisualStyle
  2
Shaded
 70
    27
177
     3
291
     0
 70
    58
 90
        2
176
     1
 90
        2
176
     1
 90
        1
176
     1
 90
        2
176
     1
 40
0.6
176
     1
 40
30.0
176
     1
 62
     7
420
 16777215
176
     1
 90
        0
176
     1
 90
        4
176
     1
 62
     7
176
     1
 62
   257
176
     1
 90
        1
176
     1
 90
        1
176
     1
 40
1.0
176
     1
 90
        8
176
     1
 62
   257
176
     1
 40
1.0
176
     1
 90
        1
176
     1
 90
        6
176
     1
 90
        2
176
     1
 62
     8
420
  7895160
176
     1
 90
        3
176
     1
 90
        0
176
     1
 90
        0
176
     1
290
     0
176
     1
 90
        5
176
     1
 40
0.0
176
     1
 90
        0
176
     1
290
     0
176
     1
290
     1
176
     1
290
     1
176
     1
290
     0
176
     1
290
     0
176
     1
290
     0
176
     1
290
     0
176
     1
290
     0
176
     1
290
     0
176
     1
 90
       50
176
     1
 40
0.0
176
     1
 40
1.0
176
     1
 90
        0
176
     1
 62
    18
420
        0
176
     1
 90
       50
176
     1
 90
        3
176
     1
 62
     5
420
      255
176
     1
290
     0
176
     1
 90
       50
176
     1
 90
       50
176
     1
 90
       50
176
     1
290
     0
176
     1
 90
       50
176
     1
 62
   256
176
     0
 40
1.0
176
     0
 90
        2
176
     1
  1
strokes_ogs.tif
176
     1
290
     0
176
     1
 40
1.0
176
     1
 40
1.0
176
     1
  0
VISUALSTYLE
  5
41
102
{ACAD_REACTORS
330
2A
102
}
330
2A
100
AcDbVisualStyle
  2
Shaded with edges
 70
    26
177
     3
291
     0
 70
    58
 90
        2
176
     1
 90
        2
176
     1
 90
        1
176
     1
 90
        2
176
     1
 40
0.6
176
     1
 40
30.0
176
     1
 62
     7
420
 16777215
176
     1
 90
        1
176
     1
 90
       10
176
     1
 62
     7
176
     1
 62
   257
176
     1
 90
        2
176
     1
 90
        1
176
     1
 40
1.0
176
     1
 90
        8
176
     1
 62
   257
176
     1
 40
1.0
176
     1
 90
        1
176
     1
 90
        6
176
     1
 90
        2
176
     1
 62
     7
176
     1
 90
        3
176
     1
 90
        0
176
     1
 90
        0
176
     1
290
     0
176
     1
 90
        5
176
     1
 40
0.0
176
     1
 90
        0
176
     1
290
     0
176
     1
290
     1
176
     1
290
     1
176
     1
290
     0
176
     1
290
     0
176
     1
290
     0
176
     1
290
     0
176
     1
290
     0
176
     1
290
     0
176
     1
 90
       50
176
     1
 40
0.0
176
     1
 40
1.0
176
     1
 90
        0
176
     1
 62
    18
420
        0
176
     1
 90
       50
176
     1
 90
        3
176
     1
 62
     5
420
      255
176
     1
290
     0
176
     1
 90
       50
176
     1
 90
       50
176
     1
 90
       50
176
     1
290
     0
176
     1
 90
       50
176
     1
 62
   256
176
     0
 40
1.0
176
     0
 90
        2
176
     1
  1
strokes_ogs.tif
176
     1
290
     0
176
     1
 40
1.0
176
     1
 40
1.0
176
     1
  0
VISUALSTYLE
  5
3E
102
{ACAD_REACTORS
330
2A
102
}
330
2A
100
AcDbVisualStyle
  2
Shades of Gray
 70
    23
177
     3
291
     0
 70
    58
 90
        2
176
     1
 90
        2
176
     1
 90
        3
176
     1
 90
        0
176
     1
 40
0.6
176
     1
 40
30.0
176
     1
 62
     7
420
 16777215
176
     1
 90
        2
176
     1
 90
        2
176
     1
 62
     7
176
     1
 62
     7
176
     1
 90
        1
176
     1
 90
        1
176
     1
 40
40.0
176
     1
 90
        8
176
     1
 62
     7
176
     1
 40
1.0
176
     1
 90
        1
176
     1
 90
        6
176
     1
 90
        2
176
     1
 62
     7
176
     1
 90
        3
176
     1
 90
        0
176
     1
 90
        0
176
     1
290
     0
176
     1
 90
        1
176
     1
 40
0.0
176
     1
 90
        0
176
     1
290
     0
176
     1
290
     1
176
     1
290
     1
176
     1
290
     0
176
     1
290
     0
176
     1
290
     0
176
     1
290
     0
176
     1
290
     0
176
     1
290
     0
176
     1
 90
       50
176
     1
 40
0.0
176
     1
 40
1.0
176
     1
 90
        0
176
     1
 62
    18
420
        0
176
     1
 90
       50
176
     1
 90
        3
176
     1
 62
     5
420
      255
176
     1
290
     0
176
     1
 90
       50
176
     1
 90
       50
176
     1
 90
       50
176
     1
290
     0
176
     1
 90
       50
176
     1
 62
   256
176
     0
 40
1.0
176
     0
 90
        2
176
     1
  1
strokes_ogs.tif
176
     1
290
     0
176
     1
 40
1.0
176
     1
 40
1.0
176
     1
  0
VISUALSTYLE
  5
3F
102
{ACAD_REACTORS
330
2A
102
}
330
2A
100
AcDbVisualStyle
  2
Sketchy
 70
    24
177
     3
291
     0
 70
    58
 90
        1
176
     1
 90
        2
176
     1
 90
        2
176
     1
 90
        0
176
     1
 40
0.6
176
     1
 40
30.0
176
     1
 62
     7
420
 16777215
176
     1
 90
        2
176
     1
 90
        2
176
     1
 62
     7
176
     1
 62
     7
176
     1
 90
        1
176
     1
 90
        1
176
     1
 40
40.0
176
     1
 90
       11
176
     1
 62
     7
176
     1
 40
1.0
176
     1
 90
        1
176
     1
 90
        6
176
     1
 90
        2
176
     1
 62
     7
176
     1
 90
        6
176
     1
 90
        0
176
     1
 90
        0
176
     1
290
     0
176
     1
 90
        1
176
     1
 40
0.0
176
     1
 90
        0
176
     1
290
     0
176
     1
290
     1
176
     1
290
     1
176
     1
290
     0
176
     1
290
     0
176
     1
290
     0
176
     1
290
     0
176
     1
290
     0
176
     1
290
     0
176
     1
 90
       50
176
     1
 40
0.0
176
     1
 40
1.0
176
     1
 90
        0
176
     1
 62
    18
420
        0
176
     1
 90
       50
176
     1
 90
        3
176
     1
 62
     5
420
      255
176
     1
290
     0
176
     1
 90
       50
176
     1
 90
       50
176
     1
 90
       50
176
     1
290
     0
176
     1
 90
       50
176
     1
 62
   256
176
     0
 40
1.0
176
     0
 90
        2
176
     1
  1
strokes_ogs.tif
176
     1
290
     0
176
     1
 40
1.0
176
     1
 40
1.0
176
     1
  0
VISUALSTYLE
  5
37
102
{ACAD_REACTORS
330
2A
102
}
330
2A
100
AcDbVisualStyle
  2
Thicken
 70
    13
177
     3
291
     1
 70
    58
 90
        2
176
     1
 90
        2
176
     1
 90
        0
176
     1
 90
        0
176
     1
 40
0.6
176
     1
 40
30.0
176
     1
 62
     7
420
 16777215
176
     1
 90
        1
176
     1
 90
        4
176
     1
 62
     7
176
     1
 62
   257
176
     1
 90
        1
176
     1
 90
        1
176
     1
 40
1.0
176
     1
 90
       12
176
     1
 62
     7
176
     1
 40
1.0
176
     1
 90
        1
176
     1
 90
        6
176
     1
 90
        2
176
     1
 62
     7
176
     1
 90
        5
176
     1
 90
        0
176
     1
 90
        0
176
     1
290
     0
176
     1
 90
        1
176
     1
 40
0.0
176
     1
 90
        0
176
     1
290
     0
176
     1
290
     1
176
     1
290
     1
176
     1
290
     0
176
     1
290
     0
176
     1
290
     0
176
     1
290
     0
176
     1
290
     0
176
     1
290
     0
176
     1
 90
       50
176
     1
 40
0.0
176
     1
 40
1.0
176
     1
 90
        0
176
     1
 62
    18
420
        0
176
     1
 90
       50
176
     1
 90
        3
176
     1
 62
     5
420
      255
176
     1
290
     0
176
     1
 90
       50
176
     1
 90
       50
176
     1
 90
       50
176
     1
290
     0
176
     1
 90
       50
176
     1
 62
   256
176
     0
 40
1.0
176
     0
 90
        2
176
     1
  1
strokes_ogs.tif
176
     1
290
     0
176
     1
 40
1.0
176
     1
 40
1.0
176
     1
  0
VISUALSTYLE
  5
30
102
{ACAD_REACTORS
330
2A
102
}
330
2A
100
AcDbVisualStyle
  2
Wireframe
 70
     5
177
     3
291
     0
 70
    58
 90
        0
176
     1
 90
        2
176
     1
 90
        0
176
     1
 90
        0
176
     1
 40
0.6
176
     1
 40
30.0
176
     1
 62
     7
420
 16777215
176
     1
 90
        1
176
     1
 90
        4
176
     1
 62
     7
176
     1
 62
   257
176
     1
 90
        1
176
     1
 90
        1
176
     1
 40
1.0
176
     1
 90
        0
176
     1
 62
   257
176
     1
 40
1.0
176
     1
 90
        1
176
     1
 90
        6
176
     1
 90
        2
176
     1
 62
     7
176
     1
 90
        3
176
     1
 90
        0
176
     1
 90
        0
176
     1
290
     0
176
     1
 90
        1
176
     1
 40
0.0
176
     1
 90
        0
176
     1
290
     0
176
     1
290
     1
176
     1
290
     1
176
     1
290
     0
176
     1
290
     0
176
     1
290
     0
176
     1
290
     0
176
     1
290
     0
176
     1
290
     0
176
     1
 90
       50
176
     1
 40
0.0
176
     1
 40
1.0
176
     1
 90
        0
176
     1
 62
    18
420
        0
176
     1
 90
       50
176
     1
 90
        3
176
     1
 62
     5
420
      255
176
     1
290
     0
176
     1
 90
       50
176
     1
 90
       50
176
     1
 90
       50
176
     1
290
     0
176
     1
 90
       50
176
     1
 62
   256
176
     0
 40
1.0
176
     0
 90
        2
176
     1
  1
strokes_ogs.tif
176
     1
290
     0
176
     1
 40
1.0
176
     1
 40
1.0
176
     1
  0
VISUALSTYLE
  5
40
102
{ACAD_REACTORS
330
2A
102
}
330
2A
100
AcDbVisualStyle
  2
X-Ray
 70
    25
177
     3
291
     0
 70
    58
 90
        2
176
     1
 90
        2
176
     1
 90
        1
176
     1
 90
        1
176
     1
 40
0.5
176
     1
 40
30.0
176
     1
 62
     7
420
 16777215
176
     1
 90
        1
176
     1
 90
        0
176
     1
 62
     7
176
     1
 62
   257
176
     1
 90
        1
176
     1
 90
        1
176
     1
 40
1.0
176
     1
 90
        8
176
     1
 62
     7
176
     1
 40
1.0
176
     1
 90
        1
176
     1
 90
        6
176
     1
 90
        2
176
     1
 62
     7
176
     1
 90
        3
176
     1
 90
        0
176
     1
 90
        0
176
     1
290
     0
176
     1
 90
       13
176
     1
 40
0.0
176
     1
 90
        0
176
     1
290
     0
176
     1
290
     1
176
     1
290
     1
176
     1
290
     0
176
     1
290
     0
176
     1
290
     0
176
     1
290
     0
176
     1
290
     0
176
     1
290
     0
176
     1
 90
       50
176
     1
 40
0.0
176
     1
 40
1.0
176
     1
 90
        0
176
     1
 62
    18
420
        0
176
     1
 90
       50
176
     1
 90
        3
176
     1
 62
     5
420
      255
176
     1
290
     0
176
     1
 90
       50
176
     1
 90
       50
176
     1
 90
       50
176
     1
290
     0
176
     1
 90
       50
176
     1
 62
   256
176
     0
 40
1.0
176
     0
 90
        2
176
     1
  1
strokes_ogs.tif
176
     1
290
     0
176
     1
 40
1.0
176
     1
 40
1.0
176
     1
  0
DICTIONARYVAR
  5
1DA
102
{ACAD_REACTORS
330
1D9
102
}
330
1D9
100
DictionaryVariables
280
     0
  1
1:1
  0
DICTIONARYVAR
  5
1DF
102
{ACAD_REACTORS
330
1D9
102
}
330
1D9
100
DictionaryVariables
280
     0
  1
Standard
  0
DICTIONARYVAR
  5
1DE
102
{ACAD_REACTORS
330
1D9
102
}
330
1D9
100
DictionaryVariables
280
     0
  1
Standard
  0
DICTIONARY
  5
1DB
330
6A
100
AcDbDictionary
280
     1
281
     1
  3
ACAD_ROUNDTRIP_2008_TABLESTYLE_CELLSTYLEMAP
360
1DC
  0
CELLSTYLEMAP
  5
1DC
102
{ACAD_REACTORS
330
1DB
102
}
330
1DB
100
AcDbCellStyleMap
 90
        3
300
CELLSTYLE
  1
TABLEFORMAT_BEGIN
 90
        5
170
     1
 91
        0
 92
    32768
 62
   257
 93
        1
300
CONTENTFORMAT
  1
CONTENTFORMAT_BEGIN
 90
        0
 91
        0
 92
        4
 93
        0
300

 40
0.0
140
1.0
 94
        5
 62
     0
340
11
144
0.25
309
CONTENTFORMAT_END
171
     1
301
MARGIN
  1
CELLMARGIN_BEGIN
 40
0.06
 40
0.06
 40
0.06
 40
0.06
 40
0.06
 40
0.06
309
CELLMARGIN_END
 94
        6
 95
        1
302
GRIDFORMAT
  1
GRIDFORMAT_BEGIN
 90
        0
 91
        1
 62
     0
 92
       -2
340
14
 93
        0
 40
0.045
309
GRIDFORMAT_END
 95
        2
302
GRIDFORMAT
  1
GRIDFORMAT_BEGIN
 90
        0
 91
        1
 62
     0
 92
       -2
340
14
 93
        0
 40
0.045
309
GRIDFORMAT_END
 95
        4
302
GRIDFORMAT
  1
GRIDFORMAT_BEGIN
 90
        0
 91
        1
 62
     0
 92
       -2
340
14
 93
        0
 40
0.045
309
GRIDFORMAT_END
 95
        8
302
GRIDFORMAT
  1
GRIDFORMAT_BEGIN
 90
        0
 91
        1
 62
     0
 92
       -2
340
14
 93
        0
 40
0.045
309
GRIDFORMAT_END
 95
       16
302
GRIDFORMAT
  1
GRIDFORMAT_BEGIN
 90
        0
 91
        1
 62
     0
 92
       -2
340
14
 93
        0
 40
0.045
309
GRIDFORMAT_END
 95
       32
302
GRIDFORMAT
  1
GRIDFORMAT_BEGIN
 90
        0
 91
        1
 62
     0
 92
       -2
340
14
 93
        0
 40
0.045
309
GRIDFORMAT_END
309
TABLEFORMAT_END
  1
CELLSTYLE_BEGIN
 90
        1
 91
        1
300
_TITLE
309
CELLSTYLE_END
300
CELLSTYLE
  1
TABLEFORMAT_BEGIN
 90
        5
170
     1
 91
        0
 92
        0
 62
   257
 93
        1
300
CONTENTFORMAT
  1
CONTENTFORMAT_BEGIN
 90
        0
 91
        0
 92
        4
 93
        0
300

 40
0.0
140
1.0
 94
        5
 62
     0
340
11
144
0.18
309
CONTENTFORMAT_END
171
     1
301
MARGIN
  1
CELLMARGIN_BEGIN
 40
0.06
 40
0.06
 40
0.06
 40
0.06
 40
0.06
 40
0.06
309
CELLMARGIN_END
 94
        6
 95
        1
302
GRIDFORMAT
  1
GRIDFORMAT_BEGIN
 90
        0
 91
        1
 62
     0
 92
       -2
340
14
 93
        0
 40
0.045
309
GRIDFORMAT_END
 95
        2
302
GRIDFORMAT
  1
GRIDFORMAT_BEGIN
 90
        0
 91
        1
 62
     0
 92
       -2
340
14
 93
        0
 40
0.045
309
GRIDFORMAT_END
 95
        4
302
GRIDFORMAT
  1
GRIDFORMAT_BEGIN
 90
        0
 91
        1
 62
     0
 92
       -2
340
14
 93
        0
 40
0.045
309
GRIDFORMAT_END
 95
        8
302
GRIDFORMAT
  1
GRIDFORMAT_BEGIN
 90
        0
 91
        1
 62
     0
 92
       -2
340
14
 93
        0
 40
0.045
309
GRIDFORMAT_END
 95
       16
302
GRIDFORMAT
  1
GRIDFORMAT_BEGIN
 90
        0
 91
        1
 62
     0
 92
       -2
340
14
 93
        0
 40
0.045
309
GRIDFORMAT_END
 95
       32
302
GRIDFORMAT
  1
GRIDFORMAT_BEGIN
 90
        0
 91
        1
 62
     0
 92
       -2
340
14
 93
        0
 40
0.045
309
GRIDFORMAT_END
309
TABLEFORMAT_END
  1
CELLSTYLE_BEGIN
 90
        2
 91
        1
300
_HEADER
309
CELLSTYLE_END
300
CELLSTYLE
  1
TABLEFORMAT_BEGIN
 90
        5
170
     1
 91
        0
 92
        0
 62
   257
 93
        1
300
CONTENTFORMAT
  1
CONTENTFORMAT_BEGIN
 90
        0
 91
        0
 92
        4
 93
        0
300

 40
0.0
140
1.0
 94
        2
 62
     0
340
11
144
0.18
309
CONTENTFORMAT_END
171
     1
301
MARGIN
  1
CELLMARGIN_BEGIN
 40
0.06
 40
0.06
 40
0.06
 40
0.06
 40
0.06
 40
0.06
309
CELLMARGIN_END
 94
        6
 95
        1
302
GRIDFORMAT
  1
GRIDFORMAT_BEGIN
 90
        0
 91
        1
 62
     0
 92
       -2
340
14
 93
        0
 40
0.045
309
GRIDFORMAT_END
 95
        2
302
GRIDFORMAT
  1
GRIDFORMAT_BEGIN
 90
        0
 91
        1
 62
     0
 92
       -2
340
14
 93
        0
 40
0.045
309
GRIDFORMAT_END
 95
        4
302
GRIDFORMAT
  1
GRIDFORMAT_BEGIN
 90
        0
 91
        1
 62
     0
 92
       -2
340
14
 93
        0
 40
0.045
309
GRIDFORMAT_END
 95
        8
302
GRIDFORMAT
  1
GRIDFORMAT_BEGIN
 90
        0
 91
        1
 62
     0
 92
       -2
340
14
 93
        0
 40
0.045
309
GRIDFORMAT_END
 95
       16
302
GRIDFORMAT
  1
GRIDFORMAT_BEGIN
 90
        0
 91
        1
 62
     0
 92
       -2
340
14
 93
        0
 40
0.045
309
GRIDFORMAT_END
 95
       32
302
GRIDFORMAT
  1
GRIDFORMAT_BEGIN
 90
        0
 91
        1
 62
     0
 92
       -2
340
14
 93
        0
 40
0.045
309
GRIDFORMAT_END
309
TABLEFORMAT_END
  1
CELLSTYLE_BEGIN
 90
        3
 91
        2
300
_DATA
309
CELLSTYLE_END
  0
ENDSEC
  0
EOF