0
SECTION
  2
HEADER
  9
$ACADVER
  1
AC1027
  9
$ACADMAINTVER
 70
     8
  9
$DWGCODEPAGE
  3
ANSI_1252
  9
$REQUIREDVERSIONS
160
                 0
  9
$COMMENTS
  1
File was created by Cadenas
  9
$CUSTOMPROPERTYTAG
  1
NN
  9
$CUSTOMPROPERTY
  1
S-2000 Flange Bearing - Square Labyrinth Seal
  9
$CUSTOMPROPERTYTAG
  1
NT
  9
$CUSTOMPROPERTY
  1
S-2000 4 Bolt Square Flange Bearing -Inch
  9
$CUSTOMPROPERTYTAG
  1
NB
  9
$CUSTOMPROPERTY
  1
070859
  9
$CUSTOMPROPERTYTAG
  1
NBSYN
  9
$CUSTOMPROPERTY
  1
$PN.
  9
$CUSTOMPROPERTYTAG
  1
LINA
  9
$CUSTOMPROPERTY
  1
070859
  9
$CUSTOMPROPERTYTAG
  1
SS
  9
$CUSTOMPROPERTY
  1
1-15/16
  9
$CUSTOMPROPERTYTAG
  1
PN
  9
$CUSTOMPROPERTY
  1
070859
  9
$CUSTOMPROPERTYTAG
  1
DESCRIPTION
  9
$CUSTOMPROPERTY
  1
F4S-S2-115LE
  9
$CUSTOMPROPERTYTAG
  1
EF
  9
$CUSTOMPROPERTY
  1
Expansion Type
  9
$CUSTOMPROPERTYTAG
  1
ST
  9
$CUSTOMPROPERTY
  1
Labyrinth Seal
  9
$CUSTOMPROPERTYTAG
  1
A
  9
$CUSTOMPROPERTY
  1
2-27/32
  9
$CUSTOMPROPERTYTAG
  1
B
  9
$CUSTOMPROPERTY
  1
5-19/64
  9
$CUSTOMPROPERTYTAG
  1
C
  9
$CUSTOMPROPERTY
  1
3-5/32
  9
$CUSTOMPROPERTYTAG
  1
D
  9
$CUSTOMPROPERTY
  1
4-1/16
  9
$CUSTOMPROPERTYTAG
  1
F
  9
$CUSTOMPROPERTY
  1
1/2
  9
$CUSTOMPROPERTYTAG
  1
G
  9
$CUSTOMPROPERTY
  1
1-15/64
  9
$CUSTOMPROPERTYTAG
  1
H
  9
$CUSTOMPROPERTY
  1
9/16
  9
$CUSTOMPROPERTYTAG
  1
J
  9
$CUSTOMPROPERTY
  1
4-31/32
  9
$CUSTOMPROPERTYTAG
  1
K
  9
$CUSTOMPROPERTY
  1
5-3/4
  9
$CUSTOMPROPERTYTAG
  1
L
  9
$CUSTOMPROPERTY
  1
3-7/16
  9
$CUSTOMPROPERTYTAG
  1
N
  9
$CUSTOMPROPERTY
  1
2-29/32
  9
$CUSTOMPROPERTYTAG
  1
P
  9
$CUSTOMPROPERTY
  1
5/16
  9
$CUSTOMPROPERTYTAG
  1
X
  9
$CUSTOMPROPERTY
  1
1/4
  9
$CUSTOMPROPERTYTAG
  1
Y
  9
$CUSTOMPROPERTY
  1
0.020
  9
$CUSTOMPROPERTYTAG
  1
Z
  9
$CUSTOMPROPERTY
  1
2-19/64
  9
$CUSTOMPROPERTYTAG
  1
COMPANY
  9
$CUSTOMPROPERTY
  1
baldor
  9
$INSBASE
 10
0.0
 20
0.0
 30
0.0
  9
$EXTMIN
 10
1.000000000000000E+20
 20
1.000000000000000E+20
 30
1.000000000000000E+20
  9
$EXTMAX
 10
-1.000000000000000E+20
 20
-1.000000000000000E+20
 30
-1.000000000000000E+20
  9
$LIMMIN
 10
0.0
 20
0.0
  9
$LIMMAX
 10
12.0
 20
9.0
  9
$ORTHOMODE
 70
     0
  9
$REGENMODE
 70
     1
  9
$FILLMODE
 70
     1
  9
$QTEXTMODE
 70
     0
  9
$MIRRTEXT
 70
     1
  9
$LTSCALE
 40
1.0
  9
$ATTMODE
 70
     1
  9
$TEXTSIZE
 40
0.2
  9
$TRACEWID
 40
0.05
  9
$TEXTSTYLE
  7
Standard
  9
$CLAYER
  8
0
  9
$CELTYPE
  6
ByLayer
  9
$CECOLOR
 62
   256
  9
$CELTSCALE
 40
1.0
  9
$DISPSILH
 70
     0
  9
$DIMSCALE
 40
1.0
  9
$DIMASZ
 40
0.18
  9
$DIMEXO
 40
0.0625
  9
$DIMDLI
 40
0.38
  9
$DIMRND
 40
0.0
  9
$DIMDLE
 40
0.0
  9
$DIMEXE
 40
0.18
  9
$DIMTP
 40
0.0
  9
$DIMTM
 40
0.0
  9
$DIMTXT
 40
0.18
  9
$DIMCEN
 40
0.09
  9
$DIMTSZ
 40
0.0
  9
$DIMTOL
 70
     0
  9
$DIMLIM
 70
     0
  9
$DIMTIH
 70
     1
  9
$DIMTOH
 70
     1
  9
$DIMSE1
 70
     0
  9
$DIMSE2
 70
     0
  9
$DIMTAD
 70
     0
  9
$DIMZIN
 70
     0
  9
$DIMBLK
  1

  9
$DIMASO
 70
     1
  9
$DIMSHO
 70
     1
  9
$DIMPOST
  1

  9
$DIMAPOST
  1

  9
$DIMALT
 70
     0
  9
$DIMALTD
 70
     2
  9
$DIMALTF
 40
25.4
  9
$DIMLFAC
 40
1.0
  9
$DIMTOFL
 70
     0
  9
$DIMTVP
 40
0.0
  9
$DIMTIX
 70
     0
  9
$DIMSOXD
 70
     0
  9
$DIMSAH
 70
     0
  9
$DIMBLK1
  1

  9
$DIMBLK2
  1

  9
$DIMSTYLE
  2
Standard
  9
$DIMCLRD
 70
     0
  9
$DIMCLRE
 70
     0
  9
$DIMCLRT
 70
     0
  9
$DIMTFAC
 40
1.0
  9
$DIMGAP
 40
0.09
  9
$DIMJUST
 70
     0
  9
$DIMSD1
 70
     0
  9
$DIMSD2
 70
     0
  9
$DIMTOLJ
 70
     1
  9
$DIMTZIN
 70
     0
  9
$DIMALTZ
 70
     0
  9
$DIMALTTZ
 70
     0
  9
$DIMUPT
 70
     0
  9
$DIMDEC
 70
     4
  9
$DIMTDEC
 70
     4
  9
$DIMALTU
 70
     2
  9
$DIMALTTD
 70
     2
  9
$DIMTXSTY
  7
Standard
  9
$DIMAUNIT
 70
     0
  9
$DIMADEC
 70
     0
  9
$DIMALTRND
 40
0.0
  9
$DIMAZIN
 70
     0
  9
$DIMDSEP
 70
    46
  9
$DIMATFIT
 70
     3
  9
$DIMFRAC
 70
     0
  9
$DIMLDRBLK
  1

  9
$DIMLUNIT
 70
     2
  9
$DIMLWD
 70
    -2
  9
$DIMLWE
 70
    -2
  9
$DIMTMOVE
 70
     0
  9
$DIMFXL
 40
1.0
  9
$DIMFXLON
 70
     0
  9
$DIMJOGANG
 40
0.7853981633974483
  9
$DIMTFILL
 70
     0
  9
$DIMTFILLCLR
 70
     0
  9
$DIMARCSYM
 70
     0
  9
$DIMLTYPE
  6

  9
$DIMLTEX1
  6

  9
$DIMLTEX2
  6

  9
$DIMTXTDIRECTION
 70
     0
  9
$LUNITS
 70
     2
  9
$LUPREC
 70
     4
  9
$SKETCHINC
 40
0.1
  9
$FILLETRAD
 40
0.5
  9
$AUNITS
 70
     0
  9
$AUPREC
 70
     0
  9
$MENU
  1
.
  9
$ELEVATION
 40
0.0
  9
$PELEVATION
 40
0.0
  9
$THICKNESS
 40
0.0
  9
$LIMCHECK
 70
     0
  9
$CHAMFERA
 40
0.0
  9
$CHAMFERB
 40
0.0
  9
$CHAMFERC
 40
0.0
  9
$CHAMFERD
 40
0.0
  9
$SKPOLY
 70
     0
  9
$TDCREATE
 40
2458168.984457893
  9
$TDUCREATE
 40
2458168.942791227
  9
$TDUPDATE
 40
2458168.984458067
  9
$TDUUPDATE
 40
2458168.9427914
  9
$TDINDWG
 40
0.0000000116
  9
$TDUSRTIMER
 40
0.0000000116
  9
$USRTIMER
 70
     1
  9
$ANGBASE
 50
0.0
  9
$ANGDIR
 70
     0
  9
$PDMODE
 70
     0
  9
$PDSIZE
 40
0.0
  9
$PLINEWID
 40
0.0
  9
$SPLFRAME
 70
     0
  9
$SPLINETYPE
 70
     6
  9
$SPLINESEGS
 70
     8
  9
$HANDSEED
  5
1E0
  9
$SURFTAB1
 70
     6
  9
$SURFTAB2
 70
     6
  9
$SURFTYPE
 70
     6
  9
$SURFU
 70
     6
  9
$SURFV
 70
     6
  9
$UCSBASE
  2

  9
$UCSNAME
  2

  9
$UCSORG
 10
0.0
 20
0.0
 30
0.0
  9
$UCSXDIR
 10
1.0
 20
0.0
 30
0.0
  9
$UCSYDIR
 10
0.0
 20
1.0
 30
0.0
  9
$UCSORTHOREF
  2

  9
$UCSORTHOVIEW
 70
     0
  9
$UCSORGTOP
 10
0.0
 20
0.0
 30
0.0
  9
$UCSORGBOTTOM
 10
0.0
 20
0.0
 30
0.0
  9
$UCSORGLEFT
 10
0.0
 20
0.0
 30
0.0
  9
$UCSORGRIGHT
 10
0.0
 20
0.0
 30
0.0
  9
$UCSORGFRONT
 10
0.0
 20
0.0
 30
0.0
  9
$UCSORGBACK
 10
0.0
 20
0.0
 30
0.0
  9
$PUCSBASE
  2

  9
$PUCSNAME
  2

  9
$PUCSORG
 10
0.0
 20
0.0
 30
0.0
  9
$PUCSXDIR
 10
1.0
 20
0.0
 30
0.0
  9
$PUCSYDIR
 10
0.0
 20
1.0
 30
0.0
  9
$PUCSORTHOREF
  2

  9
$PUCSORTHOVIEW
 70
     0
  9
$PUCSORGTOP
 10
0.0
 20
0.0
 30
0.0
  9
$PUCSORGBOTTOM
 10
0.0
 20
0.0
 30
0.0
  9
$PUCSORGLEFT
 10
0.0
 20
0.0
 30
0.0
  9
$PUCSORGRIGHT
 10
0.0
 20
0.0
 30
0.0
  9
$PUCSORGFRONT
 10
0.0
 20
0.0
 30
0.0
  9
$PUCSORGBACK
 10
0.0
 20
0.0
 30
0.0
  9
$USERI1
 70
     0
  9
$USERI2
 70
     0
  9
$USERI3
 70
     0
  9
$USERI4
 70
     0
  9
$USERI5
 70
     0
  9
$USERR1
 40
0.0
  9
$USERR2
 40
0.0
  9
$USERR3
 40
0.0
  9
$USERR4
 40
0.0
  9
$USERR5
 40
0.0
  9
$WORLDVIEW
 70
     1
  9
$SHADEDGE
 70
     3
  9
$SHADEDIF
 70
    70
  9
$TILEMODE
 70
     1
  9
$MAXACTVP
 70
    64
  9
$PINSBASE
 10
0.0
 20
0.0
 30
0.0
  9
$PLIMCHECK
 70
     0
  9
$PEXTMIN
 10
1.000000000000000E+20
 20
1.000000000000000E+20
 30
1.000000000000000E+20
  9
$PEXTMAX
 10
-1.000000000000000E+20
 20
-1.000000000000000E+20
 30
-1.000000000000000E+20
  9
$PLIMMIN
 10
0.0
 20
0.0
  9
$PLIMMAX
 10
12.0
 20
9.0
  9
$UNITMODE
 70
     0
  9
$VISRETAIN
 70
     1
  9
$PLINEGEN
 70
     0
  9
$PSLTSCALE
 70
     1
  9
$TREEDEPTH
 70
  3020
  9
$CMLSTYLE
  2
Standard
  9
$CMLJUST
 70
     0
  9
$CMLSCALE
 40
1.0
  9
$PROXYGRAPHICS
 70
     1
  9
$MEASUREMENT
 70
     0
  9
$CELWEIGHT
370
    -1
  9
$ENDCAPS
280
     0
  9
$JOINSTYLE
280
     0
  9
$LWDISPLAY
290
     0
  9
$INSUNITS
 70
     1
  9
$HYPERLINKBASE
  1

  9
$STYLESHEET
  1

  9
$XEDIT
290
     1
  9
$CEPSNTYPE
380
     0
  9
$PSTYLEMODE
290
     1
  9
$FINGERPRINTGUID
  2
{F16FBF73-9788-43E6-908E-7A42441048DD}
  9
$VERSIONGUID
  2
{FAEB1C32-E019-11D5-929B-00C0DF256EC4}
  9
$EXTNAMES
290
     1
  9
$PSVPSCALE
 40
0.0
  9
$OLESTARTUP
290
     0
  9
$SORTENTS
280
   127
  9
$INDEXCTL
280
     0
  9
$HIDETEXT
280
     1
  9
$XCLIPFRAME
280
     2
  9
$HALOGAP
280
     0
  9
$OBSCOLOR
 70
   257
  9
$OBSLTYPE
280
     0
  9
$INTERSECTIONDISPLAY
280
     0
  9
$INTERSECTIONCOLOR
 70
   257
  9
$DIMASSOC
280
     2
  9
$PROJECTNAME
  1

  9
$CAMERADISPLAY
290
     0
  9
$LENSLENGTH
 40
50.0
  9
$CAMERAHEIGHT
 40
0.0
  9
$STEPSPERSEC
 40
2.0
  9
$STEPSIZE
 40
6.0
  9
$3DDWFPREC
 40
2.0
  9
$PSOLWIDTH
 40
0.25
  9
$PSOLHEIGHT
 40
4.0
  9
$LOFTANG1
 40
1.570796326794897
  9
$LOFTANG2
 40
1.570796326794897
  9
$LOFTMAG1
 40
0.0
  9
$LOFTMAG2
 40
0.0
  9
$LOFTPARAM
 70
     7
  9
$LOFTNORMALS
280
     1
  9
$LATITUDE
 40
37.795
  9
$LONGITUDE
 40
-122.394
  9
$NORTHDIRECTION
 40
0.0
  9
$TIMEZONE
 70
 -8000
  9
$LIGHTGLYPHDISPLAY
280
     1
  9
$TILEMODELIGHTSYNCH
280
     1
  9
$CMATERIAL
347
44
  9
$SOLIDHIST
280
     0
  9
$SHOWHIST
280
     1
  9
$DWFFRAME
280
     2
  9
$DGNFRAME
280
     2
  9
$REALWORLDSCALE
290
     1
  9
$INTERFERECOLOR
 62
   256
  9
$CSHADOW
280
     0
  9
$SHADOWPLANELOCATION
 40
0.0
  0
ENDSEC
  0
SECTION
  2
CLASSES
  0
CLASS
  1
ACDBDICTIONARYWDFLT
  2
AcDbDictionaryWithDefault
  3
ObjectDBX Classes
 90
        0
 91
        4
280
     0
281
     0
  0
CLASS
  1
VISUALSTYLE
  2
AcDbVisualStyle
  3
ObjectDBX Classes
 90
     4095
 91
        4
280
     0
281
     0
  0
CLASS
  1
MATERIAL
  2
AcDbMaterial
  3
ObjectDBX Classes
 90
     1153
 91
        4
280
     0
281
     0
  0
CLASS
  1
SCALE
  2
AcDbScale
  3
ObjectDBX Classes
 90
     1153
 91
        4
280
     0
281
     0
  0
CLASS
  1
TABLESTYLE
  2
AcDbTableStyle
  3
ObjectDBX Classes
 90
     4095
 91
        4
280
     0
281
     0
  0
CLASS
  1
MLEADERSTYLE
  2
AcDbMLeaderStyle
  3
ACDB_MLEADERSTYLE_CLASS
 90
     4095
 91
        4
280
     0
281
     0
  0
CLASS
  1
SUN
  2
AcDbSun
  3
SCENEOE
 90
     1153
 91
        4
280
     0
281
     0
  0
CLASS
  1
DICTIONARYVAR
  2
AcDbDictionaryVar
  3
ObjectDBX Classes
 90
        0
 91
        4
280
     0
281
     0
  0
CLASS
  1
CELLSTYLEMAP
  2
AcDbCellStyleMap
  3
ObjectDBX Classes
 90
     1152
 91
        4
280
     0
281
     0
  0
ENDSEC
  0
SECTION
  2
TABLES
  0
TABLE
  2
VPORT
  5
8
330
0
100
AcDbSymbolTable
 70
     1
  0
VPORT
  5
29
330
8
100
AcDbSymbolTableRecord
100
AcDbViewportTableRecord
  2
*Active
 70
     0
 10
0.0
 20
0.0
 11
1.0
 21
1.0
 12
-1.1645
 22
0.1714687499999998
 13
0.0
 23
0.0
 14
0.5
 24
0.5
 15
0.5
 25
0.5
 16
0.0
 26
0.0
 36
1.0
 17
0.0
 27
0.0
 37
0.0
 40
5.752608749999999
 41
0.7063178075512262
 42
50.0
 43
0.0
 44
0.0
 50
0.0
 51
0.0
 71
     0
 72
   100
 73
     1
 74
     3
 75
     0
 76
     0
 77
     0
 78
     0
281
     0
 65
     1
110
0.0
120
0.0
130
0.0
111
1.0
121
0.0
131
0.0
112
0.0
122
1.0
132
0.0
 79
     0
146
0.0
348
2F
 60
     3
 61
     5
292
     1
282
     1
141
0.0
142
0.0
 63
   250
361
6D
  0
ENDTAB
  0
TABLE
  2
LTYPE
  5
5
330
0
100
AcDbSymbolTable
 70
     3
  0
LTYPE
  5
14
330
5
100
AcDbSymbolTableRecord
100
AcDbLinetypeTableRecord
  2
ByBlock
 70
     0
  3

 72
    65
 73
     0
 40
0.0
  0
LTYPE
  5
15
330
5
100
AcDbSymbolTableRecord
100
AcDbLinetypeTableRecord
  2
ByLayer
 70
     0
  3

 72
    65
 73
     0
 40
0.0
  0
LTYPE
  5
16
330
5
100
AcDbSymbolTableRecord
100
AcDbLinetypeTableRecord
  2
Continuous
 70
     0
  3
Solid line
 72
    65
 73
     0
 40
0.0
  0
LTYPE
  5
A6
330
5
100
AcDbSymbolTableRecord
100
AcDbLinetypeTableRecord
  2
Dashed
 70
     0
  3

 72
    65
 73
     2
 40
2.0
 49
1.0
 74
     0
 49
-1.0
 74
     0
  0
LTYPE
  5
130
330
5
100
AcDbSymbolTableRecord
100
AcDbLinetypeTableRecord
  2
Center
 70
     0
  3

 72
    65
 73
     4
 40
1.5
 49
0.45
 74
     0
 49
-0.5
 74
     0
 49
0.05
 74
     0
 49
-0.5
 74
     0
  0
ENDTAB
  0
TABLE
  2
LAYER
  5
2
330
0
100
AcDbSymbolTable
 70
     7
  0
LAYER
  5
10
330
2
100
AcDbSymbolTableRecord
100
AcDbLayerTableRecord
  2
0
 70
     0
 62
     7
  6
Continuous
370
    -3
390
F
347
46
348
0
  0
LAYER
  5
72
330
2
100
AcDbSymbolTableRecord
100
AcDbLayerTableRecord
  2
AM_6
 70
     0
 62
    -2
  6
Continuous
370
    35
390
F
347
46
348
0
  0
LAYER
  5
A7
330
2
100
AcDbSymbolTableRecord
100
AcDbLayerTableRecord
  2
AM_9
 70
     0
 62
     6
  6
Dashed
370
    25
390
F
347
46
348
0
  0
LAYER
  5
B9
330
2
100
AcDbSymbolTableRecord
100
AcDbLayerTableRecord
  2
AM_5
 70
     0
 62
     3
  6
Continuous
370
    25
390
F
347
46
348
0
  0
LAYER
  5
BE
330
2
100
AcDbSymbolTableRecord
100
AcDbLayerTableRecord
  2
AM_4
 70
     0
 62
     7
  6
Continuous
370
    50
390
F
347
46
348
0
  0
LAYER
  5
131
330
2
100
AcDbSymbolTableRecord
100
AcDbLayerTableRecord
  2
AM_7
 70
     0
 62
     7
  6
Center
370
    25
390
F
347
46
348
0
  0
LAYER
  5
1CF
330
2
100
AcDbSymbolTableRecord
100
AcDbLayerTableRecord
  2
ConnectionPoints
 70
     0
 62
     7
  6
Continuous
370
    50
390
F
347
46
348
0
  0
ENDTAB
  0
TABLE
  2
STYLE
  5
3
330
0
100
AcDbSymbolTable
 70
     1
  0
STYLE
  5
11
330
3
100
AcDbSymbolTableRecord
100
AcDbTextStyleTableRecord
  2
Standard
 70
     0
 40
0.0
 41
1.0
 50
0.0
 71
     0
 42
0.2
  3
txt
  4

  0
ENDTAB
  0
TABLE
  2
VIEW
  5
6
330
0
100
AcDbSymbolTable
 70
     0
  0
ENDTAB
  0
TABLE
  2
UCS
  5
7
330
0
100
AcDbSymbolTable
 70
     0
  0
ENDTAB
  0
TABLE
  2
APPID
  5
9
330
0
100
AcDbSymbolTable
 70
     1
  0
APPID
  5
12
330
9
100
AcDbSymbolTableRecord
100
AcDbRegAppTableRecord
  2
ACAD
 70
     0
  0
ENDTAB
  0
TABLE
  2
DIMSTYLE
  5
A
330
0
100
AcDbSymbolTable
 70
     1
100
AcDbDimStyleTable
  0
DIMSTYLE
105
27
330
A
100
AcDbSymbolTableRecord
100
AcDbDimStyleTableRecord
  2
Standard
 70
     0
178
     0
340
11
  0
ENDTAB
  0
TABLE
  2
BLOCK_RECORD
  5
1
330
0
100
AcDbSymbolTable
 70
     6
  0
BLOCK_RECORD
  5
1F
330
1
100
AcDbSymbolTableRecord
100
AcDbBlockTableRecord
  2
*Model_Space
340
22
 70
     0
280
     1
281
     0
  0
BLOCK_RECORD
  5
1B
330
1
100
AcDbSymbolTableRecord
100
AcDbBlockTableRecord
  2
*Paper_Space
340
1E
 70
     0
280
     1
281
     0
  0
BLOCK_RECORD
  5
23
330
1
100
AcDbSymbolTableRecord
100
AcDbBlockTableRecord
  2
*Paper_Space0
340
26
 70
     0
280
     1
281
     0
  0
BLOCK_RECORD
  5
6E
330
1
100
AcDbSymbolTableRecord
100
AcDbBlockTableRecord
  2
1_070859_2
340
0
102
{BLKREFS
331
6F
102
}
 70
     0
280
     1
281
     0
  0
BLOCK_RECORD
  5
8D
330
1
100
AcDbSymbolTableRecord
100
AcDbBlockTableRecord
  2
2_1_15_16CS2i_0_in_070859_2
340
0
102
{BLKREFS
331
8E
102
}
 70
     0
280
     1
281
     0
  0
BLOCK_RECORD
  5
D2
330
1
100
AcDbSymbolTableRecord
100
AcDbBlockTableRecord
  2
3_070021i_0_in_070859_2
340
0
102
{BLKREFS
331
D3
102
}
 70
     0
280
     1
281
     0
  0
BLOCK_RECORD
  5
136
330
1
100
AcDbSymbolTableRecord
100
AcDbBlockTableRecord
  2
4_405015E_Inch_0_in_070859_2
340
0
102
{BLKREFS
331
137
102
}
 70
     0
280
     1
281
     0
  0
BLOCK_RECORD
  5
174
330
1
100
AcDbSymbolTableRecord
100
AcDbBlockTableRecord
  2
5_070859H_0_in_070859_2
340
0
102
{BLKREFS
331
175
102
}
 70
     0
280
     1
281
     0
  0
ENDTAB
  0
ENDSEC
  0
SECTION
  2
BLOCKS
  0
BLOCK
  5
20
330
1F
100
AcDbEntity
  8
0
100
AcDbBlockBegin
  2
*Model_Space
 70
     0
 10
0.0
 20
0.0
 30
0.0
  3
*Model_Space
  1

  0
ENDBLK
  5
21
330
1F
100
AcDbEntity
  8
0
100
AcDbBlockEnd
  0
BLOCK
  5
1C
330
1B
100
AcDbEntity
 67
     1
  8
0
100
AcDbBlockBegin
  2
*Paper_Space
 70
     0
 10
0.0
 20
0.0
 30
0.0
  3
*Paper_Space
  1

  0
ENDBLK
  5
1D
330
1B
100
AcDbEntity
 67
     1
  8
0
100
AcDbBlockEnd
  0
BLOCK
  5
24
330
23
100
AcDbEntity
  8
0
100
AcDbBlockBegin
  2
*Paper_Space0
 70
     0
 10
0.0
 20
0.0
 30
0.0
  3
*Paper_Space0
  1

  0
ENDBLK
  5
25
330
23
100
AcDbEntity
  8
0
100
AcDbBlockEnd
  0
BLOCK
  5
70
330
6E
100
AcDbEntity
  8
0
100
AcDbBlockBegin
  2
1_070859_2
 70
     2
 10
0.0
 20
0.0
 30
0.0
  3
1_070859_2
  1

  0
ATTDEF
  5
73
330
6E
100
AcDbEntity
  8
AM_6
100
AcDbText
 10
5.09609375
 20
2.991375
 30
0.0
 40
0.5
  1
S-2000 Flange Bearing - Square Labyrinth Seal
100
AcDbAttributeDefinition
  3

  2
NN
 70
     8
280
     0
  0
ATTDEF
  5
74
330
6E
100
AcDbEntity
  8
AM_6
100
AcDbText
 10
5.09609375
 20
2.491375
 30
0.0
 40
0.5
  1
S-2000 4 Bolt Square Flange Bearing -Inch
100
AcDbAttributeDefinition
  3

  2
NT
 70
     8
280
     0
  0
ATTDEF
  5
75
330
6E
100
AcDbEntity
  8
AM_6
100
AcDbText
 10
5.09609375
 20
1.991375
 30
0.0
 40
0.5
  1
070859
100
AcDbAttributeDefinition
  3

  2
NB
 70
     8
280
     0
  0
ATTDEF
  5
76
330
6E
100
AcDbEntity
  8
AM_6
100
AcDbText
 10
5.09609375
 20
1.491375
 30
0.0
 40
0.5
  1
$PN.
100
AcDbAttributeDefinition
  3

  2
NBSYN
 70
     8
280
     0
  0
ATTDEF
  5
77
330
6E
100
AcDbEntity
  8
AM_6
100
AcDbText
 10
5.09609375
 20
0.9913749999999997
 30
0.0
 40
0.5
  1
070859
100
AcDbAttributeDefinition
  3

  2
LINA
 70
     8
280
     0
  0
ATTDEF
  5
78
330
6E
100
AcDbEntity
  8
AM_6
100
AcDbText
 10
5.09609375
 20
0.4913749999999997
 30
0.0
 40
0.5
  1
1-15/16
100
AcDbAttributeDefinition
  3

  2
SS
 70
     8
280
     0
  0
ATTDEF
  5
79
330
6E
100
AcDbEntity
  8
AM_6
100
AcDbText
 10
5.09609375
 20
-0.0086250000000003
 30
0.0
 40
0.5
  1
070859
100
AcDbAttributeDefinition
  3

  2
PN
 70
     8
280
     0
  0
ATTDEF
  5
7A
330
6E
100
AcDbEntity
  8
AM_6
100
AcDbText
 10
5.09609375
 20
-0.5086250000000003
 30
0.0
 40
0.5
  1
F4S-S2-115LE
100
AcDbAttributeDefinition
  3

  2
DESCRIPTION
 70
     8
280
     0
  0
ATTDEF
  5
7B
330
6E
100
AcDbEntity
  8
AM_6
100
AcDbText
 10
5.09609375
 20
-1.008625
 30
0.0
 40
0.5
  1
Expansion Type
100
AcDbAttributeDefinition
  3

  2
EF
 70
     8
280
     0
  0
ATTDEF
  5
7C
330
6E
100
AcDbEntity
  8
AM_6
100
AcDbText
 10
5.09609375
 20
-1.508625
 30
0.0
 40
0.5
  1
Labyrinth Seal
100
AcDbAttributeDefinition
  3

  2
ST
 70
     8
280
     0
  0
ATTDEF
  5
7D
330
6E
100
AcDbEntity
  8
AM_6
100
AcDbText
 10
5.09609375
 20
-2.008625
 30
0.0
 40
0.5
  1
2-27/32
100
AcDbAttributeDefinition
  3

  2
A
 70
     8
280
     0
  0
ATTDEF
  5
7E
330
6E
100
AcDbEntity
  8
AM_6
100
AcDbText
 10
5.09609375
 20
-2.508625
 30
0.0
 40
0.5
  1
5-19/64
100
AcDbAttributeDefinition
  3

  2
B
 70
     8
280
     0
  0
ATTDEF
  5
7F
330
6E
100
AcDbEntity
  8
AM_6
100
AcDbText
 10
5.09609375
 20
-3.008625
 30
0.0
 40
0.5
  1
3-5/32
100
AcDbAttributeDefinition
  3

  2
C
 70
     8
280
     0
  0
ATTDEF
  5
80
330
6E
100
AcDbEntity
  8
AM_6
100
AcDbText
 10
5.09609375
 20
-3.508625
 30
0.0
 40
0.5
  1
4-1/16
100
AcDbAttributeDefinition
  3

  2
D
 70
     8
280
     0
  0
ATTDEF
  5
81
330
6E
100
AcDbEntity
  8
AM_6
100
AcDbText
 10
5.09609375
 20
-4.008625
 30
0.0
 40
0.5
  1
1/2
100
AcDbAttributeDefinition
  3

  2
F
 70
     8
280
     0
  0
ATTDEF
  5
82
330
6E
100
AcDbEntity
  8
AM_6
100
AcDbText
 10
5.09609375
 20
-4.508625
 30
0.0
 40
0.5
  1
1-15/64
100
AcDbAttributeDefinition
  3

  2
G
 70
     8
280
     0
  0
ATTDEF
  5
83
330
6E
100
AcDbEntity
  8
AM_6
100
AcDbText
 10
5.09609375
 20
-5.008625
 30
0.0
 40
0.5
  1
9/16
100
AcDbAttributeDefinition
  3

  2
H
 70
     8
280
     0
  0
ATTDEF
  5
84
330
6E
100
AcDbEntity
  8
AM_6
100
AcDbText
 10
5.09609375
 20
-5.508625
 30
0.0
 40
0.5
  1
4-31/32
100
AcDbAttributeDefinition
  3

  2
J
 70
     8
280
     0
  0
ATTDEF
  5
85
330
6E
100
AcDbEntity
  8
AM_6
100
AcDbText
 10
5.09609375
 20
-6.008625
 30
0.0
 40
0.5
  1
5-3/4
100
AcDbAttributeDefinition
  3

  2
K
 70
     8
280
     0
  0
ATTDEF
  5
86
330
6E
100
AcDbEntity
  8
AM_6
100
AcDbText
 10
5.09609375
 20
-6.508625
 30
0.0
 40
0.5
  1
3-7/16
100
AcDbAttributeDefinition
  3

  2
L
 70
     8
280
     0
  0
ATTDEF
  5
87
330
6E
100
AcDbEntity
  8
AM_6
100
AcDbText
 10
5.09609375
 20
-7.008625
 30
0.0
 40
0.5
  1
2-29/32
100
AcDbAttributeDefinition
  3

  2
N
 70
     8
280
     0
  0
ATTDEF
  5
88
330
6E
100
AcDbEntity
  8
AM_6
100
AcDbText
 10
5.09609375
 20
-7.508625
 30
0.0
 40
0.5
  1
5/16
100
AcDbAttributeDefinition
  3

  2
P
 70
     8
280
     0
  0
ATTDEF
  5
89
330
6E
100
AcDbEntity
  8
AM_6
100
AcDbText
 10
5.09609375
 20
-8.008625
 30
0.0
 40
0.5
  1
1/4
100
AcDbAttributeDefinition
  3

  2
X
 70
     8
280
     0
  0
ATTDEF
  5
8A
330
6E
100
AcDbEntity
  8
AM_6
100
AcDbText
 10
5.09609375
 20
-8.508625
 30
0.0
 40
0.5
  1
0.020
100
AcDbAttributeDefinition
  3

  2
Y
 70
     8
280
     0
  0
ATTDEF
  5
8B
330
6E
100
AcDbEntity
  8
AM_6
100
AcDbText
 10
5.09609375
 20
-9.008625
 30
0.0
 40
0.5
  1
2-19/64
100
AcDbAttributeDefinition
  3

  2
Z
 70
     8
280
     0
  0
ATTDEF
  5
8C
330
6E
100
AcDbEntity
  8
AM_6
100
AcDbText
 10
5.09609375
 20
-9.508625
 30
0.0
 40
0.5
  1
baldor
100
AcDbAttributeDefinition
  3

  2
COMPANY
 70
     8
280
     0
  0
INSERT
  5
8E
330
6E
100
AcDbEntity
  8
0
100
AcDbBlockReference
  2
2_1_15_16CS2i_0_in_070859_2
 10
0.0
 20
0.0
 30
0.0
  0
INSERT
  5
D3
330
6E
100
AcDbEntity
  8
0
100
AcDbBlockReference
  2
3_070021i_0_in_070859_2
 10
0.0
 20
0.0
 30
0.0
  0
INSERT
  5
137
330
6E
100
AcDbEntity
  8
0
100
AcDbBlockReference
  2
4_405015E_Inch_0_in_070859_2
 10
0.0
 20
0.0
 30
0.0
  0
INSERT
  5
175
330
6E
100
AcDbEntity
  8
0
100
AcDbBlockReference
  2
5_070859H_0_in_070859_2
 10
0.0
 20
0.0
 30
0.0
  0
ENDBLK
  5
71
330
6E
100
AcDbEntity
  8
0
100
AcDbBlockEnd
  0
BLOCK
  5
8F
330
8D
100
AcDbEntity
  8
0
100
AcDbBlockBegin
  2
2_1_15_16CS2i_0_in_070859_2
 70
     2
 10
0.0
 20
0.0
 30
0.0
  3
2_1_15_16CS2i_0_in_070859_2
  1

  0
ATTDEF
  5
91
330
8D
100
AcDbEntity
  8
AM_6
100
AcDbText
 10
2.72775
 20
1.71875
 30
0.0
 40
0.5
  1
S-2000 Collar -Inch
100
AcDbAttributeDefinition
  3

  2
NN
 70
     8
280
     0
  0
ATTDEF
  5
92
330
8D
100
AcDbEntity
  8
AM_6
100
AcDbText
 10
2.72775
 20
1.21875
 30
0.0
 40
0.5
  1
S-2000 Bearings
100
AcDbAttributeDefinition
  3

  2
NT
 70
     8
280
     0
  0
ATTDEF
  5
93
330
8D
100
AcDbEntity
  8
AM_6
100
AcDbText
 10
2.72775
 20
0.7187500000000004
 30
0.0
 40
0.5
  1
1-15/16CS2i
100
AcDbAttributeDefinition
  3

  2
NB
 70
     8
280
     0
  0
ATTDEF
  5
94
330
8D
100
AcDbEntity
  8
AM_6
100
AcDbText
 10
2.72775
 20
0.2187500000000004
 30
0.0
 40
0.5
  1
$BORE.CS2i
100
AcDbAttributeDefinition
  3

  2
NBSYN
 70
     8
280
     0
  0
ATTDEF
  5
95
330
8D
100
AcDbEntity
  8
AM_6
100
AcDbText
 10
2.72775
 20
-0.2812499999999996
 30
0.0
 40
0.5
  1
1-15/16CS2i
100
AcDbAttributeDefinition
  3

  2
LINA
 70
     8
280
     0
  0
ATTDEF
  5
96
330
8D
100
AcDbEntity
  8
AM_6
100
AcDbText
 10
2.72775
 20
-0.7812499999999996
 30
0.0
 40
0.5
  1
1-15/16
100
AcDbAttributeDefinition
  3

  2
BORE
 70
     8
280
     0
  0
ATTDEF
  5
97
330
8D
100
AcDbEntity
  8
AM_6
100
AcDbText
 10
2.72775
 20
-1.28125
 30
0.0
 40
0.5
  1
1.937500
100
AcDbAttributeDefinition
  3

  2
BORE1
 70
     8
280
     0
  0
ATTDEF
  5
98
330
8D
100
AcDbEntity
  8
AM_6
100
AcDbText
 10
2.72775
 20
-1.78125
 30
0.0
 40
0.5
  1
3-7/16
100
AcDbAttributeDefinition
  3

  2
L1
 70
     8
280
     0
  0
ATTDEF
  5
99
330
8D
100
AcDbEntity
  8
AM_6
100
AcDbText
 10
2.72775
 20
-2.28125
 30
0.0
 40
0.5
  1
3.43750
100
AcDbAttributeDefinition
  3

  2
L
 70
     8
280
     0
  0
ATTDEF
  5
9A
330
8D
100
AcDbEntity
  8
AM_6
100
AcDbText
 10
2.72775
 20
-2.78125
 30
0.0
 40
0.5
  1
3.34375
100
AcDbAttributeDefinition
  3

  2
L2
 70
     8
280
     0
  0
ATTDEF
  5
9B
330
8D
100
AcDbEntity
  8
AM_6
100
AcDbText
 10
2.72775
 20
-3.28125
 30
0.0
 40
0.5
  1
3.50
100
AcDbAttributeDefinition
  3

  2
A
 70
     8
280
     0
  0
ATTDEF
  5
9C
330
8D
100
AcDbEntity
  8
AM_6
100
AcDbText
 10
2.72775
 20
-3.78125
 30
0.0
 40
0.5
  1
1.62
100
AcDbAttributeDefinition
  3

  2
B
 70
     8
280
     0
  0
ATTDEF
  5
9D
330
8D
100
AcDbEntity
  8
AM_6
100
AcDbText
 10
2.72775
 20
-4.28125
 30
0.0
 40
0.5
  1
2.31
100
AcDbAttributeDefinition
  3

  2
C
 70
     8
280
     0
  0
ATTDEF
  5
9E
330
8D
100
AcDbEntity
  8
AM_6
100
AcDbText
 10
2.72775
 20
-4.78125
 30
0.0
 40
0.5
  1
3.50
100
AcDbAttributeDefinition
  3

  2
D
 70
     8
280
     0
  0
ATTDEF
  5
9F
330
8D
100
AcDbEntity
  8
AM_6
100
AcDbText
 10
2.72775
 20
-5.28125
 30
0.0
 40
0.5
  1
0.41
100
AcDbAttributeDefinition
  3

  2
E
 70
     8
280
     0
  0
ATTDEF
  5
A0
330
8D
100
AcDbEntity
  8
AM_6
100
AcDbText
 10
2.72775
 20
-5.78125
 30
0.0
 40
0.5
  1
0.317
100
AcDbAttributeDefinition
  3

  2
F
 70
     8
280
     0
  0
ATTDEF
  5
A1
330
8D
100
AcDbEntity
  8
AM_6
100
AcDbText
 10
2.72775
 20
-6.28125
 30
0.0
 40
0.5
  1
3/8-16
100
AcDbAttributeDefinition
  3

  2
CS
 70
     8
280
     0
  0
ATTDEF
  5
A2
330
8D
100
AcDbEntity
  8
AM_6
100
AcDbText
 10
2.72775
 20
-6.78125
 30
0.0
 40
0.5
  1
0.3750
100
AcDbAttributeDefinition
  3

  2
NDM
 70
     8
280
     0
  0
ATTDEF
  5
A3
330
8D
100
AcDbEntity
  8
AM_6
100
AcDbText
 10
2.72775
 20
-7.28125
 30
0.0
 40
0.5
  1
0.3070
100
AcDbAttributeDefinition
  3

  2
KDM
 70
     8
280
     0
  0
ATTDEF
  5
A4
330
8D
100
AcDbEntity
  8
AM_6
100
AcDbText
 10
2.72775
 20
-7.78125
 30
0.0
 40
0.5
  1
1
100
AcDbAttributeDefinition
  3

  2
DD
 70
     8
280
     0
  0
ATTDEF
  5
A5
330
8D
100
AcDbEntity
  8
AM_6
100
AcDbText
 10
2.72775
 20
-8.28125
 30
0.0
 40
0.5
  1
baldor
100
AcDbAttributeDefinition
  3

  2
COMPANY
 70
     8
280
     0
  0
LINE
  5
A8
330
8D
100
AcDbEntity
  8
AM_9
100
AcDbLine
 10
-2.4356
 20
1.163849999999998
 30
0.0
 11
-2.4356
 21
1.6849
 31
0.0
  0
LINE
  5
A9
330
8D
100
AcDbEntity
  8
AM_9
100
AcDbLine
 10
-2.7429
 20
1.671829317052831
 30
0.0
 11
-2.7429
 21
1.163849999999998
 31
0.0
  0
LINE
  5
AA
330
8D
100
AcDbEntity
  8
AM_9
100
AcDbLine
 10
-2.7429
 20
1.163849999999998
 30
0.0
 11
-2.4356
 21
1.163849999999998
 31
0.0
  0
LINE
  5
AB
330
8D
100
AcDbEntity
  8
AM_9
100
AcDbLine
 10
-2.7429
 20
1.163849999999998
 30
0.0
 11
-2.751583859590501
 21
1.155166140409497
 31
0.0
  0
LINE
  5
AC
330
8D
100
AcDbEntity
  8
AM_9
100
AcDbLine
 10
-2.427018486589466
 20
1.155268486589464
 30
0.0
 11
-2.4356
 21
1.163849999999998
 31
0.0
  0
LINE
  5
AD
330
8D
100
AcDbEntity
  8
AM_9
100
AcDbLine
 10
-2.58925
 20
1.6849
 30
0.0
 11
-2.4356
 21
1.6849
 31
0.0
  0
LINE
  5
AE
330
8D
100
AcDbEntity
  8
AM_9
100
AcDbLine
 10
-2.4356
 20
1.6849
 30
0.0
 11
-2.401749999999999
 21
1.71875
 31
0.0
  0
LWPOLYLINE
  5
AF
330
8D
100
AcDbEntity
  8
AM_9
100
AcDbPolyline
 90
       39
 70
     0
 43
0.0
 10
-2.469520700757612
 20
0.3779306153227044
 10
-2.454823278082185
 20
0.396982385124557
 10
-2.443058271443682
 20
0.4176293360648101
 10
-2.433051432537048
 20
0.4439182519710251
 10
-2.427681658753937
 20
0.4710708270096682
 10
-2.427172827735138
 20
0.4993266874148425
 10
-2.431756840884039
 20
0.5269257457283382
 10
-2.441514255474737
 20
0.5533184649773224
 10
-2.456166029846858
 20
0.5775465560041885
 10
-2.475078571350549
 20
0.5985069496908864
 10
-2.497990925088391
 20
0.6160441469379788
 10
-2.522759356111882
 20
0.6288048404677827
 10
-2.549865795223777
 20
0.6374696658014952
 10
-2.575921165229202
 20
0.6414014566813416
 10
-2.602397638067584
 20
0.6414329664232032
 10
-2.626947315440199
 20
0.6378349976865144
 10
-2.650462472618771
 20
0.630908090442375
 10
-2.67265029802289
 20
0.620674193172453
 10
-2.692687085965838
 20
0.6075673369347369
 10
-2.711314809653995
 20
0.5906952130942349
 10
-2.726695301954541
 20
0.5713661406842145
 10
-2.739330868890706
 20
0.548212272045049
 10
-2.747654421512372
 20
0.523295179199191
 10
-2.751542849706191
 20
0.4958213139565711
 10
-2.750426650013289
 20
0.4677970280308617
 10
-2.744108942332216
 20
0.4394979658413348
 10
-2.732754583658788
 20
0.4122797271984379
 10
-2.716682303738319
 20
0.3872468336572877
 10
-2.696222829888135
 20
0.3650564070238989
 10
-2.672928283758052
 20
0.3473968064820112
 10
-2.646661069580451
 20
0.3340073621827003
 10
-2.620586514347769
 20
0.3261834974355968
 10
-2.59347461584844
 20
0.3229852316942747
 10
-2.568271520915244
 20
0.324387128498041
 10
-2.54366924203597
 20
0.3298323777881113
 10
-2.520605322039371
 20
0.3390024523154564
 10
-2.499328384257335
 20
0.3514964254536935
 10
-2.483586269731258
 20
0.3638867207156672
 10
-2.469520700757612
 20
0.3779306153227044
  0
LINE
  5
B0
330
8D
100
AcDbEntity
  8
AM_9
100
AcDbLine
 10
-2.90625
 20
-1.155
 30
0.0
 11
-2.27225
 21
-1.155
 31
0.0
  0
LINE
  5
B1
330
8D
100
AcDbEntity
  8
AM_9
100
AcDbLine
 10
-2.27225
 20
1.155
 30
0.0
 11
-2.427391874627086
 21
1.155
 31
0.0
  0
LINE
  5
B2
330
8D
100
AcDbEntity
  8
AM_9
100
AcDbLine
 10
-2.751352342789092
 20
1.155
 30
0.0
 11
-2.90625
 21
1.155
 31
0.0
  0
LWPOLYLINE
  5
B3
330
8D
100
AcDbEntity
  8
AM_9
100
AcDbPolyline
 90
       21
 70
     0
 43
0.0
 10
-2.751749999999292
 20
1.154999999999884
 10
-2.751650986662971
 20
1.15498379342257
 10
-2.748007120128049
 20
1.154393873255462
 10
-2.739381994249786
 20
1.153048235227185
 10
-2.725448885410672
 20
1.151026350938733
 10
-2.707635052348584
 20
1.148717802829725
 10
-2.685021329989636
 20
1.146240524342773
 10
-2.661065148278001
 20
1.144177281125706
 10
-2.633673654001466
 20
1.142534733138016
 10
-2.608013695572541
 20
1.141696141547657
 10
-2.580891036554752
 20
1.1415500348332
 10
-2.556489733160895
 20
1.14206930960979
 10
-2.532328803751199
 20
1.143188797776558
 10
-2.51014754678549
 20
1.144743350316933
 10
-2.489492928870742
 20
1.146640022566709
 10
-2.470648942507808
 20
1.148743921308349
 10
-2.454537017588641
 20
1.150821876167579
 10
-2.441345250353041
 20
1.152712392277049
 10
-2.432108838042087
 20
1.154136323883433
 10
-2.427323151141624
 20
1.154906315782236
 10
-2.426750000000018
 20
1.154999999999997
  0
ELLIPSE
  5
B4
330
8D
100
AcDbEntity
  8
AM_9
100
AcDbEllipse
 10
-2.589250000000001
 20
0.491864263926912
 30
0.0
 11
0.1536499999999985
 21
0.0
 31
0.0
210
0.0
220
0.0
230
1.0
 40
0.9063077870366517
 41
2.268517582065749
 42
3.141592653589793
  0
LINE
  5
B5
330
8D
100
AcDbEntity
  8
AM_9
100
AcDbLine
 10
-2.4356
 20
0.4918642639269121
 30
0.0
 11
-2.4356
 21
0.7120695092069046
 31
0.0
  0
LINE
  5
B6
330
8D
100
AcDbEntity
  8
AM_9
100
AcDbLine
 10
-2.7429
 20
0.7065456216338938
 30
0.0
 11
-2.7429
 21
0.4918642639269121
 31
0.0
  0
ELLIPSE
  5
B7
330
8D
100
AcDbEntity
  8
AM_9
100
AcDbEllipse
 10
-2.589249999999999
 20
0.4918642639269121
 30
0.0
 11
0.1536500000000003
 21
0.0
 31
0.0
210
0.0
220
0.0
230
1.0
 40
0.9063077870366488
 41
3.141592653589793
 42
7.195070406291689
  0
LINE
  5
B8
330
8D
100
AcDbEntity
  8
AM_9
100
AcDbLine
 10
-2.58925
 20
0.5728153177287234
 30
0.0
 11
-2.58925
 21
0.8428289026684154
 31
0.0
  0
LINE
  5
BA
330
8D
100
AcDbEntity
  8
AM_5
100
AcDbLine
 10
-2.77675
 20
1.671875
 30
0.0
 11
-2.77675
 21
1.155
 31
0.0
  0
LINE
  5
BB
330
8D
100
AcDbEntity
  8
AM_5
100
AcDbLine
 10
-2.683
 20
1.13
 30
0.0
 11
-2.77675
 21
1.13
 31
0.0
  0
LINE
  5
BC
330
8D
100
AcDbEntity
  8
AM_5
100
AcDbLine
 10
-2.401749999999999
 20
1.71875
 30
0.0
 11
-2.401749999999999
 21
1.155
 31
0.0
  0
LINE
  5
BD
330
8D
100
AcDbEntity
  8
AM_5
100
AcDbLine
 10
-2.4955
 20
1.13
 30
0.0
 11
-2.401749999999999
 21
1.13
 31
0.0
  0
ELLIPSE
  5
BF
330
8D
100
AcDbEntity
  8
AM_4
100
AcDbEllipse
 10
-2.58925
 20
0.4918642639269135
 30
0.0
 11
0.1536499999999976
 21
0.0
 31
0.0
210
0.0
220
0.0
230
1.0
 40
0.906307787036654
 41
0.9118850991120908
 42
2.268517582065761
  0
LWPOLYLINE
  5
C0
330
8D
100
AcDbEntity
  8
AM_4
100
AcDbPolyline
 90
       11
 70
     0
 43
0.0
 10
-2.74289999933858
 20
0.7065519853387418
 10
-2.7419025561079
 20
0.7223677525029673
 10
-2.736816316752
 20
0.7450798938133635
 10
-2.727607698273059
 20
0.7665635542834761
 10
-2.714461551078411
 20
0.7862473905750144
 10
-2.69781201614388
 20
0.8036135625653672
 10
-2.678002309063228
 20
0.8182307055177177
 10
-2.655684647229059
 20
0.829699244922787
 10
-2.631453436775501
 20
0.8376852193488313
 10
-2.60602282237596
 20
0.8420324150572488
 10
-2.58925
 20
0.8428289026684153
  0
ELLIPSE
  5
C1
330
8D
100
AcDbEntity
  8
AM_4
100
AcDbEllipse
 10
-2.58925
 20
0.7120695092069039
 30
0.0
 11
0.1536500000000007
 21
0.0
 31
0.0
210
0.0
220
0.0
230
1.0
 40
0.9063077870366495
 41
0.0
 42
1.570796326794897
  0
LINE
  5
C2
330
8D
100
AcDbEntity
  8
AM_4
100
AcDbLine
 10
-2.58925
 20
-1.71875
 30
0.0
 11
-2.58925
 21
0.5728153177287234
 31
0.0
  0
ELLIPSE
  5
C3
330
8D
100
AcDbEntity
  8
AM_4
100
AcDbEllipse
 10
-2.58925
 20
0.712069509206905
 30
0.0
 11
0.1536500000000003
 21
0.0
 31
0.0
210
0.0
220
0.0
230
1.0
 40
0.9063077870366502
 41
4.71238898038469
 42
6.283185307179586
  0
LWPOLYLINE
  5
C4
330
8D
100
AcDbEntity
  8
AM_4
100
AcDbPolyline
 90
       11
 70
     0
 43
0.0
 10
-2.58925
 20
0.5643205197120527
 10
-2.614982005179206
 20
0.5663866780101692
 10
-2.639987211398877
 20
0.5724584470094645
 10
-2.663538552679179
 20
0.5823953811810795
 10
-2.685002610598775
 20
0.5958305184129878
 10
-2.703791329003416
 20
0.6124404091607075
 10
-2.719357577861147
 20
0.6316444970415929
 10
-2.731230991528922
 20
0.652934049888534
 10
-2.739093985596427
 20
0.6756163970244478
 10
-2.74265603294159
 20
0.6989667970565889
 10
-2.74289999933858
 20
0.7065519853387418
  0
LWPOLYLINE
  5
C5
330
8D
100
AcDbEntity
  8
AM_4
100
AcDbPolyline
 90
       11
 70
     0
 43
0.0
 10
-2.58925
 20
1.664799595484393
 10
-2.614618605699439
 20
1.664992870639431
 10
-2.639987211398877
 20
1.665572561537183
 10
-2.663223567875274
 20
1.666442252785616
 10
-2.685002610598775
 20
1.667550975401196
 10
-2.703555966665376
 20
1.668719133689162
 10
-2.719357577861147
 20
1.6698759459738
 10
-2.731102043975834
 20
1.670832036892136
 10
-2.739093985596427
 20
1.671529513094047
 10
-2.742650876683711
 20
1.671852123272968
 10
-2.742899999999953
 20
1.671874999999996
  0
LINE
  5
C6
330
8D
100
AcDbEntity
  8
AM_4
100
AcDbLine
 10
-2.800583333333333
 20
-1.671875
 30
0.0
 11
-2.58925
 21
-1.671875
 31
0.0
  0
LINE
  5
C7
330
8D
100
AcDbEntity
  8
AM_4
100
AcDbLine
 10
-2.742401316279622
 20
1.671875
 30
0.0
 11
-2.800583333333333
 21
1.671875
 31
0.0
  0
LINE
  5
C8
330
8D
100
AcDbEntity
  8
AM_4
100
AcDbLine
 10
-2.90625
 20
1.566208333333333
 30
0.0
 11
-2.90625
 21
-1.566208333333333
 31
0.0
  0
ARC
  5
C9
330
8D
100
AcDbEntity
  8
AM_4
100
AcDbCircle
 10
-2.800583333333334
 20
-1.566208333333335
 30
0.0
 40
0.1056666666666652
100
AcDbArc
 50
180.0
 51
270.0
  0
ARC
  5
CA
330
8D
100
AcDbEntity
  8
AM_4
100
AcDbCircle
 10
-2.800583333333334
 20
1.566208333333335
 30
0.0
 40
0.1056666666666655
100
AcDbArc
 50
90.0
 51
180.0
  0
LINE
  5
CB
330
8D
100
AcDbEntity
  8
AM_4
100
AcDbLine
 10
-2.800583333333333
 20
1.671875
 30
0.0
 11
-2.800583333333333
 21
-1.671875
 31
0.0
  0
LINE
  5
CC
330
8D
100
AcDbEntity
  8
AM_4
100
AcDbLine
 10
-2.58925
 20
1.709483644408685
 30
0.0
 11
-2.58925
 21
0.8428289026684154
 31
0.0
  0
LWPOLYLINE
  5
CD
330
8D
100
AcDbEntity
  8
AM_4
100
AcDbPolyline
 90
       20
 70
     0
 43
0.0
 10
-2.58925
 20
0.8839935461136664
 10
-2.565706540255968
 20
0.8827704602397235
 10
-2.542505059594891
 20
0.8791269088512271
 10
-2.511305468457822
 20
0.8700088279071433
 10
-2.482360789565218
 20
0.8564042619296152
 10
-2.457018936387201
 20
0.8388475241516105
 10
-2.435577849004653
 20
0.8175785154073791
 10
-2.419474687719381
 20
0.7941216880186757
 10
-2.408280813820807
 20
0.768327344412466
 10
-2.402699539195478
 20
0.7423684323783799
 10
-2.402157654116658
 20
0.7157236493827165
 10
-2.406523576111536
 20
0.6900682453363575
 10
-2.415461959468603
 20
0.6652448531997145
 10
-2.428817395536486
 20
0.6418169275584542
 10
-2.446049729506365
 20
0.6205387968669153
 10
-2.46757216553087
 20
0.6012861805433024
 10
-2.492092373331685
 20
0.5853983471201033
 10
-2.520369991438691
 20
0.572788104769368
 10
-2.55043570963239
 20
0.564599505893966
 10
-2.58925
 20
0.560924466434642
  0
LINE
  5
CE
330
8D
100
AcDbEntity
  8
AM_4
100
AcDbLine
 10
-2.58925
 20
-1.71875
 30
0.0
 11
-2.27225
 21
-1.71875
 31
0.0
  0
LINE
  5
CF
330
8D
100
AcDbEntity
  8
AM_4
100
AcDbLine
 10
-2.27225
 20
1.71875
 30
0.0
 11
-2.401749999999999
 21
1.71875
 31
0.0
  0
LWPOLYLINE
  5
D0
330
8D
100
AcDbEntity
  8
AM_4
100
AcDbPolyline
 90
       11
 70
     0
 43
0.0
 10
-2.401750000000039
 20
1.718749999999996
 10
-2.402157654116658
 20
1.718709945620833
 10
-2.406411980617995
 20
1.718297037634551
 10
-2.415461959468603
 20
1.717449711877597
 10
-2.428601993982014
 20
1.716294780493615
 10
-2.446049729506365
 20
1.714899617463105
 10
-2.467263923217217
 20
1.713416876990633
 10
-2.492092373331685
 20
1.711980611192172
 10
-2.519975531611538
 20
1.710753888887781
 10
-2.55043570963239
 20
1.709882600018857
 10
-2.58925
 20
1.709483644408685
  0
LINE
  5
D1
330
8D
100
AcDbEntity
  8
AM_4
100
AcDbLine
 10
-2.27225
 20
1.71875
 30
0.0
 11
-2.27225
 21
-1.71875
 31
0.0
  0
ENDBLK
  5
90
330
8D
100
AcDbEntity
  8
0
100
AcDbBlockEnd
  0
BLOCK
  5
D4
330
D2
100
AcDbEntity
  8
0
100
AcDbBlockBegin
  2
3_070021i_0_in_070859_2
 70
     2
 10
0.0
 20
0.0
 30
0.0
  3
3_070021i_0_in_070859_2
  1

  0
ATTDEF
  5
D6
330
D2
100
AcDbEntity
  8
AM_6
100
AcDbText
 10
4.9375
 20
1.77165
 30
0.0
 40
0.5
  1
S-2000 Insert -Inch
100
AcDbAttributeDefinition
  3

  2
NN
 70
     8
280
     0
  0
ATTDEF
  5
D7
330
D2
100
AcDbEntity
  8
AM_6
100
AcDbText
 10
4.9375
 20
1.27165
 30
0.0
 40
0.5
  1
S-2000 Bearings
100
AcDbAttributeDefinition
  3

  2
NT
 70
     8
280
     0
  0
ATTDEF
  5
D8
330
D2
100
AcDbEntity
  8
AM_6
100
AcDbText
 10
4.9375
 20
0.77165
 30
0.0
 40
0.5
  1
070021i
100
AcDbAttributeDefinition
  3

  2
NB
 70
     8
280
     0
  0
ATTDEF
  5
D9
330
D2
100
AcDbEntity
  8
AM_6
100
AcDbText
 10
4.9375
 20
0.2716499999999999
 30
0.0
 40
0.5
  1
$PN.i
100
AcDbAttributeDefinition
  3

  2
NBSYN
 70
     8
280
     0
  0
ATTDEF
  5
DA
330
D2
100
AcDbEntity
  8
AM_6
100
AcDbText
 10
4.9375
 20
-0.2283500000000001
 30
0.0
 40
0.5
  1
070021i
100
AcDbAttributeDefinition
  3

  2
LINA
 70
     8
280
     0
  0
ATTDEF
  5
DB
330
D2
100
AcDbEntity
  8
AM_6
100
AcDbText
 10
4.9375
 20
-0.72835
 30
0.0
 40
0.5
  1
1-15/16
100
AcDbAttributeDefinition
  3

  2
SS
 70
     8
280
     0
  0
ATTDEF
  5
DC
330
D2
100
AcDbEntity
  8
AM_6
100
AcDbText
 10
4.9375
 20
-1.22835
 30
0.0
 40
0.5
  1
2.31
100
AcDbAttributeDefinition
  3

  2
CC
 70
     8
280
     0
  0
ATTDEF
  5
DD
330
D2
100
AcDbEntity
  8
AM_6
100
AcDbText
 10
4.9375
 20
-1.72835
 30
0.0
 40
0.5
  1
1.937500
100
AcDbAttributeDefinition
  3

  2
SS1
 70
     8
280
     0
  0
ATTDEF
  5
DE
330
D2
100
AcDbEntity
  8
AM_6
100
AcDbText
 10
4.9375
 20
-2.22835
 30
0.0
 40
0.5
  1
070021
100
AcDbAttributeDefinition
  3

  2
PN
 70
     8
280
     0
  0
ATTDEF
  5
DF
330
D2
100
AcDbEntity
  8
AM_6
100
AcDbText
 10
4.9375
 20
-2.72835
 30
0.0
 40
0.5
  1
INS-S2-115L
100
AcDbAttributeDefinition
  3

  2
DESCRIPTION
 70
     8
280
     0
  0
ATTDEF
  5
E0
330
D2
100
AcDbEntity
  8
AM_6
100
AcDbText
 10
4.9375
 20
-3.22835
 30
0.0
 40
0.5
  1
Labyrinth Seal
100
AcDbAttributeDefinition
  3

  2
ST
 70
     8
280
     0
  0
ATTDEF
  5
E1
330
D2
100
AcDbEntity
  8
AM_6
100
AcDbText
 10
4.9375
 20
-3.72835
 30
0.0
 40
0.5
  1
2
100
AcDbAttributeDefinition
  3

  2
ST1
 70
     8
280
     0
  0
ATTDEF
  5
E2
330
D2
100
AcDbEntity
  8
AM_6
100
AcDbText
 10
4.9375
 20
-4.22835
 30
0.0
 40
0.5
  1
3.5433
100
AcDbAttributeDefinition
  3

  2
A
 70
     8
280
     0
  0
ATTDEF
  5
E3
330
D2
100
AcDbEntity
  8
AM_6
100
AcDbText
 10
4.9375
 20
-4.72835
 30
0.0
 40
0.5
  1
61/64
100
AcDbAttributeDefinition
  3

  2
B
 70
     8
280
     0
  0
ATTDEF
  5
E4
330
D2
100
AcDbEntity
  8
AM_6
100
AcDbText
 10
4.9375
 20
-5.22835
 30
0.0
 40
0.5
  1
2-27/32
100
AcDbAttributeDefinition
  3

  2
C
 70
     8
280
     0
  0
ATTDEF
  5
E5
330
D2
100
AcDbEntity
  8
AM_6
100
AcDbText
 10
4.9375
 20
-5.72835
 30
0.0
 40
0.5
  1
0.977
100
AcDbAttributeDefinition
  3

  2
D
 70
     8
280
     0
  0
ATTDEF
  5
E6
330
D2
100
AcDbEntity
  8
AM_6
100
AcDbText
 10
4.9375
 20
-6.22835
 30
0.0
 40
0.5
  1
3-11/32
100
AcDbAttributeDefinition
  3

  2
E
 70
     8
280
     0
  0
ATTDEF
  5
E7
330
D2
100
AcDbEntity
  8
AM_6
100
AcDbText
 10
4.9375
 20
-6.72835
 30
0.0
 40
0.5
  1
0.53125
100
AcDbAttributeDefinition
  3

  2
F
 70
     8
280
     0
  0
ATTDEF
  5
E8
330
D2
100
AcDbEntity
  8
AM_6
100
AcDbText
 10
4.9375
 20
-7.22835
 30
0.0
 40
0.5
  1
1
100
AcDbAttributeDefinition
  3

  2
DD
 70
     8
280
     0
  0
ATTDEF
  5
E9
330
D2
100
AcDbEntity
  8
AM_6
100
AcDbText
 10
4.9375
 20
-7.72835
 30
0.0
 40
0.5
  1
baldor
100
AcDbAttributeDefinition
  3

  2
COMPANY
 70
     8
280
     0
  0
LINE
  5
EA
330
D2
100
AcDbEntity
  8
AM_9
100
AcDbLine
 10
-2.79425
 20
1.154877756637566
 30
0.0
 11
-2.79425
 21
0.96875
 31
0.0
  0
LINE
  5
EB
330
D2
100
AcDbEntity
  8
AM_9
100
AcDbLine
 10
-2.38425
 20
0.96875
 30
0.0
 11
-2.38425
 21
1.154962221367664
 31
0.0
  0
LINE
  5
EC
330
D2
100
AcDbEntity
  8
AM_9
100
AcDbLine
 10
-2.79425
 20
0.4881240923105078
 30
0.0
 11
-2.79425
 21
0.4093796815139764
 31
0.0
  0
LINE
  5
ED
330
D2
100
AcDbEntity
  8
AM_9
100
AcDbLine
 10
-2.38425
 20
0.409348864830776
 30
0.0
 11
-2.38425
 21
0.4881240923105079
 31
0.0
  0
LWPOLYLINE
  5
EE
330
D2
100
AcDbEntity
  8
AM_9
100
AcDbPolyline
 90
        4
 70
     0
 43
0.0
 10
-2.789631691816198
 20
0.4482175976841641
 10
-2.790403715279822
 20
0.4447857261341431
 10
-2.794189807045839
 20
0.4139080907666526
 10
-2.794249998916321
 20
0.4094305446793951
  0
LWPOLYLINE
  5
EF
330
D2
100
AcDbEntity
  8
AM_9
100
AcDbPolyline
 90
        5
 70
     0
 43
0.0
 10
-2.735508536636953
 20
0.5350709230224998
 10
-2.745808288531905
 20
0.5255160061022681
 10
-2.765873180344151
 20
0.5013190575168165
 10
-2.780928285948385
 20
0.474140388213466
 10
-2.789631691816198
 20
0.4482175976841641
  0
LWPOLYLINE
  5
F0
330
D2
100
AcDbEntity
  8
AM_9
100
AcDbPolyline
 90
        5
 70
     0
 43
0.0
 10
-2.651906935710829
 20
0.5779171041027115
 10
-2.663660510139437
 20
0.5744793289699689
 10
-2.693934066716186
 20
0.5623204337713851
 10
-2.721698712124414
 20
0.5458236567720393
 10
-2.735508536636953
 20
0.5350709230224998
  0
LWPOLYLINE
  5
F1
330
D2
100
AcDbEntity
  8
AM_9
100
AcDbPolyline
 90
        5
 70
     0
 43
0.0
 10
-2.444605615509502
 20
0.5364403404323445
 10
-2.467591342376678
 20
0.552947421118201
 10
-2.497048434943482
 20
0.5679731851036358
 10
-2.529296348718526
 20
0.5785936452282089
 10
-2.541110808075298
 20
0.5812544605692642
  0
LWPOLYLINE
  5
F2
330
D2
100
AcDbEntity
  8
AM_9
100
AcDbPolyline
 90
        6
 70
     0
 43
0.0
 10
-2.38896045408515
 20
0.4485943149320419
 10
-2.39172134857059
 20
0.4583885309759159
 10
-2.403371992397568
 20
0.4861321433266658
 10
-2.42019696560148
 20
0.5115312804343691
 10
-2.441597258118033
 20
0.5338620959593247
 10
-2.444605615509502
 20
0.5364403404323445
  0
LWPOLYLINE
  5
F3
330
D2
100
AcDbEntity
  8
AM_9
100
AcDbPolyline
 90
        3
 70
     0
 43
0.0
 10
-2.384250000500865
 20
0.409398453444428
 10
-2.385386064059495
 20
0.4288430010579504
 10
-2.38896045408515
 20
0.4485943149320419
  0
LWPOLYLINE
  5
F4
330
D2
100
AcDbEntity
  8
AM_9
100
AcDbPolyline
 90
       11
 70
     0
 43
0.0
 10
-2.794249998916321
 20
0.4094305446793951
 10
-2.792174362693866
 20
0.3829860779201023
 10
-2.784633226411993
 20
0.3523329055112975
 10
-2.771767528997691
 20
0.3229483459410855
 10
-2.754007328877597
 20
0.2955979838589718
 10
-2.731342169532938
 20
0.2707236158708055
 10
-2.704719681517259
 20
0.2495882433293515
 10
-2.674422214352253
 20
0.2327810981844399
 10
-2.641632986684229
 20
0.221126527520521
 10
-2.615669867213706
 20
0.2160601660521318
 10
-2.58925
 20
0.2143466326527852
  0
LWPOLYLINE
  5
F5
330
D2
100
AcDbEntity
  8
AM_9
100
AcDbPolyline
 90
        8
 70
     0
 43
0.0
 10
-2.4650600802537
 20
0.6310522357933955
 10
-2.455168559939227
 20
0.6242252158873672
 10
-2.431219404785717
 20
0.6033408369111423
 10
-2.411495335435469
 20
0.5787257344100865
 10
-2.396805624917102
 20
0.551232841494723
 10
-2.387691907098632
 20
0.5216613630812377
 10
-2.384269874684364
 20
0.4907096659398388
 10
-2.384250000576729
 20
0.4881380287629355
  0
LWPOLYLINE
  5
F6
330
D2
100
AcDbEntity
  8
AM_9
100
AcDbPolyline
 90
       10
 70
     0
 43
0.0
 10
-2.717007478856362
 20
0.6286995562887309
 10
-2.709731352391878
 20
0.6333634238699369
 10
-2.680150303144283
 20
0.648436972693003
 10
-2.64787500327932
 20
0.6590286972977397
 10
-2.613895425831918
 20
0.6649324833827778
 10
-2.579654582061243
 20
0.6659645037566182
 10
-2.545687555419073
 20
0.6622764730365414
 10
-2.513210575943977
 20
0.6539702262409812
 10
-2.482842745364521
 20
0.6412787325986631
 10
-2.4650600802537
 20
0.6310522357933955
  0
LWPOLYLINE
  5
F7
330
D2
100
AcDbEntity
  8
AM_9
100
AcDbPolyline
 90
        7
 70
     0
 43
0.0
 10
-2.794249999363772
 20
0.4881094545278523
 10
-2.793044998115517
 20
0.5081490698992479
 10
-2.786548212665202
 20
0.5379371389228211
 10
-2.774670443226722
 20
0.565963361436172
 10
-2.75758651427101
 20
0.5916166019356104
 10
-2.735889899355452
 20
0.6141873703698317
 10
-2.717007478856362
 20
0.6286995562887309
  0
LWPOLYLINE
  5
F8
330
D2
100
AcDbEntity
  8
AM_9
100
AcDbPolyline
 90
       11
 70
     0
 43
0.0
 10
-2.384250000576729
 20
0.4881380287629355
 10
-2.386657761293979
 20
0.4596740657920109
 10
-2.394613953789169
 20
0.4290386003036939
 10
-2.407952571434621
 20
0.3997597701124795
 10
-2.426226360126782
 20
0.372643524411945
 10
-2.449316196985514
 20
0.3482500085262513
 10
-2.476323889191244
 20
0.3276763021680447
 10
-2.506810959345696
 20
0.3115511382649416
 10
-2.539685264890733
 20
0.3005496543899619
 10
-2.564276989680055
 20
0.296086952188345
 10
-2.58925
 20
0.2945809289154055
  0
LWPOLYLINE
  5
F9
330
D2
100
AcDbEntity
  8
AM_9
100
AcDbPolyline
 90
       11
 70
     0
 43
0.0
 10
-2.58925
 20
0.2143466326527852
 10
-2.555270758055889
 20
0.2171971026045974
 10
-2.522260007254816
 20
0.2255469264103231
 10
-2.491189613290676
 20
0.2391432046943243
 10
-2.462836626444858
 20
0.2574272711717
 10
-2.437661888553895
 20
0.2801846132755332
 10
-2.416715047962213
 20
0.3063918783944212
 10
-2.400504046756649
 20
0.3355575662992906
 10
-2.38967199397038
 20
0.3664847618072958
 10
-2.384673780560767
 20
0.3977455807645244
 10
-2.384250000500865
 20
0.409398453444428
  0
LWPOLYLINE
  5
FA
330
D2
100
AcDbEntity
  8
AM_9
100
AcDbPolyline
 90
       11
 70
     0
 43
0.0
 10
-2.58925
 20
0.9468112602308868
 10
-2.555755003627408
 20
0.9474035451073634
 10
-2.522260007254816
 20
0.9491781822334519
 10
-2.491595648858121
 20
0.9518339848928179
 10
-2.462836626444858
 20
0.9552130147321026
 10
-2.437973840198574
 20
0.9588201286082112
 10
-2.416715047962213
 20
0.9624031754803604
 10
-2.400685925789876
 20
0.965405600036959
 10
-2.38967199397038
 20
0.9676171469081968
 10
-2.384684388217628
 20
0.9686581708858375
 10
-2.384250000000972
 20
0.9687499999997943
  0
LINE
  5
FB
330
D2
100
AcDbEntity
  8
AM_9
100
AcDbLine
 10
-0.0625000000000001
 20
0.96875
 30
0.0
 11
-2.38425
 21
0.96875
 31
0.0
  0
LINE
  5
FC
330
D2
100
AcDbEntity
  8
AM_9
100
AcDbLine
 10
-2.79425
 20
0.9687499999999999
 30
0.0
 11
-2.90625
 21
0.96875
 31
0.0
  0
LINE
  5
FD
330
D2
100
AcDbEntity
  8
AM_9
100
AcDbLine
 10
-2.90625
 20
-0.96875
 30
0.0
 11
-0.0625000000000001
 21
-0.96875
 31
0.0
  0
LINE
  5
FE
330
D2
100
AcDbEntity
  8
AM_9
100
AcDbLine
 10
-2.783685414587284
 20
0.9665695489439595
 30
0.0
 11
-2.79424999999808
 21
0.9687499999995938
 31
0.0
  0
LINE
  5
FF
330
D2
100
AcDbEntity
  8
AM_9
100
AcDbLine
 10
-2.576116960491782
 20
0.9469023388009459
 30
0.0
 11
-2.593699217936017
 21
0.9468217139674409
 31
0.0
  0
LWPOLYLINE
  5
100
330
D2
100
AcDbEntity
  8
AM_9
100
AcDbPolyline
 90
       11
 70
     0
 43
0.0
 10
-2.79424999999808
 20
0.9687499999995938
 10
-2.792263454135101
 20
0.9683315677286707
 10
-2.784633226411993
 20
0.9667606568655759
 10
-2.771995862267386
 20
0.9642860637154571
 10
-2.754007328877597
 20
0.9610393019637028
 10
-2.731701064148255
 20
0.9574674240813472
 10
-2.704719681517259
 20
0.9538264044624145
 10
-2.674897955376678
 20
0.950677197980579
 10
-2.641632986684229
 20
0.9482592155070048
 10
-2.615900336268896
 20
0.9471862556663526
 10
-2.58925
 20
0.9468112602308868
  0
LWPOLYLINE
  5
101
330
D2
100
AcDbEntity
  8
AM_9
100
AcDbPolyline
 90
       11
 70
     0
 43
0.0
 10
-2.58925
 20
0.2945809289154055
 10
-2.62335843538501
 20
0.2974090635686094
 10
-2.656498002252064
 20
0.3057019191665715
 10
-2.687697523479572
 20
0.3192274373077653
 10
-2.716155193923415
 20
0.3374457705877584
 10
-2.74129195531181
 20
0.360055348193841
 10
-2.762174449120014
 20
0.3861162654203096
 10
-2.778249307750009
 20
0.4150579676835031
 10
-2.788955549264894
 20
0.4457796282625968
 10
-2.793863652474625
 20
0.4770156832445993
 10
-2.794249999363772
 20
0.4881094545278523
  0
LWPOLYLINE
  5
102
330
D2
100
AcDbEntity
  8
AM_9
100
AcDbPolyline
 90
       11
 70
     0
 43
0.0
 10
-2.58925
 20
1.136661779070626
 10
-2.622874001126032
 20
1.137158992160605
 10
-2.656498002252064
 20
1.138649328725439
 10
-2.68728633428095
 20
1.140881730434512
 10
-2.716155193923415
 20
1.1437241486673
 10
-2.740979194740476
 20
1.146743976891352
 10
-2.762174449120014
 20
1.149740346818994
 10
-2.778071069430812
 20
1.15223842856459
 10
-2.788955549264894
 20
1.154072054252763
 10
-2.793854431485292
 20
1.154929856477621
 10
-2.794249999999383
 20
1.15499999999989
  0
LINE
  5
103
330
D2
100
AcDbEntity
  8
AM_9
100
AcDbLine
 10
-2.27225
 20
1.155
 30
0.0
 11
-2.384464888604288
 21
1.155
 31
0.0
  0
LINE
  5
104
330
D2
100
AcDbEntity
  8
AM_9
100
AcDbLine
 10
-1.741
 20
1.155
 30
0.0
 11
-1.921875
 21
1.155
 31
0.0
  0
LINE
  5
105
330
D2
100
AcDbEntity
  8
AM_9
100
AcDbLine
 10
-2.793559419942035
 20
1.155
 30
0.0
 11
-2.90625
 21
1.155
 31
0.0
  0
LINE
  5
106
330
D2
100
AcDbEntity
  8
AM_9
100
AcDbLine
 10
-1.921875
 20
-1.155
 30
0.0
 11
-1.741
 21
-1.155
 31
0.0
  0
LINE
  5
107
330
D2
100
AcDbEntity
  8
AM_9
100
AcDbLine
 10
-2.90625
 20
-1.155
 30
0.0
 11
-2.27225
 21
-1.155
 31
0.0
  0
LINE
  5
108
330
D2
100
AcDbEntity
  8
AM_9
100
AcDbLine
 10
-2.395118378553239
 20
1.153120586255205
 30
0.0
 11
-2.384250000000512
 21
1.154999999999909
 31
0.0
  0
LINE
  5
109
330
D2
100
AcDbEntity
  8
AM_9
100
AcDbLine
 10
-2.601697183144449
 20
1.136729929388778
 30
0.0
 11
-2.583734740588993
 21
1.136675159439306
 31
0.0
  0
LWPOLYLINE
  5
10A
330
D2
100
AcDbEntity
  8
AM_9
100
AcDbPolyline
 90
       11
 70
     0
 43
0.0
 10
-2.384250000000512
 20
1.154999999999909
 10
-2.386563289603336
 20
1.154591660532598
 10
-2.394613953789169
 20
1.153205615007395
 10
-2.407714750620486
 20
1.151066916719998
 10
-2.426226360126782
 20
1.148292953543438
 10
-2.448948368403657
 20
1.14528797593819
 10
-2.476323889191244
 20
1.142257548236119
 10
-2.506336840693594
 20
1.139681794180362
 10
-2.539685264890733
 20
1.13774191404134
 10
-2.564084828794659
 20
1.136940317625246
 10
-2.58925
 20
1.136661779070626
  0
LINE
  5
10B
330
D2
100
AcDbEntity
  8
AM_9
100
AcDbLine
 10
-0.0625000000000001
 20
-1.155
 30
0.0
 11
-0.0625000000000001
 21
1.155
 31
0.0
  0
LINE
  5
10C
330
D2
100
AcDbEntity
  8
AM_9
100
AcDbLine
 10
-0.0625000000000001
 20
1.155
 30
0.0
 11
-0.3379999999999994
 21
1.155
 31
0.0
  0
LINE
  5
10D
330
D2
100
AcDbEntity
  8
AM_9
100
AcDbLine
 10
-0.3379999999999994
 20
-1.155
 30
0.0
 11
-0.0625000000000001
 21
-1.155
 31
0.0
  0
LINE
  5
10E
330
D2
100
AcDbEntity
  8
AM_9
100
AcDbLine
 10
-0.4333124999999998
 20
1.41732
 30
0.0
 11
-0.5624999999999999
 21
1.41732
 31
0.0
  0
LINE
  5
10F
330
D2
100
AcDbEntity
  8
AM_9
100
AcDbLine
 10
-0.5624999999999999
 20
-1.41732
 30
0.0
 11
-0.4333124999999998
 21
-1.41732
 31
0.0
  0
LINE
  5
110
330
D2
100
AcDbEntity
  8
AM_9
100
AcDbLine
 10
-1.741
 20
-1.3220075
 30
0.0
 11
-1.741
 21
1.3220075
 31
0.0
  0
ARC
  5
111
330
D2
100
AcDbEntity
  8
AM_9
100
AcDbCircle
 10
-1.645687500000001
 20
1.3220075
 30
0.0
 40
0.0953124999999992
100
AcDbArc
 50
90.0
 51
180.0
  0
ARC
  5
112
330
D2
100
AcDbEntity
  8
AM_9
100
AcDbCircle
 10
-1.645687500000001
 20
-1.3220075
 30
0.0
 40
0.0953124999999992
100
AcDbArc
 50
180.0
 51
270.0
  0
LINE
  5
113
330
D2
100
AcDbEntity
  8
AM_9
100
AcDbLine
 10
-0.3379999999999994
 20
-1.3220075
 30
0.0
 11
-0.3379999999999994
 21
1.3220075
 31
0.0
  0
LINE
  5
114
330
D2
100
AcDbEntity
  8
AM_9
100
AcDbLine
 10
-0.4333124999999998
 20
-1.41732
 30
0.0
 11
-0.4333124999999998
 21
1.41732
 31
0.0
  0
ARC
  5
115
330
D2
100
AcDbEntity
  8
AM_9
100
AcDbCircle
 10
-0.433312499999999
 20
1.3220075
 30
0.0
 40
0.0953124999999996
100
AcDbArc
 50
0.0
 51
90.0
  0
ARC
  5
116
330
D2
100
AcDbEntity
  8
AM_9
100
AcDbCircle
 10
-0.433312499999999
 20
-1.3220075
 30
0.0
 40
0.0953124999999997
100
AcDbArc
 50
270.0
 51
0.0
  0
LINE
  5
117
330
D2
100
AcDbEntity
  8
AM_9
100
AcDbLine
 10
-1.6456875
 20
-1.41732
 30
0.0
 11
-1.6456875
 21
1.41732
 31
0.0
  0
LINE
  5
118
330
D2
100
AcDbEntity
  8
AM_9
100
AcDbLine
 10
-1.5160625
 20
1.41732
 30
0.0
 11
-1.6456875
 21
1.41732
 31
0.0
  0
LINE
  5
119
330
D2
100
AcDbEntity
  8
AM_9
100
AcDbLine
 10
-1.6456875
 20
-1.41732
 30
0.0
 11
-1.5160625
 21
-1.41732
 31
0.0
  0
LINE
  5
11A
330
D2
100
AcDbEntity
  8
AM_9
100
AcDbLine
 10
-0.991843749999999
 20
1.700784
 30
0.0
 11
-1.08715625
 21
1.700784
 31
0.0
  0
LINE
  5
11B
330
D2
100
AcDbEntity
  8
AM_9
100
AcDbLine
 10
-1.08715625
 20
-1.700784
 30
0.0
 11
-0.991843749999999
 21
-1.700784
 31
0.0
  0
LINE
  5
11C
330
D2
100
AcDbEntity
  8
AM_9
100
AcDbLine
 10
-1.5160625
 20
-1.6763375
 30
0.0
 11
-1.5160625
 21
1.6763375
 31
0.0
  0
ARC
  5
11D
330
D2
100
AcDbEntity
  8
AM_9
100
AcDbCircle
 10
-1.420749999999999
 20
1.676337499999998
 30
0.0
 40
0.0953125000000015
100
AcDbArc
 50
90.0
 51
179.9999991462263
  0
ARC
  5
11E
330
D2
100
AcDbEntity
  8
AM_9
100
AcDbCircle
 10
-1.420749999999999
 20
-1.676337499999999
 30
0.0
 40
0.0953125000000012
100
AcDbArc
 50
179.9999991462263
 51
270.0
  0
LINE
  5
11F
330
D2
100
AcDbEntity
  8
AM_9
100
AcDbLine
 10
-0.991843749999999
 20
-1.700784
 30
0.0
 11
-0.991843749999999
 21
1.700784
 31
0.0
  0
LINE
  5
120
330
D2
100
AcDbEntity
  8
AM_9
100
AcDbLine
 10
-0.991843749999999
 20
-1.700784
 30
0.0
 11
-0.9509292458236072
 21
-1.77165
 31
0.0
  0
LINE
  5
121
330
D2
100
AcDbEntity
  8
AM_9
100
AcDbLine
 10
-0.9509292458236072
 20
1.77165
 30
0.0
 11
-0.991843749999999
 21
1.700784
 31
0.0
  0
LINE
  5
122
330
D2
100
AcDbEntity
  8
AM_9
100
AcDbLine
 10
-1.42075
 20
-1.77165
 30
0.0
 11
-1.42075
 21
1.77165
 31
0.0
  0
LINE
  5
123
330
D2
100
AcDbEntity
  8
AM_9
100
AcDbLine
 10
-1.128070754176392
 20
1.77165
 30
0.0
 11
-1.42075
 21
1.77165
 31
0.0
  0
LINE
  5
124
330
D2
100
AcDbEntity
  8
AM_9
100
AcDbLine
 10
-1.42075
 20
-1.77165
 30
0.0
 11
-1.128070754176392
 21
-1.77165
 31
0.0
  0
LINE
  5
125
330
D2
100
AcDbEntity
  8
AM_9
100
AcDbLine
 10
-0.5629375
 20
-1.676337499999999
 30
0.0
 11
-0.5629375
 21
1.676337499999999
 31
0.0
  0
ARC
  5
126
330
D2
100
AcDbEntity
  8
AM_9
100
AcDbCircle
 10
-0.6582500000000006
 20
1.676337499999999
 30
0.0
 40
0.0953125000000006
100
AcDbArc
 50
0.0
 51
90.0
  0
ARC
  5
127
330
D2
100
AcDbEntity
  8
AM_9
100
AcDbCircle
 10
-0.6582500000000006
 20
-1.676337499999999
 30
0.0
 40
0.0953125000000006
100
AcDbArc
 50
270.0
 51
0.0
  0
LINE
  5
128
330
D2
100
AcDbEntity
  8
AM_9
100
AcDbLine
 10
-1.08715625
 20
-1.700784
 30
0.0
 11
-1.08715625
 21
1.700784
 31
0.0
  0
LINE
  5
129
330
D2
100
AcDbEntity
  8
AM_9
100
AcDbLine
 10
-1.128070754176392
 20
-1.77165
 30
0.0
 11
-1.128070754176392
 21
1.77165
 31
0.0
  0
LINE
  5
12A
330
D2
100
AcDbEntity
  8
AM_9
100
AcDbLine
 10
-1.08715625
 20
1.700784
 30
0.0
 11
-1.128070754176392
 21
1.77165
 31
0.0
  0
LINE
  5
12B
330
D2
100
AcDbEntity
  8
AM_9
100
AcDbLine
 10
-1.128070754176392
 20
-1.77165
 30
0.0
 11
-1.08715625
 21
-1.700784
 31
0.0
  0
LINE
  5
12C
330
D2
100
AcDbEntity
  8
AM_9
100
AcDbLine
 10
-0.6582499999999999
 20
-1.77165
 30
0.0
 11
-0.6582499999999999
 21
1.77165
 31
0.0
  0
LINE
  5
12D
330
D2
100
AcDbEntity
  8
AM_9
100
AcDbLine
 10
-0.9509292458236072
 20
-1.77165
 30
0.0
 11
-0.9509292458236072
 21
1.77165
 31
0.0
  0
LINE
  5
12E
330
D2
100
AcDbEntity
  8
AM_9
100
AcDbLine
 10
-0.6582499999999999
 20
1.77165
 30
0.0
 11
-0.9509292458236072
 21
1.77165
 31
0.0
  0
LINE
  5
12F
330
D2
100
AcDbEntity
  8
AM_9
100
AcDbLine
 10
-0.9509292458236072
 20
-1.77165
 30
0.0
 11
-0.6582499999999999
 21
-1.77165
 31
0.0
  0
LINE
  5
132
330
D2
100
AcDbEntity
  8
AM_7
100
AcDbLine
 10
-2.58925
 20
-0.0592307692307692
 30
0.0
 11
-2.58925
 21
1.7481875
 31
0.0
  0
LWPOLYLINE
  5
133
330
D2
100
AcDbEntity
  8
AM_4
100
AcDbPolyline
 90
        5
 70
     0
 43
0.0
 10
-2.541110808075298
 20
0.5812544605692642
 10
-2.563310385800202
 20
0.584589595465975
 10
-2.597440842116225
 20
0.5857837481735078
 10
-2.631336076776439
 20
0.5823704532999637
 10
-2.651906935710829
 20
0.5779171041027115
  0
LINE
  5
134
330
D2
100
AcDbEntity
  8
AM_4
100
AcDbLine
 10
-1.921875
 20
1.155
 30
0.0
 11
-2.27225
 21
1.155
 31
0.0
  0
LINE
  5
135
330
D2
100
AcDbEntity
  8
AM_4
100
AcDbLine
 10
-2.27225
 20
-1.155
 30
0.0
 11
-1.921875
 21
-1.155
 31
0.0
  0
ENDBLK
  5
D5
330
D2
100
AcDbEntity
  8
0
100
AcDbBlockEnd
  0
BLOCK
  5
138
330
136
100
AcDbEntity
  8
0
100
AcDbBlockBegin
  2
4_405015E_Inch_0_in_070859_2
 70
     2
 10
0.0
 20
0.0
 30
0.0
  3
4_405015E_Inch_0_in_070859_2
  1

  0
ATTDEF
  5
13A
330
136
100
AcDbEntity
  8
AM_6
100
AcDbText
 10
4.010403242770462
 20
2.959375
 30
0.0
 40
0.5
  1
405015E -Inch
100
AcDbAttributeDefinition
  3

  2
NN
 70
     8
280
     0
  0
ATTDEF
  5
13B
330
136
100
AcDbEntity
  8
AM_6
100
AcDbText
 10
4.010403242770462
 20
2.459375
 30
0.0
 40
0.5
  1
Grease Fitting
100
AcDbAttributeDefinition
  3

  2
NT
 70
     8
280
     0
  0
ATTDEF
  5
13C
330
136
100
AcDbEntity
  8
AM_6
100
AcDbText
 10
4.010403242770462
 20
1.959375
 30
0.0
 40
0.5
  1
405015E-Inch
100
AcDbAttributeDefinition
  3

  2
NB
 70
     8
280
     0
  0
ATTDEF
  5
13D
330
136
100
AcDbEntity
  8
AM_6
100
AcDbText
 10
4.010403242770462
 20
1.459375
 30
0.0
 40
0.5
  1
$MN.-Inch
100
AcDbAttributeDefinition
  3

  2
NBSYN
 70
     8
280
     0
  0
ATTDEF
  5
13E
330
136
100
AcDbEntity
  8
AM_6
100
AcDbText
 10
4.010403242770462
 20
0.9593750000000001
 30
0.0
 40
0.5
  1
405015E
100
AcDbAttributeDefinition
  3

  2
LINA
 70
     8
280
     0
  0
ATTDEF
  5
13F
330
136
100
AcDbEntity
  8
AM_6
100
AcDbText
 10
4.010403242770462
 20
0.4593750000000001
 30
0.0
 40
0.5
  1
405015E
100
AcDbAttributeDefinition
  3

  2
MN
 70
     8
280
     0
  0
ATTDEF
  5
140
330
136
100
AcDbEntity
  8
AM_6
100
AcDbText
 10
4.010403242770462
 20
-0.0406249999999999
 30
0.0
 40
0.5
  1
1/8 x 27PTF
100
AcDbAttributeDefinition
  3

  2
T
 70
     8
280
     0
  0
ATTDEF
  5
141
330
136
100
AcDbEntity
  8
AM_6
100
AcDbText
 10
4.010403242770462
 20
-0.5406249999999999
 30
0.0
 40
0.5
  1
baldor
100
AcDbAttributeDefinition
  3

  2
COMPANY
 70
     8
280
     0
  0
LINE
  5
142
330
136
100
AcDbEntity
  8
AM_9
100
AcDbLine
 10
-1.404090372472269
 20
2.319375
 30
0.0
 11
-1.080284627527731
 21
2.319375
 31
0.0
  0
LINE
  5
143
330
136
100
AcDbEntity
  8
AM_9
100
AcDbLine
 10
-1.080284627527731
 20
2.319375
 30
0.0
 11
-1.043569873218785
 21
2.356089754308946
 31
0.0
  0
LINE
  5
144
330
136
100
AcDbEntity
  8
AM_9
100
AcDbLine
 10
-1.440805126781215
 20
2.356089754308946
 30
0.0
 11
-1.404090372472269
 21
2.319375
 31
0.0
  0
LINE
  5
145
330
136
100
AcDbEntity
  8
AM_9
100
AcDbLine
 10
-1.440805126781215
 20
2.356089754308946
 30
0.0
 11
-1.043569873218785
 21
2.356089754308946
 31
0.0
  0
LINE
  5
146
330
136
100
AcDbEntity
  8
AM_9
100
AcDbLine
 10
-1.043569873218785
 20
2.356089754308946
 30
0.0
 11
-1.03643560277693
 21
2.584375
 31
0.0
  0
LINE
  5
147
330
136
100
AcDbEntity
  8
AM_9
100
AcDbLine
 10
-1.44793939722307
 20
2.584375
 30
0.0
 11
-1.440805126781215
 21
2.356089754308946
 31
0.0
  0
LINE
  5
148
330
136
100
AcDbEntity
  8
AM_5
100
AcDbLine
 10
-1.074038375147652
 20
2.519245087748463
 30
0.0
 11
-1.080284627527731
 21
2.319375
 31
0.0
  0
LINE
  5
149
330
136
100
AcDbEntity
  8
AM_5
100
AcDbLine
 10
-1.03643560277693
 20
2.584375000000001
 30
0.0
 11
-1.074038375147652
 21
2.519245087748463
 31
0.0
  0
LINE
  5
14A
330
136
100
AcDbEntity
  8
AM_5
100
AcDbLine
 10
-1.445903985751557
 20
2.519245087748463
 30
0.0
 11
-1.038471014248443
 21
2.519245087748463
 31
0.0
  0
LINE
  5
14B
330
136
100
AcDbEntity
  8
AM_5
100
AcDbLine
 10
-1.410336624852348
 20
2.519245087748463
 30
0.0
 11
-1.404090372472269
 21
2.319375
 31
0.0
  0
LINE
  5
14C
330
136
100
AcDbEntity
  8
AM_5
100
AcDbLine
 10
-1.44793939722307
 20
2.584375000000001
 30
0.0
 11
-1.410336624852348
 21
2.519245087748463
 31
0.0
  0
LINE
  5
14D
330
136
100
AcDbEntity
  8
AM_4
100
AcDbLine
 10
-1.1371875
 20
2.789375
 30
0.0
 11
-1.1371875
 21
2.819375
 31
0.0
  0
LINE
  5
14E
330
136
100
AcDbEntity
  8
AM_4
100
AcDbLine
 10
-1.3471875
 20
2.819375
 30
0.0
 11
-1.3471875
 21
2.789375
 31
0.0
  0
LINE
  5
14F
330
136
100
AcDbEntity
  8
AM_4
100
AcDbLine
 10
-1.4609375
 20
2.684375
 30
0.0
 11
-1.0234375
 21
2.684375
 31
0.0
  0
LINE
  5
150
330
136
100
AcDbEntity
  8
AM_4
100
AcDbLine
 10
-0.9895967572295387
 20
2.675307400303386
 30
0.0
 11
-1.0234375
 21
2.684375
 31
0.0
  0
LINE
  5
151
330
136
100
AcDbEntity
  8
AM_4
100
AcDbLine
 10
-1.4609375
 20
2.684375
 30
0.0
 11
-1.494778242770461
 21
2.675307400303386
 31
0.0
  0
LINE
  5
152
330
136
100
AcDbEntity
  8
AM_4
100
AcDbLine
 10
-1.0234375
 20
2.584375
 30
0.0
 11
-0.9895967572295387
 21
2.593442599696615
 31
0.0
  0
LINE
  5
153
330
136
100
AcDbEntity
  8
AM_4
100
AcDbLine
 10
-1.494778242770461
 20
2.593442599696615
 30
0.0
 11
-1.4609375
 21
2.584375
 31
0.0
  0
LINE
  5
154
330
136
100
AcDbEntity
  8
AM_4
100
AcDbLine
 10
-1.3471875
 20
2.789375
 30
0.0
 11
-1.1371875
 21
2.789375
 31
0.0
  0
LINE
  5
155
330
136
100
AcDbEntity
  8
AM_4
100
AcDbLine
 10
-1.3471875
 20
2.789375
 30
0.0
 11
-1.361007590734897
 21
2.757128121618573
 31
0.0
  0
LINE
  5
156
330
136
100
AcDbEntity
  8
AM_4
100
AcDbLine
 10
-1.123367409265102
 20
2.757128121618573
 30
0.0
 11
-1.1371875
 21
2.789375
 31
0.0
  0
LINE
  5
157
330
136
100
AcDbEntity
  8
AM_4
100
AcDbLine
 10
-1.3471875
 20
2.819375
 30
0.0
 11
-1.1371875
 21
2.819375
 31
0.0
  0
LINE
  5
158
330
136
100
AcDbEntity
  8
AM_4
100
AcDbLine
 10
-1.1371875
 20
2.819375
 30
0.0
 11
-1.1071875
 21
2.879375
 31
0.0
  0
LINE
  5
159
330
136
100
AcDbEntity
  8
AM_4
100
AcDbLine
 10
-1.3771875
 20
2.879375
 30
0.0
 11
-1.3471875
 21
2.819375
 31
0.0
  0
LINE
  5
15A
330
136
100
AcDbEntity
  8
AM_4
100
AcDbLine
 10
-1.344865401933187
 20
2.959375
 30
0.0
 11
-1.139509598066813
 21
2.959375
 31
0.0
  0
LINE
  5
15B
330
136
100
AcDbEntity
  8
AM_4
100
AcDbLine
 10
-1.3771875
 20
2.879375
 30
0.0
 11
-1.1071875
 21
2.879375
 31
0.0
  0
LINE
  5
15C
330
136
100
AcDbEntity
  8
AM_4
100
AcDbLine
 10
-1.344865401933187
 20
2.959375
 30
0.0
 11
-1.3771875
 21
2.879375
 31
0.0
  0
LINE
  5
15D
330
136
100
AcDbEntity
  8
AM_4
100
AcDbLine
 10
-1.1071875
 20
2.879375
 30
0.0
 11
-1.139509598066813
 21
2.959375
 31
0.0
  0
LINE
  5
15E
330
136
100
AcDbEntity
  8
AM_4
100
AcDbLine
 10
-1.361007590734897
 20
2.757128121618573
 30
0.0
 11
-1.123367409265102
 21
2.757128121618573
 31
0.0
  0
LINE
  5
15F
330
136
100
AcDbEntity
  8
AM_4
100
AcDbLine
 10
-1.361007590734898
 20
2.757128121618573
 30
0.0
 11
-1.414721553283015
 21
2.702693198540882
 31
0.0
  0
LINE
  5
160
330
136
100
AcDbEntity
  8
AM_4
100
AcDbLine
 10
-1.069653446716985
 20
2.702693198540882
 30
0.0
 11
-1.123367409265102
 21
2.757128121618573
 31
0.0
  0
LINE
  5
161
330
136
100
AcDbEntity
  8
AM_4
100
AcDbLine
 10
-1.414721553283015
 20
2.702693198540882
 30
0.0
 11
-1.069653446716985
 21
2.702693198540882
 31
0.0
  0
LINE
  5
162
330
136
100
AcDbEntity
  8
AM_4
100
AcDbLine
 10
-1.414721553283015
 20
2.702693198540882
 30
0.0
 11
-1.4559375
 21
2.684375
 31
0.0
  0
LINE
  5
163
330
136
100
AcDbEntity
  8
AM_4
100
AcDbLine
 10
-1.0284375
 20
2.684375
 30
0.0
 11
-1.069653446716985
 21
2.702693198540882
 31
0.0
  0
LINE
  5
164
330
136
100
AcDbEntity
  8
AM_4
100
AcDbLine
 10
-1.36848287138523
 20
2.675307400303386
 30
0.0
 11
-1.36848287138523
 21
2.593442599696615
 31
0.0
  0
LWPOLYLINE
  5
165
330
136
100
AcDbEntity
  8
AM_4
100
AcDbPolyline
 90
        3
 70
     0
 43
0.0
 10
-1.494778242770461
 20
2.675307400303386
 10
-1.463346364423564
 20
2.68196047505038
 10
-1.431630557077846
 20
2.684375
  0
LINE
  5
166
330
136
100
AcDbEntity
  8
AM_4
100
AcDbLine
 10
-1.494778242770461
 20
2.675307400303386
 30
0.0
 11
-1.494778242770461
 21
2.593442599696615
 31
0.0
  0
LWPOLYLINE
  5
167
330
136
100
AcDbEntity
  8
AM_4
100
AcDbPolyline
 90
        3
 70
     0
 43
0.0
 10
-1.431630557077846
 20
2.584375
 10
-1.463204399924154
 20
2.586768380785035
 10
-1.494778242770461
 20
2.593442599696615
  0
LWPOLYLINE
  5
168
330
136
100
AcDbEntity
  8
AM_4
100
AcDbPolyline
 90
        3
 70
     0
 43
0.0
 10
-1.2421875
 20
2.584375
 10
-1.305335185692615
 20
2.586768380785035
 10
-1.36848287138523
 20
2.593442599696615
  0
LWPOLYLINE
  5
169
330
136
100
AcDbEntity
  8
AM_4
100
AcDbPolyline
 90
        3
 70
     0
 43
0.0
 10
-1.36848287138523
 20
2.593442599696615
 10
-1.399914749732128
 20
2.58678952494962
 10
-1.431630557077846
 20
2.584375
  0
LINE
  5
16A
330
136
100
AcDbEntity
  8
AM_4
100
AcDbLine
 10
-0.9895967572295387
 20
2.675307400303386
 30
0.0
 11
-0.9895967572295387
 21
2.593442599696615
 31
0.0
  0
LWPOLYLINE
  5
16B
330
136
100
AcDbEntity
  8
AM_4
100
AcDbPolyline
 90
        3
 70
     0
 43
0.0
 10
-1.052744442922154
 20
2.684375
 10
-1.021170600075846
 20
2.681981619214965
 10
-0.9895967572295387
 20
2.675307400303386
  0
LINE
  5
16C
330
136
100
AcDbEntity
  8
AM_4
100
AcDbLine
 10
-1.115892128614769
 20
2.675307400303386
 30
0.0
 11
-1.115892128614769
 21
2.593442599696615
 31
0.0
  0
LWPOLYLINE
  5
16D
330
136
100
AcDbEntity
  8
AM_4
100
AcDbPolyline
 90
        3
 70
     0
 43
0.0
 10
-0.9895967572295387
 20
2.593442599696615
 10
-1.021028635576436
 20
2.58678952494962
 10
-1.052744442922154
 20
2.584375
  0
LWPOLYLINE
  5
16E
330
136
100
AcDbEntity
  8
AM_4
100
AcDbPolyline
 90
        4
 70
     0
 43
0.0
 10
-1.2421875
 20
2.684375
 10
-1.193787683944101
 20
2.682957439282863
 10
-1.145387867888202
 20
2.678892587482156
 10
-1.115892128614769
 20
2.675307400303386
  0
LWPOLYLINE
  5
16F
330
136
100
AcDbEntity
  8
AM_4
100
AcDbPolyline
 90
        3
 70
     0
 43
0.0
 10
-1.115892128614769
 20
2.675307400303386
 10
-1.084460250267872
 20
2.68196047505038
 10
-1.052744442922154
 20
2.684375
  0
LWPOLYLINE
  5
170
330
136
100
AcDbEntity
  8
AM_4
100
AcDbPolyline
 90
        3
 70
     0
 43
0.0
 10
-1.431630557077846
 20
2.684375
 10
-1.400056714231538
 20
2.681981619214965
 10
-1.36848287138523
 20
2.675307400303386
  0
LWPOLYLINE
  5
171
330
136
100
AcDbEntity
  8
AM_4
100
AcDbPolyline
 90
        3
 70
     0
 43
0.0
 10
-1.36848287138523
 20
2.675307400303386
 10
-1.305619114691437
 20
2.68196047505038
 10
-1.2421875
 20
2.684375
  0
LWPOLYLINE
  5
172
330
136
100
AcDbEntity
  8
AM_4
100
AcDbPolyline
 90
        3
 70
     0
 43
0.0
 10
-1.052744442922154
 20
2.584375
 10
-1.084318285768462
 20
2.586768380785035
 10
-1.115892128614769
 20
2.593442599696615
  0
LWPOLYLINE
  5
173
330
136
100
AcDbEntity
  8
AM_4
100
AcDbPolyline
 90
        4
 70
     0
 43
0.0
 10
-1.115892128614769
 20
2.593442599696615
 10
-1.145387867888202
 20
2.589857412517844
 10
-1.193645058752246
 20
2.585800828243072
 10
-1.2421875
 20
2.584375
  0
ENDBLK
  5
139
330
136
100
AcDbEntity
  8
0
100
AcDbBlockEnd
  0
BLOCK
  5
176
330
174
100
AcDbEntity
  8
0
100
AcDbBlockBegin
  2
5_070859H_0_in_070859_2
 70
     2
 10
0.0
 20
0.0
 30
0.0
  3
5_070859H_0_in_070859_2
  1

  0
ATTDEF
  5
178
330
174
100
AcDbEntity
  8
AM_6
100
AcDbText
 10
5.09609375
 20
2.991375
 30
0.0
 40
0.5
  1
F4S-S2 -(Labyrinth Seal)-Housing
100
AcDbAttributeDefinition
  3

  2
NN
 70
     8
280
     0
  0
ATTDEF
  5
179
330
174
100
AcDbEntity
  8
AM_6
100
AcDbText
 10
5.09609375
 20
2.491375
 30
0.0
 40
0.5
  1
S-2000 4 Bolt Square Flange Bearing -Inch
100
AcDbAttributeDefinition
  3

  2
NT
 70
     8
280
     0
  0
ATTDEF
  5
17A
330
174
100
AcDbEntity
  8
AM_6
100
AcDbText
 10
5.09609375
 20
1.991375
 30
0.0
 40
0.5
  1
070859H
100
AcDbAttributeDefinition
  3

  2
NB
 70
     8
280
     0
  0
ATTDEF
  5
17B
330
174
100
AcDbEntity
  8
AM_6
100
AcDbText
 10
5.09609375
 20
1.491375
 30
0.0
 40
0.5
  1
$PN.H
100
AcDbAttributeDefinition
  3

  2
NBSYN
 70
     8
280
     0
  0
ATTDEF
  5
17C
330
174
100
AcDbEntity
  8
AM_6
100
AcDbText
 10
5.09609375
 20
0.9913749999999997
 30
0.0
 40
0.5
  1
070859
100
AcDbAttributeDefinition
  3

  2
LINA
 70
     8
280
     0
  0
ATTDEF
  5
17D
330
174
100
AcDbEntity
  8
AM_6
100
AcDbText
 10
5.09609375
 20
0.4913749999999997
 30
0.0
 40
0.5
  1
1-15/16
100
AcDbAttributeDefinition
  3

  2
SS
 70
     8
280
     0
  0
ATTDEF
  5
17E
330
174
100
AcDbEntity
  8
AM_6
100
AcDbText
 10
5.09609375
 20
-0.0086250000000003
 30
0.0
 40
0.5
  1
070859
100
AcDbAttributeDefinition
  3

  2
PN
 70
     8
280
     0
  0
ATTDEF
  5
17F
330
174
100
AcDbEntity
  8
AM_6
100
AcDbText
 10
5.09609375
 20
-0.5086250000000003
 30
0.0
 40
0.5
  1
F4S-S2-115LE
100
AcDbAttributeDefinition
  3

  2
DESCRIPTION
 70
     8
280
     0
  0
ATTDEF
  5
180
330
174
100
AcDbEntity
  8
AM_6
100
AcDbText
 10
5.09609375
 20
-1.008625
 30
0.0
 40
0.5
  1
Expansion Type
100
AcDbAttributeDefinition
  3

  2
EF
 70
     8
280
     0
  0
ATTDEF
  5
181
330
174
100
AcDbEntity
  8
AM_6
100
AcDbText
 10
5.09609375
 20
-1.508625
 30
0.0
 40
0.5
  1
2-27/32
100
AcDbAttributeDefinition
  3

  2
A
 70
     8
280
     0
  0
ATTDEF
  5
182
330
174
100
AcDbEntity
  8
AM_6
100
AcDbText
 10
5.09609375
 20
-2.008625
 30
0.0
 40
0.5
  1
5-19/64
100
AcDbAttributeDefinition
  3

  2
B
 70
     8
280
     0
  0
ATTDEF
  5
183
330
174
100
AcDbEntity
  8
AM_6
100
AcDbText
 10
5.09609375
 20
-2.508625
 30
0.0
 40
0.5
  1
3-5/32
100
AcDbAttributeDefinition
  3

  2
C
 70
     8
280
     0
  0
ATTDEF
  5
184
330
174
100
AcDbEntity
  8
AM_6
100
AcDbText
 10
5.09609375
 20
-3.008625
 30
0.0
 40
0.5
  1
1/2
100
AcDbAttributeDefinition
  3

  2
F
 70
     8
280
     0
  0
ATTDEF
  5
185
330
174
100
AcDbEntity
  8
AM_6
100
AcDbText
 10
5.09609375
 20
-3.508625
 30
0.0
 40
0.5
  1
1-15/64
100
AcDbAttributeDefinition
  3

  2
G
 70
     8
280
     0
  0
ATTDEF
  5
186
330
174
100
AcDbEntity
  8
AM_6
100
AcDbText
 10
5.09609375
 20
-4.008625
 30
0.0
 40
0.5
  1
9/16
100
AcDbAttributeDefinition
  3

  2
H
 70
     8
280
     0
  0
ATTDEF
  5
187
330
174
100
AcDbEntity
  8
AM_6
100
AcDbText
 10
5.09609375
 20
-4.508625
 30
0.0
 40
0.5
  1
4-31/32
100
AcDbAttributeDefinition
  3

  2
J
 70
     8
280
     0
  0
ATTDEF
  5
188
330
174
100
AcDbEntity
  8
AM_6
100
AcDbText
 10
5.09609375
 20
-5.008625
 30
0.0
 40
0.5
  1
5-3/4
100
AcDbAttributeDefinition
  3

  2
K
 70
     8
280
     0
  0
ATTDEF
  5
189
330
174
100
AcDbEntity
  8
AM_6
100
AcDbText
 10
5.09609375
 20
-5.508625
 30
0.0
 40
0.5
  1
5.7500000
100
AcDbAttributeDefinition
  3

  2
K1
 70
     8
280
     0
  0
ATTDEF
  5
18A
330
174
100
AcDbEntity
  8
AM_6
100
AcDbText
 10
5.09609375
 20
-6.008625
 30
0.0
 40
0.5
  1
3-7/16
100
AcDbAttributeDefinition
  3

  2
L
 70
     8
280
     0
  0
ATTDEF
  5
18B
330
174
100
AcDbEntity
  8
AM_6
100
AcDbText
 10
5.09609375
 20
-6.508625
 30
0.0
 40
0.5
  1
2-29/32
100
AcDbAttributeDefinition
  3

  2
N
 70
     8
280
     0
  0
ATTDEF
  5
18C
330
174
100
AcDbEntity
  8
AM_6
100
AcDbText
 10
5.09609375
 20
-7.008625
 30
0.0
 40
0.5
  1
2.906250
100
AcDbAttributeDefinition
  3

  2
N1
 70
     8
280
     0
  0
ATTDEF
  5
18D
330
174
100
AcDbEntity
  8
AM_6
100
AcDbText
 10
5.09609375
 20
-7.508625
 30
0.0
 40
0.5
  1
5/16
100
AcDbAttributeDefinition
  3

  2
P
 70
     8
280
     0
  0
ATTDEF
  5
18E
330
174
100
AcDbEntity
  8
AM_6
100
AcDbText
 10
5.09609375
 20
-8.008625
 30
0.0
 40
0.5
  1
1/4
100
AcDbAttributeDefinition
  3

  2
X
 70
     8
280
     0
  0
ATTDEF
  5
18F
330
174
100
AcDbEntity
  8
AM_6
100
AcDbText
 10
5.09609375
 20
-8.508625
 30
0.0
 40
0.5
  1
0.020
100
AcDbAttributeDefinition
  3

  2
Y
 70
     8
280
     0
  0
ATTDEF
  5
190
330
174
100
AcDbEntity
  8
AM_6
100
AcDbText
 10
5.09609375
 20
-9.008625
 30
0.0
 40
0.5
  1
2-19/64
100
AcDbAttributeDefinition
  3

  2
Z
 70
     8
280
     0
  0
ATTDEF
  5
191
330
174
100
AcDbEntity
  8
AM_6
100
AcDbText
 10
5.09609375
 20
-9.508625
 30
0.0
 40
0.5
  1
baldor
100
AcDbAttributeDefinition
  3

  2
COMPANY
 70
     8
280
     0
  0
LINE
  5
192
330
174
100
AcDbEntity
  8
AM_9
100
AcDbLine
 10
-0.5249999999999999
 20
-2.299310253509284
 30
0.0
 11
-0.5624999999999999
 21
-2.299310253509284
 31
0.0
  0
LINE
  5
193
330
174
100
AcDbEntity
  8
AM_9
100
AcDbLine
 10
-0.5249999999999999
 20
-2.265816604455394
 30
0.0
 11
-0.5624999999999999
 21
-2.265816604455394
 31
0.0
  0
LINE
  5
194
330
174
100
AcDbEntity
  8
AM_9
100
AcDbLine
 10
-0.5249999999999999
 20
2.299310253509285
 30
0.0
 11
-0.5624999999999999
 21
2.299310253509285
 31
0.0
  0
LINE
  5
195
330
174
100
AcDbEntity
  8
AM_9
100
AcDbLine
 10
-0.5624999999999999
 20
2.265816604455394
 30
0.0
 11
-0.5249999999999999
 21
2.265816604455394
 31
0.0
  0
LINE
  5
196
330
174
100
AcDbEntity
  8
AM_9
100
AcDbLine
 10
-0.5249999999999999
 20
-2.285799086333758
 30
0.0
 11
-0.5624999999999999
 21
-2.285799086333758
 31
0.0
  0
LINE
  5
197
330
174
100
AcDbEntity
  8
AM_9
100
AcDbLine
 10
-0.5624999999999998
 20
-2.484375
 30
0.0
 11
-0.525
 21
-2.484375
 31
0.0
  0
LINE
  5
198
330
174
100
AcDbEntity
  8
AM_9
100
AcDbLine
 10
-0.5249999999999999
 20
2.285799086333758
 30
0.0
 11
-0.5624999999999999
 21
2.285799086333758
 31
0.0
  0
LINE
  5
199
330
174
100
AcDbEntity
  8
AM_9
100
AcDbLine
 10
-0.525
 20
2.484375
 30
0.0
 11
-0.5624999999999998
 21
2.484375
 31
0.0
  0
LINE
  5
19A
330
174
100
AcDbEntity
  8
AM_9
100
AcDbLine
 10
-0.5249999999999999
 20
2.593881635682325
 30
0.0
 11
-0.5624999999999999
 21
2.593881635682325
 31
0.0
  0
LINE
  5
19B
330
174
100
AcDbEntity
  8
AM_9
100
AcDbLine
 10
-0.5249999999999999
 20
-2.593881635682326
 30
0.0
 11
-0.5624999999999999
 21
-2.593881635682326
 31
0.0
  0
LINE
  5
19C
330
174
100
AcDbEntity
  8
AM_9
100
AcDbLine
 10
-1.921875
 20
-1.77165
 30
0.0
 11
-0.0803571428571428
 21
-1.77165
 31
0.0
  0
LINE
  5
19D
330
174
100
AcDbEntity
  8
AM_9
100
AcDbLine
 10
-0.0803571428571428
 20
1.77165
 30
0.0
 11
-1.921875
 21
1.77165
 31
0.0
  0
LINE
  5
19E
330
174
100
AcDbEntity
  8
AM_9
100
AcDbLine
 10
-0.5249999999999999
 20
-2.265816604455394
 30
0.0
 11
-0.5249999999999999
 21
-2.6484375
 31
0.0
  0
LINE
  5
19F
330
174
100
AcDbEntity
  8
AM_9
100
AcDbLine
 10
-0.5249999999999999
 20
2.6484375
 30
0.0
 11
-0.5249999999999999
 21
2.265816604455394
 31
0.0
  0
LINE
  5
1A0
330
174
100
AcDbEntity
  8
AM_9
100
AcDbLine
 10
-0.0241071428571432
 20
-2.1280125
 30
0.0
 11
0.0
 21
-2.1280125
 31
0.0
  0
LINE
  5
1A1
330
174
100
AcDbEntity
  8
AM_9
100
AcDbLine
 10
0.0
 20
2.1280125
 30
0.0
 11
-0.0241071428571432
 21
2.1280125
 31
0.0
  0
LINE
  5
1A2
330
174
100
AcDbEntity
  8
AM_9
100
AcDbLine
 10
-0.0803571428571429
 20
2.0717625
 30
0.0
 11
-0.0803571428571429
 21
-2.0717625
 31
0.0
  0
ARC
  5
1A3
330
174
100
AcDbEntity
  8
AM_9
100
AcDbCircle
 10
-0.0241071428571426
 20
-2.0717625
 30
0.0
 40
0.0562500000000003
100
AcDbArc
 50
179.9999991462263
 51
270.0
  0
ARC
  5
1A4
330
174
100
AcDbEntity
  8
AM_9
100
AcDbCircle
 10
-0.0241071428571426
 20
2.0717625
 30
0.0
 40
0.0562500000000004
100
AcDbArc
 50
90.0
 51
180.0
  0
LINE
  5
1A5
330
174
100
AcDbEntity
  8
AM_9
100
AcDbLine
 10
-0.0241071428571432
 20
2.1280125
 30
0.0
 11
-0.0241071428571432
 21
-2.1280125
 31
0.0
  0
LINE
  5
1A6
330
174
100
AcDbEntity
  8
AM_9
100
AcDbLine
 10
-0.5624999999999999
 20
-2.28125
 30
0.0
 11
0.0000000000000001
 21
-2.28125
 31
0.0
  0
LINE
  5
1A7
330
174
100
AcDbEntity
  8
AM_9
100
AcDbLine
 10
0.0000000000000001
 20
-1.78125
 30
0.0
 11
-0.5624999999999999
 21
-1.78125
 31
0.0
  0
LINE
  5
1A8
330
174
100
AcDbEntity
  8
AM_9
100
AcDbLine
 10
-0.5624999999999999
 20
1.78125
 30
0.0
 11
0.0000000000000001
 21
1.78125
 31
0.0
  0
LINE
  5
1A9
330
174
100
AcDbEntity
  8
AM_9
100
AcDbLine
 10
0.0000000000000001
 20
2.28125
 30
0.0
 11
-0.5624999999999999
 21
2.28125
 31
0.0
  0
LINE
  5
1AA
330
174
100
AcDbEntity
  8
AM_7
100
AcDbLine
 10
0.0281249999999999
 20
2.03125
 30
0.0
 11
-0.5906250000000001
 21
2.03125
 31
0.0
  0
LINE
  5
1AB
330
174
100
AcDbEntity
  8
AM_7
100
AcDbLine
 10
0.0281249999999999
 20
-2.03125
 30
0.0
 11
-0.5906250000000001
 21
-2.03125
 31
0.0
  0
LINE
  5
1AC
330
174
100
AcDbEntity
  8
AM_7
100
AcDbLine
 10
-3.048437499999999
 20
0.0
 30
0.0
 11
0.09609375
 21
0.0
 31
0.0
  0
LINE
  5
1AD
330
174
100
AcDbEntity
  8
AM_7
100
AcDbLine
 10
-1.2421875
 20
2.991375
 30
0.0
 11
-1.2421875
 21
1.83601375
 31
0.0
  0
LINE
  5
1AE
330
174
100
AcDbEntity
  8
AM_4
100
AcDbLine
 10
-1.6421875
 20
2.584375000000001
 30
0.0
 11
-0.8421875000391396
 21
2.584375000000001
 31
0.0
  0
ARC
  5
1AF
330
174
100
AcDbEntity
  8
AM_4
100
AcDbCircle
 10
-0.8421875000000013
 20
2.484374999999999
 30
0.0
 40
0.1000000000000015
100
AcDbArc
 50
0.0
 51
90.0
  0
ARC
  5
1B0
330
174
100
AcDbEntity
  8
AM_4
100
AcDbCircle
 10
-1.642187499999999
 20
2.484375
 30
0.0
 40
0.100000000000001
100
AcDbArc
 50
90.0
 51
180.0
  0
LINE
  5
1B1
330
174
100
AcDbEntity
  8
AM_4
100
AcDbLine
 10
-1.7421875
 20
2.484375
 30
0.0
 11
-0.7421874999999998
 21
2.484375
 31
0.0
  0
LINE
  5
1B2
330
174
100
AcDbEntity
  8
AM_4
100
AcDbLine
 10
-1.921875
 20
-2.484375
 30
0.0
 11
-0.5624999999999998
 21
-2.484375
 31
0.0
  0
LWPOLYLINE
  5
1B3
330
174
100
AcDbEntity
  8
AM_4
100
AcDbPolyline
 90
       38
 70
     0
 43
0.0
 10
-1.7421875
 20
2.484375
 10
-1.740496313097895
 20
2.484034650684209
 10
-1.735448141632483
 20
2.483027426592121
 10
-1.726773765502297
 20
2.48131829807325
 10
-1.714653628240697
 20
2.478980311127895
 10
-1.699661422201626
 20
2.47616641580852
 10
-1.681616295630089
 20
2.472896440826811
 10
-1.659998488371512
 20
2.469146565024163
 10
-1.635442248592909
 20
2.465110228350016
 10
-1.608560929196678
 20
2.460965162159033
 10
-1.579178665730997
 20
2.456762541721469
 10
-1.546544644943916
 20
2.452499743286636
 10
-1.511694589823822
 20
2.448418512446412
 10
-1.475592497772698
 20
2.444708761759294
 10
-1.437833533785803
 20
2.441392330446115
 10
-1.397482087514935
 20
2.43849164440533
 10
-1.355944030145407
 20
2.436197793442831
 10
-1.31532285717406
 20
2.43464039621415
 10
-1.274182939855204
 20
2.433750777872814
 10
-1.231573323592839
 20
2.433565037687708
 10
-1.189043828787419
 20
2.434120660611332
 10
-1.148733173148505
 20
2.435335353503872
 10
-1.109064696469402
 20
2.437178865295866
 10
-1.069213881900622
 20
2.439681130753399
 10
-1.030605402668215
 20
2.442721049267868
 10
-0.9942683239654124
 20
2.446137029736891
 10
-0.9596134241930759
 20
2.449891272881949
 10
-0.9259810239386552
 20
2.453998338987553
 10
-0.8945872458225086
 20
2.458240239954031
 10
-0.8659250978179442
 20
2.462456743326884
 10
-0.8398556994776593
 20
2.466574551546445
 10
-0.815933318361583
 20
2.470589216967155
 10
-0.795118301620738
 20
2.474265549362977
 10
-0.7780107388810896
 20
2.477413466038748
 10
-0.76411949907958
 20
2.480054062743199
 10
-0.7532969918067955
 20
2.482162407318253
 10
-0.7460877639232203
 20
2.483592979688992
 10
-0.7421874999999998
 20
2.484375
  0
LINE
  5
1B4
330
174
100
AcDbEntity
  8
AM_4
100
AcDbLine
 10
-0.5624999999999998
 20
2.484375
 30
0.0
 11
-0.7421875000000001
 21
2.484375
 31
0.0
  0
LINE
  5
1B5
330
174
100
AcDbEntity
  8
AM_4
100
AcDbLine
 10
-1.7421875
 20
2.484375
 30
0.0
 11
-1.921875
 21
2.484375
 31
0.0
  0
LINE
  5
1B6
330
174
100
AcDbEntity
  8
AM_4
100
AcDbLine
 10
-1.921875
 20
-2.07749972930882
 30
0.0
 11
-0.5625
 21
-2.07749972930882
 31
0.0
  0
LINE
  5
1B7
330
174
100
AcDbEntity
  8
AM_4
100
AcDbLine
 10
-1.921875
 20
2.077499729308818
 30
0.0
 11
-0.5625
 21
2.077499729308818
 31
0.0
  0
LINE
  5
1B8
330
174
100
AcDbEntity
  8
AM_4
100
AcDbLine
 10
-1.921875
 20
-1.947333272644868
 30
0.0
 11
-0.5625
 21
-1.947333272644868
 31
0.0
  0
LINE
  5
1B9
330
174
100
AcDbEntity
  8
AM_4
100
AcDbLine
 10
-1.921875
 20
1.947333262646525
 30
0.0
 11
-0.5625
 21
1.947333262646525
 31
0.0
  0
LINE
  5
1BA
330
174
100
AcDbEntity
  8
AM_4
100
AcDbLine
 10
-1.921875
 20
-1.462522999855374
 30
0.0
 11
-0.5624999999999999
 21
-1.462522999855374
 31
0.0
  0
LINE
  5
1BB
330
174
100
AcDbEntity
  8
AM_4
100
AcDbLine
 10
-1.921875
 20
-2.484375
 30
0.0
 11
-1.921875
 21
2.484375
 31
0.0
  0
LINE
  5
1BC
330
174
100
AcDbEntity
  8
AM_4
100
AcDbLine
 10
-1.921875
 20
1.462522994096356
 30
0.0
 11
-0.5624999999999999
 21
1.462522994096356
 31
0.0
  0
LINE
  5
1BD
330
174
100
AcDbEntity
  8
AM_4
100
AcDbLine
 10
-1.921875
 20
1.362392753704594
 30
0.0
 11
-0.5624999999999999
 21
1.362392753704594
 31
0.0
  0
LINE
  5
1BE
330
174
100
AcDbEntity
  8
AM_4
100
AcDbLine
 10
-1.921875
 20
-1.362392753704595
 30
0.0
 11
-0.5624999999999999
 21
-1.362392753704595
 31
0.0
  0
LINE
  5
1BF
330
174
100
AcDbEntity
  8
AM_4
100
AcDbLine
 10
-0.5249999999999999
 20
-0.9732634163168562
 30
0.0
 11
-0.5624999999999999
 21
-0.9732634163168562
 31
0.0
  0
LINE
  5
1C0
330
174
100
AcDbEntity
  8
AM_4
100
AcDbLine
 10
-0.5249999999999999
 20
0.9732634550949085
 30
0.0
 11
-0.5624999999999999
 21
0.9732634550949085
 31
0.0
  0
LINE
  5
1C1
330
174
100
AcDbEntity
  8
AM_4
100
AcDbLine
 10
-0.5249999999999999
 20
-1.196201873304716
 30
0.0
 11
-0.5624999999999999
 21
-1.196201873304716
 31
0.0
  0
LINE
  5
1C2
330
174
100
AcDbEntity
  8
AM_4
100
AcDbLine
 10
-0.5249999999999999
 20
1.196201873304715
 30
0.0
 11
-0.5624999999999999
 21
1.196201873304715
 31
0.0
  0
LINE
  5
1C3
330
174
100
AcDbEntity
  8
AM_4
100
AcDbLine
 10
-0.5249999999999999
 20
-1.706414473684211
 30
0.0
 11
-0.5624999999999999
 21
-1.706414473684211
 31
0.0
  0
LINE
  5
1C4
330
174
100
AcDbEntity
  8
AM_4
100
AcDbLine
 10
-0.5624999999999999
 20
2.6484375
 30
0.0
 11
0.0000000000000001
 21
2.6484375
 31
0.0
  0
LINE
  5
1C5
330
174
100
AcDbEntity
  8
AM_4
100
AcDbLine
 10
-0.5624999999999999
 20
0.9732634550949085
 30
0.0
 11
-0.5624999999999999
 21
2.6484375
 31
0.0
  0
LINE
  5
1C6
330
174
100
AcDbEntity
  8
AM_4
100
AcDbLine
 10
-0.5249999999999999
 20
1.70641447368421
 30
0.0
 11
-0.5624999999999999
 21
1.70641447368421
 31
0.0
  0
LINE
  5
1C7
330
174
100
AcDbEntity
  8
AM_4
100
AcDbLine
 10
-0.5249999999999999
 20
1.828390278834917
 30
0.0
 11
-0.5624999999999999
 21
1.828390278834917
 31
0.0
  0
LINE
  5
1C8
330
174
100
AcDbEntity
  8
AM_4
100
AcDbLine
 10
-0.5249999999999999
 20
-1.828390278834919
 30
0.0
 11
-0.5249999999999999
 21
1.828390278834917
 31
0.0
  0
LINE
  5
1C9
330
174
100
AcDbEntity
  8
AM_4
100
AcDbLine
 10
-0.5624999999999999
 20
-1.828390278834919
 30
0.0
 11
-0.5249999999999999
 21
-1.828390278834919
 31
0.0
  0
LINE
  5
1CA
330
174
100
AcDbEntity
  8
AM_4
100
AcDbLine
 10
-0.5624999999999999
 20
2.03125
 30
0.0
 11
0.0000000000000002
 21
2.03125
 31
0.0
  0
LINE
  5
1CB
330
174
100
AcDbEntity
  8
AM_4
100
AcDbLine
 10
0.0000000000000001
 20
-2.6484375
 30
0.0
 11
0.0000000000000001
 21
2.6484375
 31
0.0
  0
LINE
  5
1CC
330
174
100
AcDbEntity
  8
AM_4
100
AcDbLine
 10
-0.5624999999999999
 20
-2.03125
 30
0.0
 11
0.0000000000000002
 21
-2.03125
 31
0.0
  0
LINE
  5
1CD
330
174
100
AcDbEntity
  8
AM_4
100
AcDbLine
 10
-0.5624999999999999
 20
-2.6484375
 30
0.0
 11
-0.5624999999999999
 21
-0.9732634163168562
 31
0.0
  0
LINE
  5
1CE
330
174
100
AcDbEntity
  8
AM_4
100
AcDbLine
 10
-0.5624999999999999
 20
-2.6484375
 30
0.0
 11
0.0000000000000001
 21
-2.6484375
 31
0.0
  0
ENDBLK
  5
177
330
174
100
AcDbEntity
  8
0
100
AcDbBlockEnd
  0
ENDSEC
  0
SECTION
  2
ENTITIES
  0
INSERT
  5
6F
330
1F
100
AcDbEntity
  8
0
100
AcDbBlockReference
  2
1_070859_2
 10
0.0
 20
0.0
 30
0.0
  0
POINT
  5
1D0
330
1F
100
AcDbEntity
  8
ConnectionPoints
100
AcDbPoint
 10
-2.90625
 20
0.0
 30
0.0000000000000002
  0
POINT
  5
1D1
330
1F
100
AcDbEntity
  8
ConnectionPoints
100
AcDbPoint
 10
0.8272500000000003
 20
0.0
 30
-0.0000000000000001
  0
POINT
  5
1D2
330
1F
100
AcDbEntity
  8
ConnectionPoints
100
AcDbPoint
 10
-2.90625
 20
0.0
 30
0.0000000000000002
  0
POINT
  5
1D3
330
1F
100
AcDbEntity
  8
ConnectionPoints
100
AcDbPoint
 10
-1.2421875
 20
2.584375
 30
0.0000000000000001
  0
POINT
  5
1D4
330
1F
100
AcDbEntity
  8
ConnectionPoints
100
AcDbPoint
 10
-1.2421875
 20
2.584375
 30
0.0000000000000001
  0
POINT
  5
1D5
330
1F
100
AcDbEntity
  8
ConnectionPoints
100
AcDbPoint
 10
-2.90625
 20
0.0
 30
0.0000000000000002
  0
POINT
  5
1D6
330
1F
100
AcDbEntity
  8
ConnectionPoints
100
AcDbPoint
 10
-3.15625
 20
0.0
 30
0.0000000000000002
  0
ENDSEC
  0
SECTION
  2
OBJECTS
  0
DICTIONARY
  5
C
330
0
100
AcDbDictionary
281
     1
  3
ACAD_DETAILVIEWSTYLE
350
1DE
  3
ACAD_GROUP
350
D
  3
ACAD_LAYOUT
350
1A
  3
ACAD_MATERIAL
350
43
  3
ACAD_MLEADERSTYLE
350
6B
  3
ACAD_MLINESTYLE
350
17
  3
ACAD_PLOTSETTINGS
350
19
  3
ACAD_PLOTSTYLENAME
350
E
  3
ACAD_SCALELIST
350
47
  3
ACAD_SECTIONVIEWSTYLE
350
1DF
  3
ACAD_TABLESTYLE
350
69
  3
ACAD_VISUALSTYLE
350
2A
  3
ACDB_RECOMPOSE_DATA
350
1DB
  3
AcDbVariableDictionary
350
1D7
  0
SUN
  5
6D
330
29
100
AcDbSun
 90
        1
290
     0
 63
     7
421
 16777215
 40
1.0
291
     1
 91
  2455826
 92
 54000000
292
     0
 70
     2
 71
   256
280
     1
  0
DICTIONARY
  5
1DE
102
{ACAD_REACTORS
330
C
102
}
330
C
100
AcDbDictionary
281
     1
  0
DICTIONARY
  5
D
102
{ACAD_REACTORS
330
C
102
}
330
C
100
AcDbDictionary
281
     1
  0
DICTIONARY
  5
1A
102
{ACAD_REACTORS
330
C
102
}
330
C
100
AcDbDictionary
281
     1
  3
Layout1
350
1E
  3
Layout2
350
26
  3
Model
350
22
  0
DICTIONARY
  5
43
102
{ACAD_REACTORS
330
C
102
}
330
C
100
AcDbDictionary
281
     1
  3
ByBlock
350
45
  3
ByLayer
350
44
  3
Global
350
46
  0
DICTIONARY
  5
6B
102
{ACAD_REACTORS
330
C
102
}
330
C
100
AcDbDictionary
281
     1
  3
Standard
350
6C
  0
DICTIONARY
  5
17
102
{ACAD_REACTORS
330
C
102
}
330
C
100
AcDbDictionary
281
     1
  3
Standard
350
18
  0
DICTIONARY
  5
19
102
{ACAD_REACTORS
330
C
102
}
330
C
100
AcDbDictionary
281
     1
  0
ACDBDICTIONARYWDFLT
  5
E
102
{ACAD_REACTORS
330
C
102
}
330
C
100
AcDbDictionary
281
     1
  3
Normal
350
F
100
AcDbDictionaryWithDefault
340
F
  0
DICTIONARY
  5
47
102
{ACAD_REACTORS
330
C
102
}
330
C
100
AcDbDictionary
281
     1
  3
A0
350
48
  3
A1
350
49
  3
A2
350
4A
  3
A3
350
4B
  3
A4
350
4C
  3
A5
350
4D
  3
A6
350
4E
  3
A7
350
4F
  3
A8
350
50
  3
A9
350
51
  3
B0
350
52
  3
B1
350
53
  3
B2
350
54
  3
B3
350
55
  3
B4
350
56
  3
B5
350
57
  3
B6
350
58
  3
B7
350
59
  3
B8
350
5A
  3
B9
350
5B
  3
C0
350
5C
  3
C1
350
5D
  3
C2
350
5E
  3
C3
350
5F
  3
C4
350
60
  3
C5
350
61
  3
C6
350
62
  3
C7
350
63
  3
C8
350
64
  3
C9
350
65
  3
D0
350
66
  3
D1
350
67
  3
D2
350
68
  0
DICTIONARY
  5
1DF
102
{ACAD_REACTORS
330
C
102
}
330
C
100
AcDbDictionary
281
     1
  0
DICTIONARY
  5
69
102
{ACAD_REACTORS
330
C
102
}
330
C
100
AcDbDictionary
281
     1
  3
Standard
350
6A
  0
DICTIONARY
  5
2A
102
{ACAD_REACTORS
330
C
102
}
330
C
100
AcDbDictionary
281
     1
  3
2dWireframe
350
2F
  3
Basic
350
32
  3
Brighten
350
36
  3
ColorChange
350
3A
  3
Conceptual
350
34
  3
Dim
350
35
  3
EdgeColorOff
350
3D
  3
Facepattern
350
39
  3
Flat
350
2B
  3
FlatWithEdges
350
2C
  3
Gouraud
350
2D
  3
GouraudWithEdges
350
2E
  3
Hidden
350
31
  3
JitterOff
350
3B
  3
Linepattern
350
38
  3
OverhangOff
350
3C
  3
Realistic
350
33
  3
Shaded
350
42
  3
Shaded with edges
350
41
  3
Shades of Gray
350
3E
  3
Sketchy
350
3F
  3
Thicken
350
37
  3
Wireframe
350
30
  3
X-Ray
350
40
  0
XRECORD
  5
1DB
102
{ACAD_REACTORS
330
C
102
}
330
C
100
AcDbXrecord
280
     1
 90
        1
330
6A
  0
DICTIONARY
  5
1D7
102
{ACAD_REACTORS
330
C
102
}
330
C
100
AcDbDictionary
281
     1
  3
CANNOSCALE
350
1D8
  3
CMLEADERSTYLE
350
1DD
  3
CTABLESTYLE
350
1DC
  0
LAYOUT
  5
1E
102
{ACAD_REACTORS
330
1A
102
}
330
1A
100
AcDbPlotSettings
  1

  2
none_device
  4

  6

 40
0.0
 41
0.0
 42
0.0
 43
0.0
 44
0.0
 45
0.0
 46
0.0
 47
0.0
 48
0.0
 49
0.0
140
0.0
141
0.0
142
1.0
143
1.0
 70
   688
 72
     0
 73
     0
 74
     5
  7

 75
    16
 76
     0
 77
     2
 78
   300
147
1.0
148
0.0
149
0.0
100
AcDbLayout
  1
Layout1
 70
     1
 71
     1
 10
0.0
 20
0.0
 11
12.0
 21
9.0
 12
0.0
 22
0.0
 32
0.0
 14
1.000000000000000E+20
 24
1.000000000000000E+20
 34
1.000000000000000E+20
 15
-1.000000000000000E+20
 25
-1.000000000000000E+20
 35
-1.000000000000000E+20
146
0.0
 13
0.0
 23
0.0
 33
0.0
 16
1.0
 26
0.0
 36
0.0
 17
0.0
 27
1.0
 37
0.0
 76
     0
330
1B
  0
LAYOUT
  5
26
102
{ACAD_REACTORS
330
1A
102
}
330
1A
100
AcDbPlotSettings
  1

  2
none_device
  4

  6

 40
0.0
 41
0.0
 42
0.0
 43
0.0
 44
0.0
 45
0.0
 46
0.0
 47
0.0
 48
0.0
 49
0.0
140
0.0
141
0.0
142
1.0
143
1.0
 70
   688
 72
     0
 73
     0
 74
     5
  7

 75
    16
 76
     0
 77
     2
 78
   300
147
1.0
148
0.0
149
0.0
100
AcDbLayout
  1
Layout2
 70
     1
 71
     2
 10
0.0
 20
0.0
 11
0.0
 21
0.0
 12
0.0
 22
0.0
 32
0.0
 14
0.0
 24
0.0
 34
0.0
 15
0.0
 25
0.0
 35
0.0
146
0.0
 13
0.0
 23
0.0
 33
0.0
 16
1.0
 26
0.0
 36
0.0
 17
0.0
 27
1.0
 37
0.0
 76
     0
330
23
  0
LAYOUT
  5
22
102
{ACAD_REACTORS
330
1A
102
}
330
1A
100
AcDbPlotSettings
  1

  2
none_device
  4
Letter_(8.50_x_11.00_Inches)
  6

 40
6.35
 41
6.35
 42
6.35000508
 43
6.35000508
 44
215.9
 45
279.4
 46
0.0
 47
0.0
 48
0.0
 49
0.0
140
0.0
141
0.0
142
1.0
143
1.0
 70
  1712
 72
     0
 73
     0
 74
     0
  7

 75
     0
 76
     0
 77
     2
 78
   300
147
1.0
148
0.0
149
0.0
100
AcDbLayout
  1
Model
 70
     1
 71
     0
 10
0.0
 20
0.0
 11
12.0
 21
9.0
 12
0.0
 22
0.0
 32
0.0
 14
1.000000000000000E+20
 24
1.000000000000000E+20
 34
1.000000000000000E+20
 15
-1.000000000000000E+20
 25
-1.000000000000000E+20
 35
-1.000000000000000E+20
146
0.0
 13
0.0
 23
0.0
 33
0.0
 16
1.0
 26
0.0
 36
0.0
 17
0.0
 27
1.0
 37
0.0
 76
     0
330
1F
331
29
  0
MATERIAL
  5
45
102
{ACAD_REACTORS
330
43
102
}
330
43
100
AcDbMaterial
  1
ByBlock
 72
     1
 94
      127
  0
MATERIAL
  5
44
102
{ACAD_REACTORS
330
43
102
}
330
43
100
AcDbMaterial
  1
ByLayer
 72
     1
 94
      127
  0
MATERIAL
  5
46
102
{ACAD_REACTORS
330
43
102
}
330
43
100
AcDbMaterial
  1
Global
 72
     1
 94
      127
  0
MLEADERSTYLE
  5
6C
102
{ACAD_REACTORS
330
6B
102
}
330
6B
100
AcDbMLeaderStyle
179
     2
170
     2
171
     1
172
     0
 90
        2
 40
0.0
 41
0.0
173
     1
 91
-1056964608
340
14
 92
       -2
290
     1
 42
0.09
291
     1
 43
0.36
  3
Standard
341
0
 44
0.18
300

342
11
174
     1
178
     6
175
     1
176
     0
 93
-1056964608
 45
0.18
292
     0
297
     0
 46
0.18
343
0
 94
-1056964608
 47
1.0
 49
1.0
140
1.0
293
     1
141
0.0
294
     1
177
     0
142
1.0
295
     0
296
     0
143
0.125
271
     0
272
     9
273
     9
298
     0
  0
MLINESTYLE
  5
18
102
{ACAD_REACTORS
330
17
102
}
330
17
100
AcDbMlineStyle
  2
Standard
 70
     0
  3

 62
   256
 51
90.0
 52
90.0
 71
     2
 49
0.5
 62
   256
  6
BYLAYER
 49
-0.5
 62
   256
  6
BYLAYER
  0
ACDBPLACEHOLDER
  5
F
102
{ACAD_REACTORS
330
E
102
}
330
E
  0
SCALE
  5
48
102
{ACAD_REACTORS
330
47
102
}
330
47
100
AcDbScale
 70
     0
300
1:1
140
1.0
141
1.0
290
     1
  0
SCALE
  5
49
102
{ACAD_REACTORS
330
47
102
}
330
47
100
AcDbScale
 70
     0
300
1:2
140
1.0
141
2.0
290
     0
  0
SCALE
  5
4A
102
{ACAD_REACTORS
330
47
102
}
330
47
100
AcDbScale
 70
     0
300
1:4
140
1.0
141
4.0
290
     0
  0
SCALE
  5
4B
102
{ACAD_REACTORS
330
47
102
}
330
47
100
AcDbScale
 70
     0
300
1:5
140
1.0
141
5.0
290
     0
  0
SCALE
  5
4C
102
{ACAD_REACTORS
330
47
102
}
330
47
100
AcDbScale
 70
     0
300
1:8
140
1.0
141
8.0
290
     0
  0
SCALE
  5
4D
102
{ACAD_REACTORS
330
47
102
}
330
47
100
AcDbScale
 70
     0
300
1:10
140
1.0
141
10.0
290
     0
  0
SCALE
  5
4E
102
{ACAD_REACTORS
330
47
102
}
330
47
100
AcDbScale
 70
     0
300
1:16
140
1.0
141
16.0
290
     0
  0
SCALE
  5
4F
102
{ACAD_REACTORS
330
47
102
}
330
47
100
AcDbScale
 70
     0
300
1:20
140
1.0
141
20.0
290
     0
  0
SCALE
  5
50
102
{ACAD_REACTORS
330
47
102
}
330
47
100
AcDbScale
 70
     0
300
1:30
140
1.0
141
30.0
290
     0
  0
SCALE
  5
51
102
{ACAD_REACTORS
330
47
102
}
330
47
100
AcDbScale
 70
     0
300
1:40
140
1.0
141
40.0
290
     0
  0
SCALE
  5
52
102
{ACAD_REACTORS
330
47
102
}
330
47
100
AcDbScale
 70
     0
300
1:50
140
1.0
141
50.0
290
     0
  0
SCALE
  5
53
102
{ACAD_REACTORS
330
47
102
}
330
47
100
AcDbScale
 70
     0
300
1:100
140
1.0
141
100.0
290
     0
  0
SCALE
  5
54
102
{ACAD_REACTORS
330
47
102
}
330
47
100
AcDbScale
 70
     0
300
2:1
140
2.0
141
1.0
290
     0
  0
SCALE
  5
55
102
{ACAD_REACTORS
330
47
102
}
330
47
100
AcDbScale
 70
     0
300
4:1
140
4.0
141
1.0
290
     0
  0
SCALE
  5
56
102
{ACAD_REACTORS
330
47
102
}
330
47
100
AcDbScale
 70
     0
300
8:1
140
8.0
141
1.0
290
     0
  0
SCALE
  5
57
102
{ACAD_REACTORS
330
47
102
}
330
47
100
AcDbScale
 70
     0
300
10:1
140
10.0
141
1.0
290
     0
  0
SCALE
  5
58
102
{ACAD_REACTORS
330
47
102
}
330
47
100
AcDbScale
 70
     0
300
100:1
140
100.0
141
1.0
290
     0
  0
SCALE
  5
59
102
{ACAD_REACTORS
330
47
102
}
330
47
100
AcDbScale
 70
     0
300
1/128" = 1'-0"
140
0.0078125
141
12.0
290
     0
  0
SCALE
  5
5A
102
{ACAD_REACTORS
330
47
102
}
330
47
100
AcDbScale
 70
     0
300
1/64" = 1'-0"
140
0.015625
141
12.0
290
     0
  0
SCALE
  5
5B
102
{ACAD_REACTORS
330
47
102
}
330
47
100
AcDbScale
 70
     0
300
1/32" = 1'-0"
140
0.03125
141
12.0
290
     0
  0
SCALE
  5
5C
102
{ACAD_REACTORS
330
47
102
}
330
47
100
AcDbScale
 70
     0
300
1/16" = 1'-0"
140
0.0625
141
12.0
290
     0
  0
SCALE
  5
5D
102
{ACAD_REACTORS
330
47
102
}
330
47
100
AcDbScale
 70
     0
300
3/32" = 1'-0"
140
0.09375
141
12.0
290
     0
  0
SCALE
  5
5E
102
{ACAD_REACTORS
330
47
102
}
330
47
100
AcDbScale
 70
     0
300
1/8" = 1'-0"
140
0.125
141
12.0
290
     0
  0
SCALE
  5
5F
102
{ACAD_REACTORS
330
47
102
}
330
47
100
AcDbScale
 70
     0
300
3/16" = 1'-0"
140
0.1875
141
12.0
290
     0
  0
SCALE
  5
60
102
{ACAD_REACTORS
330
47
102
}
330
47
100
AcDbScale
 70
     0
300
1/4" = 1'-0"
140
0.25
141
12.0
290
     0
  0
SCALE
  5
61
102
{ACAD_REACTORS
330
47
102
}
330
47
100
AcDbScale
 70
     0
300
3/8" = 1'-0"
140
0.375
141
12.0
290
     0
  0
SCALE
  5
62
102
{ACAD_REACTORS
330
47
102
}
330
47
100
AcDbScale
 70
     0
300
1/2" = 1'-0"
140
0.5
141
12.0
290
     0
  0
SCALE
  5
63
102
{ACAD_REACTORS
330
47
102
}
330
47
100
AcDbScale
 70
     0
300
3/4" = 1'-0"
140
0.75
141
12.0
290
     0
  0
SCALE
  5
64
102
{ACAD_REACTORS
330
47
102
}
330
47
100
AcDbScale
 70
     0
300
1" = 1'-0"
140
1.0
141
12.0
290
     0
  0
SCALE
  5
65
102
{ACAD_REACTORS
330
47
102
}
330
47
100
AcDbScale
 70
     0
300
1-1/2" = 1'-0"
140
1.5
141
12.0
290
     0
  0
SCALE
  5
66
102
{ACAD_REACTORS
330
47
102
}
330
47
100
AcDbScale
 70
     0
300
3" = 1'-0"
140
3.0
141
12.0
290
     0
  0
SCALE
  5
67
102
{ACAD_REACTORS
330
47
102
}
330
47
100
AcDbScale
 70
     0
300
6" = 1'-0"
140
6.0
141
12.0
290
     0
  0
SCALE
  5
68
102
{ACAD_REACTORS
330
47
102
}
330
47
100
AcDbScale
 70
     0
300
1'-0" = 1'-0"
140
12.0
141
12.0
290
     0
  0
TABLESTYLE
  5
6A
102
{ACAD_REACTORS
330
69
102
}
102
{ACAD_XDICTIONARY
360
1D9
102
}
330
69
100
AcDbTableStyle
  3
Standard
 70
     0
 71
     0
 40
0.06
 41
0.06
280
     0
281
     0
  7
Standard
140
0.18
170
     2
 62
     0
 63
   257
283
     0
 90
        4
 91
        0
  1

274
    -2
284
     1
 64
     0
275
    -2
285
     1
 65
     0
276
    -2
286
     1
 66
     0
277
    -2
287
     1
 67
     0
278
    -2
288
     1
 68
     0
279
    -2
289
     1
 69
     0
  7
Standard
140
0.25
170
     5
 62
     0
 63
   257
283
     0
 90
        4
 91
        0
  1

274
    -2
284
     1
 64
     0
275
    -2
285
     1
 65
     0
276
    -2
286
     1
 66
     0
277
    -2
287
     1
 67
     0
278
    -2
288
     1
 68
     0
279
    -2
289
     1
 69
     0
  7
Standard
140
0.18
170
     5
 62
     0
 63
   257
283
     0
 90
        4
 91
        0
  1

274
    -2
284
     1
 64
     0
275
    -2
285
     1
 65
     0
276
    -2
286
     1
 66
     0
277
    -2
287
     1
 67
     0
278
    -2
288
     1
 68
     0
279
    -2
289
     1
 69
     0
  0
VISUALSTYLE
  5
2F
102
{ACAD_REACTORS
330
2A
102
}
330
2A
100
AcDbVisualStyle
  2
2dWireframe
 70
     4
177
     3
291
     0
 70
    58
 90
        0
176
     1
 90
        2
176
     1
 90
        0
176
     1
 90
        0
176
     1
 40
0.6
176
     1
 40
30.0
176
     1
 62
     7
420
 16777215
176
     1
 90
        1
176
     1
 90
        4
176
     1
 62
     7
176
     1
 62
   257
176
     1
 90
        1
176
     1
 90
        1
176
     1
 40
1.0
176
     1
 90
        0
176
     1
 62
   257
176
     1
 40
1.0
176
     1
 90
        1
176
     1
 90
        6
176
     1
 90
        2
176
     1
 62
     7
176
     1
 90
        5
176
     1
 90
        0
176
     1
 90
        0
176
     1
290
     0
176
     1
 90
        1
176
     1
 40
0.0
176
     1
 90
        0
176
     1
290
     1
176
     1
290
     1
176
     1
290
     0
176
     1
290
     0
176
     1
290
     0
176
     1
290
     0
176
     1
290
     0
176
     1
290
     0
176
     1
290
     0
176
     1
 90
       50
176
     1
 40
0.0
176
     1
 40
1.0
176
     1
 90
        0
176
     1
 62
    18
420
        0
176
     1
 90
       50
176
     1
 90
        3
176
     1
 62
     5
420
      255
176
     1
290
     0
176
     1
 90
       50
176
     1
 90
       50
176
     1
 90
       50
176
     1
290
     0
176
     1
 90
       50
176
     1
 62
   256
176
     0
 40
1.0
176
     0
 90
        2
176
     1
  1
strokes_ogs.tif
176
     1
290
     0
176
     1
 40
1.0
176
     1
 40
1.0
176
     1
  0
VISUALSTYLE
  5
32
102
{ACAD_REACTORS
330
2A
102
}
330
2A
100
AcDbVisualStyle
  2
Basic
 70
     7
177
     3
291
     1
 70
    58
 90
        1
176
     1
 90
        0
176
     1
 90
        1
176
     1
 90
        0
176
     1
 40
0.6
176
     1
 40
30.0
176
     1
 62
     7
420
 16777215
176
     1
 90
        0
176
     1
 90
        4
176
     1
 62
     7
176
     1
 62
   257
176
     1
 90
        1
176
     1
 90
        1
176
     1
 40
1.0
176
     1
 90
        8
176
     1
 62
     7
176
     1
 40
1.0
176
     1
 90
        1
176
     1
 90
        6
176
     1
 90
        2
176
     1
 62
     7
176
     1
 90
        5
176
     1
 90
        0
176
     1
 90
        0
176
     1
290
     0
176
     1
 90
        1
176
     1
 40
0.0
176
     1
 90
        0
176
     1
290
     0
176
     1
290
     1
176
     1
290
     1
176
     1
290
     0
176
     1
290
     0
176
     1
290
     0
176
     1
290
     0
176
     1
290
     0
176
     1
290
     0
176
     1
 90
       50
176
     1
 40
0.0
176
     1
 40
1.0
176
     1
 90
        0
176
     1
 62
    18
420
        0
176
     1
 90
       50
176
     1
 90
        3
176
     1
 62
     5
420
      255
176
     1
290
     0
176
     1
 90
       50
176
     1
 90
       50
176
     1
 90
       50
176
     1
290
     0
176
     1
 90
       50
176
     1
 62
   256
176
     0
 40
1.0
176
     0
 90
        2
176
     1
  1
strokes_ogs.tif
176
     1
290
     0
176
     1
 40
1.0
176
     1
 40
1.0
176
     1
  0
VISUALSTYLE
  5
36
102
{ACAD_REACTORS
330
2A
102
}
330
2A
100
AcDbVisualStyle
  2
Brighten
 70
    12
177
     3
291
     1
 70
    58
 90
        2
176
     1
 90
        2
176
     1
 90
        0
176
     1
 90
        0
176
     1
 40
0.6
176
     1
 40
30.0
176
     1
 62
     7
420
 16777215
176
     1
 90
        1
176
     1
 90
        4
176
     1
 62
     7
176
     1
 62
   257
176
     1
 90
        1
176
     1
 90
        1
176
     1
 40
1.0
176
     1
 90
        8
176
     1
 62
     7
176
     1
 40
1.0
176
     1
 90
        1
176
     1
 90
        6
176
     1
 90
        2
176
     1
 62
     7
176
     1
 90
        5
176
     1
 90
        0
176
     1
 90
        0
176
     1
290
     0
176
     1
 90
        1
176
     1
 40
50.0
176
     1
 90
        0
176
     1
290
     0
176
     1
290
     1
176
     1
290
     1
176
     1
290
     0
176
     1
290
     0
176
     1
290
     0
176
     1
290
     0
176
     1
290
     0
176
     1
290
     0
176
     1
 90
       50
176
     1
 40
0.0
176
     1
 40
1.0
176
     1
 90
        0
176
     1
 62
    18
420
        0
176
     1
 90
       50
176
     1
 90
        3
176
     1
 62
     5
420
      255
176
     1
290
     0
176
     1
 90
       50
176
     1
 90
       50
176
     1
 90
       50
176
     1
290
     0
176
     1
 90
       50
176
     1
 62
   256
176
     0
 40
1.0
176
     0
 90
        2
176
     1
  1
strokes_ogs.tif
176
     1
290
     0
176
     1
 40
1.0
176
     1
 40
1.0
176
     1
  0
VISUALSTYLE
  5
3A
102
{ACAD_REACTORS
330
2A
102
}
330
2A
100
AcDbVisualStyle
  2
ColorChange
 70
    16
177
     3
291
     1
 70
    58
 90
        2
176
     1
 90
        2
176
     1
 90
        3
176
     1
 90
        0
176
     1
 40
0.6
176
     1
 40
30.0
176
     1
 62
     8
420
  8421504
176
     1
 90
        1
176
     1
 90
        4
176
     1
 62
     7
176
     1
 62
   257
176
     1
 90
        1
176
     1
 90
        1
176
     1
 40
1.0
176
     1
 90
        8
176
     1
 62
     8
420
  8421504
176
     1
 40
1.0
176
     1
 90
        1
176
     1
 90
        6
176
     1
 90
        2
176
     1
 62
     7
176
     1
 90
        5
176
     1
 90
        0
176
     1
 90
        0
176
     1
290
     0
176
     1
 90
        1
176
     1
 40
0.0
176
     1
 90
        0
176
     1
290
     0
176
     1
290
     1
176
     1
290
     1
176
     1
290
     0
176
     1
290
     0
176
     1
290
     0
176
     1
290
     0
176
     1
290
     0
176
     1
290
     0
176
     1
 90
       50
176
     1
 40
0.0
176
     1
 40
1.0
176
     1
 90
        0
176
     1
 62
    18
420
        0
176
     1
 90
       50
176
     1
 90
        3
176
     1
 62
     5
420
      255
176
     1
290
     0
176
     1
 90
       50
176
     1
 90
       50
176
     1
 90
       50
176
     1
290
     0
176
     1
 90
       50
176
     1
 62
   256
176
     0
 40
1.0
176
     0
 90
        2
176
     1
  1
strokes_ogs.tif
176
     1
290
     0
176
     1
 40
1.0
176
     1
 40
1.0
176
     1
  0
VISUALSTYLE
  5
34
102
{ACAD_REACTORS
330
2A
102
}
330
2A
100
AcDbVisualStyle
  2
Conceptual
 70
     9
177
     3
291
     0
 70
    58
 90
        3
176
     1
 90
        2
176
     1
 90
        0
176
     1
 90
        0
176
     1
 40
0.6
176
     1
 40
30.0
176
     1
 62
     7
420
 16777215
176
     1
 90
        2
176
     1
 90
        2
176
     1
 62
     7
176
     1
 62
   257
176
     1
 90
        1
176
     1
 90
        1
176
     1
 40
179.0
176
     1
 90
        8
176
     1
 62
     7
176
     1
 40
1.0
176
     1
 90
        1
176
     1
 90
        6
176
     1
 90
        2
176
     1
 62
     7
176
     1
 90
        3
176
     1
 90
        0
176
     1
 90
        0
176
     1
290
     0
176
     1
 90
        1
176
     1
 40
0.0
176
     1
 90
        0
176
     1
290
     0
176
     1
290
     1
176
     1
290
     1
176
     1
290
     0
176
     1
290
     0
176
     1
290
     0
176
     1
290
     0
176
     1
290
     0
176
     1
290
     0
176
     1
 90
       50
176
     1
 40
0.0
176
     1
 40
1.0
176
     1
 90
        0
176
     1
 62
    18
420
        0
176
     1
 90
       50
176
     1
 90
        3
176
     1
 62
     5
420
      255
176
     1
290
     0
176
     1
 90
       50
176
     1
 90
       50
176
     1
 90
       50
176
     1
290
     0
176
     1
 90
       50
176
     1
 62
   256
176
     0
 40
1.0
176
     0
 90
        2
176
     1
  1
strokes_ogs.tif
176
     1
290
     0
176
     1
 40
1.0
176
     1
 40
1.0
176
     1
  0
VISUALSTYLE
  5
35
102
{ACAD_REACTORS
330
2A
102
}
330
2A
100
AcDbVisualStyle
  2
Dim
 70
    11
177
     3
291
     1
 70
    58
 90
        2
176
     1
 90
        2
176
     1
 90
        0
176
     1
 90
        0
176
     1
 40
0.6
176
     1
 40
30.0
176
     1
 62
     7
420
 16777215
176
     1
 90
        1
176
     1
 90
        4
176
     1
 62
     7
176
     1
 62
   257
176
     1
 90
        1
176
     1
 90
        1
176
     1
 40
1.0
176
     1
 90
        8
176
     1
 62
     7
176
     1
 40
1.0
176
     1
 90
        1
176
     1
 90
        6
176
     1
 90
        2
176
     1
 62
     7
176
     1
 90
        5
176
     1
 90
        0
176
     1
 90
        0
176
     1
290
     0
176
     1
 90
        1
176
     1
 40
-50.0
176
     1
 90
        0
176
     1
290
     0
176
     1
290
     1
176
     1
290
     1
176
     1
290
     0
176
     1
290
     0
176
     1
290
     0
176
     1
290
     0
176
     1
290
     0
176
     1
290
     0
176
     1
 90
       50
176
     1
 40
0.0
176
     1
 40
1.0
176
     1
 90
        0
176
     1
 62
    18
420
        0
176
     1
 90
       50
176
     1
 90
        3
176
     1
 62
     5
420
      255
176
     1
290
     0
176
     1
 90
       50
176
     1
 90
       50
176
     1
 90
       50
176
     1
290
     0
176
     1
 90
       50
176
     1
 62
   256
176
     0
 40
1.0
176
     0
 90
        2
176
     1
  1
strokes_ogs.tif
176
     1
290
     0
176
     1
 40
1.0
176
     1
 40
1.0
176
     1
  0
VISUALSTYLE
  5
3D
102
{ACAD_REACTORS
330
2A
102
}
330
2A
100
AcDbVisualStyle
  2
EdgeColorOff
 70
    22
177
     3
291
     1
 70
    58
 90
        2
176
     0
 90
        2
176
     0
 90
        0
176
     0
 90
        0
176
     0
 40
0.6
176
     0
 40
30.0
176
     0
 62
     7
420
 16777215
176
     0
 90
        1
176
     0
 90
        4
176
     0
 62
     7
176
     0
 62
   257
176
     0
 90
        1
176
     0
 90
        1
176
     0
 40
1.0
176
     0
 90
        8
176
     2
 62
     7
176
     0
 40
1.0
176
     0
 90
        1
176
     0
 90
        6
176
     0
 90
        2
176
     0
 62
     7
176
     0
 90
        5
176
     0
 90
        0
176
     0
 90
        0
176
     0
290
     0
176
     0
 90
        1
176
     0
 40
0.0
176
     0
 90
        0
176
     0
290
     0
176
     0
290
     1
176
     0
290
     1
176
     0
290
     0
176
     0
290
     0
176
     0
290
     0
176
     0
290
     0
176
     0
290
     0
176
     0
290
     0
176
     0
 90
       50
176
     0
 40
0.0
176
     0
 40
1.0
176
     0
 90
        0
176
     0
 62
    18
420
        0
176
     0
 90
       50
176
     0
 90
        3
176
     0
 62
     5
420
      255
176
     0
290
     0
176
     0
 90
       50
176
     0
 90
       50
176
     0
 90
       50
176
     0
290
     0
176
     0
 90
       50
176
     0
 62
   256
176
     0
 40
1.0
176
     0
 90
        2
176
     0
  1
strokes_ogs.tif
176
     0
290
     0
176
     0
 40
1.0
176
     0
 40
1.0
176
     0
  0
VISUALSTYLE
  5
39
102
{ACAD_REACTORS
330
2A
102
}
330
2A
100
AcDbVisualStyle
  2
Facepattern
 70
    15
177
     3
291
     1
 70
    58
 90
        2
176
     1
 90
        2
176
     1
 90
        0
176
     1
 90
        0
176
     1
 40
0.6
176
     1
 40
30.0
176
     1
 62
     7
420
 16777215
176
     1
 90
        1
176
     1
 90
        4
176
     1
 62
     7
176
     1
 62
   257
176
     1
 90
        1
176
     1
 90
        1
176
     1
 40
1.0
176
     1
 90
        8
176
     1
 62
     7
176
     1
 40
1.0
176
     1
 90
        1
176
     1
 90
        6
176
     1
 90
        2
176
     1
 62
     7
176
     1
 90
        5
176
     1
 90
        0
176
     1
 90
        0
176
     1
290
     0
176
     1
 90
        1
176
     1
 40
0.0
176
     1
 90
        0
176
     1
290
     0
176
     1
290
     1
176
     1
290
     1
176
     1
290
     0
176
     1
290
     0
176
     1
290
     0
176
     1
290
     0
176
     1
290
     0
176
     1
290
     0
176
     1
 90
       50
176
     1
 40
0.0
176
     1
 40
1.0
176
     1
 90
        0
176
     1
 62
    18
420
        0
176
     1
 90
       50
176
     1
 90
        3
176
     1
 62
     5
420
      255
176
     1
290
     0
176
     1
 90
       50
176
     1
 90
       50
176
     1
 90
       50
176
     1
290
     0
176
     1
 90
       50
176
     1
 62
   256
176
     0
 40
1.0
176
     0
 90
        2
176
     1
  1
strokes_ogs.tif
176
     1
290
     0
176
     1
 40
1.0
176
     1
 40
1.0
176
     1
  0
VISUALSTYLE
  5
2B
102
{ACAD_REACTORS
330
2A
102
}
330
2A
100
AcDbVisualStyle
  2
Flat
 70
     0
177
     3
291
     1
 70
    58
 90
        2
176
     1
 90
        1
176
     1
 90
        1
176
     1
 90
        2
176
     1
 40
0.6
176
     1
 40
30.0
176
     1
 62
     7
420
 16777215
176
     1
 90
        0
176
     1
 90
        0
176
     1
 62
     7
176
     1
 62
   257
176
     1
 90
        1
176
     1
 90
        1
176
     1
 40
1.0
176
     1
 90
        8
176
     1
 62
     7
176
     1
 40
1.0
176
     1
 90
        1
176
     1
 90
        6
176
     1
 90
        2
176
     1
 62
     7
176
     1
 90
        5
176
     1
 90
        0
176
     1
 90
        0
176
     1
290
     0
176
     1
 90
       13
176
     1
 40
0.0
176
     1
 90
        0
176
     1
290
     0
176
     1
290
     1
176
     1
290
     1
176
     1
290
     0
176
     1
290
     0
176
     1
290
     0
176
     1
290
     0
176
     1
290
     0
176
     1
290
     0
176
     1
 90
       50
176
     1
 40
0.0
176
     1
 40
1.0
176
     1
 90
        0
176
     1
 62
    18
420
        0
176
     1
 90
       50
176
     1
 90
        3
176
     1
 62
     5
420
      255
176
     1
290
     0
176
     1
 90
       50
176
     1
 90
       50
176
     1
 90
       50
176
     1
290
     0
176
     1
 90
       50
176
     1
 62
   256
176
     0
 40
1.0
176
     0
 90
        2
176
     1
  1
strokes_ogs.tif
176
     1
290
     0
176
     1
 40
1.0
176
     1
 40
1.0
176
     1
  0
VISUALSTYLE
  5
2C
102
{ACAD_REACTORS
330
2A
102
}
330
2A
100
AcDbVisualStyle
  2
FlatWithEdges
 70
     1
177
     3
291
     1
 70
    58
 90
        2
176
     1
 90
        1
176
     1
 90
        1
176
     1
 90
        2
176
     1
 40
0.6
176
     1
 40
30.0
176
     1
 62
     7
420
 16777215
176
     1
 90
        1
176
     1
 90
        0
176
     1
 62
     7
176
     1
 62
   257
176
     1
 90
        1
176
     1
 90
        1
176
     1
 40
1.0
176
     1
 90
        0
176
     1
 62
   257
176
     1
 40
1.0
176
     1
 90
        1
176
     1
 90
        6
176
     1
 90
        2
176
     1
 62
     7
176
     1
 90
        5
176
     1
 90
        0
176
     1
 90
        0
176
     1
290
     0
176
     1
 90
       13
176
     1
 40
0.0
176
     1
 90
        0
176
     1
290
     0
176
     1
290
     1
176
     1
290
     1
176
     1
290
     0
176
     1
290
     0
176
     1
290
     0
176
     1
290
     0
176
     1
290
     0
176
     1
290
     0
176
     1
 90
       50
176
     1
 40
0.0
176
     1
 40
1.0
176
     1
 90
        0
176
     1
 62
    18
420
        0
176
     1
 90
       50
176
     1
 90
        3
176
     1
 62
     5
420
      255
176
     1
290
     0
176
     1
 90
       50
176
     1
 90
       50
176
     1
 90
       50
176
     1
290
     0
176
     1
 90
       50
176
     1
 62
   256
176
     0
 40
1.0
176
     0
 90
        2
176
     1
  1
strokes_ogs.tif
176
     1
290
     0
176
     1
 40
1.0
176
     1
 40
1.0
176
     1
  0
VISUALSTYLE
  5
2D
102
{ACAD_REACTORS
330
2A
102
}
330
2A
100
AcDbVisualStyle
  2
Gouraud
 70
     2
177
     3
291
     1
 70
    58
 90
        2
176
     1
 90
        2
176
     1
 90
        1
176
     1
 90
        2
176
     1
 40
0.6
176
     1
 40
30.0
176
     1
 62
     7
420
 16777215
176
     1
 90
        0
176
     1
 90
        0
176
     1
 62
     7
176
     1
 62
   257
176
     1
 90
        1
176
     1
 90
        1
176
     1
 40
1.0
176
     1
 90
        0
176
     1
 62
     7
176
     1
 40
1.0
176
     1
 90
        1
176
     1
 90
        6
176
     1
 90
        2
176
     1
 62
     7
176
     1
 90
        5
176
     1
 90
        0
176
     1
 90
        0
176
     1
290
     0
176
     1
 90
       13
176
     1
 40
0.0
176
     1
 90
        0
176
     1
290
     0
176
     1
290
     1
176
     1
290
     1
176
     1
290
     0
176
     1
290
     0
176
     1
290
     0
176
     1
290
     0
176
     1
290
     0
176
     1
290
     0
176
     1
 90
       50
176
     1
 40
0.0
176
     1
 40
1.0
176
     1
 90
        0
176
     1
 62
    18
420
        0
176
     1
 90
       50
176
     1
 90
        3
176
     1
 62
     5
420
      255
176
     1
290
     0
176
     1
 90
       50
176
     1
 90
       50
176
     1
 90
       50
176
     1
290
     0
176
     1
 90
       50
176
     1
 62
   256
176
     0
 40
1.0
176
     0
 90
        2
176
     1
  1
strokes_ogs.tif
176
     1
290
     0
176
     1
 40
1.0
176
     1
 40
1.0
176
     1
  0
VISUALSTYLE
  5
2E
102
{ACAD_REACTORS
330
2A
102
}
330
2A
100
AcDbVisualStyle
  2
GouraudWithEdges
 70
     3
177
     3
291
     1
 70
    58
 90
        2
176
     1
 90
        2
176
     1
 90
        1
176
     1
 90
        2
176
     1
 40
0.6
176
     1
 40
30.0
176
     1
 62
     7
420
 16777215
176
     1
 90
        1
176
     1
 90
        0
176
     1
 62
     7
176
     1
 62
   257
176
     1
 90
        1
176
     1
 90
        1
176
     1
 40
1.0
176
     1
 90
        0
176
     1
 62
   257
176
     1
 40
1.0
176
     1
 90
        1
176
     1
 90
        6
176
     1
 90
        2
176
     1
 62
     7
176
     1
 90
        5
176
     1
 90
        0
176
     1
 90
        0
176
     1
290
     0
176
     1
 90
       13
176
     1
 40
0.0
176
     1
 90
        0
176
     1
290
     0
176
     1
290
     1
176
     1
290
     1
176
     1
290
     0
176
     1
290
     0
176
     1
290
     0
176
     1
290
     0
176
     1
290
     0
176
     1
290
     0
176
     1
 90
       50
176
     1
 40
0.0
176
     1
 40
1.0
176
     1
 90
        0
176
     1
 62
    18
420
        0
176
     1
 90
       50
176
     1
 90
        3
176
     1
 62
     5
420
      255
176
     1
290
     0
176
     1
 90
       50
176
     1
 90
       50
176
     1
 90
       50
176
     1
290
     0
176
     1
 90
       50
176
     1
 62
   256
176
     0
 40
1.0
176
     0
 90
        2
176
     1
  1
strokes_ogs.tif
176
     1
290
     0
176
     1
 40
1.0
176
     1
 40
1.0
176
     1
  0
VISUALSTYLE
  5
31
102
{ACAD_REACTORS
330
2A
102
}
330
2A
100
AcDbVisualStyle
  2
Hidden
 70
     6
177
     3
291
     0
 70
    58
 90
        1
176
     1
 90
        2
176
     1
 90
        2
176
     1
 90
        0
176
     1
 40
0.6
176
     1
 40
30.0
176
     1
 62
     7
420
 16777215
176
     1
 90
        2
176
     1
 90
        2
176
     1
 62
     7
176
     1
 62
   257
176
     1
 90
        2
176
     1
 90
        1
176
     1
 40
40.0
176
     1
 90
        0
176
     1
 62
   257
176
     1
 40
1.0
176
     1
 90
        1
176
     1
 90
        6
176
     1
 90
        2
176
     1
 62
     7
176
     1
 90
        3
176
     1
 90
        0
176
     1
 90
        0
176
     1
290
     0
176
     1
 90
        1
176
     1
 40
0.0
176
     1
 90
        0
176
     1
290
     0
176
     1
290
     1
176
     1
290
     1
176
     1
290
     0
176
     1
290
     0
176
     1
290
     0
176
     1
290
     0
176
     1
290
     0
176
     1
290
     0
176
     1
 90
       50
176
     1
 40
0.0
176
     1
 40
1.0
176
     1
 90
        0
176
     1
 62
    18
420
        0
176
     1
 90
       50
176
     1
 90
        3
176
     1
 62
     5
420
      255
176
     1
290
     0
176
     1
 90
       50
176
     1
 90
       50
176
     1
 90
       50
176
     1
290
     0
176
     1
 90
       50
176
     1
 62
   256
176
     0
 40
1.0
176
     0
 90
        2
176
     1
  1
strokes_ogs.tif
176
     1
290
     0
176
     1
 40
1.0
176
     1
 40
1.0
176
     1
  0
VISUALSTYLE
  5
3B
102
{ACAD_REACTORS
330
2A
102
}
330
2A
100
AcDbVisualStyle
  2
JitterOff
 70
    20
177
     3
291
     1
 70
    58
 90
        2
176
     0
 90
        2
176
     0
 90
        0
176
     0
 90
        0
176
     0
 40
0.6
176
     0
 40
30.0
176
     0
 62
     7
420
 16777215
176
     0
 90
        1
176
     0
 90
        4
176
     0
 62
     7
176
     0
 62
   257
176
     0
 90
        1
176
     0
 90
        1
176
     0
 40
1.0
176
     0
 90
       10
176
     2
 62
     7
176
     0
 40
1.0
176
     0
 90
        1
176
     0
 90
        6
176
     0
 90
        2
176
     0
 62
     7
176
     0
 90
        5
176
     0
 90
        0
176
     0
 90
        0
176
     0
290
     0
176
     0
 90
        1
176
     0
 40
0.0
176
     0
 90
        0
176
     0
290
     0
176
     0
290
     1
176
     0
290
     1
176
     0
290
     0
176
     0
290
     0
176
     0
290
     0
176
     0
290
     0
176
     0
290
     0
176
     0
290
     0
176
     0
 90
       50
176
     0
 40
0.0
176
     0
 40
1.0
176
     0
 90
        0
176
     0
 62
    18
420
        0
176
     0
 90
       50
176
     0
 90
        3
176
     0
 62
     5
420
      255
176
     0
290
     0
176
     0
 90
       50
176
     0
 90
       50
176
     0
 90
       50
176
     0
290
     0
176
     0
 90
       50
176
     0
 62
   256
176
     0
 40
1.0
176
     0
 90
        2
176
     0
  1
strokes_ogs.tif
176
     0
290
     0
176
     0
 40
1.0
176
     0
 40
1.0
176
     0
  0
VISUALSTYLE
  5
38
102
{ACAD_REACTORS
330
2A
102
}
330
2A
100
AcDbVisualStyle
  2
Linepattern
 70
    14
177
     3
291
     1
 70
    58
 90
        2
176
     1
 90
        2
176
     1
 90
        0
176
     1
 90
        0
176
     1
 40
0.6
176
     1
 40
30.0
176
     1
 62
     7
420
 16777215
176
     1
 90
        1
176
     1
 90
        4
176
     1
 62
     7
176
     1
 62
   257
176
     1
 90
        7
176
     1
 90
        7
176
     1
 40
1.0
176
     1
 90
        8
176
     1
 62
     7
176
     1
 40
1.0
176
     1
 90
        1
176
     1
 90
        6
176
     1
 90
        2
176
     1
 62
     7
176
     1
 90
        5
176
     1
 90
        0
176
     1
 90
        0
176
     1
290
     0
176
     1
 90
        1
176
     1
 40
0.0
176
     1
 90
        0
176
     1
290
     0
176
     1
290
     1
176
     1
290
     1
176
     1
290
     0
176
     1
290
     0
176
     1
290
     0
176
     1
290
     0
176
     1
290
     0
176
     1
290
     0
176
     1
 90
       50
176
     1
 40
0.0
176
     1
 40
1.0
176
     1
 90
        0
176
     1
 62
    18
420
        0
176
     1
 90
       50
176
     1
 90
        3
176
     1
 62
     5
420
      255
176
     1
290
     0
176
     1
 90
       50
176
     1
 90
       50
176
     1
 90
       50
176
     1
290
     0
176
     1
 90
       50
176
     1
 62
   256
176
     0
 40
1.0
176
     0
 90
        2
176
     1
  1
strokes_ogs.tif
176
     1
290
     0
176
     1
 40
1.0
176
     1
 40
1.0
176
     1
  0
VISUALSTYLE
  5
3C
102
{ACAD_REACTORS
330
2A
102
}
330
2A
100
AcDbVisualStyle
  2
OverhangOff
 70
    21
177
     3
291
     1
 70
    58
 90
        2
176
     0
 90
        2
176
     0
 90
        0
176
     0
 90
        0
176
     0
 40
0.6
176
     0
 40
30.0
176
     0
 62
     7
420
 16777215
176
     0
 90
        1
176
     0
 90
        4
176
     0
 62
     7
176
     0
 62
   257
176
     0
 90
        1
176
     0
 90
        1
176
     0
 40
1.0
176
     0
 90
        9
176
     2
 62
     7
176
     0
 40
1.0
176
     0
 90
        1
176
     0
 90
        6
176
     0
 90
        2
176
     0
 62
     7
176
     0
 90
        5
176
     0
 90
        0
176
     0
 90
        0
176
     0
290
     0
176
     0
 90
        1
176
     0
 40
0.0
176
     0
 90
        0
176
     0
290
     0
176
     0
290
     1
176
     0
290
     1
176
     0
290
     0
176
     0
290
     0
176
     0
290
     0
176
     0
290
     0
176
     0
290
     0
176
     0
290
     0
176
     0
 90
       50
176
     0
 40
0.0
176
     0
 40
1.0
176
     0
 90
        0
176
     0
 62
    18
420
        0
176
     0
 90
       50
176
     0
 90
        3
176
     0
 62
     5
420
      255
176
     0
290
     0
176
     0
 90
       50
176
     0
 90
       50
176
     0
 90
       50
176
     0
290
     0
176
     0
 90
       50
176
     0
 62
   256
176
     0
 40
1.0
176
     0
 90
        2
176
     0
  1
strokes_ogs.tif
176
     0
290
     0
176
     0
 40
1.0
176
     0
 40
1.0
176
     0
  0
VISUALSTYLE
  5
33
102
{ACAD_REACTORS
330
2A
102
}
330
2A
100
AcDbVisualStyle
  2
Realistic
 70
     8
177
     3
291
     0
 70
    58
 90
        2
176
     1
 90
        3
176
     1
 90
        0
176
     1
 90
        2
176
     1
 40
0.6
176
     1
 40
30.0
176
     1
 62
     7
420
 16777215
176
     1
 90
        0
176
     1
 90
        0
176
     1
 62
     7
176
     1
 62
   257
176
     1
 90
        1
176
     1
 90
        1
176
     1
 40
1.0
176
     1
 90
        8
176
     1
 62
   257
176
     1
 40
1.0
176
     1
 90
        1
176
     1
 90
        6
176
     1
 90
        2
176
     1
 62
     7
176
     1
 90
        3
176
     1
 90
        0
176
     1
 90
        0
176
     1
290
     0
176
     1
 90
       13
176
     1
 40
0.0
176
     1
 90
        0
176
     1
290
     0
176
     1
290
     1
176
     1
290
     1
176
     1
290
     0
176
     1
290
     0
176
     1
290
     0
176
     1
290
     0
176
     1
290
     0
176
     1
290
     0
176
     1
 90
       50
176
     1
 40
0.0
176
     1
 40
1.0
176
     1
 90
        0
176
     1
 62
    18
420
        0
176
     1
 90
       50
176
     1
 90
        3
176
     1
 62
     5
420
      255
176
     1
290
     0
176
     1
 90
       50
176
     1
 90
       50
176
     1
 90
       50
176
     1
290
     0
176
     1
 90
       50
176
     1
 62
   256
176
     0
 40
1.0
176
     0
 90
        2
176
     1
  1
strokes_ogs.tif
176
     1
290
     0
176
     1
 40
1.0
176
     1
 40
1.0
176
     1
  0
VISUALSTYLE
  5
42
102
{ACAD_REACTORS
330
2A
102
}
330
2A
100
AcDbVisualStyle
  2
Shaded
 70
    27
177
     3
291
     0
 70
    58
 90
        2
176
     1
 90
        2
176
     1
 90
        1
176
     1
 90
        2
176
     1
 40
0.6
176
     1
 40
30.0
176
     1
 62
     7
420
 16777215
176
     1
 90
        0
176
     1
 90
        4
176
     1
 62
     7
176
     1
 62
   257
176
     1
 90
        1
176
     1
 90
        1
176
     1
 40
1.0
176
     1
 90
        8
176
     1
 62
   257
176
     1
 40
1.0
176
     1
 90
        1
176
     1
 90
        6
176
     1
 90
        2
176
     1
 62
     8
420
  7895160
176
     1
 90
        3
176
     1
 90
        0
176
     1
 90
        0
176
     1
290
     0
176
     1
 90
        5
176
     1
 40
0.0
176
     1
 90
        0
176
     1
290
     0
176
     1
290
     1
176
     1
290
     1
176
     1
290
     0
176
     1
290
     0
176
     1
290
     0
176
     1
290
     0
176
     1
290
     0
176
     1
290
     0
176
     1
 90
       50
176
     1
 40
0.0
176
     1
 40
1.0
176
     1
 90
        0
176
     1
 62
    18
420
        0
176
     1
 90
       50
176
     1
 90
        3
176
     1
 62
     5
420
      255
176
     1
290
     0
176
     1
 90
       50
176
     1
 90
       50
176
     1
 90
       50
176
     1
290
     0
176
     1
 90
       50
176
     1
 62
   256
176
     0
 40
1.0
176
     0
 90
        2
176
     1
  1
strokes_ogs.tif
176
     1
290
     0
176
     1
 40
1.0
176
     1
 40
1.0
176
     1
  0
VISUALSTYLE
  5
41
102
{ACAD_REACTORS
330
2A
102
}
330
2A
100
AcDbVisualStyle
  2
Shaded with edges
 70
    26
177
     3
291
     0
 70
    58
 90
        2
176
     1
 90
        2
176
     1
 90
        1
176
     1
 90
        2
176
     1
 40
0.6
176
     1
 40
30.0
176
     1
 62
     7
420
 16777215
176
     1
 90
        1
176
     1
 90
       10
176
     1
 62
     7
176
     1
 62
   257
176
     1
 90
        2
176
     1
 90
        1
176
     1
 40
1.0
176
     1
 90
        8
176
     1
 62
   257
176
     1
 40
1.0
176
     1
 90
        1
176
     1
 90
        6
176
     1
 90
        2
176
     1
 62
     7
176
     1
 90
        3
176
     1
 90
        0
176
     1
 90
        0
176
     1
290
     0
176
     1
 90
        5
176
     1
 40
0.0
176
     1
 90
        0
176
     1
290
     0
176
     1
290
     1
176
     1
290
     1
176
     1
290
     0
176
     1
290
     0
176
     1
290
     0
176
     1
290
     0
176
     1
290
     0
176
     1
290
     0
176
     1
 90
       50
176
     1
 40
0.0
176
     1
 40
1.0
176
     1
 90
        0
176
     1
 62
    18
420
        0
176
     1
 90
       50
176
     1
 90
        3
176
     1
 62
     5
420
      255
176
     1
290
     0
176
     1
 90
       50
176
     1
 90
       50
176
     1
 90
       50
176
     1
290
     0
176
     1
 90
       50
176
     1
 62
   256
176
     0
 40
1.0
176
     0
 90
        2
176
     1
  1
strokes_ogs.tif
176
     1
290
     0
176
     1
 40
1.0
176
     1
 40
1.0
176
     1
  0
VISUALSTYLE
  5
3E
102
{ACAD_REACTORS
330
2A
102
}
330
2A
100
AcDbVisualStyle
  2
Shades of Gray
 70
    23
177
     3
291
     0
 70
    58
 90
        2
176
     1
 90
        2
176
     1
 90
        3
176
     1
 90
        0
176
     1
 40
0.6
176
     1
 40
30.0
176
     1
 62
     7
420
 16777215
176
     1
 90
        2
176
     1
 90
        2
176
     1
 62
     7
176
     1
 62
     7
176
     1
 90
        1
176
     1
 90
        1
176
     1
 40
40.0
176
     1
 90
        8
176
     1
 62
     7
176
     1
 40
1.0
176
     1
 90
        1
176
     1
 90
        6
176
     1
 90
        2
176
     1
 62
     7
176
     1
 90
        3
176
     1
 90
        0
176
     1
 90
        0
176
     1
290
     0
176
     1
 90
        1
176
     1
 40
0.0
176
     1
 90
        0
176
     1
290
     0
176
     1
290
     1
176
     1
290
     1
176
     1
290
     0
176
     1
290
     0
176
     1
290
     0
176
     1
290
     0
176
     1
290
     0
176
     1
290
     0
176
     1
 90
       50
176
     1
 40
0.0
176
     1
 40
1.0
176
     1
 90
        0
176
     1
 62
    18
420
        0
176
     1
 90
       50
176
     1
 90
        3
176
     1
 62
     5
420
      255
176
     1
290
     0
176
     1
 90
       50
176
     1
 90
       50
176
     1
 90
       50
176
     1
290
     0
176
     1
 90
       50
176
     1
 62
   256
176
     0
 40
1.0
176
     0
 90
        2
176
     1
  1
strokes_ogs.tif
176
     1
290
     0
176
     1
 40
1.0
176
     1
 40
1.0
176
     1
  0
VISUALSTYLE
  5
3F
102
{ACAD_REACTORS
330
2A
102
}
330
2A
100
AcDbVisualStyle
  2
Sketchy
 70
    24
177
     3
291
     0
 70
    58
 90
        1
176
     1
 90
        2
176
     1
 90
        2
176
     1
 90
        0
176
     1
 40
0.6
176
     1
 40
30.0
176
     1
 62
     7
420
 16777215
176
     1
 90
        2
176
     1
 90
        2
176
     1
 62
     7
176
     1
 62
     7
176
     1
 90
        1
176
     1
 90
        1
176
     1
 40
40.0
176
     1
 90
       11
176
     1
 62
     7
176
     1
 40
1.0
176
     1
 90
        1
176
     1
 90
        6
176
     1
 90
        2
176
     1
 62
     7
176
     1
 90
        6
176
     1
 90
        0
176
     1
 90
        0
176
     1
290
     0
176
     1
 90
        1
176
     1
 40
0.0
176
     1
 90
        0
176
     1
290
     0
176
     1
290
     1
176
     1
290
     1
176
     1
290
     0
176
     1
290
     0
176
     1
290
     0
176
     1
290
     0
176
     1
290
     0
176
     1
290
     0
176
     1
 90
       50
176
     1
 40
0.0
176
     1
 40
1.0
176
     1
 90
        0
176
     1
 62
    18
420
        0
176
     1
 90
       50
176
     1
 90
        3
176
     1
 62
     5
420
      255
176
     1
290
     0
176
     1
 90
       50
176
     1
 90
       50
176
     1
 90
       50
176
     1
290
     0
176
     1
 90
       50
176
     1
 62
   256
176
     0
 40
1.0
176
     0
 90
        2
176
     1
  1
strokes_ogs.tif
176
     1
290
     0
176
     1
 40
1.0
176
     1
 40
1.0
176
     1
  0
VISUALSTYLE
  5
37
102
{ACAD_REACTORS
330
2A
102
}
330
2A
100
AcDbVisualStyle
  2
Thicken
 70
    13
177
     3
291
     1
 70
    58
 90
        2
176
     1
 90
        2
176
     1
 90
        0
176
     1
 90
        0
176
     1
 40
0.6
176
     1
 40
30.0
176
     1
 62
     7
420
 16777215
176
     1
 90
        1
176
     1
 90
        4
176
     1
 62
     7
176
     1
 62
   257
176
     1
 90
        1
176
     1
 90
        1
176
     1
 40
1.0
176
     1
 90
       12
176
     1
 62
     7
176
     1
 40
1.0
176
     1
 90
        1
176
     1
 90
        6
176
     1
 90
        2
176
     1
 62
     7
176
     1
 90
        5
176
     1
 90
        0
176
     1
 90
        0
176
     1
290
     0
176
     1
 90
        1
176
     1
 40
0.0
176
     1
 90
        0
176
     1
290
     0
176
     1
290
     1
176
     1
290
     1
176
     1
290
     0
176
     1
290
     0
176
     1
290
     0
176
     1
290
     0
176
     1
290
     0
176
     1
290
     0
176
     1
 90
       50
176
     1
 40
0.0
176
     1
 40
1.0
176
     1
 90
        0
176
     1
 62
    18
420
        0
176
     1
 90
       50
176
     1
 90
        3
176
     1
 62
     5
420
      255
176
     1
290
     0
176
     1
 90
       50
176
     1
 90
       50
176
     1
 90
       50
176
     1
290
     0
176
     1
 90
       50
176
     1
 62
   256
176
     0
 40
1.0
176
     0
 90
        2
176
     1
  1
strokes_ogs.tif
176
     1
290
     0
176
     1
 40
1.0
176
     1
 40
1.0
176
     1
  0
VISUALSTYLE
  5
30
102
{ACAD_REACTORS
330
2A
102
}
330
2A
100
AcDbVisualStyle
  2
Wireframe
 70
     5
177
     3
291
     0
 70
    58
 90
        0
176
     1
 90
        2
176
     1
 90
        0
176
     1
 90
        0
176
     1
 40
0.6
176
     1
 40
30.0
176
     1
 62
     7
420
 16777215
176
     1
 90
        1
176
     1
 90
        4
176
     1
 62
     7
176
     1
 62
   257
176
     1
 90
        1
176
     1
 90
        1
176
     1
 40
1.0
176
     1
 90
        0
176
     1
 62
   257
176
     1
 40
1.0
176
     1
 90
        1
176
     1
 90
        6
176
     1
 90
        2
176
     1
 62
     7
176
     1
 90
        3
176
     1
 90
        0
176
     1
 90
        0
176
     1
290
     0
176
     1
 90
        1
176
     1
 40
0.0
176
     1
 90
        0
176
     1
290
     0
176
     1
290
     1
176
     1
290
     1
176
     1
290
     0
176
     1
290
     0
176
     1
290
     0
176
     1
290
     0
176
     1
290
     0
176
     1
290
     0
176
     1
 90
       50
176
     1
 40
0.0
176
     1
 40
1.0
176
     1
 90
        0
176
     1
 62
    18
420
        0
176
     1
 90
       50
176
     1
 90
        3
176
     1
 62
     5
420
      255
176
     1
290
     0
176
     1
 90
       50
176
     1
 90
       50
176
     1
 90
       50
176
     1
290
     0
176
     1
 90
       50
176
     1
 62
   256
176
     0
 40
1.0
176
     0
 90
        2
176
     1
  1
strokes_ogs.tif
176
     1
290
     0
176
     1
 40
1.0
176
     1
 40
1.0
176
     1
  0
VISUALSTYLE
  5
40
102
{ACAD_REACTORS
330
2A
102
}
330
2A
100
AcDbVisualStyle
  2
X-Ray
 70
    25
177
     3
291
     0
 70
    58
 90
        2
176
     1
 90
        2
176
     1
 90
        1
176
     1
 90
        1
176
     1
 40
0.5
176
     1
 40
30.0
176
     1
 62
     7
420
 16777215
176
     1
 90
        1
176
     1
 90
        0
176
     1
 62
     7
176
     1
 62
   257
176
     1
 90
        1
176
     1
 90
        1
176
     1
 40
1.0
176
     1
 90
        8
176
     1
 62
     7
176
     1
 40
1.0
176
     1
 90
        1
176
     1
 90
        6
176
     1
 90
        2
176
     1
 62
     7
176
     1
 90
        3
176
     1
 90
        0
176
     1
 90
        0
176
     1
290
     0
176
     1
 90
       13
176
     1
 40
0.0
176
     1
 90
        0
176
     1
290
     0
176
     1
290
     1
176
     1
290
     1
176
     1
290
     0
176
     1
290
     0
176
     1
290
     0
176
     1
290
     0
176
     1
290
     0
176
     1
290
     0
176
     1
 90
       50
176
     1
 40
0.0
176
     1
 40
1.0
176
     1
 90
        0
176
     1
 62
    18
420
        0
176
     1
 90
       50
176
     1
 90
        3
176
     1
 62
     5
420
      255
176
     1
290
     0
176
     1
 90
       50
176
     1
 90
       50
176
     1
 90
       50
176
     1
290
     0
176
     1
 90
       50
176
     1
 62
   256
176
     0
 40
1.0
176
     0
 90
        2
176
     1
  1
strokes_ogs.tif
176
     1
290
     0
176
     1
 40
1.0
176
     1
 40
1.0
176
     1
  0
DICTIONARYVAR
  5
1D8
102
{ACAD_REACTORS
330
1D7
102
}
330
1D7
100
DictionaryVariables
280
     0
  1
1:1
  0
DICTIONARYVAR
  5
1DD
102
{ACAD_REACTORS
330
1D7
102
}
330
1D7
100
DictionaryVariables
280
     0
  1
Standard
  0
DICTIONARYVAR
  5
1DC
102
{ACAD_REACTORS
330
1D7
102
}
330
1D7
100
DictionaryVariables
280
     0
  1
Standard
  0
DICTIONARY
  5
1D9
330
6A
100
AcDbDictionary
280
     1
281
     1
  3
ACAD_ROUNDTRIP_2008_TABLESTYLE_CELLSTYLEMAP
360
1DA
  0
CELLSTYLEMAP
  5
1DA
102
{ACAD_REACTORS
330
1D9
102
}
330
1D9
100
AcDbCellStyleMap
 90
        3
300
CELLSTYLE
  1
TABLEFORMAT_BEGIN
 90
        5
170
     1
 91
        0
 92
    32768
 62
   257
 93
        1
300
CONTENTFORMAT
  1
CONTENTFORMAT_BEGIN
 90
        0
 91
        0
 92
        4
 93
        0
300

 40
0.0
140
1.0
 94
        5
 62
     0
340
11
144
0.25
309
CONTENTFORMAT_END
171
     1
301
MARGIN
  1
CELLMARGIN_BEGIN
 40
0.06
 40
0.06
 40
0.06
 40
0.06
 40
0.06
 40
0.06
309
CELLMARGIN_END
 94
        6
 95
        1
302
GRIDFORMAT
  1
GRIDFORMAT_BEGIN
 90
        0
 91
        1
 62
     0
 92
       -2
340
14
 93
        0
 40
0.045
309
GRIDFORMAT_END
 95
        2
302
GRIDFORMAT
  1
GRIDFORMAT_BEGIN
 90
        0
 91
        1
 62
     0
 92
       -2
340
14
 93
        0
 40
0.045
309
GRIDFORMAT_END
 95
        4
302
GRIDFORMAT
  1
GRIDFORMAT_BEGIN
 90
        0
 91
        1
 62
     0
 92
       -2
340
14
 93
        0
 40
0.045
309
GRIDFORMAT_END
 95
        8
302
GRIDFORMAT
  1
GRIDFORMAT_BEGIN
 90
        0
 91
        1
 62
     0
 92
       -2
340
14
 93
        0
 40
0.045
309
GRIDFORMAT_END
 95
       16
302
GRIDFORMAT
  1
GRIDFORMAT_BEGIN
 90
        0
 91
        1
 62
     0
 92
       -2
340
14
 93
        0
 40
0.045
309
GRIDFORMAT_END
 95
       32
302
GRIDFORMAT
  1
GRIDFORMAT_BEGIN
 90
        0
 91
        1
 62
     0
 92
       -2
340
14
 93
        0
 40
0.045
309
GRIDFORMAT_END
309
TABLEFORMAT_END
  1
CELLSTYLE_BEGIN
 90
        1
 91
        1
300
_TITLE
309
CELLSTYLE_END
300
CELLSTYLE
  1
TABLEFORMAT_BEGIN
 90
        5
170
     1
 91
        0
 92
        0
 62
   257
 93
        1
300
CONTENTFORMAT
  1
CONTENTFORMAT_BEGIN
 90
        0
 91
        0
 92
        4
 93
        0
300

 40
0.0
140
1.0
 94
        5
 62
     0
340
11
144
0.18
309
CONTENTFORMAT_END
171
     1
301
MARGIN
  1
CELLMARGIN_BEGIN
 40
0.06
 40
0.06
 40
0.06
 40
0.06
 40
0.06
 40
0.06
309
CELLMARGIN_END
 94
        6
 95
        1
302
GRIDFORMAT
  1
GRIDFORMAT_BEGIN
 90
        0
 91
        1
 62
     0
 92
       -2
340
14
 93
        0
 40
0.045
309
GRIDFORMAT_END
 95
        2
302
GRIDFORMAT
  1
GRIDFORMAT_BEGIN
 90
        0
 91
        1
 62
     0
 92
       -2
340
14
 93
        0
 40
0.045
309
GRIDFORMAT_END
 95
        4
302
GRIDFORMAT
  1
GRIDFORMAT_BEGIN
 90
        0
 91
        1
 62
     0
 92
       -2
340
14
 93
        0
 40
0.045
309
GRIDFORMAT_END
 95
        8
302
GRIDFORMAT
  1
GRIDFORMAT_BEGIN
 90
        0
 91
        1
 62
     0
 92
       -2
340
14
 93
        0
 40
0.045
309
GRIDFORMAT_END
 95
       16
302
GRIDFORMAT
  1
GRIDFORMAT_BEGIN
 90
        0
 91
        1
 62
     0
 92
       -2
340
14
 93
        0
 40
0.045
309
GRIDFORMAT_END
 95
       32
302
GRIDFORMAT
  1
GRIDFORMAT_BEGIN
 90
        0
 91
        1
 62
     0
 92
       -2
340
14
 93
        0
 40
0.045
309
GRIDFORMAT_END
309
TABLEFORMAT_END
  1
CELLSTYLE_BEGIN
 90
        2
 91
        1
300
_HEADER
309
CELLSTYLE_END
300
CELLSTYLE
  1
TABLEFORMAT_BEGIN
 90
        5
170
     1
 91
        0
 92
        0
 62
   257
 93
        1
300
CONTENTFORMAT
  1
CONTENTFORMAT_BEGIN
 90
        0
 91
        0
 92
        4
 93
        0
300

 40
0.0
140
1.0
 94
        2
 62
     0
340
11
144
0.18
309
CONTENTFORMAT_END
171
     1
301
MARGIN
  1
CELLMARGIN_BEGIN
 40
0.06
 40
0.06
 40
0.06
 40
0.06
 40
0.06
 40
0.06
309
CELLMARGIN_END
 94
        6
 95
        1
302
GRIDFORMAT
  1
GRIDFORMAT_BEGIN
 90
        0
 91
        1
 62
     0
 92
       -2
340
14
 93
        0
 40
0.045
309
GRIDFORMAT_END
 95
        2
302
GRIDFORMAT
  1
GRIDFORMAT_BEGIN
 90
        0
 91
        1
 62
     0
 92
       -2
340
14
 93
        0
 40
0.045
309
GRIDFORMAT_END
 95
        4
302
GRIDFORMAT
  1
GRIDFORMAT_BEGIN
 90
        0
 91
        1
 62
     0
 92
       -2
340
14
 93
        0
 40
0.045
309
GRIDFORMAT_END
 95
        8
302
GRIDFORMAT
  1
GRIDFORMAT_BEGIN
 90
        0
 91
        1
 62
     0
 92
       -2
340
14
 93
        0
 40
0.045
309
GRIDFORMAT_END
 95
       16
302
GRIDFORMAT
  1
GRIDFORMAT_BEGIN
 90
        0
 91
        1
 62
     0
 92
       -2
340
14
 93
        0
 40
0.045
309
GRIDFORMAT_END
 95
       32
302
GRIDFORMAT
  1
GRIDFORMAT_BEGIN
 90
        0
 91
        1
 62
     0
 92
       -2
340
14
 93
        0
 40
0.045
309
GRIDFORMAT_END
309
TABLEFORMAT_END
  1
CELLSTYLE_BEGIN
 90
        3
 91
        2
300
_DATA
309
CELLSTYLE_END
  0
ENDSEC
  0
EOF