0
SECTION
  2
HEADER
  9
$ACADVER
  1
AC1027
  9
$ACADMAINTVER
 70
     8
  9
$DWGCODEPAGE
  3
ANSI_1252
  9
$REQUIREDVERSIONS
160
                 0
  9
$COMMENTS
  1
File was created by Cadenas
  9
$CUSTOMPROPERTYTAG
  1
NN
  9
$CUSTOMPROPERTY
  1
TP Take-Up Trident Seal
  9
$CUSTOMPROPERTYTAG
  1
NT
  9
$CUSTOMPROPERTY
  1
S-2000 TPHU Take-Up Bearing -Inch
  9
$CUSTOMPROPERTYTAG
  1
NB
  9
$CUSTOMPROPERTY
  1
070841
  9
$CUSTOMPROPERTYTAG
  1
NBSYN
  9
$CUSTOMPROPERTY
  1
$PN.
  9
$CUSTOMPROPERTYTAG
  1
LINA
  9
$CUSTOMPROPERTY
  1
070841
  9
$CUSTOMPROPERTYTAG
  1
SS
  9
$CUSTOMPROPERTY
  1
3-15/16
  9
$CUSTOMPROPERTYTAG
  1
PN
  9
$CUSTOMPROPERTY
  1
070841
  9
$CUSTOMPROPERTYTAG
  1
DESCRIPTION
  9
$CUSTOMPROPERTY
  1
TPHU-S2-315RE
  9
$CUSTOMPROPERTYTAG
  1
EF
  9
$CUSTOMPROPERTY
  1
Expansion Type
  9
$CUSTOMPROPERTYTAG
  1
ST
  9
$CUSTOMPROPERTY
  1
Contact Seal
  9
$CUSTOMPROPERTYTAG
  1
A
  9
$CUSTOMPROPERTY
  1
4-15/32
  9
$CUSTOMPROPERTYTAG
  1
B
  9
$CUSTOMPROPERTY
  1
3-1/8
  9
$CUSTOMPROPERTYTAG
  1
C
  9
$CUSTOMPROPERTY
  1
13/16
  9
$CUSTOMPROPERTYTAG
  1
D
  9
$CUSTOMPROPERTY
  1
9-1/4
  9
$CUSTOMPROPERTYTAG
  1
E
  9
$CUSTOMPROPERTY
  1
4-9/16
  9
$CUSTOMPROPERTYTAG
  1
F
  9
$CUSTOMPROPERTY
  1
1-9/16
  9
$CUSTOMPROPERTYTAG
  1
G
  9
$CUSTOMPROPERTY
  1
11/16
  9
$CUSTOMPROPERTYTAG
  1
H
  9
$CUSTOMPROPERTY
  1
11
  9
$CUSTOMPROPERTYTAG
  1
J
  9
$CUSTOMPROPERTY
  1
11-1/2
  9
$CUSTOMPROPERTYTAG
  1
K
  9
$CUSTOMPROPERTY
  1
5-1/2
  9
$CUSTOMPROPERTYTAG
  1
L
  9
$CUSTOMPROPERTY
  1
6
  9
$CUSTOMPROPERTYTAG
  1
M
  9
$CUSTOMPROPERTY
  1
10-1/2
  9
$CUSTOMPROPERTYTAG
  1
N
  9
$CUSTOMPROPERTY
  1
2-1/2
  9
$CUSTOMPROPERTYTAG
  1
P
  9
$CUSTOMPROPERTY
  1
2-5/16
  9
$CUSTOMPROPERTYTAG
  1
Q
  9
$CUSTOMPROPERTY
  1
1-5/16
  9
$CUSTOMPROPERTYTAG
  1
R
  9
$CUSTOMPROPERTY
  1
4-33/64
  9
$CUSTOMPROPERTYTAG
  1
S
  9
$CUSTOMPROPERTY
  1
2-61/64
  9
$CUSTOMPROPERTYTAG
  1
T
  9
$CUSTOMPROPERTY
  1
5/16
  9
$CUSTOMPROPERTYTAG
  1
U
  9
$CUSTOMPROPERTY
  1
2
  9
$CUSTOMPROPERTYTAG
  1
V
  9
$CUSTOMPROPERTY
  1
3-1/8
  9
$CUSTOMPROPERTYTAG
  1
W
  9
$CUSTOMPROPERTY
  1
1-1/4
  9
$CUSTOMPROPERTYTAG
  1
X
  9
$CUSTOMPROPERTY
  1
5/16
  9
$CUSTOMPROPERTYTAG
  1
Y
  9
$CUSTOMPROPERTY
  1
0.025
  9
$CUSTOMPROPERTYTAG
  1
Z
  9
$CUSTOMPROPERTY
  1
4-1/2
  9
$CUSTOMPROPERTYTAG
  1
COMPANY
  9
$CUSTOMPROPERTY
  1
baldor
  9
$INSBASE
 10
0.0
 20
0.0
 30
0.0
  9
$EXTMIN
 10
1.000000000000000E+20
 20
1.000000000000000E+20
 30
1.000000000000000E+20
  9
$EXTMAX
 10
-1.000000000000000E+20
 20
-1.000000000000000E+20
 30
-1.000000000000000E+20
  9
$LIMMIN
 10
0.0
 20
0.0
  9
$LIMMAX
 10
12.0
 20
9.0
  9
$ORTHOMODE
 70
     0
  9
$REGENMODE
 70
     1
  9
$FILLMODE
 70
     1
  9
$QTEXTMODE
 70
     0
  9
$MIRRTEXT
 70
     1
  9
$LTSCALE
 40
1.0
  9
$ATTMODE
 70
     1
  9
$TEXTSIZE
 40
0.2
  9
$TRACEWID
 40
0.05
  9
$TEXTSTYLE
  7
Standard
  9
$CLAYER
  8
0
  9
$CELTYPE
  6
ByLayer
  9
$CECOLOR
 62
   256
  9
$CELTSCALE
 40
1.0
  9
$DISPSILH
 70
     0
  9
$DIMSCALE
 40
1.0
  9
$DIMASZ
 40
0.18
  9
$DIMEXO
 40
0.0625
  9
$DIMDLI
 40
0.38
  9
$DIMRND
 40
0.0
  9
$DIMDLE
 40
0.0
  9
$DIMEXE
 40
0.18
  9
$DIMTP
 40
0.0
  9
$DIMTM
 40
0.0
  9
$DIMTXT
 40
0.18
  9
$DIMCEN
 40
0.09
  9
$DIMTSZ
 40
0.0
  9
$DIMTOL
 70
     0
  9
$DIMLIM
 70
     0
  9
$DIMTIH
 70
     1
  9
$DIMTOH
 70
     1
  9
$DIMSE1
 70
     0
  9
$DIMSE2
 70
     0
  9
$DIMTAD
 70
     0
  9
$DIMZIN
 70
     0
  9
$DIMBLK
  1

  9
$DIMASO
 70
     1
  9
$DIMSHO
 70
     1
  9
$DIMPOST
  1

  9
$DIMAPOST
  1

  9
$DIMALT
 70
     0
  9
$DIMALTD
 70
     2
  9
$DIMALTF
 40
25.4
  9
$DIMLFAC
 40
1.0
  9
$DIMTOFL
 70
     0
  9
$DIMTVP
 40
0.0
  9
$DIMTIX
 70
     0
  9
$DIMSOXD
 70
     0
  9
$DIMSAH
 70
     0
  9
$DIMBLK1
  1

  9
$DIMBLK2
  1

  9
$DIMSTYLE
  2
Standard
  9
$DIMCLRD
 70
     0
  9
$DIMCLRE
 70
     0
  9
$DIMCLRT
 70
     0
  9
$DIMTFAC
 40
1.0
  9
$DIMGAP
 40
0.09
  9
$DIMJUST
 70
     0
  9
$DIMSD1
 70
     0
  9
$DIMSD2
 70
     0
  9
$DIMTOLJ
 70
     1
  9
$DIMTZIN
 70
     0
  9
$DIMALTZ
 70
     0
  9
$DIMALTTZ
 70
     0
  9
$DIMUPT
 70
     0
  9
$DIMDEC
 70
     4
  9
$DIMTDEC
 70
     4
  9
$DIMALTU
 70
     2
  9
$DIMALTTD
 70
     2
  9
$DIMTXSTY
  7
Standard
  9
$DIMAUNIT
 70
     0
  9
$DIMADEC
 70
     0
  9
$DIMALTRND
 40
0.0
  9
$DIMAZIN
 70
     0
  9
$DIMDSEP
 70
    46
  9
$DIMATFIT
 70
     3
  9
$DIMFRAC
 70
     0
  9
$DIMLDRBLK
  1

  9
$DIMLUNIT
 70
     2
  9
$DIMLWD
 70
    -2
  9
$DIMLWE
 70
    -2
  9
$DIMTMOVE
 70
     0
  9
$DIMFXL
 40
1.0
  9
$DIMFXLON
 70
     0
  9
$DIMJOGANG
 40
0.7853981633974483
  9
$DIMTFILL
 70
     0
  9
$DIMTFILLCLR
 70
     0
  9
$DIMARCSYM
 70
     0
  9
$DIMLTYPE
  6

  9
$DIMLTEX1
  6

  9
$DIMLTEX2
  6

  9
$DIMTXTDIRECTION
 70
     0
  9
$LUNITS
 70
     2
  9
$LUPREC
 70
     4
  9
$SKETCHINC
 40
0.1
  9
$FILLETRAD
 40
0.5
  9
$AUNITS
 70
     0
  9
$AUPREC
 70
     0
  9
$MENU
  1
.
  9
$ELEVATION
 40
0.0
  9
$PELEVATION
 40
0.0
  9
$THICKNESS
 40
0.0
  9
$LIMCHECK
 70
     0
  9
$CHAMFERA
 40
0.0
  9
$CHAMFERB
 40
0.0
  9
$CHAMFERC
 40
0.0
  9
$CHAMFERD
 40
0.0
  9
$SKPOLY
 70
     0
  9
$TDCREATE
 40
2458168.984501111
  9
$TDUCREATE
 40
2458168.942834444
  9
$TDUPDATE
 40
2458168.984501285
  9
$TDUUPDATE
 40
2458168.942834618
  9
$TDINDWG
 40
0.0000000116
  9
$TDUSRTIMER
 40
0.0000000116
  9
$USRTIMER
 70
     1
  9
$ANGBASE
 50
0.0
  9
$ANGDIR
 70
     0
  9
$PDMODE
 70
     0
  9
$PDSIZE
 40
0.0
  9
$PLINEWID
 40
0.0
  9
$SPLFRAME
 70
     0
  9
$SPLINETYPE
 70
     6
  9
$SPLINESEGS
 70
     8
  9
$HANDSEED
  5
268
  9
$SURFTAB1
 70
     6
  9
$SURFTAB2
 70
     6
  9
$SURFTYPE
 70
     6
  9
$SURFU
 70
     6
  9
$SURFV
 70
     6
  9
$UCSBASE
  2

  9
$UCSNAME
  2

  9
$UCSORG
 10
0.0
 20
0.0
 30
0.0
  9
$UCSXDIR
 10
1.0
 20
0.0
 30
0.0
  9
$UCSYDIR
 10
0.0
 20
1.0
 30
0.0
  9
$UCSORTHOREF
  2

  9
$UCSORTHOVIEW
 70
     0
  9
$UCSORGTOP
 10
0.0
 20
0.0
 30
0.0
  9
$UCSORGBOTTOM
 10
0.0
 20
0.0
 30
0.0
  9
$UCSORGLEFT
 10
0.0
 20
0.0
 30
0.0
  9
$UCSORGRIGHT
 10
0.0
 20
0.0
 30
0.0
  9
$UCSORGFRONT
 10
0.0
 20
0.0
 30
0.0
  9
$UCSORGBACK
 10
0.0
 20
0.0
 30
0.0
  9
$PUCSBASE
  2

  9
$PUCSNAME
  2

  9
$PUCSORG
 10
0.0
 20
0.0
 30
0.0
  9
$PUCSXDIR
 10
1.0
 20
0.0
 30
0.0
  9
$PUCSYDIR
 10
0.0
 20
1.0
 30
0.0
  9
$PUCSORTHOREF
  2

  9
$PUCSORTHOVIEW
 70
     0
  9
$PUCSORGTOP
 10
0.0
 20
0.0
 30
0.0
  9
$PUCSORGBOTTOM
 10
0.0
 20
0.0
 30
0.0
  9
$PUCSORGLEFT
 10
0.0
 20
0.0
 30
0.0
  9
$PUCSORGRIGHT
 10
0.0
 20
0.0
 30
0.0
  9
$PUCSORGFRONT
 10
0.0
 20
0.0
 30
0.0
  9
$PUCSORGBACK
 10
0.0
 20
0.0
 30
0.0
  9
$USERI1
 70
     0
  9
$USERI2
 70
     0
  9
$USERI3
 70
     0
  9
$USERI4
 70
     0
  9
$USERI5
 70
     0
  9
$USERR1
 40
0.0
  9
$USERR2
 40
0.0
  9
$USERR3
 40
0.0
  9
$USERR4
 40
0.0
  9
$USERR5
 40
0.0
  9
$WORLDVIEW
 70
     1
  9
$SHADEDGE
 70
     3
  9
$SHADEDIF
 70
    70
  9
$TILEMODE
 70
     1
  9
$MAXACTVP
 70
    64
  9
$PINSBASE
 10
0.0
 20
0.0
 30
0.0
  9
$PLIMCHECK
 70
     0
  9
$PEXTMIN
 10
1.000000000000000E+20
 20
1.000000000000000E+20
 30
1.000000000000000E+20
  9
$PEXTMAX
 10
-1.000000000000000E+20
 20
-1.000000000000000E+20
 30
-1.000000000000000E+20
  9
$PLIMMIN
 10
0.0
 20
0.0
  9
$PLIMMAX
 10
12.0
 20
9.0
  9
$UNITMODE
 70
     0
  9
$VISRETAIN
 70
     1
  9
$PLINEGEN
 70
     0
  9
$PSLTSCALE
 70
     1
  9
$TREEDEPTH
 70
  3020
  9
$CMLSTYLE
  2
Standard
  9
$CMLJUST
 70
     0
  9
$CMLSCALE
 40
1.0
  9
$PROXYGRAPHICS
 70
     1
  9
$MEASUREMENT
 70
     0
  9
$CELWEIGHT
370
    -1
  9
$ENDCAPS
280
     0
  9
$JOINSTYLE
280
     0
  9
$LWDISPLAY
290
     0
  9
$INSUNITS
 70
     1
  9
$HYPERLINKBASE
  1

  9
$STYLESHEET
  1

  9
$XEDIT
290
     1
  9
$CEPSNTYPE
380
     0
  9
$PSTYLEMODE
290
     1
  9
$FINGERPRINTGUID
  2
{F9657CB5-197A-41E7-B4D7-B905CE8E9618}
  9
$VERSIONGUID
  2
{FAEB1C32-E019-11D5-929B-00C0DF256EC4}
  9
$EXTNAMES
290
     1
  9
$PSVPSCALE
 40
0.0
  9
$OLESTARTUP
290
     0
  9
$SORTENTS
280
   127
  9
$INDEXCTL
280
     0
  9
$HIDETEXT
280
     1
  9
$XCLIPFRAME
280
     2
  9
$HALOGAP
280
     0
  9
$OBSCOLOR
 70
   257
  9
$OBSLTYPE
280
     0
  9
$INTERSECTIONDISPLAY
280
     0
  9
$INTERSECTIONCOLOR
 70
   257
  9
$DIMASSOC
280
     2
  9
$PROJECTNAME
  1

  9
$CAMERADISPLAY
290
     0
  9
$LENSLENGTH
 40
50.0
  9
$CAMERAHEIGHT
 40
0.0
  9
$STEPSPERSEC
 40
2.0
  9
$STEPSIZE
 40
6.0
  9
$3DDWFPREC
 40
2.0
  9
$PSOLWIDTH
 40
0.25
  9
$PSOLHEIGHT
 40
4.0
  9
$LOFTANG1
 40
1.570796326794897
  9
$LOFTANG2
 40
1.570796326794897
  9
$LOFTMAG1
 40
0.0
  9
$LOFTMAG2
 40
0.0
  9
$LOFTPARAM
 70
     7
  9
$LOFTNORMALS
280
     1
  9
$LATITUDE
 40
37.795
  9
$LONGITUDE
 40
-122.394
  9
$NORTHDIRECTION
 40
0.0
  9
$TIMEZONE
 70
 -8000
  9
$LIGHTGLYPHDISPLAY
280
     1
  9
$TILEMODELIGHTSYNCH
280
     1
  9
$CMATERIAL
347
44
  9
$SOLIDHIST
280
     0
  9
$SHOWHIST
280
     1
  9
$DWFFRAME
280
     2
  9
$DGNFRAME
280
     2
  9
$REALWORLDSCALE
290
     1
  9
$INTERFERECOLOR
 62
   256
  9
$CSHADOW
280
     0
  9
$SHADOWPLANELOCATION
 40
0.0
  0
ENDSEC
  0
SECTION
  2
CLASSES
  0
CLASS
  1
ACDBDICTIONARYWDFLT
  2
AcDbDictionaryWithDefault
  3
ObjectDBX Classes
 90
        0
 91
        4
280
     0
281
     0
  0
CLASS
  1
VISUALSTYLE
  2
AcDbVisualStyle
  3
ObjectDBX Classes
 90
     4095
 91
        4
280
     0
281
     0
  0
CLASS
  1
MATERIAL
  2
AcDbMaterial
  3
ObjectDBX Classes
 90
     1153
 91
        4
280
     0
281
     0
  0
CLASS
  1
SCALE
  2
AcDbScale
  3
ObjectDBX Classes
 90
     1153
 91
        4
280
     0
281
     0
  0
CLASS
  1
TABLESTYLE
  2
AcDbTableStyle
  3
ObjectDBX Classes
 90
     4095
 91
        4
280
     0
281
     0
  0
CLASS
  1
MLEADERSTYLE
  2
AcDbMLeaderStyle
  3
ACDB_MLEADERSTYLE_CLASS
 90
     4095
 91
        4
280
     0
281
     0
  0
CLASS
  1
SUN
  2
AcDbSun
  3
SCENEOE
 90
     1153
 91
        4
280
     0
281
     0
  0
CLASS
  1
DICTIONARYVAR
  2
AcDbDictionaryVar
  3
ObjectDBX Classes
 90
        0
 91
        4
280
     0
281
     0
  0
CLASS
  1
CELLSTYLEMAP
  2
AcDbCellStyleMap
  3
ObjectDBX Classes
 90
     1152
 91
        4
280
     0
281
     0
  0
ENDSEC
  0
SECTION
  2
TABLES
  0
TABLE
  2
VPORT
  5
8
330
0
100
AcDbSymbolTable
 70
     1
  0
VPORT
  5
29
330
8
100
AcDbSymbolTableRecord
100
AcDbViewportTableRecord
  2
*Active
 70
     0
 10
0.0
 20
0.0
 11
1.0
 21
1.0
 12
0.0
 22
-0.5393593750000001
 13
0.0
 23
0.0
 14
0.5
 24
0.5
 15
0.5
 25
0.5
 16
0.0
 26
0.0
 36
1.0
 17
0.0
 27
0.0
 37
0.0
 40
6.018988125000001
 41
1.86410070380393
 42
50.0
 43
0.0
 44
0.0
 50
0.0
 51
0.0
 71
     0
 72
   100
 73
     1
 74
     3
 75
     0
 76
     0
 77
     0
 78
     0
281
     0
 65
     1
110
0.0
120
0.0
130
0.0
111
1.0
121
0.0
131
0.0
112
0.0
122
1.0
132
0.0
 79
     0
146
0.0
348
2F
 60
     3
 61
     5
292
     1
282
     1
141
0.0
142
0.0
 63
   250
361
6D
  0
ENDTAB
  0
TABLE
  2
LTYPE
  5
5
330
0
100
AcDbSymbolTable
 70
     3
  0
LTYPE
  5
14
330
5
100
AcDbSymbolTableRecord
100
AcDbLinetypeTableRecord
  2
ByBlock
 70
     0
  3

 72
    65
 73
     0
 40
0.0
  0
LTYPE
  5
15
330
5
100
AcDbSymbolTableRecord
100
AcDbLinetypeTableRecord
  2
ByLayer
 70
     0
  3

 72
    65
 73
     0
 40
0.0
  0
LTYPE
  5
16
330
5
100
AcDbSymbolTableRecord
100
AcDbLinetypeTableRecord
  2
Continuous
 70
     0
  3
Solid line
 72
    65
 73
     0
 40
0.0
  0
LTYPE
  5
A7
330
5
100
AcDbSymbolTableRecord
100
AcDbLinetypeTableRecord
  2
Dashed
 70
     0
  3

 72
    65
 73
     2
 40
2.0
 49
1.0
 74
     0
 49
-1.0
 74
     0
  0
LTYPE
  5
E2
330
5
100
AcDbSymbolTableRecord
100
AcDbLinetypeTableRecord
  2
Center
 70
     0
  3

 72
    65
 73
     4
 40
1.5
 49
0.45
 74
     0
 49
-0.5
 74
     0
 49
0.05
 74
     0
 49
-0.5
 74
     0
  0
ENDTAB
  0
TABLE
  2
LAYER
  5
2
330
0
100
AcDbSymbolTable
 70
     7
  0
LAYER
  5
10
330
2
100
AcDbSymbolTableRecord
100
AcDbLayerTableRecord
  2
0
 70
     0
 62
     7
  6
Continuous
370
    -3
390
F
347
46
348
0
  0
LAYER
  5
72
330
2
100
AcDbSymbolTableRecord
100
AcDbLayerTableRecord
  2
AM_6
 70
     0
 62
    -2
  6
Continuous
370
    35
390
F
347
46
348
0
  0
LAYER
  5
A8
330
2
100
AcDbSymbolTableRecord
100
AcDbLayerTableRecord
  2
AM_9
 70
     0
 62
     6
  6
Dashed
370
    25
390
F
347
46
348
0
  0
LAYER
  5
DC
330
2
100
AcDbSymbolTableRecord
100
AcDbLayerTableRecord
  2
AM_5
 70
     0
 62
     3
  6
Continuous
370
    25
390
F
347
46
348
0
  0
LAYER
  5
E3
330
2
100
AcDbSymbolTableRecord
100
AcDbLayerTableRecord
  2
AM_7
 70
     0
 62
     7
  6
Center
370
    25
390
F
347
46
348
0
  0
LAYER
  5
110
330
2
100
AcDbSymbolTableRecord
100
AcDbLayerTableRecord
  2
AM_4
 70
     0
 62
     7
  6
Continuous
370
    50
390
F
347
46
348
0
  0
LAYER
  5
257
330
2
100
AcDbSymbolTableRecord
100
AcDbLayerTableRecord
  2
ConnectionPoints
 70
     0
 62
     7
  6
Continuous
370
    50
390
F
347
46
348
0
  0
ENDTAB
  0
TABLE
  2
STYLE
  5
3
330
0
100
AcDbSymbolTable
 70
     1
  0
STYLE
  5
11
330
3
100
AcDbSymbolTableRecord
100
AcDbTextStyleTableRecord
  2
Standard
 70
     0
 40
0.0
 41
1.0
 50
0.0
 71
     0
 42
0.2
  3
txt
  4

  0
ENDTAB
  0
TABLE
  2
VIEW
  5
6
330
0
100
AcDbSymbolTable
 70
     0
  0
ENDTAB
  0
TABLE
  2
UCS
  5
7
330
0
100
AcDbSymbolTable
 70
     0
  0
ENDTAB
  0
TABLE
  2
APPID
  5
9
330
0
100
AcDbSymbolTable
 70
     1
  0
APPID
  5
12
330
9
100
AcDbSymbolTableRecord
100
AcDbRegAppTableRecord
  2
ACAD
 70
     0
  0
ENDTAB
  0
TABLE
  2
DIMSTYLE
  5
A
330
0
100
AcDbSymbolTable
 70
     1
100
AcDbDimStyleTable
  0
DIMSTYLE
105
27
330
A
100
AcDbSymbolTableRecord
100
AcDbDimStyleTableRecord
  2
Standard
 70
     0
178
     0
340
11
  0
ENDTAB
  0
TABLE
  2
BLOCK_RECORD
  5
1
330
0
100
AcDbSymbolTable
 70
     6
  0
BLOCK_RECORD
  5
1F
330
1
100
AcDbSymbolTableRecord
100
AcDbBlockTableRecord
  2
*Model_Space
340
22
 70
     0
280
     1
281
     0
  0
BLOCK_RECORD
  5
1B
330
1
100
AcDbSymbolTableRecord
100
AcDbBlockTableRecord
  2
*Paper_Space
340
1E
 70
     0
280
     1
281
     0
  0
BLOCK_RECORD
  5
23
330
1
100
AcDbSymbolTableRecord
100
AcDbBlockTableRecord
  2
*Paper_Space0
340
26
 70
     0
280
     1
281
     0
  0
BLOCK_RECORD
  5
6E
330
1
100
AcDbSymbolTableRecord
100
AcDbBlockTableRecord
  2
1_070841_4
340
0
102
{BLKREFS
331
6F
102
}
 70
     0
280
     1
281
     0
  0
BLOCK_RECORD
  5
96
330
1
100
AcDbSymbolTableRecord
100
AcDbBlockTableRecord
  2
2_405016_Inch_0_in_070841_4
340
0
102
{BLKREFS
331
97
102
}
 70
     0
280
     1
281
     0
  0
BLOCK_RECORD
  5
E5
330
1
100
AcDbSymbolTableRecord
100
AcDbBlockTableRecord
  2
3_3_15_16CS2i_0_in_070841_4
340
0
102
{BLKREFS
331
E6
102
}
 70
     0
280
     1
281
     0
  0
BLOCK_RECORD
  5
12F
330
1
100
AcDbSymbolTableRecord
100
AcDbBlockTableRecord
  2
4_070013i_0_in_070841_4
340
0
102
{BLKREFS
331
130
102
}
 70
     0
280
     1
281
     0
  0
BLOCK_RECORD
  5
181
330
1
100
AcDbSymbolTableRecord
100
AcDbBlockTableRecord
  2
5_070841H_0_in_070841_4
340
0
102
{BLKREFS
331
182
102
}
 70
     0
280
     1
281
     0
  0
ENDTAB
  0
ENDSEC
  0
SECTION
  2
BLOCKS
  0
BLOCK
  5
20
330
1F
100
AcDbEntity
  8
0
100
AcDbBlockBegin
  2
*Model_Space
 70
     0
 10
0.0
 20
0.0
 30
0.0
  3
*Model_Space
  1

  0
ENDBLK
  5
21
330
1F
100
AcDbEntity
  8
0
100
AcDbBlockEnd
  0
BLOCK
  5
1C
330
1B
100
AcDbEntity
 67
     1
  8
0
100
AcDbBlockBegin
  2
*Paper_Space
 70
     0
 10
0.0
 20
0.0
 30
0.0
  3
*Paper_Space
  1

  0
ENDBLK
  5
1D
330
1B
100
AcDbEntity
 67
     1
  8
0
100
AcDbBlockEnd
  0
BLOCK
  5
24
330
23
100
AcDbEntity
  8
0
100
AcDbBlockBegin
  2
*Paper_Space0
 70
     0
 10
0.0
 20
0.0
 30
0.0
  3
*Paper_Space0
  1

  0
ENDBLK
  5
25
330
23
100
AcDbEntity
  8
0
100
AcDbBlockEnd
  0
BLOCK
  5
70
330
6E
100
AcDbEntity
  8
0
100
AcDbBlockBegin
  2
1_070841_4
 70
     2
 10
0.0
 20
0.0
 30
0.0
  3
1_070841_4
  1

  0
ATTDEF
  5
73
330
6E
100
AcDbEntity
  8
AM_6
100
AcDbText
 10
10.5
 20
2.291666666666667
 30
0.0
 40
0.5
  1
TP Take-Up Trident Seal
100
AcDbAttributeDefinition
  3

  2
NN
 70
     8
280
     0
  0
ATTDEF
  5
74
330
6E
100
AcDbEntity
  8
AM_6
100
AcDbText
 10
10.5
 20
1.791666666666667
 30
0.0
 40
0.5
  1
S-2000 TPHU Take-Up Bearing -Inch
100
AcDbAttributeDefinition
  3

  2
NT
 70
     8
280
     0
  0
ATTDEF
  5
75
330
6E
100
AcDbEntity
  8
AM_6
100
AcDbText
 10
10.5
 20
1.291666666666667
 30
0.0
 40
0.5
  1
070841
100
AcDbAttributeDefinition
  3

  2
NB
 70
     8
280
     0
  0
ATTDEF
  5
76
330
6E
100
AcDbEntity
  8
AM_6
100
AcDbText
 10
10.5
 20
0.791666666666667
 30
0.0
 40
0.5
  1
$PN.
100
AcDbAttributeDefinition
  3

  2
NBSYN
 70
     8
280
     0
  0
ATTDEF
  5
77
330
6E
100
AcDbEntity
  8
AM_6
100
AcDbText
 10
10.5
 20
0.291666666666667
 30
0.0
 40
0.5
  1
070841
100
AcDbAttributeDefinition
  3

  2
LINA
 70
     8
280
     0
  0
ATTDEF
  5
78
330
6E
100
AcDbEntity
  8
AM_6
100
AcDbText
 10
10.5
 20
-0.208333333333333
 30
0.0
 40
0.5
  1
3-15/16
100
AcDbAttributeDefinition
  3

  2
SS
 70
     8
280
     0
  0
ATTDEF
  5
79
330
6E
100
AcDbEntity
  8
AM_6
100
AcDbText
 10
10.5
 20
-0.708333333333333
 30
0.0
 40
0.5
  1
070841
100
AcDbAttributeDefinition
  3

  2
PN
 70
     8
280
     0
  0
ATTDEF
  5
7A
330
6E
100
AcDbEntity
  8
AM_6
100
AcDbText
 10
10.5
 20
-1.208333333333333
 30
0.0
 40
0.5
  1
TPHU-S2-315RE
100
AcDbAttributeDefinition
  3

  2
DESCRIPTION
 70
     8
280
     0
  0
ATTDEF
  5
7B
330
6E
100
AcDbEntity
  8
AM_6
100
AcDbText
 10
10.5
 20
-1.708333333333333
 30
0.0
 40
0.5
  1
Expansion Type
100
AcDbAttributeDefinition
  3

  2
EF
 70
     8
280
     0
  0
ATTDEF
  5
7C
330
6E
100
AcDbEntity
  8
AM_6
100
AcDbText
 10
10.5
 20
-2.208333333333333
 30
0.0
 40
0.5
  1
Contact Seal
100
AcDbAttributeDefinition
  3

  2
ST
 70
     8
280
     0
  0
ATTDEF
  5
7D
330
6E
100
AcDbEntity
  8
AM_6
100
AcDbText
 10
10.5
 20
-2.708333333333333
 30
0.0
 40
0.5
  1
4-15/32
100
AcDbAttributeDefinition
  3

  2
A
 70
     8
280
     0
  0
ATTDEF
  5
7E
330
6E
100
AcDbEntity
  8
AM_6
100
AcDbText
 10
10.5
 20
-3.208333333333333
 30
0.0
 40
0.5
  1
3-1/8
100
AcDbAttributeDefinition
  3

  2
B
 70
     8
280
     0
  0
ATTDEF
  5
7F
330
6E
100
AcDbEntity
  8
AM_6
100
AcDbText
 10
10.5
 20
-3.708333333333333
 30
0.0
 40
0.5
  1
13/16
100
AcDbAttributeDefinition
  3

  2
C
 70
     8
280
     0
  0
ATTDEF
  5
80
330
6E
100
AcDbEntity
  8
AM_6
100
AcDbText
 10
10.5
 20
-4.208333333333333
 30
0.0
 40
0.5
  1
9-1/4
100
AcDbAttributeDefinition
  3

  2
D
 70
     8
280
     0
  0
ATTDEF
  5
81
330
6E
100
AcDbEntity
  8
AM_6
100
AcDbText
 10
10.5
 20
-4.708333333333333
 30
0.0
 40
0.5
  1
4-9/16
100
AcDbAttributeDefinition
  3

  2
E
 70
     8
280
     0
  0
ATTDEF
  5
82
330
6E
100
AcDbEntity
  8
AM_6
100
AcDbText
 10
10.5
 20
-5.208333333333333
 30
0.0
 40
0.5
  1
1-9/16
100
AcDbAttributeDefinition
  3

  2
F
 70
     8
280
     0
  0
ATTDEF
  5
83
330
6E
100
AcDbEntity
  8
AM_6
100
AcDbText
 10
10.5
 20
-5.708333333333333
 30
0.0
 40
0.5
  1
11/16
100
AcDbAttributeDefinition
  3

  2
G
 70
     8
280
     0
  0
ATTDEF
  5
84
330
6E
100
AcDbEntity
  8
AM_6
100
AcDbText
 10
10.5
 20
-6.208333333333333
 30
0.0
 40
0.5
  1
11
100
AcDbAttributeDefinition
  3

  2
H
 70
     8
280
     0
  0
ATTDEF
  5
85
330
6E
100
AcDbEntity
  8
AM_6
100
AcDbText
 10
10.5
 20
-6.708333333333333
 30
0.0
 40
0.5
  1
11-1/2
100
AcDbAttributeDefinition
  3

  2
J
 70
     8
280
     0
  0
ATTDEF
  5
86
330
6E
100
AcDbEntity
  8
AM_6
100
AcDbText
 10
10.5
 20
-7.208333333333333
 30
0.0
 40
0.5
  1
5-1/2
100
AcDbAttributeDefinition
  3

  2
K
 70
     8
280
     0
  0
ATTDEF
  5
87
330
6E
100
AcDbEntity
  8
AM_6
100
AcDbText
 10
10.5
 20
-7.708333333333333
 30
0.0
 40
0.5
  1
6
100
AcDbAttributeDefinition
  3

  2
L
 70
     8
280
     0
  0
ATTDEF
  5
88
330
6E
100
AcDbEntity
  8
AM_6
100
AcDbText
 10
10.5
 20
-8.208333333333332
 30
0.0
 40
0.5
  1
10-1/2
100
AcDbAttributeDefinition
  3

  2
M
 70
     8
280
     0
  0
ATTDEF
  5
89
330
6E
100
AcDbEntity
  8
AM_6
100
AcDbText
 10
10.5
 20
-8.708333333333332
 30
0.0
 40
0.5
  1
2-1/2
100
AcDbAttributeDefinition
  3

  2
N
 70
     8
280
     0
  0
ATTDEF
  5
8A
330
6E
100
AcDbEntity
  8
AM_6
100
AcDbText
 10
10.5
 20
-9.208333333333332
 30
0.0
 40
0.5
  1
2-5/16
100
AcDbAttributeDefinition
  3

  2
P
 70
     8
280
     0
  0
ATTDEF
  5
8B
330
6E
100
AcDbEntity
  8
AM_6
100
AcDbText
 10
10.5
 20
-9.708333333333332
 30
0.0
 40
0.5
  1
1-5/16
100
AcDbAttributeDefinition
  3

  2
Q
 70
     8
280
     0
  0
ATTDEF
  5
8C
330
6E
100
AcDbEntity
  8
AM_6
100
AcDbText
 10
10.5
 20
-10.20833333333333
 30
0.0
 40
0.5
  1
4-33/64
100
AcDbAttributeDefinition
  3

  2
R
 70
     8
280
     0
  0
ATTDEF
  5
8D
330
6E
100
AcDbEntity
  8
AM_6
100
AcDbText
 10
10.5
 20
-10.70833333333333
 30
0.0
 40
0.5
  1
2-61/64
100
AcDbAttributeDefinition
  3

  2
S
 70
     8
280
     0
  0
ATTDEF
  5
8E
330
6E
100
AcDbEntity
  8
AM_6
100
AcDbText
 10
10.5
 20
-11.20833333333333
 30
0.0
 40
0.5
  1
5/16
100
AcDbAttributeDefinition
  3

  2
T
 70
     8
280
     0
  0
ATTDEF
  5
8F
330
6E
100
AcDbEntity
  8
AM_6
100
AcDbText
 10
10.5
 20
-11.70833333333333
 30
0.0
 40
0.5
  1
2
100
AcDbAttributeDefinition
  3

  2
U
 70
     8
280
     0
  0
ATTDEF
  5
90
330
6E
100
AcDbEntity
  8
AM_6
100
AcDbText
 10
10.5
 20
-12.20833333333333
 30
0.0
 40
0.5
  1
3-1/8
100
AcDbAttributeDefinition
  3

  2
V
 70
     8
280
     0
  0
ATTDEF
  5
91
330
6E
100
AcDbEntity
  8
AM_6
100
AcDbText
 10
10.5
 20
-12.70833333333333
 30
0.0
 40
0.5
  1
1-1/4
100
AcDbAttributeDefinition
  3

  2
W
 70
     8
280
     0
  0
ATTDEF
  5
92
330
6E
100
AcDbEntity
  8
AM_6
100
AcDbText
 10
10.5
 20
-13.20833333333333
 30
0.0
 40
0.5
  1
5/16
100
AcDbAttributeDefinition
  3

  2
X
 70
     8
280
     0
  0
ATTDEF
  5
93
330
6E
100
AcDbEntity
  8
AM_6
100
AcDbText
 10
10.5
 20
-13.70833333333333
 30
0.0
 40
0.5
  1
0.025
100
AcDbAttributeDefinition
  3

  2
Y
 70
     8
280
     0
  0
ATTDEF
  5
94
330
6E
100
AcDbEntity
  8
AM_6
100
AcDbText
 10
10.5
 20
-14.20833333333333
 30
0.0
 40
0.5
  1
4-1/2
100
AcDbAttributeDefinition
  3

  2
Z
 70
     8
280
     0
  0
ATTDEF
  5
95
330
6E
100
AcDbEntity
  8
AM_6
100
AcDbText
 10
10.5
 20
-14.70833333333333
 30
0.0
 40
0.5
  1
baldor
100
AcDbAttributeDefinition
  3

  2
COMPANY
 70
     8
280
     0
  0
INSERT
  5
97
330
6E
100
AcDbEntity
  8
0
100
AcDbBlockReference
  2
2_405016_Inch_0_in_070841_4
 10
0.0
 20
0.0
 30
0.0
  0
INSERT
  5
E6
330
6E
100
AcDbEntity
  8
0
100
AcDbBlockReference
  2
3_3_15_16CS2i_0_in_070841_4
 10
0.0
 20
0.0
 30
0.0
  0
INSERT
  5
130
330
6E
100
AcDbEntity
  8
0
100
AcDbBlockReference
  2
4_070013i_0_in_070841_4
 10
0.0
 20
0.0
 30
0.0
  0
INSERT
  5
182
330
6E
100
AcDbEntity
  8
0
100
AcDbBlockReference
  2
5_070841H_0_in_070841_4
 10
0.0
 20
0.0
 30
0.0
  0
ENDBLK
  5
71
330
6E
100
AcDbEntity
  8
0
100
AcDbBlockEnd
  0
BLOCK
  5
98
330
96
100
AcDbEntity
  8
0
100
AcDbBlockBegin
  2
2_405016_Inch_0_in_070841_4
 70
     2
 10
0.0
 20
0.0
 30
0.0
  3
2_405016_Inch_0_in_070841_4
  1

  0
ATTDEF
  5
9A
330
96
100
AcDbEntity
  8
AM_6
100
AcDbText
 10
10.075
 20
0.21875
 30
0.0
 40
0.5
  1
405016 -Inch
100
AcDbAttributeDefinition
  3

  2
NN
 70
     8
280
     0
  0
ATTDEF
  5
9B
330
96
100
AcDbEntity
  8
AM_6
100
AcDbText
 10
10.075
 20
-0.28125
 30
0.0
 40
0.5
  1
Grease Fitting
100
AcDbAttributeDefinition
  3

  2
NT
 70
     8
280
     0
  0
ATTDEF
  5
9C
330
96
100
AcDbEntity
  8
AM_6
100
AcDbText
 10
10.075
 20
-0.78125
 30
0.0
 40
0.5
  1
405016-Inch
100
AcDbAttributeDefinition
  3

  2
NB
 70
     8
280
     0
  0
ATTDEF
  5
9D
330
96
100
AcDbEntity
  8
AM_6
100
AcDbText
 10
10.075
 20
-1.28125
 30
0.0
 40
0.5
  1
$MN.-Inch
100
AcDbAttributeDefinition
  3

  2
NBSYN
 70
     8
280
     0
  0
ATTDEF
  5
9E
330
96
100
AcDbEntity
  8
AM_6
100
AcDbText
 10
10.075
 20
-1.78125
 30
0.0
 40
0.5
  1
405016
100
AcDbAttributeDefinition
  3

  2
LINA
 70
     8
280
     0
  0
ATTDEF
  5
9F
330
96
100
AcDbEntity
  8
AM_6
100
AcDbText
 10
10.075
 20
-2.28125
 30
0.0
 40
0.5
  1
405016
100
AcDbAttributeDefinition
  3

  2
MN
 70
     8
280
     0
  0
ATTDEF
  5
A0
330
96
100
AcDbEntity
  8
AM_6
100
AcDbText
 10
10.075
 20
-2.78125
 30
0.0
 40
0.5
  1
7/16 HEX
100
AcDbAttributeDefinition
  3

  2
H
 70
     8
280
     0
  0
ATTDEF
  5
A1
330
96
100
AcDbEntity
  8
AM_6
100
AcDbText
 10
10.075
 20
-3.28125
 30
0.0
 40
0.5
  1
0.383
100
AcDbAttributeDefinition
  3

  2
NDR
 70
     8
280
     0
  0
ATTDEF
  5
A2
330
96
100
AcDbEntity
  8
AM_6
100
AcDbText
 10
10.075
 20
-3.78125
 30
0.0
 40
0.5
  1
0.337
100
AcDbAttributeDefinition
  3

  2
KDR
 70
     8
280
     0
  0
ATTDEF
  5
A3
330
96
100
AcDbEntity
  8
AM_6
100
AcDbText
 10
10.075
 20
-4.28125
 30
0.0
 40
0.5
  1
0.1575
100
AcDbAttributeDefinition
  3

  2
BZE
 70
     8
280
     0
  0
ATTDEF
  5
A4
330
96
100
AcDbEntity
  8
AM_6
100
AcDbText
 10
10.075
 20
-4.78125
 30
0.0
 40
0.5
  1
0.4375
100
AcDbAttributeDefinition
  3

  2
HEX
 70
     8
280
     0
  0
ATTDEF
  5
A5
330
96
100
AcDbEntity
  8
AM_6
100
AcDbText
 10
10.075
 20
-5.28125
 30
0.0
 40
0.5
  1
0.281250
100
AcDbAttributeDefinition
  3

  2
HEX2
 70
     8
280
     0
  0
ATTDEF
  5
A6
330
96
100
AcDbEntity
  8
AM_6
100
AcDbText
 10
10.075
 20
-5.78125
 30
0.0
 40
0.5
  1
baldor
100
AcDbAttributeDefinition
  3

  2
COMPANY
 70
     8
280
     0
  0
LINE
  5
A9
330
96
100
AcDbEntity
  8
AM_9
100
AcDbLine
 10
4.751485901430354
 20
-0.305545857794963
 30
0.0
 11
4.730354988343318
 21
-0.2602304684431305
 31
0.0
  0
LINE
  5
AA
330
96
100
AcDbEntity
  8
AM_9
100
AcDbLine
 10
4.734521122673159
 20
-0.2
 30
0.0
 11
4.75684663310065
 21
-0.2478772116156649
 31
0.0
  0
LINE
  5
AB
330
96
100
AcDbEntity
  8
AM_9
100
AcDbLine
 10
4.956234346248714
 20
-0.1549011940327111
 30
0.0
 11
4.938025827732024
 21
-0.1158529000614427
 31
0.0
  0
LINE
  5
AC
330
96
100
AcDbEntity
  8
AM_9
100
AcDbLine
 10
5.075
 20
-0.4250163462566365
 30
0.0
 11
4.887425753776377
 21
-0.5124836537433635
 31
0.0
  0
LINE
  5
AD
330
96
100
AcDbEntity
  8
AM_9
100
AcDbLine
 10
5.075
 20
-0.4250163462566365
 30
0.0
 11
5.075
 21
-0.3406236008983355
 31
0.0
  0
LINE
  5
AE
330
96
100
AcDbEntity
  8
AM_9
100
AcDbLine
 10
4.822777160155096
 20
-0.4582370426796164
 30
0.0
 11
4.887425753776377
 21
-0.5124836537433635
 31
0.0
  0
ARC
  5
AF
330
96
100
AcDbEntity
  8
AM_9
100
AcDbCircle
 10
4.73340326416709
 20
-0.3941587959651973
 30
0.0
 40
0.0896158688558198
100
AcDbArc
 50
336.9222389899023
 51
78.06010725875628
  0
ARC
  5
B0
330
96
100
AcDbEntity
  8
AM_9
100
AcDbCircle
 10
5.083361648150119
 20
-0.2309705214783632
 30
0.0
 40
0.0896158688558221
100
AcDbArc
 50
150.8170969074278
 51
253.0777610100961
  0
LINE
  5
B1
330
96
100
AcDbEntity
  8
AM_9
100
AcDbLine
 10
5.057276838818908
 20
-0.3167060839535595
 30
0.0
 11
4.815847507618029
 21
-0.4292864299957689
 31
0.0
  0
LINE
  5
B2
330
96
100
AcDbEntity
  8
AM_9
100
AcDbLine
 10
5.075
 20
-0.3406236008983355
 30
0.0
 11
4.822777160155096
 21
-0.4582370426796164
 31
0.0
  0
ARC
  5
B3
330
96
100
AcDbEntity
  8
AM_9
100
AcDbCircle
 10
4.838846850397259
 20
-0.4390859316016414
 30
0.0
 40
0.0250000000000007
100
AcDbArc
 50
156.9222389899035
 51
230.0000000000003
  0
ARC
  5
B4
330
96
100
AcDbEntity
  8
AM_9
100
AcDbCircle
 10
5.049999999999999
 20
-0.3406236008983354
 30
0.0
 40
0.0250000000000012
100
AcDbArc
 50
0.0
 51
73.07776101009446
  0
LINE
  5
B5
330
96
100
AcDbEntity
  8
AM_9
100
AcDbLine
 10
4.98565103198678
 20
-0.1419585097669022
 30
0.0
 11
4.983990022226711
 21
-0.1419585097669022
 31
0.0
  0
LINE
  5
B6
330
96
100
AcDbEntity
  8
AM_9
100
AcDbLine
 10
4.983990022226711
 20
-0.1419585097669022
 30
0.0
 11
4.730354988343318
 21
-0.2602304684431305
 31
0.0
  0
LINE
  5
B7
330
96
100
AcDbEntity
  8
AM_9
100
AcDbLine
 10
4.985528907998513
 20
-0.1419585098156049
 30
0.0
 11
5.006170432486621
 21
-0.1862244019302201
 31
0.0
  0
LINE
  5
B8
330
96
100
AcDbEntity
  8
AM_9
100
AcDbLine
 10
5.005120935313745
 20
-0.1872738991187349
 30
0.0
 11
5.006187596476801
 21
-0.1862072379556804
 31
0.0
  0
LINE
  5
B9
330
96
100
AcDbEntity
  8
AM_9
100
AcDbLine
 10
5.005120935313745
 20
-0.1872738991187349
 30
0.0
 11
4.751485901430354
 21
-0.305545857794963
 31
0.0
  0
LWPOLYLINE
  5
BA
330
96
100
AcDbEntity
  8
AM_9
100
AcDbPolyline
 90
        6
 70
     0
 43
0.0
 10
4.989779591422741
 20
-0.1510741298357569
 10
4.964459640964115
 20
-0.1564222384464442
 10
4.939673655314264
 20
-0.1639940363880804
 10
4.915359069419333
 20
-0.1744063212866122
 10
4.892151954474481
 20
-0.1876759562813857
 10
4.862092915312688
 20
-0.2099962668917053
  0
LWPOLYLINE
  5
BB
330
96
100
AcDbEntity
  8
AM_9
100
AcDbPolyline
 90
        5
 70
     0
 43
0.0
 10
4.875588184814568
 20
-0.2389369657326275
 10
4.90901521239811
 20
-0.2295338871417795
 10
4.941443378377864
 20
-0.216687117104632
 10
4.972959325649376
 20
-0.1996402057054678
 10
5.002852618119652
 20
-0.1791093260592886
  0
LWPOLYLINE
  5
BC
330
96
100
AcDbEntity
  8
AM_9
100
AcDbPolyline
 90
        3
 70
     0
 43
0.0
 10
4.862092915312688
 20
-0.2099962668917053
 10
4.832727141375751
 20
-0.2163479371246912
 10
4.80411014449333
 20
-0.2258378743019628
  0
LWPOLYLINE
  5
BD
330
96
100
AcDbEntity
  8
AM_9
100
AcDbPolyline
 90
        4
 70
     0
 43
0.0
 10
4.782153317914339
 20
-0.2360765106845276
 10
4.764944149569911
 20
-0.246209193863185
 10
4.7493684432055
 20
-0.2570505402207573
 10
4.734404468701036
 20
-0.2689146070947221
  0
LWPOLYLINE
  5
BE
330
96
100
AcDbEntity
  8
AM_9
100
AcDbPolyline
 90
        3
 70
     0
 43
0.0
 10
4.748325133450933
 20
-0.2987675689889717
 10
4.776134483864593
 20
-0.2912216284034024
 10
4.803284231001374
 20
-0.2813919000363598
  0
LWPOLYLINE
  5
BF
330
96
100
AcDbEntity
  8
AM_9
100
AcDbPolyline
 90
        3
 70
     0
 43
0.0
 10
4.825241057580365
 20
-0.2711532636537956
 10
4.850988571746168
 20
-0.256181552758992
 10
4.875588184814568
 20
-0.2389369657326275
  0
LINE
  5
C0
330
96
100
AcDbEntity
  8
AM_9
100
AcDbLine
 10
4.862092915312688
 20
-0.2099962668917053
 30
0.0
 11
4.875588184814568
 21
-0.2389369657326275
 31
0.0
  0
LINE
  5
C1
330
96
100
AcDbEntity
  8
AM_9
100
AcDbLine
 10
4.23125
 20
0.1616637258772237
 30
0.0
 11
4.23125
 21
-0.1616637258772237
 31
0.0
  0
LINE
  5
C2
330
96
100
AcDbEntity
  8
AM_9
100
AcDbLine
 10
4.23125
 20
-0.1616637258772237
 30
0.0
 11
4.255003564847763
 21
-0.1854172907249859
 31
0.0
  0
LINE
  5
C3
330
96
100
AcDbEntity
  8
AM_9
100
AcDbLine
 10
4.255003564847763
 20
0.1854172907249859
 30
0.0
 11
4.23125
 21
0.1616637258772237
 31
0.0
  0
LINE
  5
C4
330
96
100
AcDbEntity
  8
AM_9
100
AcDbLine
 10
4.628125
 20
0.21875
 30
0.0
 11
4.628125
 21
-0.21875
 31
0.0
  0
LINE
  5
C5
330
96
100
AcDbEntity
  8
AM_9
100
AcDbLine
 10
4.628125
 20
0.21875
 30
0.0
 11
4.528125
 21
0.21875
 31
0.0
  0
LINE
  5
C6
330
96
100
AcDbEntity
  8
AM_9
100
AcDbLine
 10
4.528125
 20
0.21875
 30
0.0
 11
4.528125
 21
-0.21875
 31
0.0
  0
LINE
  5
C7
330
96
100
AcDbEntity
  8
AM_9
100
AcDbLine
 10
4.528125
 20
-0.21875
 30
0.0
 11
4.628125
 21
-0.21875
 31
0.0
  0
LINE
  5
C8
330
96
100
AcDbEntity
  8
AM_9
100
AcDbLine
 10
4.255003564847763
 20
0.1854172907249859
 30
0.0
 11
4.255003564847763
 21
-0.1854172907249859
 31
0.0
  0
LINE
  5
C9
330
96
100
AcDbEntity
  8
AM_9
100
AcDbLine
 10
4.255003564847763
 20
-0.1854172907249859
 30
0.0
 11
4.45
 21
-0.1915112338502295
 31
0.0
  0
LINE
  5
CA
330
96
100
AcDbEntity
  8
AM_9
100
AcDbLine
 10
4.45
 20
0.1915112338502295
 30
0.0
 11
4.255003564847763
 21
0.1854172907249859
 31
0.0
  0
LINE
  5
CB
330
96
100
AcDbEntity
  8
AM_9
100
AcDbLine
 10
4.45
 20
-0.2
 30
0.0
 11
4.528125
 21
-0.2
 31
0.0
  0
LINE
  5
CC
330
96
100
AcDbEntity
  8
AM_9
100
AcDbLine
 10
4.528125
 20
0.2
 30
0.0
 11
4.45
 21
0.2
 31
0.0
  0
LWPOLYLINE
  5
CD
330
96
100
AcDbEntity
  8
AM_9
100
AcDbPolyline
 90
        7
 70
     0
 43
0.0
 10
4.775
 20
-0.1790373738501783
 10
4.762711773328743
 20
-0.184262879520394
 10
4.752857912812704
 20
-0.1891729979031392
 10
4.744890090732852
 20
-0.1936098952159723
 10
4.738950819230624
 20
-0.1971856748420371
 10
4.735426786929245
 20
-0.1994144431868154
 10
4.734521122719427
 20
-0.1999999999699528
  0
LINE
  5
CE
330
96
100
AcDbEntity
  8
AM_9
100
AcDbLine
 10
4.628125
 20
-0.2
 30
0.0
 11
4.734521122673159
 21
-0.2
 31
0.0
  0
LINE
  5
CF
330
96
100
AcDbEntity
  8
AM_9
100
AcDbLine
 10
4.775
 20
0.2
 30
0.0
 11
4.628125
 21
0.2
 31
0.0
  0
LINE
  5
D0
330
96
100
AcDbEntity
  8
AM_9
100
AcDbLine
 10
4.775
 20
-0.1790373738501778
 30
0.0
 11
4.938026627898863
 21
-0.1158546977706244
 31
0.0
  0
ARC
  5
D1
330
96
100
AcDbEntity
  8
AM_9
100
AcDbCircle
 10
4.775
 20
0.0000000000000004
 30
0.0
 40
0.2
100
AcDbArc
 50
324.587807840335
 51
90.0
  0
LINE
  5
D2
330
96
100
AcDbEntity
  8
AM_9
100
AcDbLine
 10
4.775
 20
0.2
 30
0.0
 11
4.775
 21
-0.1790373738501778
 31
0.0
  0
LWPOLYLINE
  5
D3
330
96
100
AcDbEntity
  8
AM_9
100
AcDbPolyline
 90
        4
 70
     0
 43
0.0
 10
4.628125
 20
-0.1093749999999999
 10
4.627517585996001
 20
-0.1367187499999999
 10
4.625731619214966
 20
-0.1640625
 10
4.619057400303386
 20
-0.21875
  0
LWPOLYLINE
  5
D4
330
96
100
AcDbEntity
  8
AM_9
100
AcDbPolyline
 90
        4
 70
     0
 43
0.0
 10
4.537192599696615
 20
-0.21875
 10
4.53053952494962
 20
-0.1643083897258504
 10
4.528739561814228
 20
-0.1368799989092349
 10
4.528125
 20
-0.109375
  0
LINE
  5
D5
330
96
100
AcDbEntity
  8
AM_9
100
AcDbLine
 10
4.619057400303386
 20
0.0
 30
0.0
 11
4.537192599696615
 21
0.0
 31
0.0
  0
LWPOLYLINE
  5
D6
330
96
100
AcDbEntity
  8
AM_9
100
AcDbPolyline
 90
        4
 70
     0
 43
0.0
 10
4.619057400303386
 20
0.21875
 10
4.62571047505038
 20
0.1643083897258504
 10
4.627510438185773
 20
0.1368799989092349
 10
4.628125
 20
0.109375
  0
LWPOLYLINE
  5
D7
330
96
100
AcDbEntity
  8
AM_9
100
AcDbPolyline
 90
        4
 70
     0
 43
0.0
 10
4.528125
 20
0.109375
 10
4.528732414004
 20
0.13671875
 10
4.530518380785035
 20
0.1640625
 10
4.537192599696615
 20
0.21875
  0
LWPOLYLINE
  5
D8
330
96
100
AcDbEntity
  8
AM_9
100
AcDbPolyline
 90
        4
 70
     0
 43
0.0
 10
4.528125
 20
-0.109375
 10
4.528732414004
 20
-0.08203125
 10
4.530518380785035
 20
-0.0546875
 10
4.537192599696615
 20
0.0
  0
LWPOLYLINE
  5
D9
330
96
100
AcDbEntity
  8
AM_9
100
AcDbPolyline
 90
        4
 70
     0
 43
0.0
 10
4.537192599696615
 20
0.0
 10
4.53053952494962
 20
0.0544416102741496
 10
4.528739561814228
 20
0.0818700010907651
 10
4.528125
 20
0.109375
  0
LWPOLYLINE
  5
DA
330
96
100
AcDbEntity
  8
AM_9
100
AcDbPolyline
 90
        4
 70
     0
 43
0.0
 10
4.628125
 20
0.109375
 10
4.627517585996001
 20
0.08203125
 10
4.625731619214966
 20
0.0546875
 10
4.619057400303386
 20
0.0
  0
LWPOLYLINE
  5
DB
330
96
100
AcDbEntity
  8
AM_9
100
AcDbPolyline
 90
        4
 70
     0
 43
0.0
 10
4.619057400303386
 20
0.0
 10
4.62571047505038
 20
-0.0544416102741496
 10
4.627510438185773
 20
-0.081870001090765
 10
4.628125
 20
-0.1093749999999999
  0
LINE
  5
DD
330
96
100
AcDbEntity
  8
AM_5
100
AcDbLine
 10
4.407862509955051
 20
0.1671831426298035
 30
0.0
 11
4.23125
 21
0.1616637258772237
 31
0.0
  0
LINE
  5
DE
330
96
100
AcDbEntity
  8
AM_5
100
AcDbLine
 10
4.45
 20
0.1915112338502292
 30
0.0
 11
4.407862509955052
 21
0.1671831426298035
 31
0.0
  0
LINE
  5
DF
330
96
100
AcDbEntity
  8
AM_5
100
AcDbLine
 10
4.407862509955052
 20
0.190194371480033
 30
0.0
 11
4.407862509955052
 21
-0.190194371480033
 31
0.0
  0
LINE
  5
E0
330
96
100
AcDbEntity
  8
AM_5
100
AcDbLine
 10
4.407862509955051
 20
-0.1671831426298035
 30
0.0
 11
4.23125
 21
-0.1616637258772237
 31
0.0
  0
LINE
  5
E1
330
96
100
AcDbEntity
  8
AM_5
100
AcDbLine
 10
4.45
 20
-0.1915112338502292
 30
0.0
 11
4.407862509955052
 21
-0.1671831426298035
 31
0.0
  0
LINE
  5
E4
330
96
100
AcDbEntity
  8
AM_7
100
AcDbLine
 10
4.719835791123041
 20
0.0917749692859806
 30
0.0
 11
5.011208030815163
 21
-0.533074815178147
 31
0.0
  0
ENDBLK
  5
99
330
96
100
AcDbEntity
  8
0
100
AcDbBlockEnd
  0
BLOCK
  5
E7
330
E5
100
AcDbEntity
  8
0
100
AcDbBlockBegin
  2
3_3_15_16CS2i_0_in_070841_4
 70
     2
 10
0.0
 20
0.0
 30
0.0
  3
3_3_15_16CS2i_0_in_070841_4
  1

  0
ATTDEF
  5
E9
330
E5
100
AcDbEntity
  8
AM_6
100
AcDbText
 10
8.0
 20
-2.255625
 30
0.0
 40
0.5
  1
S-2000 Collar -Inch
100
AcDbAttributeDefinition
  3

  2
NN
 70
     8
280
     0
  0
ATTDEF
  5
EA
330
E5
100
AcDbEntity
  8
AM_6
100
AcDbText
 10
8.0
 20
-2.755625
 30
0.0
 40
0.5
  1
S-2000 Bearings
100
AcDbAttributeDefinition
  3

  2
NT
 70
     8
280
     0
  0
ATTDEF
  5
EB
330
E5
100
AcDbEntity
  8
AM_6
100
AcDbText
 10
8.0
 20
-3.255625
 30
0.0
 40
0.5
  1
3-15/16CS2i
100
AcDbAttributeDefinition
  3

  2
NB
 70
     8
280
     0
  0
ATTDEF
  5
EC
330
E5
100
AcDbEntity
  8
AM_6
100
AcDbText
 10
8.0
 20
-3.755625
 30
0.0
 40
0.5
  1
$BORE.CS2i
100
AcDbAttributeDefinition
  3

  2
NBSYN
 70
     8
280
     0
  0
ATTDEF
  5
ED
330
E5
100
AcDbEntity
  8
AM_6
100
AcDbText
 10
8.0
 20
-4.255625
 30
0.0
 40
0.5
  1
3-15/16CS2i
100
AcDbAttributeDefinition
  3

  2
LINA
 70
     8
280
     0
  0
ATTDEF
  5
EE
330
E5
100
AcDbEntity
  8
AM_6
100
AcDbText
 10
8.0
 20
-4.755625
 30
0.0
 40
0.5
  1
3-15/16
100
AcDbAttributeDefinition
  3

  2
BORE
 70
     8
280
     0
  0
ATTDEF
  5
EF
330
E5
100
AcDbEntity
  8
AM_6
100
AcDbText
 10
8.0
 20
-5.255625
 30
0.0
 40
0.5
  1
3.937500
100
AcDbAttributeDefinition
  3

  2
BORE1
 70
     8
280
     0
  0
ATTDEF
  5
F0
330
E5
100
AcDbEntity
  8
AM_6
100
AcDbText
 10
8.0
 20
-5.755625
 30
0.0
 40
0.5
  1
6
100
AcDbAttributeDefinition
  3

  2
L1
 70
     8
280
     0
  0
ATTDEF
  5
F1
330
E5
100
AcDbEntity
  8
AM_6
100
AcDbText
 10
8.0
 20
-6.255625
 30
0.0
 40
0.5
  1
6.00000
100
AcDbAttributeDefinition
  3

  2
L
 70
     8
280
     0
  0
ATTDEF
  5
F2
330
E5
100
AcDbEntity
  8
AM_6
100
AcDbText
 10
8.0
 20
-6.755625
 30
0.0
 40
0.5
  1
6.00000
100
AcDbAttributeDefinition
  3

  2
L2
 70
     8
280
     0
  0
ATTDEF
  5
F3
330
E5
100
AcDbEntity
  8
AM_6
100
AcDbText
 10
8.0
 20
-7.255625
 30
0.0
 40
0.5
  1
6.25
100
AcDbAttributeDefinition
  3

  2
A
 70
     8
280
     0
  0
ATTDEF
  5
F4
330
E5
100
AcDbEntity
  8
AM_6
100
AcDbText
 10
8.0
 20
-7.755625
 30
0.0
 40
0.5
  1
3.12
100
AcDbAttributeDefinition
  3

  2
B
 70
     8
280
     0
  0
ATTDEF
  5
F5
330
E5
100
AcDbEntity
  8
AM_6
100
AcDbText
 10
8.0
 20
-8.255625
 30
0.0
 40
0.5
  1
4.50
100
AcDbAttributeDefinition
  3

  2
C
 70
     8
280
     0
  0
ATTDEF
  5
F6
330
E5
100
AcDbEntity
  8
AM_6
100
AcDbText
 10
8.0
 20
-8.755625
 30
0.0
 40
0.5
  1
6.38
100
AcDbAttributeDefinition
  3

  2
D
 70
     8
280
     0
  0
ATTDEF
  5
F7
330
E5
100
AcDbEntity
  8
AM_6
100
AcDbText
 10
8.0
 20
-9.255625
 30
0.0
 40
0.5
  1
0.66
100
AcDbAttributeDefinition
  3

  2
E
 70
     8
280
     0
  0
ATTDEF
  5
F8
330
E5
100
AcDbEntity
  8
AM_6
100
AcDbText
 10
8.0
 20
-9.755625
 30
0.0
 40
0.5
  1
0.505
100
AcDbAttributeDefinition
  3

  2
F
 70
     8
280
     0
  0
ATTDEF
  5
F9
330
E5
100
AcDbEntity
  8
AM_6
100
AcDbText
 10
8.0
 20
-10.255625
 30
0.0
 40
0.5
  1
5/8-11
100
AcDbAttributeDefinition
  3

  2
CS
 70
     8
280
     0
  0
ATTDEF
  5
FA
330
E5
100
AcDbEntity
  8
AM_6
100
AcDbText
 10
8.0
 20
-10.755625
 30
0.0
 40
0.5
  1
0.6250
100
AcDbAttributeDefinition
  3

  2
NDM
 70
     8
280
     0
  0
ATTDEF
  5
FB
330
E5
100
AcDbEntity
  8
AM_6
100
AcDbText
 10
8.0
 20
-11.255625
 30
0.0
 40
0.5
  1
0.5270
100
AcDbAttributeDefinition
  3

  2
KDM
 70
     8
280
     0
  0
ATTDEF
  5
FC
330
E5
100
AcDbEntity
  8
AM_6
100
AcDbText
 10
8.0
 20
-11.755625
 30
0.0
 40
0.5
  1
2
100
AcDbAttributeDefinition
  3

  2
DD
 70
     8
280
     0
  0
ATTDEF
  5
FD
330
E5
100
AcDbEntity
  8
AM_6
100
AcDbText
 10
8.0
 20
-12.255625
 30
0.0
 40
0.5
  1
baldor
100
AcDbAttributeDefinition
  3

  2
COMPANY
 70
     8
280
     0
  0
LINE
  5
FE
330
E5
100
AcDbEntity
  8
AM_9
100
AcDbLine
 10
2.09790860523088
 20
-2.527703865920448
 30
0.0
 11
2.090072594686855
 21
-2.517930115083503
 31
0.0
  0
LINE
  5
FF
330
E5
100
AcDbEntity
  8
AM_9
100
AcDbLine
 10
2.090202939865653
 20
-3.003157307123471
 30
0.0
 11
2.09790860523088
 21
-2.993546134079552
 31
0.0
  0
LWPOLYLINE
  5
100
330
E5
100
AcDbEntity
  8
AM_9
100
AcDbPolyline
 90
       26
 70
     0
 43
0.0
 10
2.089974291498122
 20
-2.517807503833249
 10
2.088480180615775
 20
-2.515984313984088
 10
2.070707186623837
 20
-2.499733572602767
 10
2.051235819505739
 20
-2.491150839022779
 10
2.029775768239221
 20
-2.490607978911709
 10
2.007561980939881
 20
-2.498426822298492
 10
1.985100534938405
 20
-2.514720114298601
 10
1.963415148688138
 20
-2.539006185166672
 10
1.943777574578607
 20
-2.57021384653854
 10
1.926706528307501
 20
-2.607875357517012
 10
1.913787830998972
 20
-2.648762637236524
 10
1.904772698179146
 20
-2.693420473323702
 10
1.900490200621653
 20
-2.737069316209666
 10
1.900337713668679
 20
-2.78144544761685
 10
1.904123335254844
 20
-2.823145023580484
 10
1.911465068447466
 20
-2.863117995204235
 10
1.92216707421251
 20
-2.90070391113167
 10
1.935604930807596
 20
-2.934616935643687
 10
1.952187588474347
 20
-2.965667125346484
 10
1.970504617805664
 20
-2.991215758007778
 10
1.99121768772588
 20
-3.011813683155975
 10
2.01240657652872
 20
-3.025231347972985
 10
2.034328586901402
 20
-3.031220235730553
 10
2.055378710883308
 20
-3.028973926536563
 10
2.075283835930663
 20
-3.018187895888698
 10
2.089978241654082
 20
-3.003437569970033
  0
LWPOLYLINE
  5
101
330
E5
100
AcDbEntity
  8
AM_9
100
AcDbPolyline
 90
       13
 70
     0
 43
0.0
 10
2.09764287454878
 20
-2.992747267702498
 10
2.108741995161097
 20
-2.972464356576488
 10
2.121705361583141
 20
-2.93867001513362
 10
2.131542920164773
 20
-2.900221931006786
 10
2.138717048774657
 20
-2.857017751805567
 10
2.142873560255341
 20
-2.81358772900591
 10
2.144565813751815
 20
-2.7684618690661
 10
2.143858278703619
 20
-2.72580722178112
 10
2.140961602448765
 20
-2.68414668124918
 10
2.135943316907871
 20
-2.644997715778861
 10
2.12887022227915
 20
-2.608905229800551
 10
2.12180941447251
 20
-2.582925304447081
 10
2.113541727828296
 20
-2.559707972374701
  0
LWPOLYLINE
  5
102
330
E5
100
AcDbEntity
  8
AM_9
100
AcDbPolyline
 90
        3
 70
     0
 43
0.0
 10
2.089978241654082
 20
-3.003437569970033
 10
2.093248015323252
 20
-2.999161016522359
 10
2.09764287454878
 20
-2.992747267702498
  0
LINE
  5
103
330
E5
100
AcDbEntity
  8
AM_9
100
AcDbLine
 10
2.046020039494807
 20
-3.023925
 30
0.0
 11
2.674333017987747
 21
-3.023925
 31
0.0
  0
LINE
  5
104
330
E5
100
AcDbEntity
  8
AM_9
100
AcDbLine
 10
2.674333017987747
 20
-2.497325
 30
0.0
 11
2.046020039494807
 21
-2.497325
 31
0.0
  0
ELLIPSE
  5
105
330
E5
100
AcDbEntity
  8
AM_9
100
AcDbEllipse
 10
2.674333017987746
 20
-2.760625
 30
0.0
 11
-4.836742533232473E-17
 21
-0.2633000000000001
 31
0.0
210
0.0
220
0.0
230
1.0
 40
0.4226182617406978
 41
3.473636856363267
 42
5.95012701386597
  0
LINE
  5
106
330
E5
100
AcDbEntity
  8
AM_9
100
AcDbLine
 10
2.622444452251672
 20
-2.99354613407955
 30
0.0
 11
2.65472395323312
 21
-3.033807922646713
 31
0.0
  0
LINE
  5
107
330
E5
100
AcDbEntity
  8
AM_9
100
AcDbLine
 10
2.653418428136464
 20
-2.489070441293638
 30
0.0
 11
2.622444452251672
 21
-2.527703865920449
 31
0.0
  0
LWPOLYLINE
  5
108
330
E5
100
AcDbEntity
  8
AM_9
100
AcDbPolyline
 90
       39
 70
     0
 43
0.0
 10
-0.2014674474065467
 20
-2.566360211364561
 10
-0.229735735680614
 20
-2.596064735924682
 10
-0.2537533579054705
 20
-2.630465353049987
 10
-0.2734317043856334
 20
-2.671760796202667
 10
-0.2858097120107891
 20
-2.717399836284429
 10
-0.2895404355017283
 20
-2.760160921085055
 10
-0.2857395366228411
 20
-2.804252155212641
 10
-0.2752385706158141
 20
-2.844488902850181
 10
-0.2578801168263565
 20
-2.883505977350694
 10
-0.2344921550702038
 20
-2.919215902897188
 10
-0.2050387686865359
 20
-2.951592199008948
 10
-0.1695631338298023
 20
-2.979955235923445
 10
-0.1290229167026693
 20
-3.002953153422487
 10
-0.0837394506217018
 20
-3.019826068495303
 10
-0.0350231494639944
 20
-3.029459159892086
 10
0.0151041759514524
 20
-3.03108760744046
 10
0.0662201632149352
 20
-3.024243068610811
 10
0.1145139571743325
 20
-3.009271827757243
 10
0.1608653651617134
 20
-2.985625172924427
 10
0.2004862293331476
 20
-2.955776131989309
 10
0.2352610533937078
 20
-2.91821808984657
 10
0.260570297677559
 20
-2.87845270580223
 10
0.2788768325671614
 20
-2.833268841859466
 10
0.2877851052778569
 20
-2.790326320489271
 10
0.2890600055978164
 20
-2.745064621316519
 10
0.2830497067018713
 20
-2.703745692678948
 10
0.2699287906576929
 20
-2.662873441284868
 10
0.2507191399295257
 20
-2.62543222837866
 10
0.2251762956592337
 20
-2.590646789540425
 10
0.1935578944982601
 20
-2.559444443424514
 10
0.1564955422752519
 20
-2.532938639702128
 10
0.1140352191890704
 20
-2.511785028593249
 10
0.0675112616376606
 20
-2.49729498964712
 10
0.0182919817445267
 20
-2.490335563360625
 10
-0.0328014473202251
 20
-2.491544465138445
 10
-0.0824725208459753
 20
-2.501067175541579
 10
-0.1311922493566856
 20
-2.519321355065426
 10
-0.1676812724784267
 20
-2.54003034548985
 10
-0.2014674474065467
 20
-2.566360211364561
  0
LWPOLYLINE
  5
109
330
E5
100
AcDbEntity
  8
AM_9
100
AcDbPolyline
 90
        3
 70
     0
 43
0.0
 10
2.113541727828296
 20
-2.559707972374701
 10
2.101812553264939
 20
-2.535388396888955
 10
2.089974291498122
 20
-2.517807503833249
  0
LINE
  5
10A
330
E5
100
AcDbEntity
  8
AM_9
100
AcDbLine
 10
2.25
 20
-3.265625
 30
0.0
 11
2.25
 21
-2.255625
 31
0.0
  0
LINE
  5
10B
330
E5
100
AcDbEntity
  8
AM_9
100
AcDbLine
 10
-2.25
 20
-2.255625
 30
0.0
 11
-2.25
 21
-3.265625
 31
0.0
  0
LINE
  5
10C
330
E5
100
AcDbEntity
  8
AM_9
100
AcDbLine
 10
0.1493562326912613
 20
-2.490370141648021
 30
0.0
 11
-0.1493562326913244
 21
-2.490370141648021
 31
0.0
  0
LINE
  5
10D
330
E5
100
AcDbEntity
  8
AM_9
100
AcDbLine
 10
2.778672397794978
 20
-2.490370141648021
 30
0.0
 11
2.653299076620887
 21
-2.490370141648021
 31
0.0
  0
ELLIPSE
  5
10E
330
E5
100
AcDbEntity
  8
AM_9
100
AcDbEllipse
 10
2.046020039494806
 20
-2.760624999999999
 30
0.0
 11
-4.836742533232481E-17
 21
-0.2633000000000005
 31
0.0
210
0.0
220
0.0
230
1.0
 40
0.4226182617406971
 41
0.0
 42
6.283185307179586
  0
LINE
  5
10F
330
E5
100
AcDbEntity
  8
AM_7
100
AcDbLine
 10
-0.276465
 20
-2.760625
 30
0.0
 11
0.276465
 21
-2.760625
 31
0.0
  0
ELLIPSE
  5
111
330
E5
100
AcDbEntity
  8
AM_4
100
AcDbEllipse
 10
2.674333017987747
 20
-2.760625
 30
0.0
 11
-4.836742533232465E-17
 21
-0.2632999999999996
 31
0.0
210
0.0
220
0.0
230
1.0
 40
0.4226182617406986
 41
5.950127013865961
 42
9.756822163542862
  0
LWPOLYLINE
  5
112
330
E5
100
AcDbEntity
  8
AM_4
100
AcDbPolyline
 90
        6
 70
     0
 43
0.0
 10
2.65336958822677
 20
-2.489131364652988
 10
2.667977914178306
 20
-2.478956410424741
 10
2.680259260236345
 20
-2.475882471405561
 10
2.695529133191132
 20
-2.474910354536923
 10
2.73209275016101
 20
-2.478922327016094
 10
2.778672397794976
 20
-2.490370141648019
  0
LWPOLYLINE
  5
113
330
E5
100
AcDbEntity
  8
AM_4
100
AcDbPolyline
 90
       15
 70
     0
 43
0.0
 10
2.654870598315193
 20
-3.033990829421572
 10
2.652511250162792
 20
-3.030984289742345
 10
2.633912953695401
 20
-3.00241375325909
 10
2.617330446593713
 20
-2.967946356389244
 10
2.602749248351492
 20
-2.926603732907754
 10
2.591431315399275
 20
-2.881066433730955
 10
2.583551324603338
 20
-2.830286063952347
 10
2.579920435008144
 20
-2.777646954526157
 10
2.580816728522081
 20
-2.723122392702433
 10
2.586295154514985
 20
-2.669648282560687
 10
2.596272572353213
 20
-2.618556617791961
 10
2.61028461463495
 20
-2.571586344280545
 10
2.627480641534377
 20
-2.531036540818162
 10
2.647383349836009
 20
-2.497248133971536
 10
2.652431054914689
 20
-2.490370141648021
  0
LINE
  5
114
330
E5
100
AcDbEntity
  8
AM_4
100
AcDbLine
 10
-2.857142857142857
 20
-2.255625
 30
0.0
 11
2.857142857142857
 21
-2.255625
 31
0.0
  0
LINE
  5
115
330
E5
100
AcDbEntity
  8
AM_4
100
AcDbLine
 10
2.857142857142857
 20
-2.274271922183507
 30
0.0
 11
2.857142857142857
 21
-2.255625
 31
0.0
  0
LINE
  5
116
330
E5
100
AcDbEntity
  8
AM_4
100
AcDbLine
 10
-2.857142857142857
 20
-2.255625
 30
0.0
 11
-2.857142857142857
 21
-2.274271922183507
 31
0.0
  0
LINE
  5
117
330
E5
100
AcDbEntity
  8
AM_4
100
AcDbLine
 10
-2.857142857142857
 20
-2.274271922183507
 30
0.0
 11
2.857142857142857
 21
-2.274271922183507
 31
0.0
  0
LINE
  5
118
330
E5
100
AcDbEntity
  8
AM_4
100
AcDbLine
 10
-2.857142857142857
 20
-2.274271922183507
 30
0.0
 11
-2.926829268292683
 21
-2.343958333333333
 31
0.0
  0
LINE
  5
119
330
E5
100
AcDbEntity
  8
AM_4
100
AcDbLine
 10
2.926829268292683
 20
-2.343958333333333
 30
0.0
 11
2.857142857142857
 21
-2.274271922183507
 31
0.0
  0
LINE
  5
11A
330
E5
100
AcDbEntity
  8
AM_4
100
AcDbLine
 10
-2.926829268292683
 20
-2.343958333333333
 30
0.0
 11
2.926829268292683
 21
-2.343958333333333
 31
0.0
  0
LINE
  5
11B
330
E5
100
AcDbEntity
  8
AM_4
100
AcDbLine
 10
2.926829268292683
 20
-2.448125
 30
0.0
 11
2.926829268292683
 21
-2.343958333333333
 31
0.0
  0
LINE
  5
11C
330
E5
100
AcDbEntity
  8
AM_4
100
AcDbLine
 10
-2.926829268292683
 20
-2.343958333333333
 30
0.0
 11
-2.926829268292683
 21
-2.448125
 31
0.0
  0
LINE
  5
11D
330
E5
100
AcDbEntity
  8
AM_4
100
AcDbLine
 10
-2.831666666666667
 20
-3.265625
 30
0.0
 11
2.83166666666634
 21
-3.265625
 31
0.0
  0
ARC
  5
11E
330
E5
100
AcDbEntity
  8
AM_4
100
AcDbCircle
 10
2.831666666666667
 20
-3.097291666666667
 30
0.0
 40
0.168333333333333
100
AcDbArc
 50
270.0
 51
0.0
  0
ARC
  5
11F
330
E5
100
AcDbEntity
  8
AM_4
100
AcDbCircle
 10
-2.831666666666667
 20
-3.097291666666667
 30
0.0
 40
0.1683333333333326
100
AcDbArc
 50
180.0
 51
270.0
  0
LINE
  5
120
330
E5
100
AcDbEntity
  8
AM_4
100
AcDbLine
 10
-3.0
 20
-3.097291666666667
 30
0.0
 11
3.0
 21
-3.097291666666667
 31
0.0
  0
LWPOLYLINE
  5
121
330
E5
100
AcDbEntity
  8
AM_4
100
AcDbPolyline
 90
       20
 70
     0
 43
0.0
 10
2.778672397794977
 20
-2.490370141647948
 10
2.790217998437151
 20
-2.512077326167853
 10
2.802308294962809
 20
-2.54313966800057
 10
2.812342156992842
 20
-2.57877716784804
 10
2.821151126861398
 20
-2.623706113992194
 10
2.827238826686251
 20
-2.672166961948553
 10
2.830656794345898
 20
-2.724873817362394
 10
2.831151266923335
 20
-2.778550862772161
 10
2.828618976794678
 20
-2.832781937865601
 10
2.823040774210795
 20
-2.884965812245213
 10
2.814408296013799
 20
-2.933391196844069
 10
2.802759354324742
 20
-2.976765279055363
 10
2.788555888026537
 20
-3.012656454375199
 10
2.771723317427048
 20
-3.041146007225607
 10
2.753453832501721
 20
-3.06028382138417
 10
2.73345009519435
 20
-3.070977412953041
 10
2.713199559451878
 20
-3.072771021657973
 10
2.692427284052877
 20
-3.066403938395098
 10
2.672096848377084
 20
-3.052286024005842
 10
2.654870598315193
 20
-3.033990829421572
  0
LINE
  5
122
330
E5
100
AcDbEntity
  8
AM_4
100
AcDbLine
 10
3.0
 20
-3.097291666666667
 30
0.0
 11
3.0
 21
-2.490370141648021
 31
0.0
  0
LINE
  5
123
330
E5
100
AcDbEntity
  8
AM_4
100
AcDbLine
 10
-3.0
 20
-2.490370141648021
 30
0.0
 11
-3.0
 21
-3.097291666666667
 31
0.0
  0
LWPOLYLINE
  5
124
330
E5
100
AcDbEntity
  8
AM_4
100
AcDbPolyline
 90
       33
 70
     0
 43
0.0
 10
0.1493562326912613
 20
-2.490370141647982
 10
0.1613860015179049
 20
-2.498109006632576
 10
0.1989764844905714
 20
-2.528289958800034
 10
0.2320972207226811
 20
-2.565053551198745
 10
0.2594387939156211
 20
-2.607492307863414
 10
0.280149419091754
 20
-2.655026140104653
 10
0.293112361331371
 20
-2.706067771813926
 10
0.2976926644473602
 20
-2.760006691648928
 10
0.2933562636213561
 20
-2.813720824239786
 10
0.2797256622728502
 20
-2.867452675890446
 10
0.2578541372549977
 20
-2.916676264798829
 10
0.2269462068212475
 20
-2.962745778962604
 10
0.1905255780059908
 20
-3.000641375650637
 10
0.1466468659635599
 20
-3.032511618165171
 10
0.101434002529659
 20
-3.054390676987253
 10
0.0515107695924945
 20
-3.068401987821323
 10
0.0038493037295137
 20
-3.073098821966354
 10
-0.0453642885866422
 20
-3.06946811582029
 10
-0.0908502648909633
 20
-3.058189123520329
 10
-0.1350533676658825
 20
-3.039058449712219
 10
-0.1751017703983928
 20
-3.013261571702578
 10
-0.2114193038160966
 20
-2.980515687048852
 10
-0.2425173359329117
 20
-2.941736639665393
 10
-0.2676526439764082
 20
-2.897315320257429
 10
-0.2856593943975833
 20
-2.848495814788353
 10
-0.2957772871532122
 20
-2.795987284379946
 10
-0.2971844171032154
 20
-2.742379997410896
 10
-0.2894745734090309
 20
-2.687771941020062
 10
-0.2730798526932277
 20
-2.636308372953395
 10
-0.2474261459626467
 20
-2.586978573302441
 10
-0.22251668252969
 20
-2.553149516241088
 10
-0.1926505329044896
 20
-2.522485745092534
 10
-0.1493562326913244
 20
-2.490370141648021
  0
CIRCLE
  5
125
330
E5
100
AcDbEntity
  8
AM_4
100
AcDbCircle
 10
0.0
 20
-2.760625
 30
0.0
 40
0.2633
  0
LWPOLYLINE
  5
126
330
E5
100
AcDbEntity
  8
AM_4
100
AcDbPolyline
 90
        6
 70
     0
 43
0.0
 10
-0.1493562326913244
 20
-2.490370141648021
 10
-0.0760697940912032
 20
-2.478956410424739
 10
-0.0373583387552804
 20
-2.475886417035385
 10
0.0020698409902697
 20
-2.474910354536923
 10
0.0757478832551036
 20
-2.478922327016094
 10
0.1493562326912613
 20
-2.490370141647982
  0
LINE
  5
127
330
E5
100
AcDbEntity
  8
AM_4
100
AcDbLine
 10
0.1493562326912613
 20
-2.490370141647982
 30
0.0
 11
2.65243105491469
 21
-2.490370141648021
 31
0.0
  0
LINE
  5
128
330
E5
100
AcDbEntity
  8
AM_4
100
AcDbLine
 10
2.65243105491469
 20
-2.490370141648022
 30
0.0
 11
2.65336958822677
 21
-2.489131364652988
 31
0.0
  0
LINE
  5
129
330
E5
100
AcDbEntity
  8
AM_4
100
AcDbLine
 10
2.778672397794978
 20
-2.490370141648012
 30
0.0
 11
3.0
 21
-2.490370141648021
 31
0.0
  0
LINE
  5
12A
330
E5
100
AcDbEntity
  8
AM_4
100
AcDbLine
 10
-2.926829268292683
 20
-2.448125
 30
0.0
 11
2.926829268292683
 21
-2.448125
 31
0.0
  0
LINE
  5
12B
330
E5
100
AcDbEntity
  8
AM_4
100
AcDbLine
 10
-2.926829268292683
 20
-2.448125
 30
0.0
 11
-3.0
 21
-2.490370141648021
 31
0.0
  0
LINE
  5
12C
330
E5
100
AcDbEntity
  8
AM_4
100
AcDbLine
 10
3.0
 20
-2.490370141648021
 30
0.0
 11
2.926829268292683
 21
-2.448125
 31
0.0
  0
LINE
  5
12D
330
E5
100
AcDbEntity
  8
AM_4
100
AcDbLine
 10
-3.0
 20
-2.490370141648021
 30
0.0
 11
-0.1493562326913244
 21
-2.490370141648021
 31
0.0
  0
CIRCLE
  5
12E
330
E5
100
AcDbEntity
  8
AM_5
100
AcDbCircle
 10
0.0000000000000001
 20
-2.760625
 30
0.0
 40
0.3124999999999999
  0
ENDBLK
  5
E8
330
E5
100
AcDbEntity
  8
0
100
AcDbBlockEnd
  0
BLOCK
  5
131
330
12F
100
AcDbEntity
  8
0
100
AcDbBlockBegin
  2
4_070013i_0_in_070841_4
 70
     2
 10
0.0
 20
0.0
 30
0.0
  3
4_070013i_0_in_070841_4
  1

  0
ATTDEF
  5
133
330
12F
100
AcDbEntity
  8
AM_6
100
AcDbText
 10
8.5433
 20
1.21875
 30
0.0
 40
0.5
  1
S-2000 Insert -Inch
100
AcDbAttributeDefinition
  3

  2
NN
 70
     8
280
     0
  0
ATTDEF
  5
134
330
12F
100
AcDbEntity
  8
AM_6
100
AcDbText
 10
8.5433
 20
0.71875
 30
0.0
 40
0.5
  1
S-2000 Bearings
100
AcDbAttributeDefinition
  3

  2
NT
 70
     8
280
     0
  0
ATTDEF
  5
135
330
12F
100
AcDbEntity
  8
AM_6
100
AcDbText
 10
8.5433
 20
0.21875
 30
0.0
 40
0.5
  1
070013i
100
AcDbAttributeDefinition
  3

  2
NB
 70
     8
280
     0
  0
ATTDEF
  5
136
330
12F
100
AcDbEntity
  8
AM_6
100
AcDbText
 10
8.5433
 20
-0.28125
 30
0.0
 40
0.5
  1
$PN.i
100
AcDbAttributeDefinition
  3

  2
NBSYN
 70
     8
280
     0
  0
ATTDEF
  5
137
330
12F
100
AcDbEntity
  8
AM_6
100
AcDbText
 10
8.5433
 20
-0.78125
 30
0.0
 40
0.5
  1
070013i
100
AcDbAttributeDefinition
  3

  2
LINA
 70
     8
280
     0
  0
ATTDEF
  5
138
330
12F
100
AcDbEntity
  8
AM_6
100
AcDbText
 10
8.5433
 20
-1.28125
 30
0.0
 40
0.5
  1
3-15/16
100
AcDbAttributeDefinition
  3

  2
SS
 70
     8
280
     0
  0
ATTDEF
  5
139
330
12F
100
AcDbEntity
  8
AM_6
100
AcDbText
 10
8.5433
 20
-1.78125
 30
0.0
 40
0.5
  1
4.50
100
AcDbAttributeDefinition
  3

  2
CC
 70
     8
280
     0
  0
ATTDEF
  5
13A
330
12F
100
AcDbEntity
  8
AM_6
100
AcDbText
 10
8.5433
 20
-2.28125
 30
0.0
 40
0.5
  1
3.937500
100
AcDbAttributeDefinition
  3

  2
SS1
 70
     8
280
     0
  0
ATTDEF
  5
13B
330
12F
100
AcDbEntity
  8
AM_6
100
AcDbText
 10
8.5433
 20
-2.78125
 30
0.0
 40
0.5
  1
070013
100
AcDbAttributeDefinition
  3

  2
PN
 70
     8
280
     0
  0
ATTDEF
  5
13C
330
12F
100
AcDbEntity
  8
AM_6
100
AcDbText
 10
8.5433
 20
-3.28125
 30
0.0
 40
0.5
  1
INS-S2-315R
100
AcDbAttributeDefinition
  3

  2
DESCRIPTION
 70
     8
280
     0
  0
ATTDEF
  5
13D
330
12F
100
AcDbEntity
  8
AM_6
100
AcDbText
 10
8.5433
 20
-3.78125
 30
0.0
 40
0.5
  1
Contact Seal
100
AcDbAttributeDefinition
  3

  2
ST
 70
     8
280
     0
  0
ATTDEF
  5
13E
330
12F
100
AcDbEntity
  8
AM_6
100
AcDbText
 10
8.5433
 20
-4.28125
 30
0.0
 40
0.5
  1
1
100
AcDbAttributeDefinition
  3

  2
ST1
 70
     8
280
     0
  0
ATTDEF
  5
13F
330
12F
100
AcDbEntity
  8
AM_6
100
AcDbText
 10
8.5433
 20
-4.78125
 30
0.0
 40
0.5
  1
7.0866
100
AcDbAttributeDefinition
  3

  2
A
 70
     8
280
     0
  0
ATTDEF
  5
140
330
12F
100
AcDbEntity
  8
AM_6
100
AcDbText
 10
8.5433
 20
-5.28125
 30
0.0
 40
0.5
  1
1-7/8
100
AcDbAttributeDefinition
  3

  2
B
 70
     8
280
     0
  0
ATTDEF
  5
141
330
12F
100
AcDbEntity
  8
AM_6
100
AcDbText
 10
8.5433
 20
-5.78125
 30
0.0
 40
0.5
  1
4-31/64
100
AcDbAttributeDefinition
  3

  2
C
 70
     8
280
     0
  0
ATTDEF
  5
142
330
12F
100
AcDbEntity
  8
AM_6
100
AcDbText
 10
8.5433
 20
-6.28125
 30
0.0
 40
0.5
  1
1.646
100
AcDbAttributeDefinition
  3

  2
D
 70
     8
280
     0
  0
ATTDEF
  5
143
330
12F
100
AcDbEntity
  8
AM_6
100
AcDbText
 10
8.5433
 20
-6.78125
 30
0.0
 40
0.5
  1
6
100
AcDbAttributeDefinition
  3

  2
E
 70
     8
280
     0
  0
ATTDEF
  5
144
330
12F
100
AcDbEntity
  8
AM_6
100
AcDbText
 10
8.5433
 20
-7.28125
 30
0.0
 40
0.5
  1
0.34375
100
AcDbAttributeDefinition
  3

  2
F
 70
     8
280
     0
  0
ATTDEF
  5
145
330
12F
100
AcDbEntity
  8
AM_6
100
AcDbText
 10
8.5433
 20
-7.78125
 30
0.0
 40
0.5
  1
2
100
AcDbAttributeDefinition
  3

  2
DD
 70
     8
280
     0
  0
ATTDEF
  5
146
330
12F
100
AcDbEntity
  8
AM_6
100
AcDbText
 10
8.5433
 20
-8.28125
 30
0.0
 40
0.5
  1
baldor
100
AcDbAttributeDefinition
  3

  2
COMPANY
 70
     8
280
     0
  0
LINE
  5
147
330
12F
100
AcDbEntity
  8
AM_9
100
AcDbLine
 10
2.039192520832462
 20
-2.430625
 30
0.0
 11
1.784126112694714
 21
-2.430625
 31
0.0
  0
LINE
  5
148
330
12F
100
AcDbEntity
  8
AM_9
100
AcDbLine
 10
1.784249267244133
 20
-3.090625
 30
0.0
 11
2.039192520832462
 21
-3.090625
 31
0.0
  0
LWPOLYLINE
  5
149
330
12F
100
AcDbEntity
  8
AM_9
100
AcDbPolyline
 90
       21
 70
     0
 43
0.0
 10
1.784304748548791
 20
-2.430625001081875
 10
1.768783386045301
 20
-2.432593884608024
 10
1.744463704136843
 20
-2.443119766874515
 10
1.720049200667906
 20
-2.462335374747981
 10
1.696320599136341
 20
-2.489943949521049
 10
1.674324850107115
 20
-2.524992910331735
 10
1.654801067982797
 20
-2.567168184603041
 10
1.638888465591551
 20
-2.614835447890907
 10
1.627418757519156
 20
-2.66680276611687
 10
1.62092678966454
 20
-2.721488381715791
 10
1.61983424946571
 20
-2.776655226482792
 10
1.623994959449863
 20
-2.8313653203112
 10
1.633203819766625
 20
-2.883706954210204
 10
1.646921575744193
 20
-2.932628868682408
 10
1.664729989666717
 20
-2.977136507390496
 10
1.685638930246543
 20
-3.015619020120581
 10
1.709018353926043
 20
-3.047228061897489
 10
1.733659250062025
 20
-3.070723461516363
 10
1.75848134264691
 20
-3.085245617014139
 10
1.782718368953424
 20
-3.090604038394185
 10
1.784284494808594
 20
-3.090624999318831
  0
LWPOLYLINE
  5
14A
330
12F
100
AcDbEntity
  8
AM_9
100
AcDbPolyline
 90
        4
 70
     0
 43
0.0
 10
1.891850419753431
 20
-2.884877157487157
 10
1.895939712628778
 20
-2.839246342220627
 10
1.897870050611974
 20
-2.800228199391447
 10
1.898513016825742
 20
-2.760625
  0
LWPOLYLINE
  5
14B
330
12F
100
AcDbEntity
  8
AM_9
100
AcDbPolyline
 90
        9
 70
     0
 43
0.0
 10
1.784284494808594
 20
-3.090624999318831
 10
1.805295108590339
 20
-3.086604543602194
 10
1.825963439594656
 20
-3.073622818446589
 10
1.844234353345708
 20
-3.051953327738502
 10
1.859926893270822
 20
-3.022323055650594
 10
1.873020669481772
 20
-2.984981265431268
 10
1.883348530328451
 20
-2.941350872719702
 10
1.890977735809883
 20
-2.892198403038649
 10
1.891850419753431
 20
-2.884877157487157
  0
LWPOLYLINE
  5
14C
330
12F
100
AcDbEntity
  8
AM_9
100
AcDbPolyline
 90
       21
 70
     0
 43
0.0
 10
2.039204388092252
 20
-3.090624998805263
 10
2.023493950407833
 20
-3.088599039456844
 10
1.999291247186104
 20
-3.077941269347093
 10
1.975144590271775
 20
-3.058539660889279
 10
1.951835081291387
 20
-3.030722285822627
 10
1.930342800480956
 20
-2.995435786466518
 10
1.91141856376626
 20
-2.953133931055774
 10
1.896070627987425
 20
-2.905374495644122
 10
1.885073581336419
 20
-2.853383232267906
 10
1.878904571652315
 20
-2.798721912303111
 10
1.877948576949944
 20
-2.743461268224654
 10
1.882083930714479
 20
-2.68868830734216
 10
1.891134098132501
 20
-2.636229226687894
 10
1.904589995108458
 20
-2.587237749819562
 10
1.922027092075405
 20
-2.542813754082994
 10
1.942530527435977
 20
-2.504470228979191
 10
1.965453489742377
 20
-2.473136746803392
 10
1.989692611944469
 20
-2.449934699709472
 10
2.01423960695658
 20
-2.435699294062983
 10
2.038336778583334
 20
-2.430631200298957
 10
2.0391871085529
 20
-2.430625000248493
  0
LINE
  5
14D
330
12F
100
AcDbEntity
  8
AM_9
100
AcDbLine
 10
2.156404967532596
 20
-2.739258001050906
 30
0.0
 11
2.156604663928396
 21
-2.760625
 31
0.0
  0
LWPOLYLINE
  5
14E
330
12F
100
AcDbEntity
  8
AM_9
100
AcDbPolyline
 90
       11
 70
     0
 43
0.0
 10
2.0391871085529
 20
-2.430625000248493
 10
2.060995331218779
 20
-2.434933630939521
 10
2.081885467056235
 20
-2.448255468604249
 10
2.100507010398975
 20
-2.470309465591985
 10
2.11662611560824
 20
-2.500355272438296
 10
2.130146378222674
 20
-2.538027875115725
 10
2.140883490866904
 20
-2.581951728268981
 10
2.148836041188578
 20
-2.631247882027202
 10
2.154006109881
 20
-2.684259936451605
 10
2.155954475569548
 20
-2.722176352710035
 10
2.156404967532596
 20
-2.739258001050906
  0
LWPOLYLINE
  5
14F
330
12F
100
AcDbEntity
  8
AM_9
100
AcDbPolyline
 90
        9
 70
     0
 43
0.0
 10
1.891682080335658
 20
-2.634905293036642
 10
1.88719850708381
 20
-2.601989052999512
 10
1.8782458633211
 20
-2.556136141892519
 10
1.86644312148431
 20
-2.515688087178227
 10
1.85186573545095
 20
-2.48209918670843
 10
1.83441570072778
 20
-2.456278470618385
 10
1.814418661600808
 20
-2.439095654594451
 10
1.792406544971975
 20
-2.431231920207309
 10
1.784304748548791
 20
-2.430625001081875
  0
LWPOLYLINE
  5
150
330
12F
100
AcDbEntity
  8
AM_9
100
AcDbPolyline
 90
        4
 70
     0
 43
0.0
 10
1.898513016825742
 20
-2.760625
 10
1.897265675935013
 20
-2.705665506710481
 10
1.893519334374493
 20
-2.652265830395146
 10
1.891682080335658
 20
-2.634905293036642
  0
LINE
  5
151
330
12F
100
AcDbEntity
  8
AM_9
100
AcDbLine
 10
-1.96875
 20
1.21875
 30
0.0
 11
-1.96875
 21
-3.265625
 31
0.0
  0
LINE
  5
152
330
12F
100
AcDbEntity
  8
AM_9
100
AcDbLine
 10
1.96875
 20
-3.265625
 30
0.0
 11
1.96875
 21
1.21875
 31
0.0
  0
LWPOLYLINE
  5
153
330
12F
100
AcDbEntity
  8
AM_9
100
AcDbPolyline
 90
       11
 70
     0
 43
0.0
 10
2.156336336301693
 20
-2.785386417975106
 10
2.155260891266976
 20
-2.815687261214315
 10
2.151239812495228
 20
-2.869189345510763
 10
2.144489230104766
 20
-2.919568696294787
 10
2.134999278504681
 20
-2.965504477737553
 10
2.122627873209079
 20
-3.00592123599882
 10
2.10750075307563
 20
-3.03945800116073
 10
2.089607565801016
 20
-3.065171066386122
 10
2.069305931869675
 20
-3.082254471052651
 10
2.047117043138596
 20
-3.090046562493003
 10
2.039204388092252
 20
-3.090624998805263
  0
LINE
  5
154
330
12F
100
AcDbEntity
  8
AM_9
100
AcDbLine
 10
2.156604663928396
 20
-2.760625
 30
0.0
 11
2.156336336301693
 21
-2.785386417975106
 31
0.0
  0
LWPOLYLINE
  5
155
330
12F
100
AcDbEntity
  8
AM_9
100
AcDbPolyline
 90
       39
 70
     0
 43
0.0
 10
0.3300000000000002
 20
-2.760625
 10
0.325504908904543
 20
-2.814907172755381
 10
0.3116308439224524
 20
-2.869189345510763
 10
0.2895666932252116
 20
-2.918900488230541
 10
0.2586975059833156
 20
-2.965504477737553
 10
0.2213073632187999
 20
-3.005416852366745
 10
0.1764997378573132
 20
-3.03945800116073
 10
0.1277643244134047
 20
-3.064888499958812
 10
0.0738544741392965
 20
-3.082254471052651
 10
0.0197516239306237
 20
-3.09003336867345
 10
-0.0365106757313633
 20
-3.088599039456844
 10
-0.089748817015879
 20
-3.07818625368856
 10
-0.1419396168348563
 20
-3.058539660889279
 10
-0.1889263935206993
 20
-3.03119258459073
 10
-0.2318704262276136
 20
-2.995435786466518
 10
-0.267550794762139
 20
-2.953799978250673
 10
-0.2965595783493973
 20
-2.905374495644122
 10
-0.3164621419989999
 20
-2.854175588888605
 10
-0.3277935711281859
 20
-2.798721912303111
 10
-0.3295939238549732
 20
-2.744259018273192
 10
-0.3220638325696498
 20
-2.68868830734216
 10
-0.3059429904575708
 20
-2.636936332007015
 10
-0.2807790260594015
 20
-2.587237749819562
 10
-0.248403763560051
 20
-2.543379585205574
 10
-0.2080498336535678
 20
-2.504470228979192
 10
-0.1626707200052014
 20
-2.473504403641973
 10
-0.1112274125626499
 20
-2.449934699709472
 10
-0.0582579230021328
 20
-2.435808106339159
 10
-0.0020229085169295
 20
-2.430631200298957
 10
0.0521694781490273
 20
-2.434774811186708
 10
0.1064202793437352
 20
-2.448255468604248
 10
0.1561649211386651
 20
-2.469914633129889
 10
0.2028784584793471
 20
-2.500355272438296
 10
0.2430678463639259
 20
-2.537425488208413
 10
0.2774452413881582
 20
-2.581951728268981
 10
0.3032560016853085
 20
-2.630487390363737
 10
0.3210426405779291
 20
-2.684259936451604
 10
0.3277209490795907
 20
-2.721908342933921
 10
0.33
 20
-2.760625
  0
LINE
  5
156
330
12F
100
AcDbEntity
  8
AM_9
100
AcDbLine
 10
-2.25
 20
-2.255625
 30
0.0
 11
-2.25
 21
-3.265625
 31
0.0
  0
LINE
  5
157
330
12F
100
AcDbEntity
  8
AM_9
100
AcDbLine
 10
2.25
 20
-3.265625
 30
0.0
 11
2.25
 21
-2.255625
 31
0.0
  0
LINE
  5
158
330
12F
100
AcDbEntity
  8
AM_9
100
AcDbLine
 10
-2.25
 20
1.21875
 30
0.0
 11
-2.25
 21
1.057375
 31
0.0
  0
LINE
  5
159
330
12F
100
AcDbEntity
  8
AM_9
100
AcDbLine
 10
2.25
 20
1.057375
 30
0.0
 11
2.25
 21
1.21875
 31
0.0
  0
LINE
  5
15A
330
12F
100
AcDbEntity
  8
AM_9
100
AcDbLine
 10
2.25
 20
1.21875
 30
0.0
 11
-2.25
 21
1.21875
 31
0.0
  0
LINE
  5
15B
330
12F
100
AcDbEntity
  8
AM_9
100
AcDbLine
 10
2.647139999999999
 20
1.057375
 30
0.0
 11
-2.647139999999999
 21
1.057375
 31
0.0
  0
ARC
  5
15C
330
12F
100
AcDbEntity
  8
AM_9
100
AcDbCircle
 10
-2.647140000000001
 20
0.8698750000000008
 30
0.0
 40
0.1874999999999989
100
AcDbArc
 50
90.0
 51
180.0
  0
ARC
  5
15D
330
12F
100
AcDbEntity
  8
AM_9
100
AcDbCircle
 10
2.647140000000001
 20
0.8698750000000011
 30
0.0
 40
0.1874999999999987
100
AcDbArc
 50
0.0
 51
90.0
  0
LINE
  5
15E
330
12F
100
AcDbEntity
  8
AM_9
100
AcDbLine
 10
-2.834639999999999
 20
0.8698750000000003
 30
0.0
 11
-2.834639999999999
 21
0.5102500000000001
 31
0.0
  0
LINE
  5
15F
330
12F
100
AcDbEntity
  8
AM_9
100
AcDbLine
 10
2.834639999999999
 20
0.5102500000000001
 30
0.0
 11
2.834639999999999
 21
0.8698750000000003
 31
0.0
  0
LINE
  5
160
330
12F
100
AcDbEntity
  8
AM_9
100
AcDbLine
 10
2.834639999999999
 20
0.8698750000000003
 30
0.0
 11
-2.834639999999999
 21
0.8698750000000003
 31
0.0
  0
LINE
  5
161
330
12F
100
AcDbEntity
  8
AM_9
100
AcDbLine
 10
-2.834639999999999
 20
-1.36475
 30
0.0
 11
-2.834639999999999
 21
-1.5625
 31
0.0
  0
LINE
  5
162
330
12F
100
AcDbEntity
  8
AM_9
100
AcDbLine
 10
2.834639999999999
 20
-1.5625
 30
0.0
 11
2.834639999999999
 21
-1.36475
 31
0.0
  0
LINE
  5
163
330
12F
100
AcDbEntity
  8
AM_9
100
AcDbLine
 10
-3.401567999999999
 20
-0.3334999999999988
 30
0.0
 11
-3.401567999999999
 21
-0.5210000000000011
 31
0.0
  0
LINE
  5
164
330
12F
100
AcDbEntity
  8
AM_9
100
AcDbLine
 10
3.401567999999999
 20
-0.5210000000000011
 30
0.0
 11
3.401567999999999
 21
-0.3334999999999988
 31
0.0
  0
LINE
  5
165
330
12F
100
AcDbEntity
  8
AM_9
100
AcDbLine
 10
3.3558
 20
-1.36475
 30
0.0
 11
-3.3558
 21
-1.36475
 31
0.0
  0
ARC
  5
166
330
12F
100
AcDbEntity
  8
AM_9
100
AcDbCircle
 10
-3.355799999999999
 20
-1.177249999999999
 30
0.0
 40
0.1875000000000004
100
AcDbArc
 50
180.0
 51
270.0
  0
ARC
  5
167
330
12F
100
AcDbEntity
  8
AM_9
100
AcDbCircle
 10
3.3558
 20
-1.17725
 30
0.0
 40
0.1875000000000002
100
AcDbArc
 50
270.0
 51
0.0
  0
LINE
  5
168
330
12F
100
AcDbEntity
  8
AM_9
100
AcDbLine
 10
3.401567999999999
 20
-0.3334999999999988
 30
0.0
 11
3.5433
 21
-0.2516709916472145
 31
0.0
  0
LINE
  5
169
330
12F
100
AcDbEntity
  8
AM_9
100
AcDbLine
 10
-3.543299999999999
 20
-0.2516709916472145
 30
0.0
 11
-3.401567999999999
 21
-0.3334999999999988
 31
0.0
  0
LINE
  5
16A
330
12F
100
AcDbEntity
  8
AM_9
100
AcDbLine
 10
3.401567999999999
 20
-0.3334999999999988
 30
0.0
 11
-3.401567999999999
 21
-0.3334999999999988
 31
0.0
  0
LINE
  5
16B
330
12F
100
AcDbEntity
  8
AM_9
100
AcDbLine
 10
-3.401567999999999
 20
-0.5210000000000011
 30
0.0
 11
-3.5433
 21
-0.6028290083527853
 31
0.0
  0
LINE
  5
16C
330
12F
100
AcDbEntity
  8
AM_9
100
AcDbLine
 10
3.543299999999999
 20
-0.6028290083527853
 30
0.0
 11
3.401567999999999
 21
-0.5210000000000011
 31
0.0
  0
LINE
  5
16D
330
12F
100
AcDbEntity
  8
AM_9
100
AcDbLine
 10
3.401567999999999
 20
-0.5210000000000011
 30
0.0
 11
-3.401567999999999
 21
-0.5210000000000011
 31
0.0
  0
LINE
  5
16E
330
12F
100
AcDbEntity
  8
AM_9
100
AcDbLine
 10
-3.5433
 20
-0.6028290083527853
 30
0.0
 11
-3.5433
 21
-1.17725
 31
0.0
  0
LINE
  5
16F
330
12F
100
AcDbEntity
  8
AM_9
100
AcDbLine
 10
3.5433
 20
-1.17725
 30
0.0
 11
3.5433
 21
-0.6028290083527853
 31
0.0
  0
LINE
  5
170
330
12F
100
AcDbEntity
  8
AM_9
100
AcDbLine
 10
3.5433
 20
-0.6028290083527853
 30
0.0
 11
-3.5433
 21
-0.6028290083527853
 31
0.0
  0
LINE
  5
171
330
12F
100
AcDbEntity
  8
AM_9
100
AcDbLine
 10
3.5433
 20
-1.17725
 30
0.0
 11
-3.5433
 21
-1.17725
 31
0.0
  0
LINE
  5
172
330
12F
100
AcDbEntity
  8
AM_9
100
AcDbLine
 10
-3.5433
 20
0.32275
 30
0.0
 11
-3.5433
 21
-0.2516709916472145
 31
0.0
  0
LINE
  5
173
330
12F
100
AcDbEntity
  8
AM_9
100
AcDbLine
 10
3.5433
 20
-0.2516709916472145
 30
0.0
 11
3.5433
 21
0.32275
 31
0.0
  0
LINE
  5
174
330
12F
100
AcDbEntity
  8
AM_9
100
AcDbLine
 10
3.5433
 20
-0.2516709916472145
 30
0.0
 11
-3.5433
 21
-0.2516709916472145
 31
0.0
  0
LINE
  5
175
330
12F
100
AcDbEntity
  8
AM_9
100
AcDbLine
 10
3.3558
 20
0.5102500000000001
 30
0.0
 11
-3.3558
 21
0.5102500000000001
 31
0.0
  0
ARC
  5
176
330
12F
100
AcDbEntity
  8
AM_9
100
AcDbCircle
 10
-3.355799999999999
 20
0.3227499999999991
 30
0.0
 40
0.1875000000000009
100
AcDbArc
 50
90.0
 51
180.0
  0
ARC
  5
177
330
12F
100
AcDbEntity
  8
AM_9
100
AcDbCircle
 10
3.355799999999999
 20
0.3227499999999991
 30
0.0
 40
0.1875000000000009
100
AcDbArc
 50
0.0
 51
90.0
  0
LINE
  5
178
330
12F
100
AcDbEntity
  8
AM_9
100
AcDbLine
 10
3.5433
 20
0.32275
 30
0.0
 11
-3.5433
 21
0.32275
 31
0.0
  0
LINE
  5
179
330
12F
100
AcDbEntity
  8
AM_4
100
AcDbLine
 10
-2.25
 20
-1.911875
 30
0.0
 11
-2.25
 21
-2.255625
 31
0.0
  0
LINE
  5
17A
330
12F
100
AcDbEntity
  8
AM_4
100
AcDbLine
 10
2.25
 20
-2.255625
 30
0.0
 11
2.25
 21
-1.911875
 31
0.0
  0
LINE
  5
17B
330
12F
100
AcDbEntity
  8
AM_4
100
AcDbLine
 10
2.64714
 20
-1.911875
 30
0.0
 11
-2.64714
 21
-1.911875
 31
0.0
  0
ARC
  5
17C
330
12F
100
AcDbEntity
  8
AM_4
100
AcDbCircle
 10
-2.647139999999999
 20
-1.724374999999999
 30
0.0
 40
0.1875000000000004
100
AcDbArc
 50
180.0
 51
270.0
  0
ARC
  5
17D
330
12F
100
AcDbEntity
  8
AM_4
100
AcDbCircle
 10
2.647139999999999
 20
-1.724375
 30
0.0
 40
0.1875
100
AcDbArc
 50
270.0
 51
0.0
  0
LINE
  5
17E
330
12F
100
AcDbEntity
  8
AM_4
100
AcDbLine
 10
-2.834639999999999
 20
-1.5625
 30
0.0
 11
-2.834639999999999
 21
-1.724375
 31
0.0
  0
LINE
  5
17F
330
12F
100
AcDbEntity
  8
AM_4
100
AcDbLine
 10
2.834639999999999
 20
-1.724375
 30
0.0
 11
2.834639999999999
 21
-1.5625
 31
0.0
  0
LINE
  5
180
330
12F
100
AcDbEntity
  8
AM_4
100
AcDbLine
 10
2.834639999999999
 20
-1.724375
 30
0.0
 11
-2.834639999999999
 21
-1.724375
 31
0.0
  0
ENDBLK
  5
132
330
12F
100
AcDbEntity
  8
0
100
AcDbBlockEnd
  0
BLOCK
  5
183
330
181
100
AcDbEntity
  8
0
100
AcDbBlockBegin
  2
5_070841H_0_in_070841_4
 70
     2
 10
0.0
 20
0.0
 30
0.0
  3
5_070841H_0_in_070841_4
  1

  0
ATTDEF
  5
185
330
181
100
AcDbEntity
  8
AM_6
100
AcDbText
 10
10.5
 20
2.291666666666667
 30
0.0
 40
0.5
  1
TPHU-S2 -(Contact Seal)-Housing
100
AcDbAttributeDefinition
  3

  2
NN
 70
     8
280
     0
  0
ATTDEF
  5
186
330
181
100
AcDbEntity
  8
AM_6
100
AcDbText
 10
10.5
 20
1.791666666666667
 30
0.0
 40
0.5
  1
S-2000 TPHU Take-Up Bearing -Inch
100
AcDbAttributeDefinition
  3

  2
NT
 70
     8
280
     0
  0
ATTDEF
  5
187
330
181
100
AcDbEntity
  8
AM_6
100
AcDbText
 10
10.5
 20
1.291666666666667
 30
0.0
 40
0.5
  1
070841H
100
AcDbAttributeDefinition
  3

  2
NB
 70
     8
280
     0
  0
ATTDEF
  5
188
330
181
100
AcDbEntity
  8
AM_6
100
AcDbText
 10
10.5
 20
0.791666666666667
 30
0.0
 40
0.5
  1
$PN.H
100
AcDbAttributeDefinition
  3

  2
NBSYN
 70
     8
280
     0
  0
ATTDEF
  5
189
330
181
100
AcDbEntity
  8
AM_6
100
AcDbText
 10
10.5
 20
0.291666666666667
 30
0.0
 40
0.5
  1
070841
100
AcDbAttributeDefinition
  3

  2
LINA
 70
     8
280
     0
  0
ATTDEF
  5
18A
330
181
100
AcDbEntity
  8
AM_6
100
AcDbText
 10
10.5
 20
-0.208333333333333
 30
0.0
 40
0.5
  1
3-15/16
100
AcDbAttributeDefinition
  3

  2
SS
 70
     8
280
     0
  0
ATTDEF
  5
18B
330
181
100
AcDbEntity
  8
AM_6
100
AcDbText
 10
10.5
 20
-0.708333333333333
 30
0.0
 40
0.5
  1
7.0866
100
AcDbAttributeDefinition
  3

  2
BORE
 70
     8
280
     0
  0
ATTDEF
  5
18C
330
181
100
AcDbEntity
  8
AM_6
100
AcDbText
 10
10.5
 20
-1.208333333333333
 30
0.0
 40
0.5
  1
3.937500
100
AcDbAttributeDefinition
  3

  2
SS1
 70
     8
280
     0
  0
ATTDEF
  5
18D
330
181
100
AcDbEntity
  8
AM_6
100
AcDbText
 10
10.5
 20
-1.708333333333333
 30
0.0
 40
0.5
  1
070841
100
AcDbAttributeDefinition
  3

  2
PN
 70
     8
280
     0
  0
ATTDEF
  5
18E
330
181
100
AcDbEntity
  8
AM_6
100
AcDbText
 10
10.5
 20
-2.208333333333333
 30
0.0
 40
0.5
  1
TPHU-S2-315RE
100
AcDbAttributeDefinition
  3

  2
DESCRIPTION
 70
     8
280
     0
  0
ATTDEF
  5
18F
330
181
100
AcDbEntity
  8
AM_6
100
AcDbText
 10
10.5
 20
-2.708333333333333
 30
0.0
 40
0.5
  1
Expansion Type
100
AcDbAttributeDefinition
  3

  2
EF
 70
     8
280
     0
  0
ATTDEF
  5
190
330
181
100
AcDbEntity
  8
AM_6
100
AcDbText
 10
10.5
 20
-3.208333333333333
 30
0.0
 40
0.5
  1
2
100
AcDbAttributeDefinition
  3

  2
EF1
 70
     8
280
     0
  0
ATTDEF
  5
191
330
181
100
AcDbEntity
  8
AM_6
100
AcDbText
 10
10.5
 20
-3.708333333333333
 30
0.0
 40
0.5
  1
Contact Seal
100
AcDbAttributeDefinition
  3

  2
ST
 70
     8
280
     0
  0
ATTDEF
  5
192
330
181
100
AcDbEntity
  8
AM_6
100
AcDbText
 10
10.5
 20
-4.208333333333333
 30
0.0
 40
0.5
  1
1
100
AcDbAttributeDefinition
  3

  2
ST1
 70
     8
280
     0
  0
ATTDEF
  5
193
330
181
100
AcDbEntity
  8
AM_6
100
AcDbText
 10
10.5
 20
-4.708333333333333
 30
0.0
 40
0.5
  1
4-15/32
100
AcDbAttributeDefinition
  3

  2
A
 70
     8
280
     0
  0
ATTDEF
  5
194
330
181
100
AcDbEntity
  8
AM_6
100
AcDbText
 10
10.5
 20
-5.208333333333333
 30
0.0
 40
0.5
  1
4.4687500
100
AcDbAttributeDefinition
  3

  2
A1
 70
     8
280
     0
  0
ATTDEF
  5
195
330
181
100
AcDbEntity
  8
AM_6
100
AcDbText
 10
10.5
 20
-5.708333333333333
 30
0.0
 40
0.5
  1
3-1/8
100
AcDbAttributeDefinition
  3

  2
B
 70
     8
280
     0
  0
ATTDEF
  5
196
330
181
100
AcDbEntity
  8
AM_6
100
AcDbText
 10
10.5
 20
-6.208333333333333
 30
0.0
 40
0.5
  1
3.125000
100
AcDbAttributeDefinition
  3

  2
B1
 70
     8
280
     0
  0
ATTDEF
  5
197
330
181
100
AcDbEntity
  8
AM_6
100
AcDbText
 10
10.5
 20
-6.708333333333333
 30
0.0
 40
0.5
  1
13/16
100
AcDbAttributeDefinition
  3

  2
C
 70
     8
280
     0
  0
ATTDEF
  5
198
330
181
100
AcDbEntity
  8
AM_6
100
AcDbText
 10
10.5
 20
-7.208333333333333
 30
0.0
 40
0.5
  1
0.812500
100
AcDbAttributeDefinition
  3

  2
C1
 70
     8
280
     0
  0
ATTDEF
  5
199
330
181
100
AcDbEntity
  8
AM_6
100
AcDbText
 10
10.5
 20
-7.708333333333333
 30
0.0
 40
0.5
  1
9-1/4
100
AcDbAttributeDefinition
  3

  2
D
 70
     8
280
     0
  0
ATTDEF
  5
19A
330
181
100
AcDbEntity
  8
AM_6
100
AcDbText
 10
10.5
 20
-8.208333333333332
 30
0.0
 40
0.5
  1
9.250000
100
AcDbAttributeDefinition
  3

  2
D1
 70
     8
280
     0
  0
ATTDEF
  5
19B
330
181
100
AcDbEntity
  8
AM_6
100
AcDbText
 10
10.5
 20
-8.708333333333332
 30
0.0
 40
0.5
  1
4-9/16
100
AcDbAttributeDefinition
  3

  2
E
 70
     8
280
     0
  0
ATTDEF
  5
19C
330
181
100
AcDbEntity
  8
AM_6
100
AcDbText
 10
10.5
 20
-9.208333333333332
 30
0.0
 40
0.5
  1
4.562500
100
AcDbAttributeDefinition
  3

  2
E1
 70
     8
280
     0
  0
ATTDEF
  5
19D
330
181
100
AcDbEntity
  8
AM_6
100
AcDbText
 10
10.5
 20
-9.708333333333332
 30
0.0
 40
0.5
  1
1-9/16
100
AcDbAttributeDefinition
  3

  2
F
 70
     8
280
     0
  0
ATTDEF
  5
19E
330
181
100
AcDbEntity
  8
AM_6
100
AcDbText
 10
10.5
 20
-10.20833333333333
 30
0.0
 40
0.5
  1
1.562500
100
AcDbAttributeDefinition
  3

  2
F1
 70
     8
280
     0
  0
ATTDEF
  5
19F
330
181
100
AcDbEntity
  8
AM_6
100
AcDbText
 10
10.5
 20
-10.70833333333333
 30
0.0
 40
0.5
  1
11/16
100
AcDbAttributeDefinition
  3

  2
G
 70
     8
280
     0
  0
ATTDEF
  5
1A0
330
181
100
AcDbEntity
  8
AM_6
100
AcDbText
 10
10.5
 20
-11.20833333333333
 30
0.0
 40
0.5
  1
0.687500
100
AcDbAttributeDefinition
  3

  2
G1
 70
     8
280
     0
  0
ATTDEF
  5
1A1
330
181
100
AcDbEntity
  8
AM_6
100
AcDbText
 10
10.5
 20
-11.70833333333333
 30
0.0
 40
0.5
  1
11
100
AcDbAttributeDefinition
  3

  2
H
 70
     8
280
     0
  0
ATTDEF
  5
1A2
330
181
100
AcDbEntity
  8
AM_6
100
AcDbText
 10
10.5
 20
-12.20833333333333
 30
0.0
 40
0.5
  1
11.000000
100
AcDbAttributeDefinition
  3

  2
H1
 70
     8
280
     0
  0
ATTDEF
  5
1A3
330
181
100
AcDbEntity
  8
AM_6
100
AcDbText
 10
10.5
 20
-12.70833333333333
 30
0.0
 40
0.5
  1
11-1/2
100
AcDbAttributeDefinition
  3

  2
J
 70
     8
280
     0
  0
ATTDEF
  5
1A4
330
181
100
AcDbEntity
  8
AM_6
100
AcDbText
 10
10.5
 20
-13.20833333333333
 30
0.0
 40
0.5
  1
11.500000
100
AcDbAttributeDefinition
  3

  2
J1
 70
     8
280
     0
  0
ATTDEF
  5
1A5
330
181
100
AcDbEntity
  8
AM_6
100
AcDbText
 10
10.5
 20
-13.70833333333333
 30
0.0
 40
0.5
  1
5-1/2
100
AcDbAttributeDefinition
  3

  2
K
 70
     8
280
     0
  0
ATTDEF
  5
1A6
330
181
100
AcDbEntity
  8
AM_6
100
AcDbText
 10
10.5
 20
-14.20833333333333
 30
0.0
 40
0.5
  1
5.500000
100
AcDbAttributeDefinition
  3

  2
K1
 70
     8
280
     0
  0
ATTDEF
  5
1A7
330
181
100
AcDbEntity
  8
AM_6
100
AcDbText
 10
10.5
 20
-14.70833333333333
 30
0.0
 40
0.5
  1
6
100
AcDbAttributeDefinition
  3

  2
L
 70
     8
280
     0
  0
ATTDEF
  5
1A8
330
181
100
AcDbEntity
  8
AM_6
100
AcDbText
 10
10.5
 20
-15.20833333333333
 30
0.0
 40
0.5
  1
6.0000000
100
AcDbAttributeDefinition
  3

  2
L1
 70
     8
280
     0
  0
ATTDEF
  5
1A9
330
181
100
AcDbEntity
  8
AM_6
100
AcDbText
 10
10.5
 20
-15.70833333333333
 30
0.0
 40
0.5
  1
10-1/2
100
AcDbAttributeDefinition
  3

  2
M
 70
     8
280
     0
  0
ATTDEF
  5
1AA
330
181
100
AcDbEntity
  8
AM_6
100
AcDbText
 10
10.5
 20
-16.20833333333333
 30
0.0
 40
0.5
  1
10.500000
100
AcDbAttributeDefinition
  3

  2
M1
 70
     8
280
     0
  0
ATTDEF
  5
1AB
330
181
100
AcDbEntity
  8
AM_6
100
AcDbText
 10
10.5
 20
-16.70833333333333
 30
0.0
 40
0.5
  1
2-1/2
100
AcDbAttributeDefinition
  3

  2
N
 70
     8
280
     0
  0
ATTDEF
  5
1AC
330
181
100
AcDbEntity
  8
AM_6
100
AcDbText
 10
10.5
 20
-17.20833333333333
 30
0.0
 40
0.5
  1
2.500000
100
AcDbAttributeDefinition
  3

  2
N1
 70
     8
280
     0
  0
ATTDEF
  5
1AD
330
181
100
AcDbEntity
  8
AM_6
100
AcDbText
 10
10.5
 20
-17.70833333333333
 30
0.0
 40
0.5
  1
2-5/16
100
AcDbAttributeDefinition
  3

  2
P
 70
     8
280
     0
  0
ATTDEF
  5
1AE
330
181
100
AcDbEntity
  8
AM_6
100
AcDbText
 10
10.5
 20
-18.20833333333333
 30
0.0
 40
0.5
  1
2.312500
100
AcDbAttributeDefinition
  3

  2
P1
 70
     8
280
     0
  0
ATTDEF
  5
1AF
330
181
100
AcDbEntity
  8
AM_6
100
AcDbText
 10
10.5
 20
-18.70833333333333
 30
0.0
 40
0.5
  1
1-5/16
100
AcDbAttributeDefinition
  3

  2
Q
 70
     8
280
     0
  0
ATTDEF
  5
1B0
330
181
100
AcDbEntity
  8
AM_6
100
AcDbText
 10
10.5
 20
-19.20833333333333
 30
0.0
 40
0.5
  1
1.312500
100
AcDbAttributeDefinition
  3

  2
Q1
 70
     8
280
     0
  0
ATTDEF
  5
1B1
330
181
100
AcDbEntity
  8
AM_6
100
AcDbText
 10
10.5
 20
-19.70833333333333
 30
0.0
 40
0.5
  1
4-33/64
100
AcDbAttributeDefinition
  3

  2
R
 70
     8
280
     0
  0
ATTDEF
  5
1B2
330
181
100
AcDbEntity
  8
AM_6
100
AcDbText
 10
10.5
 20
-20.20833333333333
 30
0.0
 40
0.5
  1
4.515625
100
AcDbAttributeDefinition
  3

  2
R1
 70
     8
280
     0
  0
ATTDEF
  5
1B3
330
181
100
AcDbEntity
  8
AM_6
100
AcDbText
 10
10.5
 20
-20.70833333333333
 30
0.0
 40
0.5
  1
2-61/64
100
AcDbAttributeDefinition
  3

  2
S
 70
     8
280
     0
  0
ATTDEF
  5
1B4
330
181
100
AcDbEntity
  8
AM_6
100
AcDbText
 10
10.5
 20
-21.20833333333333
 30
0.0
 40
0.5
  1
2.953125
100
AcDbAttributeDefinition
  3

  2
S1
 70
     8
280
     0
  0
ATTDEF
  5
1B5
330
181
100
AcDbEntity
  8
AM_6
100
AcDbText
 10
10.5
 20
-21.70833333333333
 30
0.0
 40
0.5
  1
5/16
100
AcDbAttributeDefinition
  3

  2
T
 70
     8
280
     0
  0
ATTDEF
  5
1B6
330
181
100
AcDbEntity
  8
AM_6
100
AcDbText
 10
10.5
 20
-22.20833333333333
 30
0.0
 40
0.5
  1
0.312500
100
AcDbAttributeDefinition
  3

  2
T1
 70
     8
280
     0
  0
ATTDEF
  5
1B7
330
181
100
AcDbEntity
  8
AM_6
100
AcDbText
 10
10.5
 20
-22.70833333333333
 30
0.0
 40
0.5
  1
2
100
AcDbAttributeDefinition
  3

  2
U
 70
     8
280
     0
  0
ATTDEF
  5
1B8
330
181
100
AcDbEntity
  8
AM_6
100
AcDbText
 10
10.5
 20
-23.20833333333333
 30
0.0
 40
0.5
  1
2.000000
100
AcDbAttributeDefinition
  3

  2
U1
 70
     8
280
     0
  0
ATTDEF
  5
1B9
330
181
100
AcDbEntity
  8
AM_6
100
AcDbText
 10
10.5
 20
-23.70833333333333
 30
0.0
 40
0.5
  1
3-1/8
100
AcDbAttributeDefinition
  3

  2
V
 70
     8
280
     0
  0
ATTDEF
  5
1BA
330
181
100
AcDbEntity
  8
AM_6
100
AcDbText
 10
10.5
 20
-24.20833333333333
 30
0.0
 40
0.5
  1
3.125000
100
AcDbAttributeDefinition
  3

  2
V1
 70
     8
280
     0
  0
ATTDEF
  5
1BB
330
181
100
AcDbEntity
  8
AM_6
100
AcDbText
 10
10.5
 20
-24.70833333333333
 30
0.0
 40
0.5
  1
1-1/4
100
AcDbAttributeDefinition
  3

  2
W
 70
     8
280
     0
  0
ATTDEF
  5
1BC
330
181
100
AcDbEntity
  8
AM_6
100
AcDbText
 10
10.5
 20
-25.20833333333333
 30
0.0
 40
0.5
  1
1.250000
100
AcDbAttributeDefinition
  3

  2
W1
 70
     8
280
     0
  0
ATTDEF
  5
1BD
330
181
100
AcDbEntity
  8
AM_6
100
AcDbText
 10
10.5
 20
-25.70833333333333
 30
0.0
 40
0.5
  1
5/16
100
AcDbAttributeDefinition
  3

  2
X
 70
     8
280
     0
  0
ATTDEF
  5
1BE
330
181
100
AcDbEntity
  8
AM_6
100
AcDbText
 10
10.5
 20
-26.20833333333333
 30
0.0
 40
0.5
  1
0.312500
100
AcDbAttributeDefinition
  3

  2
X1
 70
     8
280
     0
  0
ATTDEF
  5
1BF
330
181
100
AcDbEntity
  8
AM_6
100
AcDbText
 10
10.5
 20
-26.70833333333333
 30
0.0
 40
0.5
  1
0.025
100
AcDbAttributeDefinition
  3

  2
Y
 70
     8
280
     0
  0
ATTDEF
  5
1C0
330
181
100
AcDbEntity
  8
AM_6
100
AcDbText
 10
10.5
 20
-27.20833333333333
 30
0.0
 40
0.5
  1
4-1/2
100
AcDbAttributeDefinition
  3

  2
Z
 70
     8
280
     0
  0
ATTDEF
  5
1C1
330
181
100
AcDbEntity
  8
AM_6
100
AcDbText
 10
10.5
 20
-27.70833333333333
 30
0.0
 40
0.5
  1
4.500000
100
AcDbAttributeDefinition
  3

  2
Z1
 70
     8
280
     0
  0
ATTDEF
  5
1C2
330
181
100
AcDbEntity
  8
AM_6
100
AcDbText
 10
10.5
 20
-28.20833333333333
 30
0.0
 40
0.5
  1
baldor
100
AcDbAttributeDefinition
  3

  2
COMPANY
 70
     8
280
     0
  0
LINE
  5
1C3
330
181
100
AcDbEntity
  8
AM_9
100
AcDbLine
 10
-3.1875
 20
0.8124999999999998
 30
0.0
 11
-5.500000000000001
 21
0.8124999999999998
 31
0.0
  0
LINE
  5
1C4
330
181
100
AcDbEntity
  8
AM_9
100
AcDbLine
 10
-3.1875
 20
-0.8125000000000003
 30
0.0
 11
-5.500000000000001
 21
-0.8125000000000003
 31
0.0
  0
LINE
  5
1C5
330
181
100
AcDbEntity
  8
AM_9
100
AcDbLine
 10
5.5
 20
0.8124999999999998
 30
0.0
 11
3.1875
 21
0.8124999999999998
 31
0.0
  0
LINE
  5
1C6
330
181
100
AcDbEntity
  8
AM_9
100
AcDbLine
 10
5.5
 20
-0.8125000000000003
 30
0.0
 11
3.1875
 21
-0.8125
 31
0.0
  0
LINE
  5
1C7
330
181
100
AcDbEntity
  8
AM_9
100
AcDbLine
 10
-3.1875
 20
0.8531249999999998
 30
0.0
 11
-3.1875
 21
-0.8531250000000004
 31
0.0
  0
LINE
  5
1C8
330
181
100
AcDbEntity
  8
AM_9
100
AcDbLine
 10
3.1875
 20
0.8531249999999998
 30
0.0
 11
-3.1875
 21
0.8531249999999998
 31
0.0
  0
LINE
  5
1C9
330
181
100
AcDbEntity
  8
AM_9
100
AcDbLine
 10
3.1875
 20
0.8531249999999998
 30
0.0
 11
3.1875
 21
-0.8531250000000004
 31
0.0
  0
LINE
  5
1CA
330
181
100
AcDbEntity
  8
AM_9
100
AcDbLine
 10
3.1875
 20
-0.8531250000000004
 30
0.0
 11
-3.1875
 21
-0.8531250000000004
 31
0.0
  0
LINE
  5
1CB
330
181
100
AcDbEntity
  8
AM_9
100
AcDbLine
 10
5.047369782109518
 20
-0.4971590991916292
 30
0.0
 11
2.789759594542203
 21
-0.4971590991916293
 31
0.0
  0
LINE
  5
1CC
330
181
100
AcDbEntity
  8
AM_9
100
AcDbLine
 10
-2.789759594542198
 20
-0.497159099191619
 30
0.0
 11
-5.047369782109524
 21
-0.4971590991916292
 31
0.0
  0
LINE
  5
1CD
330
181
100
AcDbEntity
  8
AM_9
100
AcDbLine
 10
5.047369780647292
 20
0.4971590909090905
 30
0.0
 11
2.789759597736972
 21
0.4971590909090551
 31
0.0
  0
LINE
  5
1CE
330
181
100
AcDbEntity
  8
AM_9
100
AcDbLine
 10
-2.789759597736984
 20
0.4971590909090906
 30
0.0
 11
-5.047369780647297
 21
0.4971590909090905
 31
0.0
  0
LWPOLYLINE
  5
1CF
330
181
100
AcDbEntity
  8
AM_9
100
AcDbPolyline
 90
        8
 70
     0
 43
0.0
 10
4.971989449243357
 20
-0.3906250000000002
 10
4.986275737547772
 20
-0.3933250206268152
 10
5.000306818821565
 20
-0.4013206992262816
 10
5.013679343581092
 20
-0.4146042458033445
 10
5.025873465621466
 20
-0.4329032186142657
 10
5.035798904458207
 20
-0.4545459959591746
 10
5.04370212175337
 20
-0.4798540826122359
 10
5.047369782109518
 20
-0.4971590991916287
  0
LWPOLYLINE
  5
1D0
330
181
100
AcDbEntity
  8
AM_9
100
AcDbPolyline
 90
        7
 70
     0
 43
0.0
 10
5.238197311528142
 20
-1.063549760481851
 10
5.20718060126767
 20
-1.005307607470456
 10
5.165609850575436
 20
-0.9144099792212589
 10
5.128693018286036
 20
-0.8172118183800975
 10
5.095692794915404
 20
-0.711185993672311
 10
5.067776098133264
 20
-0.5996983952744717
 10
5.047369782109518
 20
-0.4971590991916292
  0
LINE
  5
1D1
330
181
100
AcDbEntity
  8
AM_9
100
AcDbLine
 10
5.249590541469805
 20
-1.083251292418434
 30
0.0
 11
5.238197311528142
 21
-1.063549760481851
 31
0.0
  0
LINE
  5
1D2
330
181
100
AcDbEntity
  8
AM_9
100
AcDbLine
 10
5.238112224951395
 20
1.063399422021058
 30
0.0
 11
5.249542526536043
 21
1.083170010699077
 31
0.0
  0
LWPOLYLINE
  5
1D3
330
181
100
AcDbEntity
  8
AM_9
100
AcDbPolyline
 90
        7
 70
     0
 43
0.0
 10
5.047369780647292
 20
0.4971590909090905
 10
5.070493672272479
 20
0.6117368917902114
 10
5.098638566140753
 20
0.7216265507885696
 10
5.132887678551722
 20
0.8292126264718461
 10
5.172354189580608
 20
0.9303421549276172
 10
5.215497091539944
 20
1.021618130559179
 10
5.238112224951395
 20
1.063399422021058
  0
LWPOLYLINE
  5
1D4
330
181
100
AcDbEntity
  8
AM_9
100
AcDbPolyline
 90
        8
 70
     0
 43
0.0
 10
5.047369780647292
 20
0.4971590909090906
 10
5.042011704979883
 20
0.4734797156922904
 10
5.034870197455308
 20
0.452119953750543
 10
5.026286008036786
 20
0.4336709658200444
 10
5.016558015148139
 20
0.4182923645366067
 10
5.005041847132656
 20
0.4053399970634285
 10
4.992865045133519
 20
0.3963829125644042
 10
4.971989449243357
 20
0.3906249999999999
  0
LINE
  5
1D5
330
181
100
AcDbEntity
  8
AM_9
100
AcDbLine
 10
4.340394787601871
 20
0.3906249999999999
 30
0.0
 11
4.340475228361363
 21
-0.3906249999999999
 31
0.0
  0
LWPOLYLINE
  5
1D6
330
181
100
AcDbEntity
  8
AM_9
100
AcDbPolyline
 90
       13
 70
     0
 43
0.0
 10
4.37545136302499
 20
-0.3906249999999999
 10
4.380634115549073
 20
-0.348254654985918
 10
4.385484485908884
 20
-0.3003533369703311
 10
4.391046924153971
 20
-0.2297847520652735
 10
4.395368719583205
 20
-0.150411399951432
 10
4.397860185760151
 20
-0.0695487651333439
 10
4.398497198226587
 20
0.0157094879073307
 10
4.397209160587368
 20
0.0975224012128219
 10
4.394039589627119
 20
0.1788827845423243
 10
4.389403806224041
 20
0.2530414139007723
 10
4.383402561335325
 20
0.3220940775238276
 10
4.379514647570357
 20
0.3580908739907712
 10
4.37545136302499
 20
0.3906249999999999
  0
LINE
  5
1D7
330
181
100
AcDbEntity
  8
AM_9
100
AcDbLine
 10
4.340475228361363
 20
0.3906249999999999
 30
0.0
 11
4.340394844296061
 21
0.3624787279475357
 31
0.0
  0
LINE
  5
1D8
330
181
100
AcDbEntity
  8
AM_9
100
AcDbLine
 10
4.25
 20
-0.5000000000000001
 30
0.0
 11
4.4
 21
-0.5
 31
0.0
  0
LINE
  5
1D9
330
181
100
AcDbEntity
  8
AM_9
100
AcDbLine
 10
4.4
 20
0.5
 30
0.0
 11
4.25
 21
0.5
 31
0.0
  0
LINE
  5
1DA
330
181
100
AcDbEntity
  8
AM_9
100
AcDbLine
 10
4.4
 20
0.5
 30
0.0
 11
4.4
 21
-0.5
 31
0.0
  0
LINE
  5
1DB
330
181
100
AcDbEntity
  8
AM_9
100
AcDbLine
 10
4.45
 20
0.4499999999999995
 30
0.0
 11
4.45
 21
-0.4499999998789601
 31
0.0
  0
ARC
  5
1DC
330
181
100
AcDbEntity
  8
AM_9
100
AcDbCircle
 10
4.399999999999999
 20
-0.4499999999999993
 30
0.0
 40
0.0500000000000007
100
AcDbArc
 50
270.0
 51
0.0
  0
ARC
  5
1DD
330
181
100
AcDbEntity
  8
AM_9
100
AcDbCircle
 10
4.399999999999999
 20
0.4499999999999993
 30
0.0
 40
0.0500000000000007
100
AcDbArc
 50
0.0
 51
90.0
  0
LINE
  5
1DE
330
181
100
AcDbEntity
  8
AM_9
100
AcDbLine
 10
-5.238112224947464
 20
-1.063399422014114
 30
0.0
 11
-5.249542526451719
 21
-1.083170010556321
 31
0.0
  0
LWPOLYLINE
  5
1DF
330
181
100
AcDbEntity
  8
AM_9
100
AcDbPolyline
 90
        7
 70
     0
 43
0.0
 10
-5.047369782109524
 20
-0.4971590991916292
 10
-5.070493674130378
 20
-0.6117368999321134
 10
-5.098638568406797
 20
-0.7216265587196649
 10
-5.132887681250533
 20
-0.8292126341175807
 10
-5.172354192721006
 20
-0.9303421622225189
 10
-5.215497095112393
 20
-1.021618137455157
 10
-5.238112224947464
 20
-1.063399422014114
  0
LWPOLYLINE
  5
1E0
330
181
100
AcDbEntity
  8
AM_9
100
AcDbPolyline
 90
        8
 70
     0
 43
0.0
 10
-5.047369782109524
 20
-0.497159099191629
 10
-5.042011707209367
 20
-0.4734797236938951
 10
-5.034870200408853
 20
-0.4521199611917044
 10
-5.026286011642036
 20
-0.4336709724591289
 10
-5.016558019326757
 20
-0.4182923701688738
 10
-5.005041851875053
 20
-0.4053400014363515
 10
-4.992865050338575
 20
-0.3963829154628447
 10
-4.971989449243357
 20
-0.3906250000000002
  0
LWPOLYLINE
  5
1E1
330
181
100
AcDbEntity
  8
AM_9
100
AcDbPolyline
 90
        8
 70
     0
 43
0.0
 10
-4.971989449243361
 20
0.3906249999999999
 10
-4.986275737547775
 20
0.393325020626815
 10
-5.000306818821564
 20
0.4013206992262811
 10
-5.013679343581092
 20
0.4146042458033435
 10
-5.025873465621463
 20
0.4329032186142642
 10
-5.035798904458205
 20
0.454545995959173
 10
-5.043702121753367
 20
0.4798540826122341
 10
-5.047369780647291
 20
0.4971590909090912
  0
LWPOLYLINE
  5
1E2
330
181
100
AcDbEntity
  8
AM_9
100
AcDbPolyline
 90
        7
 70
     0
 43
0.0
 10
-5.238197311466212
 20
1.063549760372446
 10
-5.207180595914257
 20
1.005307596781526
 10
-5.165609845854786
 20
0.9144099679042524
 10
-5.128693014194003
 20
0.8172118065120924
 10
-5.095692791460232
 20
0.7111859813253503
 10
-5.067776095303084
 20
0.5996983825490738
 10
-5.047369780647297
 20
0.4971590909090905
  0
LINE
  5
1E3
330
181
100
AcDbEntity
  8
AM_9
100
AcDbLine
 10
-5.249590541679792
 20
1.083251292773881
 30
0.0
 11
-5.238197311466212
 21
1.063549760372446
 31
0.0
  0
LINE
  5
1E4
330
181
100
AcDbEntity
  8
AM_9
100
AcDbLine
 10
-4.340394787601869
 20
-0.3906249999999999
 30
0.0
 11
-4.340394787601869
 21
0.3906249999999999
 31
0.0
  0
LINE
  5
1E5
330
181
100
AcDbEntity
  8
AM_9
100
AcDbLine
 10
5.206009151507259
 20
-0.3906249999999997
 30
0.0
 11
5.206009151507259
 21
0.3906250000000001
 31
0.0
  0
LINE
  5
1E6
330
181
100
AcDbEntity
  8
AM_9
100
AcDbLine
 10
-5.206009151507261
 20
-0.3906250000000008
 30
0.0
 11
-5.206009151507261
 21
0.3906250000000001
 31
0.0
  0
LINE
  5
1E7
330
181
100
AcDbEntity
  8
AM_9
100
AcDbLine
 10
-2.968293093494794
 20
-0.5468749999999998
 30
0.0
 11
-5.25
 21
-0.5468749999999998
 31
0.0
  0
LINE
  5
1E8
330
181
100
AcDbEntity
  8
AM_9
100
AcDbLine
 10
-2.951386758757019
 20
-0.3906250000000002
 30
0.0
 11
-5.240436081133223
 21
-0.3906249999999999
 31
0.0
  0
LWPOLYLINE
  5
1E9
330
181
100
AcDbEntity
  8
AM_9
100
AcDbPolyline
 90
        4
 70
     0
 43
0.0
 10
-5.25
 20
-0.4107571034824868
 10
-5.249257326110298
 20
-0.4006959587716935
 10
-5.246757086566864
 20
-0.393898696420906
 10
-5.240436081133219
 20
-0.3906249999999999
  0
LINE
  5
1EA
330
181
100
AcDbEntity
  8
AM_9
100
AcDbLine
 10
5.25
 20
0.5468750000000001
 30
0.0
 11
2.968293093494793
 21
0.5468750000000001
 31
0.0
  0
LINE
  5
1EB
330
181
100
AcDbEntity
  8
AM_9
100
AcDbLine
 10
5.240436081133219
 20
0.3906250000000001
 30
0.0
 11
2.951386758757019
 21
0.3906249999999998
 31
0.0
  0
LWPOLYLINE
  5
1EC
330
181
100
AcDbEntity
  8
AM_9
100
AcDbPolyline
 90
        4
 70
     0
 43
0.0
 10
5.25
 20
0.4107571034824853
 10
5.249257326110298
 20
0.4006959587716934
 10
5.246757086566865
 20
0.3938986964209062
 10
5.240436081133219
 20
0.3906250000000002
  0
LINE
  5
1ED
330
181
100
AcDbEntity
  8
AM_9
100
AcDbLine
 10
5.25
 20
1.302083333333334
 30
0.0
 11
2.968293093494794
 21
1.302083333333334
 31
0.0
  0
LINE
  5
1EE
330
181
100
AcDbEntity
  8
AM_9
100
AcDbLine
 10
-2.968293093494794
 20
1.302083333333334
 30
0.0
 11
-5.25
 21
1.302083333333334
 31
0.0
  0
LINE
  5
1EF
330
181
100
AcDbEntity
  8
AM_9
100
AcDbLine
 10
-2.968293093494793
 20
0.5468750000000001
 30
0.0
 11
-5.25
 21
0.5468750000000001
 31
0.0
  0
LINE
  5
1F0
330
181
100
AcDbEntity
  8
AM_9
100
AcDbLine
 10
-2.951386758757019
 20
0.3906249999999998
 30
0.0
 11
-5.240436081133219
 21
0.3906250000000001
 31
0.0
  0
LWPOLYLINE
  5
1F1
330
181
100
AcDbEntity
  8
AM_9
100
AcDbPolyline
 90
        4
 70
     0
 43
0.0
 10
-5.240436081133223
 20
0.3906250000000002
 10
-5.245381679378562
 20
0.3923559636393746
 10
-5.248567464545171
 20
0.3978085822581194
 10
-5.25
 20
0.4107571034824866
  0
LINE
  5
1F2
330
181
100
AcDbEntity
  8
AM_9
100
AcDbLine
 10
5.25
 20
-1.302083333333333
 30
0.0
 11
2.968293093494793
 21
-1.302083333333333
 31
0.0
  0
LINE
  5
1F3
330
181
100
AcDbEntity
  8
AM_9
100
AcDbLine
 10
5.25
 20
-0.5468749999999998
 30
0.0
 11
2.968293093494793
 21
-0.5468749999999998
 31
0.0
  0
LINE
  5
1F4
330
181
100
AcDbEntity
  8
AM_9
100
AcDbLine
 10
5.240436081133219
 20
-0.3906249999999999
 30
0.0
 11
2.951386758757019
 21
-0.3906250000000002
 31
0.0
  0
LWPOLYLINE
  5
1F5
330
181
100
AcDbEntity
  8
AM_9
100
AcDbPolyline
 90
        4
 70
     0
 43
0.0
 10
5.240436081133219
 20
-0.3906249999999999
 10
5.245381679378562
 20
-0.3923559636393743
 10
5.248567464545171
 20
-0.397808582258119
 10
5.25
 20
-0.4107571034824857
  0
LINE
  5
1F6
330
181
100
AcDbEntity
  8
AM_9
100
AcDbLine
 10
-2.968293093494793
 20
-1.302083333333333
 30
0.0
 11
-5.25
 21
-1.302083333333333
 31
0.0
  0
LINE
  5
1F7
330
181
100
AcDbEntity
  8
AM_9
100
AcDbLine
 10
2.968293093494794
 20
-1.302083333333333
 30
0.0
 11
2.857662093195922
 21
-1.40625
 31
0.0
  0
LINE
  5
1F8
330
181
100
AcDbEntity
  8
AM_9
100
AcDbLine
 10
4.238524258586354
 20
-0.3906249999999999
 30
0.0
 11
4.249999999999956
 21
-0.4999999999996339
 31
0.0
  0
LWPOLYLINE
  5
1F9
330
181
100
AcDbEntity
  8
AM_9
100
AcDbPolyline
 90
        9
 70
     0
 43
0.0
 10
2.968293093494793
 20
-0.5468749999999998
 10
2.968780382934906
 20
-0.5346929562896353
 10
2.976000727389727
 20
-0.4989204231336721
 10
2.99110608315562
 20
-0.4662119940888614
 10
3.006733954174683
 20
-0.4447553656666917
 10
3.024530672841785
 20
-0.4270964119725874
 10
3.051079421780604
 20
-0.4088309091209962
 10
3.079114499832393
 20
-0.3969517444314546
 10
3.120395913938201
 20
-0.3906249999999997
  0
LINE
  5
1FA
330
181
100
AcDbEntity
  8
AM_9
100
AcDbLine
 10
2.968293093494793
 20
-0.5468749999999998
 30
0.0
 11
2.968293093494793
 21
-1.302083333333333
 31
0.0
  0
LWPOLYLINE
  5
1FB
330
181
100
AcDbEntity
  8
AM_9
100
AcDbPolyline
 90
       15
 70
     0
 43
0.0
 10
1.418126382529838
 20
-1.40625
 10
1.563774325617639
 20
-1.378517795264721
 10
1.706675908695569
 20
-1.3450650223123
 10
1.845967360623833
 20
-1.305043034395408
 10
1.980784910262635
 20
-1.257603184766711
 10
2.110264786472178
 20
-1.20189682667888
 10
2.217637170099588
 20
-1.14608951535222
 10
2.320238456073239
 20
-1.082405675353832
 10
2.41701839377993
 20
-1.010483964868236
 10
2.50692673260646
 20
-0.9299630420799574
 10
2.57479085681146
 20
-0.857289242689777
 10
2.637347799514447
 20
-0.7781730583087141
 10
2.693875888523223
 20
-0.6930331498664262
 10
2.743653451645585
 20
-0.6022881782925712
 10
2.789759594542202
 20
-0.4971590991916293
  0
LWPOLYLINE
  5
1FC
330
181
100
AcDbEntity
  8
AM_9
100
AcDbPolyline
 90
        8
 70
     0
 43
0.0
 10
2.951386758757019
 20
-0.3906250000000002
 10
2.919876608765601
 20
-0.3935517147317314
 10
2.881814453901806
 20
-0.405071128669554
 10
2.845559214667671
 20
-0.4257546042007363
 10
2.826674966503199
 20
-0.4417862117816569
 10
2.8096447266986
 20
-0.461278477622968
 10
2.798673992603195
 20
-0.4782166724747359
 10
2.789759594542203
 20
-0.4971590991916293
  0
LINE
  5
1FD
330
181
100
AcDbEntity
  8
AM_9
100
AcDbLine
 10
4.25
 20
-1.406249999999999
 30
0.0
 11
4.25
 21
-0.4984983962133983
 31
0.0
  0
LINE
  5
1FE
330
181
100
AcDbEntity
  8
AM_9
100
AcDbLine
 10
-2.857662093195921
 20
-1.40625
 30
0.0
 11
-2.968293093494794
 21
-1.302083333333333
 31
0.0
  0
LINE
  5
1FF
330
181
100
AcDbEntity
  8
AM_9
100
AcDbLine
 10
-2.968293093494793
 20
-1.302083333333333
 30
0.0
 11
-2.968293093494794
 21
-0.5468749999999998
 31
0.0
  0
LWPOLYLINE
  5
200
330
181
100
AcDbEntity
  8
AM_9
100
AcDbPolyline
 90
       10
 70
     0
 43
0.0
 10
-3.120395913938201
 20
-0.3906249999999997
 10
-3.108974096165762
 20
-0.3911101282138332
 10
-3.076858779663598
 20
-0.3976677443256363
 10
-3.045622283236189
 20
-0.4119607856456144
 10
-3.024048505455719
 20
-0.4275077606351989
 10
-3.004313638599058
 20
-0.4476222570499045
 10
-2.991570085009029
 20
-0.4654658417091944
 10
-2.980942360752928
 20
-0.4858831941231163
 10
-2.970098912934622
 20
-0.5234672317789387
 10
-2.968293093494794
 20
-0.5468749999999998
  0
LWPOLYLINE
  5
201
330
181
100
AcDbEntity
  8
AM_9
100
AcDbPolyline
 90
        7
 70
     0
 43
0.0
 10
-2.789759594542198
 20
-0.497159099191619
 10
-2.806771126637468
 20
-0.4652721379132748
 10
-2.824756641888481
 20
-0.4436965279354668
 10
-2.845001443221522
 20
-0.4261660321603167
 10
-2.876639236293917
 20
-0.4073816503151169
 10
-2.909827663027916
 20
-0.395718744633722
 10
-2.951386758757019
 20
-0.3906250000000002
  0
LWPOLYLINE
  5
202
330
181
100
AcDbEntity
  8
AM_9
100
AcDbPolyline
 90
       15
 70
     0
 43
0.0
 10
-2.789759594542202
 20
-0.4971590991916288
 10
-2.744308431423509
 20
-0.6006994898812607
 10
-2.690486145120598
 20
-0.6983519341310716
 10
-2.629169449809098
 20
-0.7893362430337995
 10
-2.561235059664634
 20
-0.8728722276821825
 10
-2.48774635337874
 20
-0.9484172569723386
 10
-2.408571041210871
 20
-1.017281932409989
 10
-2.324462782800151
 20
-1.079592972289678
 10
-2.2361752377857
 20
-1.135477094905949
 10
-2.112061916378848
 20
-1.201046249852205
 10
-1.981619902615234
 20
-1.257266245716123
 10
-1.84587543491721
 20
-1.305027670983796
 10
-1.705854751707126
 20
-1.345221114141315
 10
-1.562584091407334
 20
-1.378737163674771
 10
-1.418126382529838
 20
-1.40625
  0
LINE
  5
203
330
181
100
AcDbEntity
  8
AM_9
100
AcDbLine
 10
-4.25
 20
-0.3906249999999999
 30
0.0
 11
-4.25
 21
-1.406249999999999
 31
0.0
  0
LINE
  5
204
330
181
100
AcDbEntity
  8
AM_9
100
AcDbLine
 10
-2.968293093494795
 20
1.302083333333332
 30
0.0
 11
-2.857662093195921
 21
1.40625
 31
0.0
  0
LWPOLYLINE
  5
205
330
181
100
AcDbEntity
  8
AM_9
100
AcDbPolyline
 90
       15
 70
     0
 43
0.0
 10
-1.418126382529834
 20
1.40625
 10
-1.563774325617635
 20
1.378517795264721
 10
-1.706675908695565
 20
1.345065022312301
 10
-1.845967360623829
 20
1.305043034395408
 10
-1.980784910262631
 20
1.257603184766712
 10
-2.110264786472174
 20
1.201896826678881
 10
-2.217637170099584
 20
1.146089515352221
 10
-2.320238456073235
 20
1.082405675353833
 10
-2.417018393779927
 20
1.010483964868238
 10
-2.506926732606456
 20
0.9299630420799588
 10
-2.574997691948935
 20
0.8570474803579204
 10
-2.637726674620395
 20
0.7776474435911443
 10
-2.694385155996831
 20
0.6921870333621121
 10
-2.744244611454239
 20
0.6010903512533056
 10
-2.789759597736984
 20
0.4971590909090906
  0
LWPOLYLINE
  5
206
330
181
100
AcDbEntity
  8
AM_9
100
AcDbPolyline
 90
        8
 70
     0
 43
0.0
 10
-2.951386758757019
 20
0.3906249999999999
 10
-2.912239446157296
 20
0.3951359074664253
 10
-2.87378980577879
 20
0.4087438728053558
 10
-2.848264819138463
 20
0.4237991232035364
 10
-2.82458408132465
 20
0.4438726716684834
 10
-2.809810209627132
 20
0.4610611316544709
 10
-2.797137155679133
 20
0.4810230495569407
 10
-2.789759597736984
 20
0.4971590909090906
  0
LWPOLYLINE
  5
207
330
181
100
AcDbEntity
  8
AM_9
100
AcDbPolyline
 90
       10
 70
     0
 43
0.0
 10
-2.968293093494793
 20
0.5468750000000001
 10
-2.969276427552189
 20
0.5295818019245078
 10
-2.977535619588772
 20
0.4944788253009145
 10
-2.98684107467901
 20
0.4736837030237034
 10
-2.998403436258083
 20
0.4552587085015251
 10
-3.016857246131736
 20
0.4340456511418769
 10
-3.037371260166836
 20
0.4172689754092788
 10
-3.066679082728745
 20
0.4014029201294849
 10
-3.097104384616115
 20
0.392635718762167
 10
-3.120395913938201
 20
0.3906250000000002
  0
LINE
  5
208
330
181
100
AcDbEntity
  8
AM_9
100
AcDbLine
 10
-2.968293093494793
 20
0.5468750000000001
 30
0.0
 11
-2.968293093494794
 21
1.302083333333334
 31
0.0
  0
LINE
  5
209
330
181
100
AcDbEntity
  8
AM_9
100
AcDbLine
 10
-4.25
 20
1.40625
 30
0.0
 11
-4.25
 21
0.390625
 31
0.0
  0
LINE
  5
20A
330
181
100
AcDbEntity
  8
AM_9
100
AcDbLine
 10
2.857662093195922
 20
1.40625
 30
0.0
 11
2.968293093494794
 21
1.302083333333333
 31
0.0
  0
LWPOLYLINE
  5
20B
330
181
100
AcDbEntity
  8
AM_9
100
AcDbPolyline
 90
        9
 70
     0
 43
0.0
 10
2.789759597736972
 20
0.4971590909090551
 10
2.79224969316838
 20
0.4911132927104453
 10
2.803238586755605
 20
0.4705813981514759
 10
2.81654253672371
 20
0.4526303170580471
 10
2.838648868725883
 20
0.431091655398878
 10
2.862904293499839
 20
0.4144861079758578
 10
2.898538764839565
 20
0.3988790050686043
 10
2.935204534872457
 20
0.3913992336631539
 10
2.951386758757019
 20
0.3906249999999999
  0
LWPOLYLINE
  5
20C
330
181
100
AcDbEntity
  8
AM_9
100
AcDbPolyline
 90
       15
 70
     0
 43
0.0
 10
2.789759597736972
 20
0.4971590909090551
 10
2.747103533272534
 20
0.595149432177978
 10
2.69707526134062
 20
0.6877651525576948
 10
2.640395767241283
 20
0.7741954460885152
 10
2.568129819573208
 20
0.864942130626325
 10
2.488309619281994
 20
0.947733277632907
 10
2.401973620278267
 20
1.022530867663406
 10
2.310160276472653
 20
1.089296881272964
 10
2.198846902724996
 20
1.156612796058407
 10
2.081440863246911
 20
1.215247711836701
 10
1.958877297373031
 20
1.265914913269801
 10
1.832091344437988
 20
1.309327685019662
 10
1.702018143776415
 20
1.346199311748237
 10
1.561580881625509
 20
1.378951230623828
 10
1.418126382529834
 20
1.40625
  0
LINE
  5
20D
330
181
100
AcDbEntity
  8
AM_9
100
AcDbLine
 10
2.968293093494794
 20
1.302083333333334
 30
0.0
 11
2.968293093494793
 21
0.5468750000000001
 31
0.0
  0
LWPOLYLINE
  5
20E
330
181
100
AcDbEntity
  8
AM_9
100
AcDbPolyline
 90
       10
 70
     0
 43
0.0
 10
3.120395913938201
 20
0.3906250000000002
 10
3.087445359165104
 20
0.3946498963891614
 10
3.055065358770294
 20
0.4067271166604118
 10
3.031514006985442
 20
0.4214971306313283
 10
3.009738383667673
 20
0.4413644196721376
 10
2.995774930843692
 20
0.4589926625451798
 10
2.9838876020399
 20
0.4794491281278034
 10
2.976446137890121
 20
0.4976174403550199
 10
2.971200473361451
 20
0.517219942542309
 10
2.968293093494793
 20
0.5468750000000001
  0
LINE
  5
20F
330
181
100
AcDbEntity
  8
AM_9
100
AcDbLine
 10
4.25
 20
0.5
 30
0.0
 11
4.25
 21
1.40625
 31
0.0
  0
LINE
  5
210
330
181
100
AcDbEntity
  8
AM_9
100
AcDbLine
 10
4.25
 20
0.5
 30
0.0
 11
4.238524258586354
 21
0.390625
 31
0.0
  0
LWPOLYLINE
  5
211
330
181
100
AcDbEntity
  8
AM_9
100
AcDbPolyline
 90
       11
 70
     0
 43
0.0
 10
2.419717901372434
 20
-1.5625
 10
2.450666908566899
 20
-1.561508664049863
 10
2.491254841245733
 20
-1.557610108557989
 10
2.531540728950679
 20
-1.551269663390001
 10
2.611328015783204
 20
-1.532246556749443
 10
2.661885739389705
 20
-1.515816212626012
 10
2.710723669922185
 20
-1.496428908001582
 10
2.758099620754734
 20
-1.473729617037133
 10
2.802685239697993
 20
-1.447829318126584
 10
2.831331585287534
 20
-1.427940135796302
 10
2.857662093195922
 20
-1.406249999999999
  0
LWPOLYLINE
  5
212
330
181
100
AcDbEntity
  8
AM_9
100
AcDbPolyline
 90
        9
 70
     0
 43
0.0
 10
-2.857662093195922
 20
-1.406249999999999
 10
-2.804699790090716
 20
-1.446527541000016
 10
-2.742463129344255
 20
-1.481700282611297
 10
-2.694989933532168
 20
-1.503081560970375
 10
-2.644837231653094
 20
-1.521749509944693
 10
-2.591525018647486
 20
-1.537747195973554
 10
-2.535985719174923
 20
-1.550431421921406
 10
-2.463267351372693
 20
-1.560589472840888
 10
-2.419717901372434
 20
-1.5625
  0
LWPOLYLINE
  5
213
330
181
100
AcDbEntity
  8
AM_9
100
AcDbPolyline
 90
       19
 70
     0
 43
0.0
 10
1.418126382529838
 20
-1.40625
 10
1.293037401695761
 20
-1.425323798232886
 10
1.165517537762636
 20
-1.440840614568642
 10
1.0139946870436
 20
-1.455451243541118
 10
0.8609298091230557
 20
-1.466909512249783
 10
0.7057137411024322
 20
-1.475857883436877
 10
0.5496282429539544
 20
-1.482592818844191
 10
0.3902933084602788
 20
-1.487485738876459
 10
0.2305135649107013
 20
-1.490602861025351
 10
0.0697507942704979
 20
-1.492090856458959
 10
-0.0910889741179448
 20
-1.491983319287813
 10
-0.2575025970983219
 20
-1.490197102415294
 10
-0.4236062477866357
 20
-1.486613556791601
 10
-0.5900307168575092
 20
-1.481049476708471
 10
-0.7556740535469904
 20
-1.47323774042909
 10
-0.9234772591825398
 20
-1.46258393074865
 10
-1.089737238567892
 20
-1.448598578592886
 10
-1.25557125294619
 20
-1.430286991845509
 10
-1.418126382529838
 20
-1.40625
  0
LINE
  5
214
330
181
100
AcDbEntity
  8
AM_9
100
AcDbLine
 10
1.418126382529838
 20
-1.40625
 30
0.0
 11
4.25
 21
-1.406249999999999
 31
0.0
  0
ARC
  5
215
330
181
100
AcDbEntity
  8
AM_9
100
AcDbCircle
 10
4.093749999999996
 20
-1.406249999999997
 30
0.0
 40
0.1562500000000027
100
AcDbArc
 50
270.0
 51
0.0
  0
ARC
  5
216
330
181
100
AcDbEntity
  8
AM_9
100
AcDbCircle
 10
-4.093749999999996
 20
-1.406249999999997
 30
0.0
 40
0.1562500000000036
100
AcDbArc
 50
180.0
 51
270.0
  0
LINE
  5
217
330
181
100
AcDbEntity
  8
AM_9
100
AcDbLine
 10
-4.25
 20
-1.406249999999999
 30
0.0
 11
-1.418126382529838
 21
-1.40625
 31
0.0
  0
LWPOLYLINE
  5
218
330
181
100
AcDbEntity
  8
AM_9
100
AcDbPolyline
 90
       19
 70
     0
 43
0.0
 10
-1.418126382529834
 20
1.40625
 10
-1.293037401695757
 20
1.425323798232886
 10
-1.165517537762631
 20
1.440840614568643
 10
-1.013994687043595
 20
1.455451243541118
 10
-0.8609298091230496
 20
1.466909512249783
 10
-0.7057137411024259
 20
1.475857883436877
 10
-0.549628242953948
 20
1.482592818844191
 10
-0.3902933084602719
 20
1.487485738876458
 10
-0.230513564910694
 20
1.490602861025351
 10
-0.0697507942704902
 20
1.492090856458958
 10
0.0910889741179528
 20
1.491983319287812
 10
0.2575025970983283
 20
1.490197102415294
 10
0.4236062477866406
 20
1.4866135567916
 10
0.5900307168575125
 20
1.48104947670847
 10
0.7556740535469921
 20
1.47323774042909
 10
0.9234772591825401
 20
1.46258393074865
 10
1.089737238567891
 20
1.448598578592885
 10
1.255571252946187
 20
1.430286991845509
 10
1.418126382529834
 20
1.40625
  0
LWPOLYLINE
  5
219
330
181
100
AcDbEntity
  8
AM_9
100
AcDbPolyline
 90
       11
 70
     0
 43
0.0
 10
-2.419717901372435
 20
1.562500000000001
 10
-2.450666908566875
 20
1.561508664049865
 10
-2.491254841245705
 20
1.557610108557994
 10
-2.531540728950648
 20
1.551269663390008
 10
-2.611328015783167
 20
1.532246556749454
 10
-2.661885739389673
 20
1.515816212626025
 10
-2.710723669922157
 20
1.496428908001595
 10
-2.758099620754712
 20
1.473729617037146
 10
-2.802685239697975
 20
1.447829318126596
 10
-2.831331585287526
 20
1.427940135796309
 10
-2.85766209319592
 20
1.40625
  0
LWPOLYLINE
  5
21A
330
181
100
AcDbEntity
  8
AM_9
100
AcDbPolyline
 90
        9
 70
     0
 43
0.0
 10
2.85766209319592
 20
1.40625
 10
2.804699790090716
 20
1.446527541000017
 10
2.742463129344255
 20
1.481700282611299
 10
2.69482530888892
 20
1.503154126876847
 10
2.644837231653094
 20
1.521749509944694
 10
2.591311963582977
 20
1.537812698654285
 10
2.535985719174922
 20
1.550431421921407
 10
2.463267351372692
 20
1.560589472840889
 10
2.419717901372435
 20
1.562500000000001
  0
LINE
  5
21B
330
181
100
AcDbEntity
  8
AM_9
100
AcDbLine
 10
1.418126382529834
 20
1.40625
 30
0.0
 11
4.25
 21
1.40625
 31
0.0
  0
ARC
  5
21C
330
181
100
AcDbEntity
  8
AM_9
100
AcDbCircle
 10
4.093749999999996
 20
1.406249999999998
 30
0.0
 40
0.1562500000000036
100
AcDbArc
 50
0.0
 51
90.0
  0
ARC
  5
21D
330
181
100
AcDbEntity
  8
AM_9
100
AcDbCircle
 10
-4.093749999999996
 20
1.406249999999998
 30
0.0
 40
0.1562500000000027
100
AcDbArc
 50
90.0
 51
180.0
  0
LINE
  5
21E
330
181
100
AcDbEntity
  8
AM_9
100
AcDbLine
 10
-4.25
 20
1.40625
 30
0.0
 11
-1.418126382529834
 21
1.40625
 31
0.0
  0
LINE
  5
21F
330
181
100
AcDbEntity
  8
AM_9
100
AcDbLine
 10
3.5433
 20
-1.5625
 30
0.0
 11
3.5433
 21
1.5625
 31
0.0
  0
LINE
  5
220
330
181
100
AcDbEntity
  8
AM_9
100
AcDbLine
 10
-3.5433
 20
1.5625
 30
0.0
 11
-3.5433
 21
-1.5625
 31
0.0
  0
LINE
  5
221
330
181
100
AcDbEntity
  8
AM_7
100
AcDbLine
 10
-0.2225
 20
0.0
 30
0.0
 11
5.0121875
 21
0.0
 31
0.0
  0
LINE
  5
222
330
181
100
AcDbEntity
  8
AM_7
100
AcDbLine
 10
0.0
 20
2.291666666666667
 30
0.0
 11
0.0
 21
-3.48984375
 31
0.0
  0
LWPOLYLINE
  5
223
330
181
100
AcDbEntity
  8
AM_4
100
AcDbPolyline
 90
       18
 70
     0
 43
0.0
 10
5.5
 20
0.4867709871548517
 10
5.498253099689887
 20
0.4392026702666012
 10
5.493687860550297
 20
0.3895291465816496
 10
5.487083194150972
 20
0.3366620237117045
 10
5.479469499653693
 20
0.2821234932021786
 10
5.471523243126313
 20
0.2244270387795283
 10
5.464353252011318
 20
0.1653874649352372
 10
5.458688797562433
 20
0.1037171383085449
 10
5.455391482113841
 20
0.0412723189278904
 10
5.454979293754812
 20
-0.0231941312753477
 10
5.457563516494608
 20
-0.0874672750271982
 10
5.463070412908642
 20
-0.1531481048522306
 10
5.470628320103
 20
-0.2176226096834056
 10
5.478492123435021
 20
-0.275179484272432
 10
5.486341729682543
 20
-0.331218058845296
 10
5.493381470289656
 20
-0.3867785899326666
 10
5.498322096854663
 20
-0.4402531393782579
 10
5.5
 20
-0.4867709871548531
  0
LINE
  5
224
330
181
100
AcDbEntity
  8
AM_4
100
AcDbLine
 10
5.5
 20
0.4867709871548517
 30
0.0
 11
5.5
 21
1.5625
 31
0.0
  0
LINE
  5
225
330
181
100
AcDbEntity
  8
AM_4
100
AcDbLine
 10
5.5
 20
-1.5625
 30
0.0
 11
5.5
 21
-0.4867709871548533
 31
0.0
  0
LWPOLYLINE
  5
226
330
181
100
AcDbEntity
  8
AM_4
100
AcDbPolyline
 90
       18
 70
     0
 43
0.0
 10
-5.5
 20
-0.486770987154854
 10
-5.498253099689887
 20
-0.4392026702666025
 10
-5.493687860550295
 20
-0.3895291465816498
 10
-5.487083194150971
 20
-0.336662023711704
 10
-5.479469499653691
 20
-0.2821234932021771
 10
-5.471523243126312
 20
-0.2244270387795259
 10
-5.464353252011318
 20
-0.1653874649352338
 10
-5.458688797562431
 20
-0.1037171383085407
 10
-5.455391482113838
 20
-0.0412723189278855
 10
-5.45497929375481
 20
0.0231941312753528
 10
-5.457563516494607
 20
0.0874672750272033
 10
-5.463070412908642
 20
0.1531481048522358
 10
-5.470628320103
 20
0.2176226096834107
 10
-5.478492123435021
 20
0.2751794842724368
 10
-5.486341729682543
 20
0.3312180588453005
 10
-5.493381470289656
 20
0.3867785899326707
 10
-5.498322096854663
 20
0.4402531393782617
 10
-5.5
 20
0.4867709871548526
  0
LINE
  5
227
330
181
100
AcDbEntity
  8
AM_4
100
AcDbLine
 10
-5.500000000000001
 20
-1.5625
 30
0.0
 11
-5.5
 21
-0.486770987154854
 31
0.0
  0
LINE
  5
228
330
181
100
AcDbEntity
  8
AM_4
100
AcDbLine
 10
-5.500000000000001
 20
0.4867709871548532
 30
0.0
 11
-5.500000000000001
 21
1.5625
 31
0.0
  0
LWPOLYLINE
  5
229
330
181
100
AcDbEntity
  8
AM_4
100
AcDbPolyline
 90
        5
 70
     0
 43
0.0
 10
-5.5
 20
-1.420632251476684
 10
-5.494635045344462
 20
-1.392786696529181
 10
-5.478378622924906
 20
-1.362549540501734
 10
-5.463145023085199
 20
-1.343489028700809
 10
-5.443918508255354
 20
-1.324343826393466
  0
LINE
  5
22A
330
181
100
AcDbEntity
  8
AM_4
100
AcDbLine
 10
5.5
 20
-1.5625
 30
0.0
 11
-5.500000000000001
 21
-1.5625
 31
0.0
  0
LWPOLYLINE
  5
22B
330
181
100
AcDbEntity
  8
AM_4
100
AcDbPolyline
 90
        5
 70
     0
 43
0.0
 10
5.443918517034842
 20
-1.324343834284347
 10
5.472525375775351
 20
-1.354648610498694
 10
5.491708292714747
 20
-1.385655936138076
 10
5.497876598371696
 20
-1.403408532396965
 10
5.5
 20
-1.420632251476684
  0
LWPOLYLINE
  5
22C
330
181
100
AcDbEntity
  8
AM_4
100
AcDbPolyline
 90
        5
 70
     0
 43
0.0
 10
5.5
 20
1.420632251476682
 10
5.494635045344463
 20
1.39278669652918
 10
5.478378622924907
 20
1.362549540501734
 10
5.463145026629747
 20
1.343489032641447
 10
5.443918517034842
 20
1.324343834284346
  0
LINE
  5
22D
330
181
100
AcDbEntity
  8
AM_4
100
AcDbLine
 10
5.5
 20
1.5625
 30
0.0
 11
-5.500000000000001
 21
1.5625
 31
0.0
  0
LWPOLYLINE
  5
22E
330
181
100
AcDbEntity
  8
AM_4
100
AcDbPolyline
 90
        5
 70
     0
 43
0.0
 10
-5.443918508255354
 20
1.324343826393464
 10
-5.472525369568324
 20
1.354648602561771
 10
-5.4917082892655
 20
1.385655928491832
 10
-5.497876597472674
 20
1.403408528641532
 10
-5.5
 20
1.420632251476683
  0
LWPOLYLINE
  5
22F
330
181
100
AcDbEntity
  8
AM_4
100
AcDbPolyline
 90
        5
 70
     0
 43
0.0
 10
5.443918517034842
 20
-1.324343834284347
 10
5.37804371608091
 20
-1.258767819342976
 10
5.316878855826566
 20
-1.184537993672241
 10
5.259278660013965
 20
-1.099340099271799
 10
5.249590541469805
 20
-1.083251292418434
  0
LINE
  5
230
330
181
100
AcDbEntity
  8
AM_4
100
AcDbLine
 10
5.443918517034842
 20
-1.324343834284347
 30
0.0
 11
5.443918517034842
 21
1.324343834284344
 31
0.0
  0
LWPOLYLINE
  5
231
330
181
100
AcDbEntity
  8
AM_4
100
AcDbPolyline
 90
        5
 70
     0
 43
0.0
 10
5.249542526536043
 20
1.083170010699077
 10
5.263307787836792
 20
1.105895364235964
 10
5.317030901947421
 20
1.184728043320659
 10
5.375285372680197
 20
1.25573490092173
 10
5.443918517034842
 20
1.324343834284344
  0
LWPOLYLINE
  5
232
330
181
100
AcDbEntity
  8
AM_4
100
AcDbPolyline
 90
        5
 70
     0
 43
0.0
 10
-5.249542526451719
 20
-1.083170010556321
 10
-5.263307791843301
 20
-1.105895370686137
 10
-5.317030906395033
 20
-1.184728049269673
 10
-5.375285377564139
 20
-1.255734906338781
 10
-5.443918508255353
 20
-1.324343826393464
  0
LWPOLYLINE
  5
233
330
181
100
AcDbEntity
  8
AM_4
100
AcDbPolyline
 90
        5
 70
     0
 43
0.0
 10
-5.443918508255354
 20
1.324343826393464
 10
-5.378043708162253
 20
1.25876781063524
 10
-5.316878848763594
 20
1.184537984220394
 10
-5.259278653815818
 20
1.099340089146646
 10
-5.249590541679792
 20
1.083251292773881
  0
LINE
  5
234
330
181
100
AcDbEntity
  8
AM_4
100
AcDbLine
 10
-5.443918508255353
 20
-1.324343826393464
 30
0.0
 11
-5.443918508255354
 21
1.324343826393464
 31
0.0
  0
LINE
  5
235
330
181
100
AcDbEntity
  8
AM_4
100
AcDbLine
 10
-2.78125
 20
-1.5625
 30
0.0
 11
-2.78125
 21
-0.3952847075210464
 31
0.0
  0
LINE
  5
236
330
181
100
AcDbEntity
  8
AM_4
100
AcDbLine
 10
-2.78125
 20
0.3952847075210471
 30
0.0
 11
-2.78125
 21
1.562499999999999
 31
0.0
  0
LINE
  5
237
330
181
100
AcDbEntity
  8
AM_4
100
AcDbLine
 10
2.78125
 20
-1.5625
 30
0.0
 11
2.78125
 21
-0.3952847075210466
 31
0.0
  0
LINE
  5
238
330
181
100
AcDbEntity
  8
AM_4
100
AcDbLine
 10
2.78125
 20
0.3952847075210471
 30
0.0
 11
2.78125
 21
1.562499999999999
 31
0.0
  0
LWPOLYLINE
  5
239
330
181
100
AcDbEntity
  8
AM_4
100
AcDbPolyline
 90
       10
 70
     0
 43
0.0
 10
-2.78125
 20
-0.3952847075210474
 10
-2.813136843116705
 20
-0.3999231023226002
 10
-2.831630188618532
 20
-0.4069072397651028
 10
-2.848535104148328
 20
-0.4161144866208927
 10
-2.871279350951025
 20
-0.4330479538247931
 10
-2.890472886491069
 20
-0.4520499072913915
 10
-2.91209115350293
 20
-0.4805117040360287
 10
-2.927348183989939
 20
-0.509444470123928
 10
-2.93486591536528
 20
-0.5325398646274709
 10
-2.9375
 20
-0.5546324796655883
  0
LINE
  5
23A
330
181
100
AcDbEntity
  8
AM_4
100
AcDbLine
 10
2.78125
 20
-0.3952847075210466
 30
0.0
 11
-2.78125
 21
-0.3952847075210464
 31
0.0
  0
LWPOLYLINE
  5
23B
330
181
100
AcDbEntity
  8
AM_4
100
AcDbPolyline
 90
        9
 70
     0
 43
0.0
 10
2.9375
 20
-0.5546324796655886
 10
2.934339685375475
 20
-0.5303260601560058
 10
2.92535592960927
 20
-0.5048750244888269
 10
2.910175863395604
 20
-0.4775694357673741
 10
2.889347821520838
 20
-0.4507992431756448
 10
2.871600607494114
 20
-0.4333331137576035
 10
2.850845631482182
 20
-0.417591045299688
 10
2.816607940786453
 20
-0.4009904928581646
 10
2.78125
 20
-0.3952847075210466
  0
LWPOLYLINE
  5
23C
330
181
100
AcDbEntity
  8
AM_4
100
AcDbPolyline
 90
       10
 70
     0
 43
0.0
 10
2.78125
 20
0.3952847075210471
 10
2.813136843116705
 20
0.3999231023225999
 10
2.83163018861853
 20
0.4069072397651022
 10
2.848535104148326
 20
0.4161144866208918
 10
2.871279350951022
 20
0.4330479538247916
 10
2.890472886491068
 20
0.4520499072913892
 10
2.912091153502929
 20
0.4805117040360266
 10
2.927348183989938
 20
0.5094444701239261
 10
2.934865915365281
 20
0.5325398646274705
 10
2.9375
 20
0.554632479665589
  0
LINE
  5
23D
330
181
100
AcDbEntity
  8
AM_4
100
AcDbLine
 10
-2.78125
 20
0.3952847075210471
 30
0.0
 11
2.78125
 21
0.3952847075210471
 31
0.0
  0
LWPOLYLINE
  5
23E
330
181
100
AcDbEntity
  8
AM_4
100
AcDbPolyline
 90
        9
 70
     0
 43
0.0
 10
-2.9375
 20
0.5546324796655887
 10
-2.934339685375474
 20
0.5303260601560059
 10
-2.925355929609268
 20
0.5048750244888272
 10
-2.910175863395602
 20
0.4775694357673742
 10
-2.889347821520837
 20
0.4507992431756448
 10
-2.871600607494114
 20
0.4333331137576036
 10
-2.85084563148218
 20
0.4175910452996882
 10
-2.816607940786452
 20
0.4009904928581654
 10
-2.78125
 20
0.395284707521048
  0
LINE
  5
23F
330
181
100
AcDbEntity
  8
AM_4
100
AcDbLine
 10
3.9375
 20
0.6875000000000003
 30
0.0
 11
2.9375
 21
0.6875000000000003
 31
0.0
  0
LINE
  5
240
330
181
100
AcDbEntity
  8
AM_4
100
AcDbLine
 10
-2.9375
 20
-0.6874999999999996
 30
0.0
 11
-3.9375
 21
-0.6874999999999996
 31
0.0
  0
LINE
  5
241
330
181
100
AcDbEntity
  8
AM_4
100
AcDbLine
 10
3.9375
 20
-0.6874999999999996
 30
0.0
 11
2.9375
 21
-0.6874999999999996
 31
0.0
  0
LINE
  5
242
330
181
100
AcDbEntity
  8
AM_4
100
AcDbLine
 10
-2.9375
 20
0.6875000000000003
 30
0.0
 11
-3.9375
 21
0.6875000000000003
 31
0.0
  0
LINE
  5
243
330
181
100
AcDbEntity
  8
AM_4
100
AcDbLine
 10
-2.9375
 20
-0.5546324796655882
 30
0.0
 11
-2.937500000000001
 21
-1.5625
 31
0.0
  0
LINE
  5
244
330
181
100
AcDbEntity
  8
AM_4
100
AcDbLine
 10
2.9375
 20
0.5546324796655893
 30
0.0
 11
2.9375
 21
1.5625
 31
0.0
  0
LINE
  5
245
330
181
100
AcDbEntity
  8
AM_4
100
AcDbLine
 10
-5.25
 20
-1.5625
 30
0.0
 11
-5.25
 21
1.5625
 31
0.0
  0
LINE
  5
246
330
181
100
AcDbEntity
  8
AM_4
100
AcDbLine
 10
-2.937500000000001
 20
1.5625
 30
0.0
 11
-2.9375
 21
0.5546324796655887
 31
0.0
  0
LINE
  5
247
330
181
100
AcDbEntity
  8
AM_4
100
AcDbLine
 10
3.9375
 20
0.7812500000000002
 30
0.0
 11
2.9375
 21
0.7812500000000002
 31
0.0
  0
LINE
  5
248
330
181
100
AcDbEntity
  8
AM_4
100
AcDbLine
 10
3.9375
 20
1.0625
 30
0.0
 11
5.25
 21
1.0625
 31
0.0
  0
LINE
  5
249
330
181
100
AcDbEntity
  8
AM_4
100
AcDbLine
 10
5.25
 20
1.116071428571429
 30
0.0
 11
2.9375
 21
1.116071428571428
 31
0.0
  0
LINE
  5
24A
330
181
100
AcDbEntity
  8
AM_4
100
AcDbLine
 10
2.9375
 20
-0.7812499999999997
 30
0.0
 11
3.9375
 21
-0.7812499999999997
 31
0.0
  0
LINE
  5
24B
330
181
100
AcDbEntity
  8
AM_4
100
AcDbLine
 10
3.9375
 20
1.0625
 30
0.0
 11
3.9375
 21
-1.0625
 31
0.0
  0
LINE
  5
24C
330
181
100
AcDbEntity
  8
AM_4
100
AcDbLine
 10
5.25
 20
-1.0625
 30
0.0
 11
3.9375
 21
-1.0625
 31
0.0
  0
LINE
  5
24D
330
181
100
AcDbEntity
  8
AM_4
100
AcDbLine
 10
2.9375
 20
-1.5625
 30
0.0
 11
2.9375
 21
-0.5546324796655885
 31
0.0
  0
LINE
  5
24E
330
181
100
AcDbEntity
  8
AM_4
100
AcDbLine
 10
5.25
 20
1.5625
 30
0.0
 11
5.25
 21
-1.5625
 31
0.0
  0
LINE
  5
24F
330
181
100
AcDbEntity
  8
AM_4
100
AcDbLine
 10
5.25
 20
-1.116071428571428
 30
0.0
 11
2.9375
 21
-1.116071428571428
 31
0.0
  0
LINE
  5
250
330
181
100
AcDbEntity
  8
AM_4
100
AcDbLine
 10
-3.9375
 20
1.0625
 30
0.0
 11
-5.25
 21
1.0625
 31
0.0
  0
LINE
  5
251
330
181
100
AcDbEntity
  8
AM_4
100
AcDbLine
 10
-3.9375
 20
1.0625
 30
0.0
 11
-3.9375
 21
-1.0625
 31
0.0
  0
LINE
  5
252
330
181
100
AcDbEntity
  8
AM_4
100
AcDbLine
 10
-2.9375
 20
0.7812500000000002
 30
0.0
 11
-3.9375
 21
0.7812500000000004
 31
0.0
  0
LINE
  5
253
330
181
100
AcDbEntity
  8
AM_4
100
AcDbLine
 10
-2.9375
 20
1.116071428571428
 30
0.0
 11
-5.25
 21
1.116071428571429
 31
0.0
  0
LINE
  5
254
330
181
100
AcDbEntity
  8
AM_4
100
AcDbLine
 10
-5.25
 20
-1.0625
 30
0.0
 11
-3.9375
 21
-1.0625
 31
0.0
  0
LINE
  5
255
330
181
100
AcDbEntity
  8
AM_4
100
AcDbLine
 10
-2.937500000000001
 20
-1.116071428571428
 30
0.0
 11
-5.25
 21
-1.116071428571428
 31
0.0
  0
LINE
  5
256
330
181
100
AcDbEntity
  8
AM_4
100
AcDbLine
 10
-3.9375
 20
-0.7812499999999997
 30
0.0
 11
-2.9375
 21
-0.7812499999999997
 31
0.0
  0
ENDBLK
  5
184
330
181
100
AcDbEntity
  8
0
100
AcDbBlockEnd
  0
ENDSEC
  0
SECTION
  2
ENTITIES
  0
INSERT
  5
6F
330
1F
100
AcDbEntity
  8
0
100
AcDbBlockReference
  2
1_070841_4
 10
0.0
 20
0.0
 30
0.0
  0
POINT
  5
258
330
1F
100
AcDbEntity
  8
ConnectionPoints
100
AcDbPoint
 10
0.0
 20
-3.265625
 30
0.0000000000000002
  0
POINT
  5
259
330
1F
100
AcDbEntity
  8
ConnectionPoints
100
AcDbPoint
 10
0.0
 20
-3.265625
 30
0.0000000000000002
  0
POINT
  5
25A
330
1F
100
AcDbEntity
  8
ConnectionPoints
100
AcDbPoint
 10
0.0
 20
2.411125
 30
-0.0000000000000001
  0
POINT
  5
25B
330
1F
100
AcDbEntity
  8
ConnectionPoints
100
AcDbPoint
 10
0.0
 20
-3.265625
 30
0.0000000000000002
  0
POINT
  5
25C
330
1F
100
AcDbEntity
  8
ConnectionPoints
100
AcDbPoint
 10
4.45
 20
0.0
 30
0.0
  0
POINT
  5
25D
330
1F
100
AcDbEntity
  8
ConnectionPoints
100
AcDbPoint
 10
0.0
 20
-3.265625
 30
0.0000000000000002
  0
POINT
  5
25E
330
1F
100
AcDbEntity
  8
ConnectionPoints
100
AcDbPoint
 10
0.0
 20
-2.953125
 30
0.0000000000000002
  0
ENDSEC
  0
SECTION
  2
OBJECTS
  0
DICTIONARY
  5
C
330
0
100
AcDbDictionary
281
     1
  3
ACAD_DETAILVIEWSTYLE
350
266
  3
ACAD_GROUP
350
D
  3
ACAD_LAYOUT
350
1A
  3
ACAD_MATERIAL
350
43
  3
ACAD_MLEADERSTYLE
350
6B
  3
ACAD_MLINESTYLE
350
17
  3
ACAD_PLOTSETTINGS
350
19
  3
ACAD_PLOTSTYLENAME
350
E
  3
ACAD_SCALELIST
350
47
  3
ACAD_SECTIONVIEWSTYLE
350
267
  3
ACAD_TABLESTYLE
350
69
  3
ACAD_VISUALSTYLE
350
2A
  3
ACDB_RECOMPOSE_DATA
350
263
  3
AcDbVariableDictionary
350
25F
  0
SUN
  5
6D
330
29
100
AcDbSun
 90
        1
290
     0
 63
     7
421
 16777215
 40
1.0
291
     1
 91
  2455826
 92
 54000000
292
     0
 70
     2
 71
   256
280
     1
  0
DICTIONARY
  5
266
102
{ACAD_REACTORS
330
C
102
}
330
C
100
AcDbDictionary
281
     1
  0
DICTIONARY
  5
D
102
{ACAD_REACTORS
330
C
102
}
330
C
100
AcDbDictionary
281
     1
  0
DICTIONARY
  5
1A
102
{ACAD_REACTORS
330
C
102
}
330
C
100
AcDbDictionary
281
     1
  3
Layout1
350
1E
  3
Layout2
350
26
  3
Model
350
22
  0
DICTIONARY
  5
43
102
{ACAD_REACTORS
330
C
102
}
330
C
100
AcDbDictionary
281
     1
  3
ByBlock
350
45
  3
ByLayer
350
44
  3
Global
350
46
  0
DICTIONARY
  5
6B
102
{ACAD_REACTORS
330
C
102
}
330
C
100
AcDbDictionary
281
     1
  3
Standard
350
6C
  0
DICTIONARY
  5
17
102
{ACAD_REACTORS
330
C
102
}
330
C
100
AcDbDictionary
281
     1
  3
Standard
350
18
  0
DICTIONARY
  5
19
102
{ACAD_REACTORS
330
C
102
}
330
C
100
AcDbDictionary
281
     1
  0
ACDBDICTIONARYWDFLT
  5
E
102
{ACAD_REACTORS
330
C
102
}
330
C
100
AcDbDictionary
281
     1
  3
Normal
350
F
100
AcDbDictionaryWithDefault
340
F
  0
DICTIONARY
  5
47
102
{ACAD_REACTORS
330
C
102
}
330
C
100
AcDbDictionary
281
     1
  3
A0
350
48
  3
A1
350
49
  3
A2
350
4A
  3
A3
350
4B
  3
A4
350
4C
  3
A5
350
4D
  3
A6
350
4E
  3
A7
350
4F
  3
A8
350
50
  3
A9
350
51
  3
B0
350
52
  3
B1
350
53
  3
B2
350
54
  3
B3
350
55
  3
B4
350
56
  3
B5
350
57
  3
B6
350
58
  3
B7
350
59
  3
B8
350
5A
  3
B9
350
5B
  3
C0
350
5C
  3
C1
350
5D
  3
C2
350
5E
  3
C3
350
5F
  3
C4
350
60
  3
C5
350
61
  3
C6
350
62
  3
C7
350
63
  3
C8
350
64
  3
C9
350
65
  3
D0
350
66
  3
D1
350
67
  3
D2
350
68
  0
DICTIONARY
  5
267
102
{ACAD_REACTORS
330
C
102
}
330
C
100
AcDbDictionary
281
     1
  0
DICTIONARY
  5
69
102
{ACAD_REACTORS
330
C
102
}
330
C
100
AcDbDictionary
281
     1
  3
Standard
350
6A
  0
DICTIONARY
  5
2A
102
{ACAD_REACTORS
330
C
102
}
330
C
100
AcDbDictionary
281
     1
  3
2dWireframe
350
2F
  3
Basic
350
32
  3
Brighten
350
36
  3
ColorChange
350
3A
  3
Conceptual
350
34
  3
Dim
350
35
  3
EdgeColorOff
350
3D
  3
Facepattern
350
39
  3
Flat
350
2B
  3
FlatWithEdges
350
2C
  3
Gouraud
350
2D
  3
GouraudWithEdges
350
2E
  3
Hidden
350
31
  3
JitterOff
350
3B
  3
Linepattern
350
38
  3
OverhangOff
350
3C
  3
Realistic
350
33
  3
Shaded
350
42
  3
Shaded with edges
350
41
  3
Shades of Gray
350
3E
  3
Sketchy
350
3F
  3
Thicken
350
37
  3
Wireframe
350
30
  3
X-Ray
350
40
  0
XRECORD
  5
263
102
{ACAD_REACTORS
330
C
102
}
330
C
100
AcDbXrecord
280
     1
 90
        1
330
6A
  0
DICTIONARY
  5
25F
102
{ACAD_REACTORS
330
C
102
}
330
C
100
AcDbDictionary
281
     1
  3
CANNOSCALE
350
260
  3
CMLEADERSTYLE
350
265
  3
CTABLESTYLE
350
264
  0
LAYOUT
  5
1E
102
{ACAD_REACTORS
330
1A
102
}
330
1A
100
AcDbPlotSettings
  1

  2
none_device
  4

  6

 40
0.0
 41
0.0
 42
0.0
 43
0.0
 44
0.0
 45
0.0
 46
0.0
 47
0.0
 48
0.0
 49
0.0
140
0.0
141
0.0
142
1.0
143
1.0
 70
   688
 72
     0
 73
     0
 74
     5
  7

 75
    16
 76
     0
 77
     2
 78
   300
147
1.0
148
0.0
149
0.0
100
AcDbLayout
  1
Layout1
 70
     1
 71
     1
 10
0.0
 20
0.0
 11
12.0
 21
9.0
 12
0.0
 22
0.0
 32
0.0
 14
1.000000000000000E+20
 24
1.000000000000000E+20
 34
1.000000000000000E+20
 15
-1.000000000000000E+20
 25
-1.000000000000000E+20
 35
-1.000000000000000E+20
146
0.0
 13
0.0
 23
0.0
 33
0.0
 16
1.0
 26
0.0
 36
0.0
 17
0.0
 27
1.0
 37
0.0
 76
     0
330
1B
  0
LAYOUT
  5
26
102
{ACAD_REACTORS
330
1A
102
}
330
1A
100
AcDbPlotSettings
  1

  2
none_device
  4

  6

 40
0.0
 41
0.0
 42
0.0
 43
0.0
 44
0.0
 45
0.0
 46
0.0
 47
0.0
 48
0.0
 49
0.0
140
0.0
141
0.0
142
1.0
143
1.0
 70
   688
 72
     0
 73
     0
 74
     5
  7

 75
    16
 76
     0
 77
     2
 78
   300
147
1.0
148
0.0
149
0.0
100
AcDbLayout
  1
Layout2
 70
     1
 71
     2
 10
0.0
 20
0.0
 11
0.0
 21
0.0
 12
0.0
 22
0.0
 32
0.0
 14
0.0
 24
0.0
 34
0.0
 15
0.0
 25
0.0
 35
0.0
146
0.0
 13
0.0
 23
0.0
 33
0.0
 16
1.0
 26
0.0
 36
0.0
 17
0.0
 27
1.0
 37
0.0
 76
     0
330
23
  0
LAYOUT
  5
22
102
{ACAD_REACTORS
330
1A
102
}
330
1A
100
AcDbPlotSettings
  1

  2
none_device
  4
Letter_(8.50_x_11.00_Inches)
  6

 40
6.35
 41
6.35
 42
6.35000508
 43
6.35000508
 44
215.9
 45
279.4
 46
0.0
 47
0.0
 48
0.0
 49
0.0
140
0.0
141
0.0
142
1.0
143
1.0
 70
  1712
 72
     0
 73
     0
 74
     0
  7

 75
     0
 76
     0
 77
     2
 78
   300
147
1.0
148
0.0
149
0.0
100
AcDbLayout
  1
Model
 70
     1
 71
     0
 10
0.0
 20
0.0
 11
12.0
 21
9.0
 12
0.0
 22
0.0
 32
0.0
 14
1.000000000000000E+20
 24
1.000000000000000E+20
 34
1.000000000000000E+20
 15
-1.000000000000000E+20
 25
-1.000000000000000E+20
 35
-1.000000000000000E+20
146
0.0
 13
0.0
 23
0.0
 33
0.0
 16
1.0
 26
0.0
 36
0.0
 17
0.0
 27
1.0
 37
0.0
 76
     0
330
1F
331
29
  0
MATERIAL
  5
45
102
{ACAD_REACTORS
330
43
102
}
330
43
100
AcDbMaterial
  1
ByBlock
 72
     1
 94
      127
  0
MATERIAL
  5
44
102
{ACAD_REACTORS
330
43
102
}
330
43
100
AcDbMaterial
  1
ByLayer
 72
     1
 94
      127
  0
MATERIAL
  5
46
102
{ACAD_REACTORS
330
43
102
}
330
43
100
AcDbMaterial
  1
Global
 72
     1
 94
      127
  0
MLEADERSTYLE
  5
6C
102
{ACAD_REACTORS
330
6B
102
}
330
6B
100
AcDbMLeaderStyle
179
     2
170
     2
171
     1
172
     0
 90
        2
 40
0.0
 41
0.0
173
     1
 91
-1056964608
340
14
 92
       -2
290
     1
 42
0.09
291
     1
 43
0.36
  3
Standard
341
0
 44
0.18
300

342
11
174
     1
178
     6
175
     1
176
     0
 93
-1056964608
 45
0.18
292
     0
297
     0
 46
0.18
343
0
 94
-1056964608
 47
1.0
 49
1.0
140
1.0
293
     1
141
0.0
294
     1
177
     0
142
1.0
295
     0
296
     0
143
0.125
271
     0
272
     9
273
     9
298
     0
  0
MLINESTYLE
  5
18
102
{ACAD_REACTORS
330
17
102
}
330
17
100
AcDbMlineStyle
  2
Standard
 70
     0
  3

 62
   256
 51
90.0
 52
90.0
 71
     2
 49
0.5
 62
   256
  6
BYLAYER
 49
-0.5
 62
   256
  6
BYLAYER
  0
ACDBPLACEHOLDER
  5
F
102
{ACAD_REACTORS
330
E
102
}
330
E
  0
SCALE
  5
48
102
{ACAD_REACTORS
330
47
102
}
330
47
100
AcDbScale
 70
     0
300
1:1
140
1.0
141
1.0
290
     1
  0
SCALE
  5
49
102
{ACAD_REACTORS
330
47
102
}
330
47
100
AcDbScale
 70
     0
300
1:2
140
1.0
141
2.0
290
     0
  0
SCALE
  5
4A
102
{ACAD_REACTORS
330
47
102
}
330
47
100
AcDbScale
 70
     0
300
1:4
140
1.0
141
4.0
290
     0
  0
SCALE
  5
4B
102
{ACAD_REACTORS
330
47
102
}
330
47
100
AcDbScale
 70
     0
300
1:5
140
1.0
141
5.0
290
     0
  0
SCALE
  5
4C
102
{ACAD_REACTORS
330
47
102
}
330
47
100
AcDbScale
 70
     0
300
1:8
140
1.0
141
8.0
290
     0
  0
SCALE
  5
4D
102
{ACAD_REACTORS
330
47
102
}
330
47
100
AcDbScale
 70
     0
300
1:10
140
1.0
141
10.0
290
     0
  0
SCALE
  5
4E
102
{ACAD_REACTORS
330
47
102
}
330
47
100
AcDbScale
 70
     0
300
1:16
140
1.0
141
16.0
290
     0
  0
SCALE
  5
4F
102
{ACAD_REACTORS
330
47
102
}
330
47
100
AcDbScale
 70
     0
300
1:20
140
1.0
141
20.0
290
     0
  0
SCALE
  5
50
102
{ACAD_REACTORS
330
47
102
}
330
47
100
AcDbScale
 70
     0
300
1:30
140
1.0
141
30.0
290
     0
  0
SCALE
  5
51
102
{ACAD_REACTORS
330
47
102
}
330
47
100
AcDbScale
 70
     0
300
1:40
140
1.0
141
40.0
290
     0
  0
SCALE
  5
52
102
{ACAD_REACTORS
330
47
102
}
330
47
100
AcDbScale
 70
     0
300
1:50
140
1.0
141
50.0
290
     0
  0
SCALE
  5
53
102
{ACAD_REACTORS
330
47
102
}
330
47
100
AcDbScale
 70
     0
300
1:100
140
1.0
141
100.0
290
     0
  0
SCALE
  5
54
102
{ACAD_REACTORS
330
47
102
}
330
47
100
AcDbScale
 70
     0
300
2:1
140
2.0
141
1.0
290
     0
  0
SCALE
  5
55
102
{ACAD_REACTORS
330
47
102
}
330
47
100
AcDbScale
 70
     0
300
4:1
140
4.0
141
1.0
290
     0
  0
SCALE
  5
56
102
{ACAD_REACTORS
330
47
102
}
330
47
100
AcDbScale
 70
     0
300
8:1
140
8.0
141
1.0
290
     0
  0
SCALE
  5
57
102
{ACAD_REACTORS
330
47
102
}
330
47
100
AcDbScale
 70
     0
300
10:1
140
10.0
141
1.0
290
     0
  0
SCALE
  5
58
102
{ACAD_REACTORS
330
47
102
}
330
47
100
AcDbScale
 70
     0
300
100:1
140
100.0
141
1.0
290
     0
  0
SCALE
  5
59
102
{ACAD_REACTORS
330
47
102
}
330
47
100
AcDbScale
 70
     0
300
1/128" = 1'-0"
140
0.0078125
141
12.0
290
     0
  0
SCALE
  5
5A
102
{ACAD_REACTORS
330
47
102
}
330
47
100
AcDbScale
 70
     0
300
1/64" = 1'-0"
140
0.015625
141
12.0
290
     0
  0
SCALE
  5
5B
102
{ACAD_REACTORS
330
47
102
}
330
47
100
AcDbScale
 70
     0
300
1/32" = 1'-0"
140
0.03125
141
12.0
290
     0
  0
SCALE
  5
5C
102
{ACAD_REACTORS
330
47
102
}
330
47
100
AcDbScale
 70
     0
300
1/16" = 1'-0"
140
0.0625
141
12.0
290
     0
  0
SCALE
  5
5D
102
{ACAD_REACTORS
330
47
102
}
330
47
100
AcDbScale
 70
     0
300
3/32" = 1'-0"
140
0.09375
141
12.0
290
     0
  0
SCALE
  5
5E
102
{ACAD_REACTORS
330
47
102
}
330
47
100
AcDbScale
 70
     0
300
1/8" = 1'-0"
140
0.125
141
12.0
290
     0
  0
SCALE
  5
5F
102
{ACAD_REACTORS
330
47
102
}
330
47
100
AcDbScale
 70
     0
300
3/16" = 1'-0"
140
0.1875
141
12.0
290
     0
  0
SCALE
  5
60
102
{ACAD_REACTORS
330
47
102
}
330
47
100
AcDbScale
 70
     0
300
1/4" = 1'-0"
140
0.25
141
12.0
290
     0
  0
SCALE
  5
61
102
{ACAD_REACTORS
330
47
102
}
330
47
100
AcDbScale
 70
     0
300
3/8" = 1'-0"
140
0.375
141
12.0
290
     0
  0
SCALE
  5
62
102
{ACAD_REACTORS
330
47
102
}
330
47
100
AcDbScale
 70
     0
300
1/2" = 1'-0"
140
0.5
141
12.0
290
     0
  0
SCALE
  5
63
102
{ACAD_REACTORS
330
47
102
}
330
47
100
AcDbScale
 70
     0
300
3/4" = 1'-0"
140
0.75
141
12.0
290
     0
  0
SCALE
  5
64
102
{ACAD_REACTORS
330
47
102
}
330
47
100
AcDbScale
 70
     0
300
1" = 1'-0"
140
1.0
141
12.0
290
     0
  0
SCALE
  5
65
102
{ACAD_REACTORS
330
47
102
}
330
47
100
AcDbScale
 70
     0
300
1-1/2" = 1'-0"
140
1.5
141
12.0
290
     0
  0
SCALE
  5
66
102
{ACAD_REACTORS
330
47
102
}
330
47
100
AcDbScale
 70
     0
300
3" = 1'-0"
140
3.0
141
12.0
290
     0
  0
SCALE
  5
67
102
{ACAD_REACTORS
330
47
102
}
330
47
100
AcDbScale
 70
     0
300
6" = 1'-0"
140
6.0
141
12.0
290
     0
  0
SCALE
  5
68
102
{ACAD_REACTORS
330
47
102
}
330
47
100
AcDbScale
 70
     0
300
1'-0" = 1'-0"
140
12.0
141
12.0
290
     0
  0
TABLESTYLE
  5
6A
102
{ACAD_REACTORS
330
69
102
}
102
{ACAD_XDICTIONARY
360
261
102
}
330
69
100
AcDbTableStyle
  3
Standard
 70
     0
 71
     0
 40
0.06
 41
0.06
280
     0
281
     0
  7
Standard
140
0.18
170
     2
 62
     0
 63
   257
283
     0
 90
        4
 91
        0
  1

274
    -2
284
     1
 64
     0
275
    -2
285
     1
 65
     0
276
    -2
286
     1
 66
     0
277
    -2
287
     1
 67
     0
278
    -2
288
     1
 68
     0
279
    -2
289
     1
 69
     0
  7
Standard
140
0.25
170
     5
 62
     0
 63
   257
283
     0
 90
        4
 91
        0
  1

274
    -2
284
     1
 64
     0
275
    -2
285
     1
 65
     0
276
    -2
286
     1
 66
     0
277
    -2
287
     1
 67
     0
278
    -2
288
     1
 68
     0
279
    -2
289
     1
 69
     0
  7
Standard
140
0.18
170
     5
 62
     0
 63
   257
283
     0
 90
        4
 91
        0
  1

274
    -2
284
     1
 64
     0
275
    -2
285
     1
 65
     0
276
    -2
286
     1
 66
     0
277
    -2
287
     1
 67
     0
278
    -2
288
     1
 68
     0
279
    -2
289
     1
 69
     0
  0
VISUALSTYLE
  5
2F
102
{ACAD_REACTORS
330
2A
102
}
330
2A
100
AcDbVisualStyle
  2
2dWireframe
 70
     4
177
     3
291
     0
 70
    58
 90
        0
176
     1
 90
        2
176
     1
 90
        0
176
     1
 90
        0
176
     1
 40
0.6
176
     1
 40
30.0
176
     1
 62
     7
420
 16777215
176
     1
 90
        1
176
     1
 90
        4
176
     1
 62
     7
176
     1
 62
   257
176
     1
 90
        1
176
     1
 90
        1
176
     1
 40
1.0
176
     1
 90
        0
176
     1
 62
   257
176
     1
 40
1.0
176
     1
 90
        1
176
     1
 90
        6
176
     1
 90
        2
176
     1
 62
     7
176
     1
 90
        5
176
     1
 90
        0
176
     1
 90
        0
176
     1
290
     0
176
     1
 90
        1
176
     1
 40
0.0
176
     1
 90
        0
176
     1
290
     1
176
     1
290
     1
176
     1
290
     0
176
     1
290
     0
176
     1
290
     0
176
     1
290
     0
176
     1
290
     0
176
     1
290
     0
176
     1
290
     0
176
     1
 90
       50
176
     1
 40
0.0
176
     1
 40
1.0
176
     1
 90
        0
176
     1
 62
    18
420
        0
176
     1
 90
       50
176
     1
 90
        3
176
     1
 62
     5
420
      255
176
     1
290
     0
176
     1
 90
       50
176
     1
 90
       50
176
     1
 90
       50
176
     1
290
     0
176
     1
 90
       50
176
     1
 62
   256
176
     0
 40
1.0
176
     0
 90
        2
176
     1
  1
strokes_ogs.tif
176
     1
290
     0
176
     1
 40
1.0
176
     1
 40
1.0
176
     1
  0
VISUALSTYLE
  5
32
102
{ACAD_REACTORS
330
2A
102
}
330
2A
100
AcDbVisualStyle
  2
Basic
 70
     7
177
     3
291
     1
 70
    58
 90
        1
176
     1
 90
        0
176
     1
 90
        1
176
     1
 90
        0
176
     1
 40
0.6
176
     1
 40
30.0
176
     1
 62
     7
420
 16777215
176
     1
 90
        0
176
     1
 90
        4
176
     1
 62
     7
176
     1
 62
   257
176
     1
 90
        1
176
     1
 90
        1
176
     1
 40
1.0
176
     1
 90
        8
176
     1
 62
     7
176
     1
 40
1.0
176
     1
 90
        1
176
     1
 90
        6
176
     1
 90
        2
176
     1
 62
     7
176
     1
 90
        5
176
     1
 90
        0
176
     1
 90
        0
176
     1
290
     0
176
     1
 90
        1
176
     1
 40
0.0
176
     1
 90
        0
176
     1
290
     0
176
     1
290
     1
176
     1
290
     1
176
     1
290
     0
176
     1
290
     0
176
     1
290
     0
176
     1
290
     0
176
     1
290
     0
176
     1
290
     0
176
     1
 90
       50
176
     1
 40
0.0
176
     1
 40
1.0
176
     1
 90
        0
176
     1
 62
    18
420
        0
176
     1
 90
       50
176
     1
 90
        3
176
     1
 62
     5
420
      255
176
     1
290
     0
176
     1
 90
       50
176
     1
 90
       50
176
     1
 90
       50
176
     1
290
     0
176
     1
 90
       50
176
     1
 62
   256
176
     0
 40
1.0
176
     0
 90
        2
176
     1
  1
strokes_ogs.tif
176
     1
290
     0
176
     1
 40
1.0
176
     1
 40
1.0
176
     1
  0
VISUALSTYLE
  5
36
102
{ACAD_REACTORS
330
2A
102
}
330
2A
100
AcDbVisualStyle
  2
Brighten
 70
    12
177
     3
291
     1
 70
    58
 90
        2
176
     1
 90
        2
176
     1
 90
        0
176
     1
 90
        0
176
     1
 40
0.6
176
     1
 40
30.0
176
     1
 62
     7
420
 16777215
176
     1
 90
        1
176
     1
 90
        4
176
     1
 62
     7
176
     1
 62
   257
176
     1
 90
        1
176
     1
 90
        1
176
     1
 40
1.0
176
     1
 90
        8
176
     1
 62
     7
176
     1
 40
1.0
176
     1
 90
        1
176
     1
 90
        6
176
     1
 90
        2
176
     1
 62
     7
176
     1
 90
        5
176
     1
 90
        0
176
     1
 90
        0
176
     1
290
     0
176
     1
 90
        1
176
     1
 40
50.0
176
     1
 90
        0
176
     1
290
     0
176
     1
290
     1
176
     1
290
     1
176
     1
290
     0
176
     1
290
     0
176
     1
290
     0
176
     1
290
     0
176
     1
290
     0
176
     1
290
     0
176
     1
 90
       50
176
     1
 40
0.0
176
     1
 40
1.0
176
     1
 90
        0
176
     1
 62
    18
420
        0
176
     1
 90
       50
176
     1
 90
        3
176
     1
 62
     5
420
      255
176
     1
290
     0
176
     1
 90
       50
176
     1
 90
       50
176
     1
 90
       50
176
     1
290
     0
176
     1
 90
       50
176
     1
 62
   256
176
     0
 40
1.0
176
     0
 90
        2
176
     1
  1
strokes_ogs.tif
176
     1
290
     0
176
     1
 40
1.0
176
     1
 40
1.0
176
     1
  0
VISUALSTYLE
  5
3A
102
{ACAD_REACTORS
330
2A
102
}
330
2A
100
AcDbVisualStyle
  2
ColorChange
 70
    16
177
     3
291
     1
 70
    58
 90
        2
176
     1
 90
        2
176
     1
 90
        3
176
     1
 90
        0
176
     1
 40
0.6
176
     1
 40
30.0
176
     1
 62
     8
420
  8421504
176
     1
 90
        1
176
     1
 90
        4
176
     1
 62
     7
176
     1
 62
   257
176
     1
 90
        1
176
     1
 90
        1
176
     1
 40
1.0
176
     1
 90
        8
176
     1
 62
     8
420
  8421504
176
     1
 40
1.0
176
     1
 90
        1
176
     1
 90
        6
176
     1
 90
        2
176
     1
 62
     7
176
     1
 90
        5
176
     1
 90
        0
176
     1
 90
        0
176
     1
290
     0
176
     1
 90
        1
176
     1
 40
0.0
176
     1
 90
        0
176
     1
290
     0
176
     1
290
     1
176
     1
290
     1
176
     1
290
     0
176
     1
290
     0
176
     1
290
     0
176
     1
290
     0
176
     1
290
     0
176
     1
290
     0
176
     1
 90
       50
176
     1
 40
0.0
176
     1
 40
1.0
176
     1
 90
        0
176
     1
 62
    18
420
        0
176
     1
 90
       50
176
     1
 90
        3
176
     1
 62
     5
420
      255
176
     1
290
     0
176
     1
 90
       50
176
     1
 90
       50
176
     1
 90
       50
176
     1
290
     0
176
     1
 90
       50
176
     1
 62
   256
176
     0
 40
1.0
176
     0
 90
        2
176
     1
  1
strokes_ogs.tif
176
     1
290
     0
176
     1
 40
1.0
176
     1
 40
1.0
176
     1
  0
VISUALSTYLE
  5
34
102
{ACAD_REACTORS
330
2A
102
}
330
2A
100
AcDbVisualStyle
  2
Conceptual
 70
     9
177
     3
291
     0
 70
    58
 90
        3
176
     1
 90
        2
176
     1
 90
        0
176
     1
 90
        0
176
     1
 40
0.6
176
     1
 40
30.0
176
     1
 62
     7
420
 16777215
176
     1
 90
        2
176
     1
 90
        2
176
     1
 62
     7
176
     1
 62
   257
176
     1
 90
        1
176
     1
 90
        1
176
     1
 40
179.0
176
     1
 90
        8
176
     1
 62
     7
176
     1
 40
1.0
176
     1
 90
        1
176
     1
 90
        6
176
     1
 90
        2
176
     1
 62
     7
176
     1
 90
        3
176
     1
 90
        0
176
     1
 90
        0
176
     1
290
     0
176
     1
 90
        1
176
     1
 40
0.0
176
     1
 90
        0
176
     1
290
     0
176
     1
290
     1
176
     1
290
     1
176
     1
290
     0
176
     1
290
     0
176
     1
290
     0
176
     1
290
     0
176
     1
290
     0
176
     1
290
     0
176
     1
 90
       50
176
     1
 40
0.0
176
     1
 40
1.0
176
     1
 90
        0
176
     1
 62
    18
420
        0
176
     1
 90
       50
176
     1
 90
        3
176
     1
 62
     5
420
      255
176
     1
290
     0
176
     1
 90
       50
176
     1
 90
       50
176
     1
 90
       50
176
     1
290
     0
176
     1
 90
       50
176
     1
 62
   256
176
     0
 40
1.0
176
     0
 90
        2
176
     1
  1
strokes_ogs.tif
176
     1
290
     0
176
     1
 40
1.0
176
     1
 40
1.0
176
     1
  0
VISUALSTYLE
  5
35
102
{ACAD_REACTORS
330
2A
102
}
330
2A
100
AcDbVisualStyle
  2
Dim
 70
    11
177
     3
291
     1
 70
    58
 90
        2
176
     1
 90
        2
176
     1
 90
        0
176
     1
 90
        0
176
     1
 40
0.6
176
     1
 40
30.0
176
     1
 62
     7
420
 16777215
176
     1
 90
        1
176
     1
 90
        4
176
     1
 62
     7
176
     1
 62
   257
176
     1
 90
        1
176
     1
 90
        1
176
     1
 40
1.0
176
     1
 90
        8
176
     1
 62
     7
176
     1
 40
1.0
176
     1
 90
        1
176
     1
 90
        6
176
     1
 90
        2
176
     1
 62
     7
176
     1
 90
        5
176
     1
 90
        0
176
     1
 90
        0
176
     1
290
     0
176
     1
 90
        1
176
     1
 40
-50.0
176
     1
 90
        0
176
     1
290
     0
176
     1
290
     1
176
     1
290
     1
176
     1
290
     0
176
     1
290
     0
176
     1
290
     0
176
     1
290
     0
176
     1
290
     0
176
     1
290
     0
176
     1
 90
       50
176
     1
 40
0.0
176
     1
 40
1.0
176
     1
 90
        0
176
     1
 62
    18
420
        0
176
     1
 90
       50
176
     1
 90
        3
176
     1
 62
     5
420
      255
176
     1
290
     0
176
     1
 90
       50
176
     1
 90
       50
176
     1
 90
       50
176
     1
290
     0
176
     1
 90
       50
176
     1
 62
   256
176
     0
 40
1.0
176
     0
 90
        2
176
     1
  1
strokes_ogs.tif
176
     1
290
     0
176
     1
 40
1.0
176
     1
 40
1.0
176
     1
  0
VISUALSTYLE
  5
3D
102
{ACAD_REACTORS
330
2A
102
}
330
2A
100
AcDbVisualStyle
  2
EdgeColorOff
 70
    22
177
     3
291
     1
 70
    58
 90
        2
176
     0
 90
        2
176
     0
 90
        0
176
     0
 90
        0
176
     0
 40
0.6
176
     0
 40
30.0
176
     0
 62
     7
420
 16777215
176
     0
 90
        1
176
     0
 90
        4
176
     0
 62
     7
176
     0
 62
   257
176
     0
 90
        1
176
     0
 90
        1
176
     0
 40
1.0
176
     0
 90
        8
176
     2
 62
     7
176
     0
 40
1.0
176
     0
 90
        1
176
     0
 90
        6
176
     0
 90
        2
176
     0
 62
     7
176
     0
 90
        5
176
     0
 90
        0
176
     0
 90
        0
176
     0
290
     0
176
     0
 90
        1
176
     0
 40
0.0
176
     0
 90
        0
176
     0
290
     0
176
     0
290
     1
176
     0
290
     1
176
     0
290
     0
176
     0
290
     0
176
     0
290
     0
176
     0
290
     0
176
     0
290
     0
176
     0
290
     0
176
     0
 90
       50
176
     0
 40
0.0
176
     0
 40
1.0
176
     0
 90
        0
176
     0
 62
    18
420
        0
176
     0
 90
       50
176
     0
 90
        3
176
     0
 62
     5
420
      255
176
     0
290
     0
176
     0
 90
       50
176
     0
 90
       50
176
     0
 90
       50
176
     0
290
     0
176
     0
 90
       50
176
     0
 62
   256
176
     0
 40
1.0
176
     0
 90
        2
176
     0
  1
strokes_ogs.tif
176
     0
290
     0
176
     0
 40
1.0
176
     0
 40
1.0
176
     0
  0
VISUALSTYLE
  5
39
102
{ACAD_REACTORS
330
2A
102
}
330
2A
100
AcDbVisualStyle
  2
Facepattern
 70
    15
177
     3
291
     1
 70
    58
 90
        2
176
     1
 90
        2
176
     1
 90
        0
176
     1
 90
        0
176
     1
 40
0.6
176
     1
 40
30.0
176
     1
 62
     7
420
 16777215
176
     1
 90
        1
176
     1
 90
        4
176
     1
 62
     7
176
     1
 62
   257
176
     1
 90
        1
176
     1
 90
        1
176
     1
 40
1.0
176
     1
 90
        8
176
     1
 62
     7
176
     1
 40
1.0
176
     1
 90
        1
176
     1
 90
        6
176
     1
 90
        2
176
     1
 62
     7
176
     1
 90
        5
176
     1
 90
        0
176
     1
 90
        0
176
     1
290
     0
176
     1
 90
        1
176
     1
 40
0.0
176
     1
 90
        0
176
     1
290
     0
176
     1
290
     1
176
     1
290
     1
176
     1
290
     0
176
     1
290
     0
176
     1
290
     0
176
     1
290
     0
176
     1
290
     0
176
     1
290
     0
176
     1
 90
       50
176
     1
 40
0.0
176
     1
 40
1.0
176
     1
 90
        0
176
     1
 62
    18
420
        0
176
     1
 90
       50
176
     1
 90
        3
176
     1
 62
     5
420
      255
176
     1
290
     0
176
     1
 90
       50
176
     1
 90
       50
176
     1
 90
       50
176
     1
290
     0
176
     1
 90
       50
176
     1
 62
   256
176
     0
 40
1.0
176
     0
 90
        2
176
     1
  1
strokes_ogs.tif
176
     1
290
     0
176
     1
 40
1.0
176
     1
 40
1.0
176
     1
  0
VISUALSTYLE
  5
2B
102
{ACAD_REACTORS
330
2A
102
}
330
2A
100
AcDbVisualStyle
  2
Flat
 70
     0
177
     3
291
     1
 70
    58
 90
        2
176
     1
 90
        1
176
     1
 90
        1
176
     1
 90
        2
176
     1
 40
0.6
176
     1
 40
30.0
176
     1
 62
     7
420
 16777215
176
     1
 90
        0
176
     1
 90
        0
176
     1
 62
     7
176
     1
 62
   257
176
     1
 90
        1
176
     1
 90
        1
176
     1
 40
1.0
176
     1
 90
        8
176
     1
 62
     7
176
     1
 40
1.0
176
     1
 90
        1
176
     1
 90
        6
176
     1
 90
        2
176
     1
 62
     7
176
     1
 90
        5
176
     1
 90
        0
176
     1
 90
        0
176
     1
290
     0
176
     1
 90
       13
176
     1
 40
0.0
176
     1
 90
        0
176
     1
290
     0
176
     1
290
     1
176
     1
290
     1
176
     1
290
     0
176
     1
290
     0
176
     1
290
     0
176
     1
290
     0
176
     1
290
     0
176
     1
290
     0
176
     1
 90
       50
176
     1
 40
0.0
176
     1
 40
1.0
176
     1
 90
        0
176
     1
 62
    18
420
        0
176
     1
 90
       50
176
     1
 90
        3
176
     1
 62
     5
420
      255
176
     1
290
     0
176
     1
 90
       50
176
     1
 90
       50
176
     1
 90
       50
176
     1
290
     0
176
     1
 90
       50
176
     1
 62
   256
176
     0
 40
1.0
176
     0
 90
        2
176
     1
  1
strokes_ogs.tif
176
     1
290
     0
176
     1
 40
1.0
176
     1
 40
1.0
176
     1
  0
VISUALSTYLE
  5
2C
102
{ACAD_REACTORS
330
2A
102
}
330
2A
100
AcDbVisualStyle
  2
FlatWithEdges
 70
     1
177
     3
291
     1
 70
    58
 90
        2
176
     1
 90
        1
176
     1
 90
        1
176
     1
 90
        2
176
     1
 40
0.6
176
     1
 40
30.0
176
     1
 62
     7
420
 16777215
176
     1
 90
        1
176
     1
 90
        0
176
     1
 62
     7
176
     1
 62
   257
176
     1
 90
        1
176
     1
 90
        1
176
     1
 40
1.0
176
     1
 90
        0
176
     1
 62
   257
176
     1
 40
1.0
176
     1
 90
        1
176
     1
 90
        6
176
     1
 90
        2
176
     1
 62
     7
176
     1
 90
        5
176
     1
 90
        0
176
     1
 90
        0
176
     1
290
     0
176
     1
 90
       13
176
     1
 40
0.0
176
     1
 90
        0
176
     1
290
     0
176
     1
290
     1
176
     1
290
     1
176
     1
290
     0
176
     1
290
     0
176
     1
290
     0
176
     1
290
     0
176
     1
290
     0
176
     1
290
     0
176
     1
 90
       50
176
     1
 40
0.0
176
     1
 40
1.0
176
     1
 90
        0
176
     1
 62
    18
420
        0
176
     1
 90
       50
176
     1
 90
        3
176
     1
 62
     5
420
      255
176
     1
290
     0
176
     1
 90
       50
176
     1
 90
       50
176
     1
 90
       50
176
     1
290
     0
176
     1
 90
       50
176
     1
 62
   256
176
     0
 40
1.0
176
     0
 90
        2
176
     1
  1
strokes_ogs.tif
176
     1
290
     0
176
     1
 40
1.0
176
     1
 40
1.0
176
     1
  0
VISUALSTYLE
  5
2D
102
{ACAD_REACTORS
330
2A
102
}
330
2A
100
AcDbVisualStyle
  2
Gouraud
 70
     2
177
     3
291
     1
 70
    58
 90
        2
176
     1
 90
        2
176
     1
 90
        1
176
     1
 90
        2
176
     1
 40
0.6
176
     1
 40
30.0
176
     1
 62
     7
420
 16777215
176
     1
 90
        0
176
     1
 90
        0
176
     1
 62
     7
176
     1
 62
   257
176
     1
 90
        1
176
     1
 90
        1
176
     1
 40
1.0
176
     1
 90
        0
176
     1
 62
     7
176
     1
 40
1.0
176
     1
 90
        1
176
     1
 90
        6
176
     1
 90
        2
176
     1
 62
     7
176
     1
 90
        5
176
     1
 90
        0
176
     1
 90
        0
176
     1
290
     0
176
     1
 90
       13
176
     1
 40
0.0
176
     1
 90
        0
176
     1
290
     0
176
     1
290
     1
176
     1
290
     1
176
     1
290
     0
176
     1
290
     0
176
     1
290
     0
176
     1
290
     0
176
     1
290
     0
176
     1
290
     0
176
     1
 90
       50
176
     1
 40
0.0
176
     1
 40
1.0
176
     1
 90
        0
176
     1
 62
    18
420
        0
176
     1
 90
       50
176
     1
 90
        3
176
     1
 62
     5
420
      255
176
     1
290
     0
176
     1
 90
       50
176
     1
 90
       50
176
     1
 90
       50
176
     1
290
     0
176
     1
 90
       50
176
     1
 62
   256
176
     0
 40
1.0
176
     0
 90
        2
176
     1
  1
strokes_ogs.tif
176
     1
290
     0
176
     1
 40
1.0
176
     1
 40
1.0
176
     1
  0
VISUALSTYLE
  5
2E
102
{ACAD_REACTORS
330
2A
102
}
330
2A
100
AcDbVisualStyle
  2
GouraudWithEdges
 70
     3
177
     3
291
     1
 70
    58
 90
        2
176
     1
 90
        2
176
     1
 90
        1
176
     1
 90
        2
176
     1
 40
0.6
176
     1
 40
30.0
176
     1
 62
     7
420
 16777215
176
     1
 90
        1
176
     1
 90
        0
176
     1
 62
     7
176
     1
 62
   257
176
     1
 90
        1
176
     1
 90
        1
176
     1
 40
1.0
176
     1
 90
        0
176
     1
 62
   257
176
     1
 40
1.0
176
     1
 90
        1
176
     1
 90
        6
176
     1
 90
        2
176
     1
 62
     7
176
     1
 90
        5
176
     1
 90
        0
176
     1
 90
        0
176
     1
290
     0
176
     1
 90
       13
176
     1
 40
0.0
176
     1
 90
        0
176
     1
290
     0
176
     1
290
     1
176
     1
290
     1
176
     1
290
     0
176
     1
290
     0
176
     1
290
     0
176
     1
290
     0
176
     1
290
     0
176
     1
290
     0
176
     1
 90
       50
176
     1
 40
0.0
176
     1
 40
1.0
176
     1
 90
        0
176
     1
 62
    18
420
        0
176
     1
 90
       50
176
     1
 90
        3
176
     1
 62
     5
420
      255
176
     1
290
     0
176
     1
 90
       50
176
     1
 90
       50
176
     1
 90
       50
176
     1
290
     0
176
     1
 90
       50
176
     1
 62
   256
176
     0
 40
1.0
176
     0
 90
        2
176
     1
  1
strokes_ogs.tif
176
     1
290
     0
176
     1
 40
1.0
176
     1
 40
1.0
176
     1
  0
VISUALSTYLE
  5
31
102
{ACAD_REACTORS
330
2A
102
}
330
2A
100
AcDbVisualStyle
  2
Hidden
 70
     6
177
     3
291
     0
 70
    58
 90
        1
176
     1
 90
        2
176
     1
 90
        2
176
     1
 90
        0
176
     1
 40
0.6
176
     1
 40
30.0
176
     1
 62
     7
420
 16777215
176
     1
 90
        2
176
     1
 90
        2
176
     1
 62
     7
176
     1
 62
   257
176
     1
 90
        2
176
     1
 90
        1
176
     1
 40
40.0
176
     1
 90
        0
176
     1
 62
   257
176
     1
 40
1.0
176
     1
 90
        1
176
     1
 90
        6
176
     1
 90
        2
176
     1
 62
     7
176
     1
 90
        3
176
     1
 90
        0
176
     1
 90
        0
176
     1
290
     0
176
     1
 90
        1
176
     1
 40
0.0
176
     1
 90
        0
176
     1
290
     0
176
     1
290
     1
176
     1
290
     1
176
     1
290
     0
176
     1
290
     0
176
     1
290
     0
176
     1
290
     0
176
     1
290
     0
176
     1
290
     0
176
     1
 90
       50
176
     1
 40
0.0
176
     1
 40
1.0
176
     1
 90
        0
176
     1
 62
    18
420
        0
176
     1
 90
       50
176
     1
 90
        3
176
     1
 62
     5
420
      255
176
     1
290
     0
176
     1
 90
       50
176
     1
 90
       50
176
     1
 90
       50
176
     1
290
     0
176
     1
 90
       50
176
     1
 62
   256
176
     0
 40
1.0
176
     0
 90
        2
176
     1
  1
strokes_ogs.tif
176
     1
290
     0
176
     1
 40
1.0
176
     1
 40
1.0
176
     1
  0
VISUALSTYLE
  5
3B
102
{ACAD_REACTORS
330
2A
102
}
330
2A
100
AcDbVisualStyle
  2
JitterOff
 70
    20
177
     3
291
     1
 70
    58
 90
        2
176
     0
 90
        2
176
     0
 90
        0
176
     0
 90
        0
176
     0
 40
0.6
176
     0
 40
30.0
176
     0
 62
     7
420
 16777215
176
     0
 90
        1
176
     0
 90
        4
176
     0
 62
     7
176
     0
 62
   257
176
     0
 90
        1
176
     0
 90
        1
176
     0
 40
1.0
176
     0
 90
       10
176
     2
 62
     7
176
     0
 40
1.0
176
     0
 90
        1
176
     0
 90
        6
176
     0
 90
        2
176
     0
 62
     7
176
     0
 90
        5
176
     0
 90
        0
176
     0
 90
        0
176
     0
290
     0
176
     0
 90
        1
176
     0
 40
0.0
176
     0
 90
        0
176
     0
290
     0
176
     0
290
     1
176
     0
290
     1
176
     0
290
     0
176
     0
290
     0
176
     0
290
     0
176
     0
290
     0
176
     0
290
     0
176
     0
290
     0
176
     0
 90
       50
176
     0
 40
0.0
176
     0
 40
1.0
176
     0
 90
        0
176
     0
 62
    18
420
        0
176
     0
 90
       50
176
     0
 90
        3
176
     0
 62
     5
420
      255
176
     0
290
     0
176
     0
 90
       50
176
     0
 90
       50
176
     0
 90
       50
176
     0
290
     0
176
     0
 90
       50
176
     0
 62
   256
176
     0
 40
1.0
176
     0
 90
        2
176
     0
  1
strokes_ogs.tif
176
     0
290
     0
176
     0
 40
1.0
176
     0
 40
1.0
176
     0
  0
VISUALSTYLE
  5
38
102
{ACAD_REACTORS
330
2A
102
}
330
2A
100
AcDbVisualStyle
  2
Linepattern
 70
    14
177
     3
291
     1
 70
    58
 90
        2
176
     1
 90
        2
176
     1
 90
        0
176
     1
 90
        0
176
     1
 40
0.6
176
     1
 40
30.0
176
     1
 62
     7
420
 16777215
176
     1
 90
        1
176
     1
 90
        4
176
     1
 62
     7
176
     1
 62
   257
176
     1
 90
        7
176
     1
 90
        7
176
     1
 40
1.0
176
     1
 90
        8
176
     1
 62
     7
176
     1
 40
1.0
176
     1
 90
        1
176
     1
 90
        6
176
     1
 90
        2
176
     1
 62
     7
176
     1
 90
        5
176
     1
 90
        0
176
     1
 90
        0
176
     1
290
     0
176
     1
 90
        1
176
     1
 40
0.0
176
     1
 90
        0
176
     1
290
     0
176
     1
290
     1
176
     1
290
     1
176
     1
290
     0
176
     1
290
     0
176
     1
290
     0
176
     1
290
     0
176
     1
290
     0
176
     1
290
     0
176
     1
 90
       50
176
     1
 40
0.0
176
     1
 40
1.0
176
     1
 90
        0
176
     1
 62
    18
420
        0
176
     1
 90
       50
176
     1
 90
        3
176
     1
 62
     5
420
      255
176
     1
290
     0
176
     1
 90
       50
176
     1
 90
       50
176
     1
 90
       50
176
     1
290
     0
176
     1
 90
       50
176
     1
 62
   256
176
     0
 40
1.0
176
     0
 90
        2
176
     1
  1
strokes_ogs.tif
176
     1
290
     0
176
     1
 40
1.0
176
     1
 40
1.0
176
     1
  0
VISUALSTYLE
  5
3C
102
{ACAD_REACTORS
330
2A
102
}
330
2A
100
AcDbVisualStyle
  2
OverhangOff
 70
    21
177
     3
291
     1
 70
    58
 90
        2
176
     0
 90
        2
176
     0
 90
        0
176
     0
 90
        0
176
     0
 40
0.6
176
     0
 40
30.0
176
     0
 62
     7
420
 16777215
176
     0
 90
        1
176
     0
 90
        4
176
     0
 62
     7
176
     0
 62
   257
176
     0
 90
        1
176
     0
 90
        1
176
     0
 40
1.0
176
     0
 90
        9
176
     2
 62
     7
176
     0
 40
1.0
176
     0
 90
        1
176
     0
 90
        6
176
     0
 90
        2
176
     0
 62
     7
176
     0
 90
        5
176
     0
 90
        0
176
     0
 90
        0
176
     0
290
     0
176
     0
 90
        1
176
     0
 40
0.0
176
     0
 90
        0
176
     0
290
     0
176
     0
290
     1
176
     0
290
     1
176
     0
290
     0
176
     0
290
     0
176
     0
290
     0
176
     0
290
     0
176
     0
290
     0
176
     0
290
     0
176
     0
 90
       50
176
     0
 40
0.0
176
     0
 40
1.0
176
     0
 90
        0
176
     0
 62
    18
420
        0
176
     0
 90
       50
176
     0
 90
        3
176
     0
 62
     5
420
      255
176
     0
290
     0
176
     0
 90
       50
176
     0
 90
       50
176
     0
 90
       50
176
     0
290
     0
176
     0
 90
       50
176
     0
 62
   256
176
     0
 40
1.0
176
     0
 90
        2
176
     0
  1
strokes_ogs.tif
176
     0
290
     0
176
     0
 40
1.0
176
     0
 40
1.0
176
     0
  0
VISUALSTYLE
  5
33
102
{ACAD_REACTORS
330
2A
102
}
330
2A
100
AcDbVisualStyle
  2
Realistic
 70
     8
177
     3
291
     0
 70
    58
 90
        2
176
     1
 90
        3
176
     1
 90
        0
176
     1
 90
        2
176
     1
 40
0.6
176
     1
 40
30.0
176
     1
 62
     7
420
 16777215
176
     1
 90
        0
176
     1
 90
        0
176
     1
 62
     7
176
     1
 62
   257
176
     1
 90
        1
176
     1
 90
        1
176
     1
 40
1.0
176
     1
 90
        8
176
     1
 62
   257
176
     1
 40
1.0
176
     1
 90
        1
176
     1
 90
        6
176
     1
 90
        2
176
     1
 62
     7
176
     1
 90
        3
176
     1
 90
        0
176
     1
 90
        0
176
     1
290
     0
176
     1
 90
       13
176
     1
 40
0.0
176
     1
 90
        0
176
     1
290
     0
176
     1
290
     1
176
     1
290
     1
176
     1
290
     0
176
     1
290
     0
176
     1
290
     0
176
     1
290
     0
176
     1
290
     0
176
     1
290
     0
176
     1
 90
       50
176
     1
 40
0.0
176
     1
 40
1.0
176
     1
 90
        0
176
     1
 62
    18
420
        0
176
     1
 90
       50
176
     1
 90
        3
176
     1
 62
     5
420
      255
176
     1
290
     0
176
     1
 90
       50
176
     1
 90
       50
176
     1
 90
       50
176
     1
290
     0
176
     1
 90
       50
176
     1
 62
   256
176
     0
 40
1.0
176
     0
 90
        2
176
     1
  1
strokes_ogs.tif
176
     1
290
     0
176
     1
 40
1.0
176
     1
 40
1.0
176
     1
  0
VISUALSTYLE
  5
42
102
{ACAD_REACTORS
330
2A
102
}
330
2A
100
AcDbVisualStyle
  2
Shaded
 70
    27
177
     3
291
     0
 70
    58
 90
        2
176
     1
 90
        2
176
     1
 90
        1
176
     1
 90
        2
176
     1
 40
0.6
176
     1
 40
30.0
176
     1
 62
     7
420
 16777215
176
     1
 90
        0
176
     1
 90
        4
176
     1
 62
     7
176
     1
 62
   257
176
     1
 90
        1
176
     1
 90
        1
176
     1
 40
1.0
176
     1
 90
        8
176
     1
 62
   257
176
     1
 40
1.0
176
     1
 90
        1
176
     1
 90
        6
176
     1
 90
        2
176
     1
 62
     8
420
  7895160
176
     1
 90
        3
176
     1
 90
        0
176
     1
 90
        0
176
     1
290
     0
176
     1
 90
        5
176
     1
 40
0.0
176
     1
 90
        0
176
     1
290
     0
176
     1
290
     1
176
     1
290
     1
176
     1
290
     0
176
     1
290
     0
176
     1
290
     0
176
     1
290
     0
176
     1
290
     0
176
     1
290
     0
176
     1
 90
       50
176
     1
 40
0.0
176
     1
 40
1.0
176
     1
 90
        0
176
     1
 62
    18
420
        0
176
     1
 90
       50
176
     1
 90
        3
176
     1
 62
     5
420
      255
176
     1
290
     0
176
     1
 90
       50
176
     1
 90
       50
176
     1
 90
       50
176
     1
290
     0
176
     1
 90
       50
176
     1
 62
   256
176
     0
 40
1.0
176
     0
 90
        2
176
     1
  1
strokes_ogs.tif
176
     1
290
     0
176
     1
 40
1.0
176
     1
 40
1.0
176
     1
  0
VISUALSTYLE
  5
41
102
{ACAD_REACTORS
330
2A
102
}
330
2A
100
AcDbVisualStyle
  2
Shaded with edges
 70
    26
177
     3
291
     0
 70
    58
 90
        2
176
     1
 90
        2
176
     1
 90
        1
176
     1
 90
        2
176
     1
 40
0.6
176
     1
 40
30.0
176
     1
 62
     7
420
 16777215
176
     1
 90
        1
176
     1
 90
       10
176
     1
 62
     7
176
     1
 62
   257
176
     1
 90
        2
176
     1
 90
        1
176
     1
 40
1.0
176
     1
 90
        8
176
     1
 62
   257
176
     1
 40
1.0
176
     1
 90
        1
176
     1
 90
        6
176
     1
 90
        2
176
     1
 62
     7
176
     1
 90
        3
176
     1
 90
        0
176
     1
 90
        0
176
     1
290
     0
176
     1
 90
        5
176
     1
 40
0.0
176
     1
 90
        0
176
     1
290
     0
176
     1
290
     1
176
     1
290
     1
176
     1
290
     0
176
     1
290
     0
176
     1
290
     0
176
     1
290
     0
176
     1
290
     0
176
     1
290
     0
176
     1
 90
       50
176
     1
 40
0.0
176
     1
 40
1.0
176
     1
 90
        0
176
     1
 62
    18
420
        0
176
     1
 90
       50
176
     1
 90
        3
176
     1
 62
     5
420
      255
176
     1
290
     0
176
     1
 90
       50
176
     1
 90
       50
176
     1
 90
       50
176
     1
290
     0
176
     1
 90
       50
176
     1
 62
   256
176
     0
 40
1.0
176
     0
 90
        2
176
     1
  1
strokes_ogs.tif
176
     1
290
     0
176
     1
 40
1.0
176
     1
 40
1.0
176
     1
  0
VISUALSTYLE
  5
3E
102
{ACAD_REACTORS
330
2A
102
}
330
2A
100
AcDbVisualStyle
  2
Shades of Gray
 70
    23
177
     3
291
     0
 70
    58
 90
        2
176
     1
 90
        2
176
     1
 90
        3
176
     1
 90
        0
176
     1
 40
0.6
176
     1
 40
30.0
176
     1
 62
     7
420
 16777215
176
     1
 90
        2
176
     1
 90
        2
176
     1
 62
     7
176
     1
 62
     7
176
     1
 90
        1
176
     1
 90
        1
176
     1
 40
40.0
176
     1
 90
        8
176
     1
 62
     7
176
     1
 40
1.0
176
     1
 90
        1
176
     1
 90
        6
176
     1
 90
        2
176
     1
 62
     7
176
     1
 90
        3
176
     1
 90
        0
176
     1
 90
        0
176
     1
290
     0
176
     1
 90
        1
176
     1
 40
0.0
176
     1
 90
        0
176
     1
290
     0
176
     1
290
     1
176
     1
290
     1
176
     1
290
     0
176
     1
290
     0
176
     1
290
     0
176
     1
290
     0
176
     1
290
     0
176
     1
290
     0
176
     1
 90
       50
176
     1
 40
0.0
176
     1
 40
1.0
176
     1
 90
        0
176
     1
 62
    18
420
        0
176
     1
 90
       50
176
     1
 90
        3
176
     1
 62
     5
420
      255
176
     1
290
     0
176
     1
 90
       50
176
     1
 90
       50
176
     1
 90
       50
176
     1
290
     0
176
     1
 90
       50
176
     1
 62
   256
176
     0
 40
1.0
176
     0
 90
        2
176
     1
  1
strokes_ogs.tif
176
     1
290
     0
176
     1
 40
1.0
176
     1
 40
1.0
176
     1
  0
VISUALSTYLE
  5
3F
102
{ACAD_REACTORS
330
2A
102
}
330
2A
100
AcDbVisualStyle
  2
Sketchy
 70
    24
177
     3
291
     0
 70
    58
 90
        1
176
     1
 90
        2
176
     1
 90
        2
176
     1
 90
        0
176
     1
 40
0.6
176
     1
 40
30.0
176
     1
 62
     7
420
 16777215
176
     1
 90
        2
176
     1
 90
        2
176
     1
 62
     7
176
     1
 62
     7
176
     1
 90
        1
176
     1
 90
        1
176
     1
 40
40.0
176
     1
 90
       11
176
     1
 62
     7
176
     1
 40
1.0
176
     1
 90
        1
176
     1
 90
        6
176
     1
 90
        2
176
     1
 62
     7
176
     1
 90
        6
176
     1
 90
        0
176
     1
 90
        0
176
     1
290
     0
176
     1
 90
        1
176
     1
 40
0.0
176
     1
 90
        0
176
     1
290
     0
176
     1
290
     1
176
     1
290
     1
176
     1
290
     0
176
     1
290
     0
176
     1
290
     0
176
     1
290
     0
176
     1
290
     0
176
     1
290
     0
176
     1
 90
       50
176
     1
 40
0.0
176
     1
 40
1.0
176
     1
 90
        0
176
     1
 62
    18
420
        0
176
     1
 90
       50
176
     1
 90
        3
176
     1
 62
     5
420
      255
176
     1
290
     0
176
     1
 90
       50
176
     1
 90
       50
176
     1
 90
       50
176
     1
290
     0
176
     1
 90
       50
176
     1
 62
   256
176
     0
 40
1.0
176
     0
 90
        2
176
     1
  1
strokes_ogs.tif
176
     1
290
     0
176
     1
 40
1.0
176
     1
 40
1.0
176
     1
  0
VISUALSTYLE
  5
37
102
{ACAD_REACTORS
330
2A
102
}
330
2A
100
AcDbVisualStyle
  2
Thicken
 70
    13
177
     3
291
     1
 70
    58
 90
        2
176
     1
 90
        2
176
     1
 90
        0
176
     1
 90
        0
176
     1
 40
0.6
176
     1
 40
30.0
176
     1
 62
     7
420
 16777215
176
     1
 90
        1
176
     1
 90
        4
176
     1
 62
     7
176
     1
 62
   257
176
     1
 90
        1
176
     1
 90
        1
176
     1
 40
1.0
176
     1
 90
       12
176
     1
 62
     7
176
     1
 40
1.0
176
     1
 90
        1
176
     1
 90
        6
176
     1
 90
        2
176
     1
 62
     7
176
     1
 90
        5
176
     1
 90
        0
176
     1
 90
        0
176
     1
290
     0
176
     1
 90
        1
176
     1
 40
0.0
176
     1
 90
        0
176
     1
290
     0
176
     1
290
     1
176
     1
290
     1
176
     1
290
     0
176
     1
290
     0
176
     1
290
     0
176
     1
290
     0
176
     1
290
     0
176
     1
290
     0
176
     1
 90
       50
176
     1
 40
0.0
176
     1
 40
1.0
176
     1
 90
        0
176
     1
 62
    18
420
        0
176
     1
 90
       50
176
     1
 90
        3
176
     1
 62
     5
420
      255
176
     1
290
     0
176
     1
 90
       50
176
     1
 90
       50
176
     1
 90
       50
176
     1
290
     0
176
     1
 90
       50
176
     1
 62
   256
176
     0
 40
1.0
176
     0
 90
        2
176
     1
  1
strokes_ogs.tif
176
     1
290
     0
176
     1
 40
1.0
176
     1
 40
1.0
176
     1
  0
VISUALSTYLE
  5
30
102
{ACAD_REACTORS
330
2A
102
}
330
2A
100
AcDbVisualStyle
  2
Wireframe
 70
     5
177
     3
291
     0
 70
    58
 90
        0
176
     1
 90
        2
176
     1
 90
        0
176
     1
 90
        0
176
     1
 40
0.6
176
     1
 40
30.0
176
     1
 62
     7
420
 16777215
176
     1
 90
        1
176
     1
 90
        4
176
     1
 62
     7
176
     1
 62
   257
176
     1
 90
        1
176
     1
 90
        1
176
     1
 40
1.0
176
     1
 90
        0
176
     1
 62
   257
176
     1
 40
1.0
176
     1
 90
        1
176
     1
 90
        6
176
     1
 90
        2
176
     1
 62
     7
176
     1
 90
        3
176
     1
 90
        0
176
     1
 90
        0
176
     1
290
     0
176
     1
 90
        1
176
     1
 40
0.0
176
     1
 90
        0
176
     1
290
     0
176
     1
290
     1
176
     1
290
     1
176
     1
290
     0
176
     1
290
     0
176
     1
290
     0
176
     1
290
     0
176
     1
290
     0
176
     1
290
     0
176
     1
 90
       50
176
     1
 40
0.0
176
     1
 40
1.0
176
     1
 90
        0
176
     1
 62
    18
420
        0
176
     1
 90
       50
176
     1
 90
        3
176
     1
 62
     5
420
      255
176
     1
290
     0
176
     1
 90
       50
176
     1
 90
       50
176
     1
 90
       50
176
     1
290
     0
176
     1
 90
       50
176
     1
 62
   256
176
     0
 40
1.0
176
     0
 90
        2
176
     1
  1
strokes_ogs.tif
176
     1
290
     0
176
     1
 40
1.0
176
     1
 40
1.0
176
     1
  0
VISUALSTYLE
  5
40
102
{ACAD_REACTORS
330
2A
102
}
330
2A
100
AcDbVisualStyle
  2
X-Ray
 70
    25
177
     3
291
     0
 70
    58
 90
        2
176
     1
 90
        2
176
     1
 90
        1
176
     1
 90
        1
176
     1
 40
0.5
176
     1
 40
30.0
176
     1
 62
     7
420
 16777215
176
     1
 90
        1
176
     1
 90
        0
176
     1
 62
     7
176
     1
 62
   257
176
     1
 90
        1
176
     1
 90
        1
176
     1
 40
1.0
176
     1
 90
        8
176
     1
 62
     7
176
     1
 40
1.0
176
     1
 90
        1
176
     1
 90
        6
176
     1
 90
        2
176
     1
 62
     7
176
     1
 90
        3
176
     1
 90
        0
176
     1
 90
        0
176
     1
290
     0
176
     1
 90
       13
176
     1
 40
0.0
176
     1
 90
        0
176
     1
290
     0
176
     1
290
     1
176
     1
290
     1
176
     1
290
     0
176
     1
290
     0
176
     1
290
     0
176
     1
290
     0
176
     1
290
     0
176
     1
290
     0
176
     1
 90
       50
176
     1
 40
0.0
176
     1
 40
1.0
176
     1
 90
        0
176
     1
 62
    18
420
        0
176
     1
 90
       50
176
     1
 90
        3
176
     1
 62
     5
420
      255
176
     1
290
     0
176
     1
 90
       50
176
     1
 90
       50
176
     1
 90
       50
176
     1
290
     0
176
     1
 90
       50
176
     1
 62
   256
176
     0
 40
1.0
176
     0
 90
        2
176
     1
  1
strokes_ogs.tif
176
     1
290
     0
176
     1
 40
1.0
176
     1
 40
1.0
176
     1
  0
DICTIONARYVAR
  5
260
102
{ACAD_REACTORS
330
25F
102
}
330
25F
100
DictionaryVariables
280
     0
  1
1:1
  0
DICTIONARYVAR
  5
265
102
{ACAD_REACTORS
330
25F
102
}
330
25F
100
DictionaryVariables
280
     0
  1
Standard
  0
DICTIONARYVAR
  5
264
102
{ACAD_REACTORS
330
25F
102
}
330
25F
100
DictionaryVariables
280
     0
  1
Standard
  0
DICTIONARY
  5
261
330
6A
100
AcDbDictionary
280
     1
281
     1
  3
ACAD_ROUNDTRIP_2008_TABLESTYLE_CELLSTYLEMAP
360
262
  0
CELLSTYLEMAP
  5
262
102
{ACAD_REACTORS
330
261
102
}
330
261
100
AcDbCellStyleMap
 90
        3
300
CELLSTYLE
  1
TABLEFORMAT_BEGIN
 90
        5
170
     1
 91
        0
 92
    32768
 62
   257
 93
        1
300
CONTENTFORMAT
  1
CONTENTFORMAT_BEGIN
 90
        0
 91
        0
 92
        4
 93
        0
300

 40
0.0
140
1.0
 94
        5
 62
     0
340
11
144
0.25
309
CONTENTFORMAT_END
171
     1
301
MARGIN
  1
CELLMARGIN_BEGIN
 40
0.06
 40
0.06
 40
0.06
 40
0.06
 40
0.06
 40
0.06
309
CELLMARGIN_END
 94
        6
 95
        1
302
GRIDFORMAT
  1
GRIDFORMAT_BEGIN
 90
        0
 91
        1
 62
     0
 92
       -2
340
14
 93
        0
 40
0.045
309
GRIDFORMAT_END
 95
        2
302
GRIDFORMAT
  1
GRIDFORMAT_BEGIN
 90
        0
 91
        1
 62
     0
 92
       -2
340
14
 93
        0
 40
0.045
309
GRIDFORMAT_END
 95
        4
302
GRIDFORMAT
  1
GRIDFORMAT_BEGIN
 90
        0
 91
        1
 62
     0
 92
       -2
340
14
 93
        0
 40
0.045
309
GRIDFORMAT_END
 95
        8
302
GRIDFORMAT
  1
GRIDFORMAT_BEGIN
 90
        0
 91
        1
 62
     0
 92
       -2
340
14
 93
        0
 40
0.045
309
GRIDFORMAT_END
 95
       16
302
GRIDFORMAT
  1
GRIDFORMAT_BEGIN
 90
        0
 91
        1
 62
     0
 92
       -2
340
14
 93
        0
 40
0.045
309
GRIDFORMAT_END
 95
       32
302
GRIDFORMAT
  1
GRIDFORMAT_BEGIN
 90
        0
 91
        1
 62
     0
 92
       -2
340
14
 93
        0
 40
0.045
309
GRIDFORMAT_END
309
TABLEFORMAT_END
  1
CELLSTYLE_BEGIN
 90
        1
 91
        1
300
_TITLE
309
CELLSTYLE_END
300
CELLSTYLE
  1
TABLEFORMAT_BEGIN
 90
        5
170
     1
 91
        0
 92
        0
 62
   257
 93
        1
300
CONTENTFORMAT
  1
CONTENTFORMAT_BEGIN
 90
        0
 91
        0
 92
        4
 93
        0
300

 40
0.0
140
1.0
 94
        5
 62
     0
340
11
144
0.18
309
CONTENTFORMAT_END
171
     1
301
MARGIN
  1
CELLMARGIN_BEGIN
 40
0.06
 40
0.06
 40
0.06
 40
0.06
 40
0.06
 40
0.06
309
CELLMARGIN_END
 94
        6
 95
        1
302
GRIDFORMAT
  1
GRIDFORMAT_BEGIN
 90
        0
 91
        1
 62
     0
 92
       -2
340
14
 93
        0
 40
0.045
309
GRIDFORMAT_END
 95
        2
302
GRIDFORMAT
  1
GRIDFORMAT_BEGIN
 90
        0
 91
        1
 62
     0
 92
       -2
340
14
 93
        0
 40
0.045
309
GRIDFORMAT_END
 95
        4
302
GRIDFORMAT
  1
GRIDFORMAT_BEGIN
 90
        0
 91
        1
 62
     0
 92
       -2
340
14
 93
        0
 40
0.045
309
GRIDFORMAT_END
 95
        8
302
GRIDFORMAT
  1
GRIDFORMAT_BEGIN
 90
        0
 91
        1
 62
     0
 92
       -2
340
14
 93
        0
 40
0.045
309
GRIDFORMAT_END
 95
       16
302
GRIDFORMAT
  1
GRIDFORMAT_BEGIN
 90
        0
 91
        1
 62
     0
 92
       -2
340
14
 93
        0
 40
0.045
309
GRIDFORMAT_END
 95
       32
302
GRIDFORMAT
  1
GRIDFORMAT_BEGIN
 90
        0
 91
        1
 62
     0
 92
       -2
340
14
 93
        0
 40
0.045
309
GRIDFORMAT_END
309
TABLEFORMAT_END
  1
CELLSTYLE_BEGIN
 90
        2
 91
        1
300
_HEADER
309
CELLSTYLE_END
300
CELLSTYLE
  1
TABLEFORMAT_BEGIN
 90
        5
170
     1
 91
        0
 92
        0
 62
   257
 93
        1
300
CONTENTFORMAT
  1
CONTENTFORMAT_BEGIN
 90
        0
 91
        0
 92
        4
 93
        0
300

 40
0.0
140
1.0
 94
        2
 62
     0
340
11
144
0.18
309
CONTENTFORMAT_END
171
     1
301
MARGIN
  1
CELLMARGIN_BEGIN
 40
0.06
 40
0.06
 40
0.06
 40
0.06
 40
0.06
 40
0.06
309
CELLMARGIN_END
 94
        6
 95
        1
302
GRIDFORMAT
  1
GRIDFORMAT_BEGIN
 90
        0
 91
        1
 62
     0
 92
       -2
340
14
 93
        0
 40
0.045
309
GRIDFORMAT_END
 95
        2
302
GRIDFORMAT
  1
GRIDFORMAT_BEGIN
 90
        0
 91
        1
 62
     0
 92
       -2
340
14
 93
        0
 40
0.045
309
GRIDFORMAT_END
 95
        4
302
GRIDFORMAT
  1
GRIDFORMAT_BEGIN
 90
        0
 91
        1
 62
     0
 92
       -2
340
14
 93
        0
 40
0.045
309
GRIDFORMAT_END
 95
        8
302
GRIDFORMAT
  1
GRIDFORMAT_BEGIN
 90
        0
 91
        1
 62
     0
 92
       -2
340
14
 93
        0
 40
0.045
309
GRIDFORMAT_END
 95
       16
302
GRIDFORMAT
  1
GRIDFORMAT_BEGIN
 90
        0
 91
        1
 62
     0
 92
       -2
340
14
 93
        0
 40
0.045
309
GRIDFORMAT_END
 95
       32
302
GRIDFORMAT
  1
GRIDFORMAT_BEGIN
 90
        0
 91
        1
 62
     0
 92
       -2
340
14
 93
        0
 40
0.045
309
GRIDFORMAT_END
309
TABLEFORMAT_END
  1
CELLSTYLE_BEGIN
 90
        3
 91
        2
300
_DATA
309
CELLSTYLE_END
  0
ENDSEC
  0
EOF