0
SECTION
  2
HEADER
  9
$ACADVER
  1
AC1027
  9
$ACADMAINTVER
 70
     8
  9
$DWGCODEPAGE
  3
ANSI_1252
  9
$REQUIREDVERSIONS
160
                 0
  9
$COMMENTS
  1
File was created by Cadenas
  9
$CUSTOMPROPERTYTAG
  1
NN
  9
$CUSTOMPROPERTY
  1
TP Take-Up Trident Seal
  9
$CUSTOMPROPERTYTAG
  1
NT
  9
$CUSTOMPROPERTY
  1
S-2000 TPHU Take-Up Bearing -Inch
  9
$CUSTOMPROPERTYTAG
  1
NB
  9
$CUSTOMPROPERTY
  1
070836
  9
$CUSTOMPROPERTYTAG
  1
NBSYN
  9
$CUSTOMPROPERTY
  1
$PN.
  9
$CUSTOMPROPERTYTAG
  1
LINA
  9
$CUSTOMPROPERTY
  1
070836
  9
$CUSTOMPROPERTYTAG
  1
SS
  9
$CUSTOMPROPERTY
  1
2-15/16
  9
$CUSTOMPROPERTYTAG
  1
PN
  9
$CUSTOMPROPERTY
  1
070836
  9
$CUSTOMPROPERTYTAG
  1
DESCRIPTION
  9
$CUSTOMPROPERTY
  1
TPHU-S2-215RE
  9
$CUSTOMPROPERTYTAG
  1
EF
  9
$CUSTOMPROPERTY
  1
Expansion Type
  9
$CUSTOMPROPERTYTAG
  1
ST
  9
$CUSTOMPROPERTY
  1
Contact Seal
  9
$CUSTOMPROPERTYTAG
  1
A
  9
$CUSTOMPROPERTY
  1
3-19/32
  9
$CUSTOMPROPERTYTAG
  1
B
  9
$CUSTOMPROPERTY
  1
2-3/4
  9
$CUSTOMPROPERTYTAG
  1
C
  9
$CUSTOMPROPERTY
  1
13/16
  9
$CUSTOMPROPERTYTAG
  1
D
  9
$CUSTOMPROPERTY
  1
7-1/8
  9
$CUSTOMPROPERTYTAG
  1
E
  9
$CUSTOMPROPERTY
  1
3-5/16
  9
$CUSTOMPROPERTYTAG
  1
F
  9
$CUSTOMPROPERTY
  1
1-7/16
  9
$CUSTOMPROPERTYTAG
  1
G
  9
$CUSTOMPROPERTY
  1
9/16
  9
$CUSTOMPROPERTYTAG
  1
H
  9
$CUSTOMPROPERTY
  1
8-1/2
  9
$CUSTOMPROPERTYTAG
  1
J
  9
$CUSTOMPROPERTY
  1
8-1/2
  9
$CUSTOMPROPERTYTAG
  1
K
  9
$CUSTOMPROPERTY
  1
4
  9
$CUSTOMPROPERTYTAG
  1
L
  9
$CUSTOMPROPERTY
  1
4-45/64
  9
$CUSTOMPROPERTYTAG
  1
M
  9
$CUSTOMPROPERTY
  1
8
  9
$CUSTOMPROPERTYTAG
  1
N
  9
$CUSTOMPROPERTY
  1
1-15/16
  9
$CUSTOMPROPERTYTAG
  1
P
  9
$CUSTOMPROPERTY
  1
1-3/4
  9
$CUSTOMPROPERTYTAG
  1
Q
  9
$CUSTOMPROPERTY
  1
1-1/16
  9
$CUSTOMPROPERTYTAG
  1
R
  9
$CUSTOMPROPERTY
  1
3-53/64
  9
$CUSTOMPROPERTYTAG
  1
S
  9
$CUSTOMPROPERTY
  1
2-29/64
  9
$CUSTOMPROPERTYTAG
  1
T
  9
$CUSTOMPROPERTY
  1
5/16
  9
$CUSTOMPROPERTYTAG
  1
U
  9
$CUSTOMPROPERTY
  1
1-1/2
  9
$CUSTOMPROPERTYTAG
  1
V
  9
$CUSTOMPROPERTY
  1
2-3/4
  9
$CUSTOMPROPERTYTAG
  1
W
  9
$CUSTOMPROPERTY
  1
1
  9
$CUSTOMPROPERTYTAG
  1
X
  9
$CUSTOMPROPERTY
  1
1/4
  9
$CUSTOMPROPERTYTAG
  1
Y
  9
$CUSTOMPROPERTY
  1
0.025
  9
$CUSTOMPROPERTYTAG
  1
Z
  9
$CUSTOMPROPERTY
  1
3-15/32
  9
$CUSTOMPROPERTYTAG
  1
COMPANY
  9
$CUSTOMPROPERTY
  1
baldor
  9
$INSBASE
 10
0.0
 20
0.0
 30
0.0
  9
$EXTMIN
 10
1.000000000000000E+20
 20
1.000000000000000E+20
 30
1.000000000000000E+20
  9
$EXTMAX
 10
-1.000000000000000E+20
 20
-1.000000000000000E+20
 30
-1.000000000000000E+20
  9
$LIMMIN
 10
0.0
 20
0.0
  9
$LIMMAX
 10
12.0
 20
9.0
  9
$ORTHOMODE
 70
     0
  9
$REGENMODE
 70
     1
  9
$FILLMODE
 70
     1
  9
$QTEXTMODE
 70
     0
  9
$MIRRTEXT
 70
     1
  9
$LTSCALE
 40
1.0
  9
$ATTMODE
 70
     1
  9
$TEXTSIZE
 40
0.2
  9
$TRACEWID
 40
0.05
  9
$TEXTSTYLE
  7
Standard
  9
$CLAYER
  8
0
  9
$CELTYPE
  6
ByLayer
  9
$CECOLOR
 62
   256
  9
$CELTSCALE
 40
1.0
  9
$DISPSILH
 70
     0
  9
$DIMSCALE
 40
1.0
  9
$DIMASZ
 40
0.18
  9
$DIMEXO
 40
0.0625
  9
$DIMDLI
 40
0.38
  9
$DIMRND
 40
0.0
  9
$DIMDLE
 40
0.0
  9
$DIMEXE
 40
0.18
  9
$DIMTP
 40
0.0
  9
$DIMTM
 40
0.0
  9
$DIMTXT
 40
0.18
  9
$DIMCEN
 40
0.09
  9
$DIMTSZ
 40
0.0
  9
$DIMTOL
 70
     0
  9
$DIMLIM
 70
     0
  9
$DIMTIH
 70
     1
  9
$DIMTOH
 70
     1
  9
$DIMSE1
 70
     0
  9
$DIMSE2
 70
     0
  9
$DIMTAD
 70
     0
  9
$DIMZIN
 70
     0
  9
$DIMBLK
  1

  9
$DIMASO
 70
     1
  9
$DIMSHO
 70
     1
  9
$DIMPOST
  1

  9
$DIMAPOST
  1

  9
$DIMALT
 70
     0
  9
$DIMALTD
 70
     2
  9
$DIMALTF
 40
25.4
  9
$DIMLFAC
 40
1.0
  9
$DIMTOFL
 70
     0
  9
$DIMTVP
 40
0.0
  9
$DIMTIX
 70
     0
  9
$DIMSOXD
 70
     0
  9
$DIMSAH
 70
     0
  9
$DIMBLK1
  1

  9
$DIMBLK2
  1

  9
$DIMSTYLE
  2
Standard
  9
$DIMCLRD
 70
     0
  9
$DIMCLRE
 70
     0
  9
$DIMCLRT
 70
     0
  9
$DIMTFAC
 40
1.0
  9
$DIMGAP
 40
0.09
  9
$DIMJUST
 70
     0
  9
$DIMSD1
 70
     0
  9
$DIMSD2
 70
     0
  9
$DIMTOLJ
 70
     1
  9
$DIMTZIN
 70
     0
  9
$DIMALTZ
 70
     0
  9
$DIMALTTZ
 70
     0
  9
$DIMUPT
 70
     0
  9
$DIMDEC
 70
     4
  9
$DIMTDEC
 70
     4
  9
$DIMALTU
 70
     2
  9
$DIMALTTD
 70
     2
  9
$DIMTXSTY
  7
Standard
  9
$DIMAUNIT
 70
     0
  9
$DIMADEC
 70
     0
  9
$DIMALTRND
 40
0.0
  9
$DIMAZIN
 70
     0
  9
$DIMDSEP
 70
    46
  9
$DIMATFIT
 70
     3
  9
$DIMFRAC
 70
     0
  9
$DIMLDRBLK
  1

  9
$DIMLUNIT
 70
     2
  9
$DIMLWD
 70
    -2
  9
$DIMLWE
 70
    -2
  9
$DIMTMOVE
 70
     0
  9
$DIMFXL
 40
1.0
  9
$DIMFXLON
 70
     0
  9
$DIMJOGANG
 40
0.7853981633974483
  9
$DIMTFILL
 70
     0
  9
$DIMTFILLCLR
 70
     0
  9
$DIMARCSYM
 70
     0
  9
$DIMLTYPE
  6

  9
$DIMLTEX1
  6

  9
$DIMLTEX2
  6

  9
$DIMTXTDIRECTION
 70
     0
  9
$LUNITS
 70
     2
  9
$LUPREC
 70
     4
  9
$SKETCHINC
 40
0.1
  9
$FILLETRAD
 40
0.5
  9
$AUNITS
 70
     0
  9
$AUPREC
 70
     0
  9
$MENU
  1
.
  9
$ELEVATION
 40
0.0
  9
$PELEVATION
 40
0.0
  9
$THICKNESS
 40
0.0
  9
$LIMCHECK
 70
     0
  9
$CHAMFERA
 40
0.0
  9
$CHAMFERB
 40
0.0
  9
$CHAMFERC
 40
0.0
  9
$CHAMFERD
 40
0.0
  9
$SKPOLY
 70
     0
  9
$TDCREATE
 40
2458168.984001655
  9
$TDUCREATE
 40
2458168.942334989
  9
$TDUPDATE
 40
2458168.98400184
  9
$TDUUPDATE
 40
2458168.942335173
  9
$TDINDWG
 40
0.0000000116
  9
$TDUSRTIMER
 40
0.0000000116
  9
$USRTIMER
 70
     1
  9
$ANGBASE
 50
0.0
  9
$ANGDIR
 70
     0
  9
$PDMODE
 70
     0
  9
$PDSIZE
 40
0.0
  9
$PLINEWID
 40
0.0
  9
$SPLFRAME
 70
     0
  9
$SPLINETYPE
 70
     6
  9
$SPLINESEGS
 70
     8
  9
$HANDSEED
  5
258
  9
$SURFTAB1
 70
     6
  9
$SURFTAB2
 70
     6
  9
$SURFTYPE
 70
     6
  9
$SURFU
 70
     6
  9
$SURFV
 70
     6
  9
$UCSBASE
  2

  9
$UCSNAME
  2

  9
$UCSORG
 10
0.0
 20
0.0
 30
0.0
  9
$UCSXDIR
 10
1.0
 20
0.0
 30
0.0
  9
$UCSYDIR
 10
0.0
 20
1.0
 30
0.0
  9
$UCSORTHOREF
  2

  9
$UCSORTHOVIEW
 70
     0
  9
$UCSORGTOP
 10
0.0
 20
0.0
 30
0.0
  9
$UCSORGBOTTOM
 10
0.0
 20
0.0
 30
0.0
  9
$UCSORGLEFT
 10
0.0
 20
0.0
 30
0.0
  9
$UCSORGRIGHT
 10
0.0
 20
0.0
 30
0.0
  9
$UCSORGFRONT
 10
0.0
 20
0.0
 30
0.0
  9
$UCSORGBACK
 10
0.0
 20
0.0
 30
0.0
  9
$PUCSBASE
  2

  9
$PUCSNAME
  2

  9
$PUCSORG
 10
0.0
 20
0.0
 30
0.0
  9
$PUCSXDIR
 10
1.0
 20
0.0
 30
0.0
  9
$PUCSYDIR
 10
0.0
 20
1.0
 30
0.0
  9
$PUCSORTHOREF
  2

  9
$PUCSORTHOVIEW
 70
     0
  9
$PUCSORGTOP
 10
0.0
 20
0.0
 30
0.0
  9
$PUCSORGBOTTOM
 10
0.0
 20
0.0
 30
0.0
  9
$PUCSORGLEFT
 10
0.0
 20
0.0
 30
0.0
  9
$PUCSORGRIGHT
 10
0.0
 20
0.0
 30
0.0
  9
$PUCSORGFRONT
 10
0.0
 20
0.0
 30
0.0
  9
$PUCSORGBACK
 10
0.0
 20
0.0
 30
0.0
  9
$USERI1
 70
     0
  9
$USERI2
 70
     0
  9
$USERI3
 70
     0
  9
$USERI4
 70
     0
  9
$USERI5
 70
     0
  9
$USERR1
 40
0.0
  9
$USERR2
 40
0.0
  9
$USERR3
 40
0.0
  9
$USERR4
 40
0.0
  9
$USERR5
 40
0.0
  9
$WORLDVIEW
 70
     1
  9
$SHADEDGE
 70
     3
  9
$SHADEDIF
 70
    70
  9
$TILEMODE
 70
     1
  9
$MAXACTVP
 70
    64
  9
$PINSBASE
 10
0.0
 20
0.0
 30
0.0
  9
$PLIMCHECK
 70
     0
  9
$PEXTMIN
 10
1.000000000000000E+20
 20
1.000000000000000E+20
 30
1.000000000000000E+20
  9
$PEXTMAX
 10
-1.000000000000000E+20
 20
-1.000000000000000E+20
 30
-1.000000000000000E+20
  9
$PLIMMIN
 10
0.0
 20
0.0
  9
$PLIMMAX
 10
12.0
 20
9.0
  9
$UNITMODE
 70
     0
  9
$VISRETAIN
 70
     1
  9
$PLINEGEN
 70
     0
  9
$PSLTSCALE
 70
     1
  9
$TREEDEPTH
 70
  3020
  9
$CMLSTYLE
  2
Standard
  9
$CMLJUST
 70
     0
  9
$CMLSCALE
 40
1.0
  9
$PROXYGRAPHICS
 70
     1
  9
$MEASUREMENT
 70
     0
  9
$CELWEIGHT
370
    -1
  9
$ENDCAPS
280
     0
  9
$JOINSTYLE
280
     0
  9
$LWDISPLAY
290
     0
  9
$INSUNITS
 70
     1
  9
$HYPERLINKBASE
  1

  9
$STYLESHEET
  1

  9
$XEDIT
290
     1
  9
$CEPSNTYPE
380
     0
  9
$PSTYLEMODE
290
     1
  9
$FINGERPRINTGUID
  2
{8F85B203-C49C-40CB-8991-837DDCDD2A4C}
  9
$VERSIONGUID
  2
{FAEB1C32-E019-11D5-929B-00C0DF256EC4}
  9
$EXTNAMES
290
     1
  9
$PSVPSCALE
 40
0.0
  9
$OLESTARTUP
290
     0
  9
$SORTENTS
280
   127
  9
$INDEXCTL
280
     0
  9
$HIDETEXT
280
     1
  9
$XCLIPFRAME
280
     2
  9
$HALOGAP
280
     0
  9
$OBSCOLOR
 70
   257
  9
$OBSLTYPE
280
     0
  9
$INTERSECTIONDISPLAY
280
     0
  9
$INTERSECTIONCOLOR
 70
   257
  9
$DIMASSOC
280
     2
  9
$PROJECTNAME
  1

  9
$CAMERADISPLAY
290
     0
  9
$LENSLENGTH
 40
50.0
  9
$CAMERAHEIGHT
 40
0.0
  9
$STEPSPERSEC
 40
2.0
  9
$STEPSIZE
 40
6.0
  9
$3DDWFPREC
 40
2.0
  9
$PSOLWIDTH
 40
0.25
  9
$PSOLHEIGHT
 40
4.0
  9
$LOFTANG1
 40
1.570796326794897
  9
$LOFTANG2
 40
1.570796326794897
  9
$LOFTMAG1
 40
0.0
  9
$LOFTMAG2
 40
0.0
  9
$LOFTPARAM
 70
     7
  9
$LOFTNORMALS
280
     1
  9
$LATITUDE
 40
37.795
  9
$LONGITUDE
 40
-122.394
  9
$NORTHDIRECTION
 40
0.0
  9
$TIMEZONE
 70
 -8000
  9
$LIGHTGLYPHDISPLAY
280
     1
  9
$TILEMODELIGHTSYNCH
280
     1
  9
$CMATERIAL
347
44
  9
$SOLIDHIST
280
     0
  9
$SHOWHIST
280
     1
  9
$DWFFRAME
280
     2
  9
$DGNFRAME
280
     2
  9
$REALWORLDSCALE
290
     1
  9
$INTERFERECOLOR
 62
   256
  9
$CSHADOW
280
     0
  9
$SHADOWPLANELOCATION
 40
0.0
  0
ENDSEC
  0
SECTION
  2
CLASSES
  0
CLASS
  1
ACDBDICTIONARYWDFLT
  2
AcDbDictionaryWithDefault
  3
ObjectDBX Classes
 90
        0
 91
        4
280
     0
281
     0
  0
CLASS
  1
VISUALSTYLE
  2
AcDbVisualStyle
  3
ObjectDBX Classes
 90
     4095
 91
        4
280
     0
281
     0
  0
CLASS
  1
MATERIAL
  2
AcDbMaterial
  3
ObjectDBX Classes
 90
     1153
 91
        4
280
     0
281
     0
  0
CLASS
  1
SCALE
  2
AcDbScale
  3
ObjectDBX Classes
 90
     1153
 91
        4
280
     0
281
     0
  0
CLASS
  1
TABLESTYLE
  2
AcDbTableStyle
  3
ObjectDBX Classes
 90
     4095
 91
        4
280
     0
281
     0
  0
CLASS
  1
MLEADERSTYLE
  2
AcDbMLeaderStyle
  3
ACDB_MLEADERSTYLE_CLASS
 90
     4095
 91
        4
280
     0
281
     0
  0
CLASS
  1
SUN
  2
AcDbSun
  3
SCENEOE
 90
     1153
 91
        4
280
     0
281
     0
  0
CLASS
  1
DICTIONARYVAR
  2
AcDbDictionaryVar
  3
ObjectDBX Classes
 90
        0
 91
        4
280
     0
281
     0
  0
CLASS
  1
CELLSTYLEMAP
  2
AcDbCellStyleMap
  3
ObjectDBX Classes
 90
     1152
 91
        4
280
     0
281
     0
  0
ENDSEC
  0
SECTION
  2
TABLES
  0
TABLE
  2
VPORT
  5
8
330
0
100
AcDbSymbolTable
 70
     1
  0
VPORT
  5
29
330
8
100
AcDbSymbolTableRecord
100
AcDbViewportTableRecord
  2
*Active
 70
     0
 10
0.0
 20
0.0
 11
1.0
 21
1.0
 12
-0.4182187500000012
 22
-0.1041406249999994
 13
0.0
 23
0.0
 14
0.5
 24
0.5
 15
0.5
 25
0.5
 16
0.0
 26
0.0
 36
1.0
 17
0.0
 27
0.0
 37
0.0
 40
9.392446875
 41
0.5352994078020802
 42
50.0
 43
0.0
 44
0.0
 50
0.0
 51
0.0
 71
     0
 72
   100
 73
     1
 74
     3
 75
     0
 76
     0
 77
     0
 78
     0
281
     0
 65
     1
110
0.0
120
0.0
130
0.0
111
1.0
121
0.0
131
0.0
112
0.0
122
1.0
132
0.0
 79
     0
146
0.0
348
2F
 60
     3
 61
     5
292
     1
282
     1
141
0.0
142
0.0
 63
   250
361
6D
  0
ENDTAB
  0
TABLE
  2
LTYPE
  5
5
330
0
100
AcDbSymbolTable
 70
     3
  0
LTYPE
  5
14
330
5
100
AcDbSymbolTableRecord
100
AcDbLinetypeTableRecord
  2
ByBlock
 70
     0
  3

 72
    65
 73
     0
 40
0.0
  0
LTYPE
  5
15
330
5
100
AcDbSymbolTableRecord
100
AcDbLinetypeTableRecord
  2
ByLayer
 70
     0
  3

 72
    65
 73
     0
 40
0.0
  0
LTYPE
  5
16
330
5
100
AcDbSymbolTableRecord
100
AcDbLinetypeTableRecord
  2
Continuous
 70
     0
  3
Solid line
 72
    65
 73
     0
 40
0.0
  0
LTYPE
  5
A7
330
5
100
AcDbSymbolTableRecord
100
AcDbLinetypeTableRecord
  2
Dashed
 70
     0
  3

 72
    65
 73
     2
 40
2.0
 49
1.0
 74
     0
 49
-1.0
 74
     0
  0
LTYPE
  5
1AB
330
5
100
AcDbSymbolTableRecord
100
AcDbLinetypeTableRecord
  2
Center
 70
     0
  3

 72
    65
 73
     4
 40
1.5
 49
0.45
 74
     0
 49
-0.5
 74
     0
 49
0.05
 74
     0
 49
-0.5
 74
     0
  0
ENDTAB
  0
TABLE
  2
LAYER
  5
2
330
0
100
AcDbSymbolTable
 70
     7
  0
LAYER
  5
10
330
2
100
AcDbSymbolTableRecord
100
AcDbLayerTableRecord
  2
0
 70
     0
 62
     7
  6
Continuous
370
    -3
390
F
347
46
348
0
  0
LAYER
  5
72
330
2
100
AcDbSymbolTableRecord
100
AcDbLayerTableRecord
  2
AM_6
 70
     0
 62
    -2
  6
Continuous
370
    35
390
F
347
46
348
0
  0
LAYER
  5
A8
330
2
100
AcDbSymbolTableRecord
100
AcDbLayerTableRecord
  2
AM_9
 70
     0
 62
     6
  6
Dashed
370
    25
390
F
347
46
348
0
  0
LAYER
  5
D1
330
2
100
AcDbSymbolTableRecord
100
AcDbLayerTableRecord
  2
AM_4
 70
     0
 62
     7
  6
Continuous
370
    50
390
F
347
46
348
0
  0
LAYER
  5
FA
330
2
100
AcDbSymbolTableRecord
100
AcDbLayerTableRecord
  2
AM_5
 70
     0
 62
     3
  6
Continuous
370
    25
390
F
347
46
348
0
  0
LAYER
  5
1AC
330
2
100
AcDbSymbolTableRecord
100
AcDbLayerTableRecord
  2
AM_7
 70
     0
 62
     7
  6
Center
370
    25
390
F
347
46
348
0
  0
LAYER
  5
247
330
2
100
AcDbSymbolTableRecord
100
AcDbLayerTableRecord
  2
ConnectionPoints
 70
     0
 62
     7
  6
Continuous
370
    50
390
F
347
46
348
0
  0
ENDTAB
  0
TABLE
  2
STYLE
  5
3
330
0
100
AcDbSymbolTable
 70
     1
  0
STYLE
  5
11
330
3
100
AcDbSymbolTableRecord
100
AcDbTextStyleTableRecord
  2
Standard
 70
     0
 40
0.0
 41
1.0
 50
0.0
 71
     0
 42
0.2
  3
txt
  4

  0
ENDTAB
  0
TABLE
  2
VIEW
  5
6
330
0
100
AcDbSymbolTable
 70
     0
  0
ENDTAB
  0
TABLE
  2
UCS
  5
7
330
0
100
AcDbSymbolTable
 70
     0
  0
ENDTAB
  0
TABLE
  2
APPID
  5
9
330
0
100
AcDbSymbolTable
 70
     1
  0
APPID
  5
12
330
9
100
AcDbSymbolTableRecord
100
AcDbRegAppTableRecord
  2
ACAD
 70
     0
  0
ENDTAB
  0
TABLE
  2
DIMSTYLE
  5
A
330
0
100
AcDbSymbolTable
 70
     1
100
AcDbDimStyleTable
  0
DIMSTYLE
105
27
330
A
100
AcDbSymbolTableRecord
100
AcDbDimStyleTableRecord
  2
Standard
 70
     0
178
     0
340
11
  0
ENDTAB
  0
TABLE
  2
BLOCK_RECORD
  5
1
330
0
100
AcDbSymbolTable
 70
     6
  0
BLOCK_RECORD
  5
1F
330
1
100
AcDbSymbolTableRecord
100
AcDbBlockTableRecord
  2
*Model_Space
340
22
 70
     0
280
     1
281
     0
  0
BLOCK_RECORD
  5
1B
330
1
100
AcDbSymbolTableRecord
100
AcDbBlockTableRecord
  2
*Paper_Space
340
1E
 70
     0
280
     1
281
     0
  0
BLOCK_RECORD
  5
23
330
1
100
AcDbSymbolTableRecord
100
AcDbBlockTableRecord
  2
*Paper_Space0
340
26
 70
     0
280
     1
281
     0
  0
BLOCK_RECORD
  5
6E
330
1
100
AcDbSymbolTableRecord
100
AcDbBlockTableRecord
  2
1_070836_2
340
0
102
{BLKREFS
331
6F
102
}
 70
     0
280
     1
281
     0
  0
BLOCK_RECORD
  5
96
330
1
100
AcDbSymbolTableRecord
100
AcDbBlockTableRecord
  2
2_405016_Inch_0_in_070836_2
340
0
102
{BLKREFS
331
97
102
}
 70
     0
280
     1
281
     0
  0
BLOCK_RECORD
  5
FE
330
1
100
AcDbSymbolTableRecord
100
AcDbBlockTableRecord
  2
3_2_15_16CS2i_0_in_070836_2
340
0
102
{BLKREFS
331
FF
102
}
 70
     0
280
     1
281
     0
  0
BLOCK_RECORD
  5
14D
330
1
100
AcDbSymbolTableRecord
100
AcDbBlockTableRecord
  2
4_070010i_0_in_070836_2
340
0
102
{BLKREFS
331
14E
102
}
 70
     0
280
     1
281
     0
  0
BLOCK_RECORD
  5
1B1
330
1
100
AcDbSymbolTableRecord
100
AcDbBlockTableRecord
  2
5_070836H_0_in_070836_2
340
0
102
{BLKREFS
331
1B2
102
}
 70
     0
280
     1
281
     0
  0
ENDTAB
  0
ENDSEC
  0
SECTION
  2
BLOCKS
  0
BLOCK
  5
20
330
1F
100
AcDbEntity
  8
0
100
AcDbBlockBegin
  2
*Model_Space
 70
     0
 10
0.0
 20
0.0
 30
0.0
  3
*Model_Space
  1

  0
ENDBLK
  5
21
330
1F
100
AcDbEntity
  8
0
100
AcDbBlockEnd
  0
BLOCK
  5
1C
330
1B
100
AcDbEntity
 67
     1
  8
0
100
AcDbBlockBegin
  2
*Paper_Space
 70
     0
 10
0.0
 20
0.0
 30
0.0
  3
*Paper_Space
  1

  0
ENDBLK
  5
1D
330
1B
100
AcDbEntity
 67
     1
  8
0
100
AcDbBlockEnd
  0
BLOCK
  5
24
330
23
100
AcDbEntity
  8
0
100
AcDbBlockBegin
  2
*Paper_Space0
 70
     0
 10
0.0
 20
0.0
 30
0.0
  3
*Paper_Space0
  1

  0
ENDBLK
  5
25
330
23
100
AcDbEntity
  8
0
100
AcDbBlockEnd
  0
BLOCK
  5
70
330
6E
100
AcDbEntity
  8
0
100
AcDbBlockBegin
  2
1_070836_2
 70
     2
 10
0.0
 20
0.0
 30
0.0
  3
1_070836_2
  1

  0
ATTDEF
  5
73
330
6E
100
AcDbEntity
  8
AM_6
100
AcDbText
 10
7.016666666666667
 20
4.5
 30
0.0
 40
0.5
  1
TP Take-Up Trident Seal
100
AcDbAttributeDefinition
  3

  2
NN
 70
     8
280
     0
  0
ATTDEF
  5
74
330
6E
100
AcDbEntity
  8
AM_6
100
AcDbText
 10
7.016666666666667
 20
4.0
 30
0.0
 40
0.5
  1
S-2000 TPHU Take-Up Bearing -Inch
100
AcDbAttributeDefinition
  3

  2
NT
 70
     8
280
     0
  0
ATTDEF
  5
75
330
6E
100
AcDbEntity
  8
AM_6
100
AcDbText
 10
7.016666666666667
 20
3.5
 30
0.0
 40
0.5
  1
070836
100
AcDbAttributeDefinition
  3

  2
NB
 70
     8
280
     0
  0
ATTDEF
  5
76
330
6E
100
AcDbEntity
  8
AM_6
100
AcDbText
 10
7.016666666666667
 20
3.0
 30
0.0
 40
0.5
  1
$PN.
100
AcDbAttributeDefinition
  3

  2
NBSYN
 70
     8
280
     0
  0
ATTDEF
  5
77
330
6E
100
AcDbEntity
  8
AM_6
100
AcDbText
 10
7.016666666666667
 20
2.5
 30
0.0
 40
0.5
  1
070836
100
AcDbAttributeDefinition
  3

  2
LINA
 70
     8
280
     0
  0
ATTDEF
  5
78
330
6E
100
AcDbEntity
  8
AM_6
100
AcDbText
 10
7.016666666666667
 20
2.0
 30
0.0
 40
0.5
  1
2-15/16
100
AcDbAttributeDefinition
  3

  2
SS
 70
     8
280
     0
  0
ATTDEF
  5
79
330
6E
100
AcDbEntity
  8
AM_6
100
AcDbText
 10
7.016666666666667
 20
1.5
 30
0.0
 40
0.5
  1
070836
100
AcDbAttributeDefinition
  3

  2
PN
 70
     8
280
     0
  0
ATTDEF
  5
7A
330
6E
100
AcDbEntity
  8
AM_6
100
AcDbText
 10
7.016666666666667
 20
1.0
 30
0.0
 40
0.5
  1
TPHU-S2-215RE
100
AcDbAttributeDefinition
  3

  2
DESCRIPTION
 70
     8
280
     0
  0
ATTDEF
  5
7B
330
6E
100
AcDbEntity
  8
AM_6
100
AcDbText
 10
7.016666666666667
 20
0.5
 30
0.0
 40
0.5
  1
Expansion Type
100
AcDbAttributeDefinition
  3

  2
EF
 70
     8
280
     0
  0
ATTDEF
  5
7C
330
6E
100
AcDbEntity
  8
AM_6
100
AcDbText
 10
7.016666666666667
 20
0.0
 30
0.0
 40
0.5
  1
Contact Seal
100
AcDbAttributeDefinition
  3

  2
ST
 70
     8
280
     0
  0
ATTDEF
  5
7D
330
6E
100
AcDbEntity
  8
AM_6
100
AcDbText
 10
7.016666666666667
 20
-0.5
 30
0.0
 40
0.5
  1
3-19/32
100
AcDbAttributeDefinition
  3

  2
A
 70
     8
280
     0
  0
ATTDEF
  5
7E
330
6E
100
AcDbEntity
  8
AM_6
100
AcDbText
 10
7.016666666666667
 20
-1.0
 30
0.0
 40
0.5
  1
2-3/4
100
AcDbAttributeDefinition
  3

  2
B
 70
     8
280
     0
  0
ATTDEF
  5
7F
330
6E
100
AcDbEntity
  8
AM_6
100
AcDbText
 10
7.016666666666667
 20
-1.5
 30
0.0
 40
0.5
  1
13/16
100
AcDbAttributeDefinition
  3

  2
C
 70
     8
280
     0
  0
ATTDEF
  5
80
330
6E
100
AcDbEntity
  8
AM_6
100
AcDbText
 10
7.016666666666667
 20
-2.0
 30
0.0
 40
0.5
  1
7-1/8
100
AcDbAttributeDefinition
  3

  2
D
 70
     8
280
     0
  0
ATTDEF
  5
81
330
6E
100
AcDbEntity
  8
AM_6
100
AcDbText
 10
7.016666666666667
 20
-2.5
 30
0.0
 40
0.5
  1
3-5/16
100
AcDbAttributeDefinition
  3

  2
E
 70
     8
280
     0
  0
ATTDEF
  5
82
330
6E
100
AcDbEntity
  8
AM_6
100
AcDbText
 10
7.016666666666667
 20
-3.0
 30
0.0
 40
0.5
  1
1-7/16
100
AcDbAttributeDefinition
  3

  2
F
 70
     8
280
     0
  0
ATTDEF
  5
83
330
6E
100
AcDbEntity
  8
AM_6
100
AcDbText
 10
7.016666666666667
 20
-3.5
 30
0.0
 40
0.5
  1
9/16
100
AcDbAttributeDefinition
  3

  2
G
 70
     8
280
     0
  0
ATTDEF
  5
84
330
6E
100
AcDbEntity
  8
AM_6
100
AcDbText
 10
7.016666666666667
 20
-4.0
 30
0.0
 40
0.5
  1
8-1/2
100
AcDbAttributeDefinition
  3

  2
H
 70
     8
280
     0
  0
ATTDEF
  5
85
330
6E
100
AcDbEntity
  8
AM_6
100
AcDbText
 10
7.016666666666667
 20
-4.5
 30
0.0
 40
0.5
  1
8-1/2
100
AcDbAttributeDefinition
  3

  2
J
 70
     8
280
     0
  0
ATTDEF
  5
86
330
6E
100
AcDbEntity
  8
AM_6
100
AcDbText
 10
7.016666666666667
 20
-5.0
 30
0.0
 40
0.5
  1
4
100
AcDbAttributeDefinition
  3

  2
K
 70
     8
280
     0
  0
ATTDEF
  5
87
330
6E
100
AcDbEntity
  8
AM_6
100
AcDbText
 10
7.016666666666667
 20
-5.5
 30
0.0
 40
0.5
  1
4-45/64
100
AcDbAttributeDefinition
  3

  2
L
 70
     8
280
     0
  0
ATTDEF
  5
88
330
6E
100
AcDbEntity
  8
AM_6
100
AcDbText
 10
7.016666666666667
 20
-6.0
 30
0.0
 40
0.5
  1
8
100
AcDbAttributeDefinition
  3

  2
M
 70
     8
280
     0
  0
ATTDEF
  5
89
330
6E
100
AcDbEntity
  8
AM_6
100
AcDbText
 10
7.016666666666667
 20
-6.5
 30
0.0
 40
0.5
  1
1-15/16
100
AcDbAttributeDefinition
  3

  2
N
 70
     8
280
     0
  0
ATTDEF
  5
8A
330
6E
100
AcDbEntity
  8
AM_6
100
AcDbText
 10
7.016666666666667
 20
-7.0
 30
0.0
 40
0.5
  1
1-3/4
100
AcDbAttributeDefinition
  3

  2
P
 70
     8
280
     0
  0
ATTDEF
  5
8B
330
6E
100
AcDbEntity
  8
AM_6
100
AcDbText
 10
7.016666666666667
 20
-7.5
 30
0.0
 40
0.5
  1
1-1/16
100
AcDbAttributeDefinition
  3

  2
Q
 70
     8
280
     0
  0
ATTDEF
  5
8C
330
6E
100
AcDbEntity
  8
AM_6
100
AcDbText
 10
7.016666666666667
 20
-8.0
 30
0.0
 40
0.5
  1
3-53/64
100
AcDbAttributeDefinition
  3

  2
R
 70
     8
280
     0
  0
ATTDEF
  5
8D
330
6E
100
AcDbEntity
  8
AM_6
100
AcDbText
 10
7.016666666666667
 20
-8.5
 30
0.0
 40
0.5
  1
2-29/64
100
AcDbAttributeDefinition
  3

  2
S
 70
     8
280
     0
  0
ATTDEF
  5
8E
330
6E
100
AcDbEntity
  8
AM_6
100
AcDbText
 10
7.016666666666667
 20
-9.0
 30
0.0
 40
0.5
  1
5/16
100
AcDbAttributeDefinition
  3

  2
T
 70
     8
280
     0
  0
ATTDEF
  5
8F
330
6E
100
AcDbEntity
  8
AM_6
100
AcDbText
 10
7.016666666666667
 20
-9.5
 30
0.0
 40
0.5
  1
1-1/2
100
AcDbAttributeDefinition
  3

  2
U
 70
     8
280
     0
  0
ATTDEF
  5
90
330
6E
100
AcDbEntity
  8
AM_6
100
AcDbText
 10
7.016666666666667
 20
-10.0
 30
0.0
 40
0.5
  1
2-3/4
100
AcDbAttributeDefinition
  3

  2
V
 70
     8
280
     0
  0
ATTDEF
  5
91
330
6E
100
AcDbEntity
  8
AM_6
100
AcDbText
 10
7.016666666666667
 20
-10.5
 30
0.0
 40
0.5
  1
1
100
AcDbAttributeDefinition
  3

  2
W
 70
     8
280
     0
  0
ATTDEF
  5
92
330
6E
100
AcDbEntity
  8
AM_6
100
AcDbText
 10
7.016666666666667
 20
-11.0
 30
0.0
 40
0.5
  1
1/4
100
AcDbAttributeDefinition
  3

  2
X
 70
     8
280
     0
  0
ATTDEF
  5
93
330
6E
100
AcDbEntity
  8
AM_6
100
AcDbText
 10
7.016666666666667
 20
-11.5
 30
0.0
 40
0.5
  1
0.025
100
AcDbAttributeDefinition
  3

  2
Y
 70
     8
280
     0
  0
ATTDEF
  5
94
330
6E
100
AcDbEntity
  8
AM_6
100
AcDbText
 10
7.016666666666667
 20
-12.0
 30
0.0
 40
0.5
  1
3-15/32
100
AcDbAttributeDefinition
  3

  2
Z
 70
     8
280
     0
  0
ATTDEF
  5
95
330
6E
100
AcDbEntity
  8
AM_6
100
AcDbText
 10
7.016666666666667
 20
-12.5
 30
0.0
 40
0.5
  1
baldor
100
AcDbAttributeDefinition
  3

  2
COMPANY
 70
     8
280
     0
  0
INSERT
  5
97
330
6E
100
AcDbEntity
  8
0
100
AcDbBlockReference
  2
2_405016_Inch_0_in_070836_2
 10
0.0
 20
0.0
 30
0.0
  0
INSERT
  5
FF
330
6E
100
AcDbEntity
  8
0
100
AcDbBlockReference
  2
3_2_15_16CS2i_0_in_070836_2
 10
0.0
 20
0.0
 30
0.0
  0
INSERT
  5
14E
330
6E
100
AcDbEntity
  8
0
100
AcDbBlockReference
  2
4_070010i_0_in_070836_2
 10
0.0
 20
0.0
 30
0.0
  0
INSERT
  5
1B2
330
6E
100
AcDbEntity
  8
0
100
AcDbBlockReference
  2
5_070836H_0_in_070836_2
 10
0.0
 20
0.0
 30
0.0
  0
ENDBLK
  5
71
330
6E
100
AcDbEntity
  8
0
100
AcDbBlockEnd
  0
BLOCK
  5
98
330
96
100
AcDbEntity
  8
0
100
AcDbBlockBegin
  2
2_405016_Inch_0_in_070836_2
 70
     2
 10
0.0
 20
0.0
 30
0.0
  3
2_405016_Inch_0_in_070836_2
  1

  0
ATTDEF
  5
9A
330
96
100
AcDbEntity
  8
AM_6
100
AcDbText
 10
5.21875
 20
0.2525907427704612
 30
0.0
 40
0.5
  1
405016 -Inch
100
AcDbAttributeDefinition
  3

  2
NN
 70
     8
280
     0
  0
ATTDEF
  5
9B
330
96
100
AcDbEntity
  8
AM_6
100
AcDbText
 10
5.21875
 20
-0.2474092572295388
 30
0.0
 40
0.5
  1
Grease Fitting
100
AcDbAttributeDefinition
  3

  2
NT
 70
     8
280
     0
  0
ATTDEF
  5
9C
330
96
100
AcDbEntity
  8
AM_6
100
AcDbText
 10
5.21875
 20
-0.7474092572295388
 30
0.0
 40
0.5
  1
405016-Inch
100
AcDbAttributeDefinition
  3

  2
NB
 70
     8
280
     0
  0
ATTDEF
  5
9D
330
96
100
AcDbEntity
  8
AM_6
100
AcDbText
 10
5.21875
 20
-1.247409257229539
 30
0.0
 40
0.5
  1
$MN.-Inch
100
AcDbAttributeDefinition
  3

  2
NBSYN
 70
     8
280
     0
  0
ATTDEF
  5
9E
330
96
100
AcDbEntity
  8
AM_6
100
AcDbText
 10
5.21875
 20
-1.747409257229539
 30
0.0
 40
0.5
  1
405016
100
AcDbAttributeDefinition
  3

  2
LINA
 70
     8
280
     0
  0
ATTDEF
  5
9F
330
96
100
AcDbEntity
  8
AM_6
100
AcDbText
 10
5.21875
 20
-2.247409257229539
 30
0.0
 40
0.5
  1
405016
100
AcDbAttributeDefinition
  3

  2
MN
 70
     8
280
     0
  0
ATTDEF
  5
A0
330
96
100
AcDbEntity
  8
AM_6
100
AcDbText
 10
5.21875
 20
-2.747409257229539
 30
0.0
 40
0.5
  1
7/16 HEX
100
AcDbAttributeDefinition
  3

  2
H
 70
     8
280
     0
  0
ATTDEF
  5
A1
330
96
100
AcDbEntity
  8
AM_6
100
AcDbText
 10
5.21875
 20
-3.247409257229539
 30
0.0
 40
0.5
  1
0.383
100
AcDbAttributeDefinition
  3

  2
NDR
 70
     8
280
     0
  0
ATTDEF
  5
A2
330
96
100
AcDbEntity
  8
AM_6
100
AcDbText
 10
5.21875
 20
-3.747409257229539
 30
0.0
 40
0.5
  1
0.337
100
AcDbAttributeDefinition
  3

  2
KDR
 70
     8
280
     0
  0
ATTDEF
  5
A3
330
96
100
AcDbEntity
  8
AM_6
100
AcDbText
 10
5.21875
 20
-4.247409257229538
 30
0.0
 40
0.5
  1
0.1575
100
AcDbAttributeDefinition
  3

  2
BZE
 70
     8
280
     0
  0
ATTDEF
  5
A4
330
96
100
AcDbEntity
  8
AM_6
100
AcDbText
 10
5.21875
 20
-4.747409257229538
 30
0.0
 40
0.5
  1
0.4375
100
AcDbAttributeDefinition
  3

  2
HEX
 70
     8
280
     0
  0
ATTDEF
  5
A5
330
96
100
AcDbEntity
  8
AM_6
100
AcDbText
 10
5.21875
 20
-5.247409257229538
 30
0.0
 40
0.5
  1
0.281250
100
AcDbAttributeDefinition
  3

  2
HEX2
 70
     8
280
     0
  0
ATTDEF
  5
A6
330
96
100
AcDbEntity
  8
AM_6
100
AcDbText
 10
5.21875
 20
-5.747409257229538
 30
0.0
 40
0.5
  1
baldor
100
AcDbAttributeDefinition
  3

  2
COMPANY
 70
     8
280
     0
  0
CIRCLE
  5
A9
330
96
100
AcDbEntity
  8
AM_9
100
AcDbCircle
 10
0.0000000000000002
 20
0.0
 30
0.0
 40
0.1616637258772237
  0
CIRCLE
  5
AA
330
96
100
AcDbEntity
  8
AM_9
100
AcDbCircle
 10
0.0000000000000002
 20
0.0
 30
0.0
 40
0.1854172907249859
  0
ARC
  5
AB
330
96
100
AcDbEntity
  8
AM_9
100
AcDbCircle
 10
-0.00000000000001
 20
-0.0000000000000684
 30
0.0
 40
0.2000000000000103
100
AcDbArc
 50
0.0
 51
162.8954729873538
  0
LINE
  5
AC
330
96
100
AcDbEntity
  8
AM_9
100
AcDbLine
 10
-0.2187499999999998
 20
0.1262953713852306
 30
0.0
 11
-0.2187499999999998
 21
-0.1262953713852306
 31
0.0
  0
LINE
  5
AD
330
96
100
AcDbEntity
  8
AM_9
100
AcDbLine
 10
-0.2187499999999998
 20
-0.1262953713852306
 30
0.0
 11
-0.1897547619531385
 21
-0.1430357798768033
 31
0.0
  0
LINE
  5
AE
330
96
100
AcDbEntity
  8
AM_9
100
AcDbLine
 10
-0.1897043345002184
 20
0.1430648941803213
 30
0.0
 11
-0.2187499999999998
 21
0.1262953713852306
 31
0.0
  0
ARC
  5
AF
330
96
100
AcDbEntity
  8
AM_9
100
AcDbCircle
 10
0.0000000000000081
 20
-0.0000000000000001
 30
0.0
 40
0.2187500000000064
100
AcDbArc
 50
144.0307571663631
 51
215.8935753914904
  0
LINE
  5
B0
330
96
100
AcDbEntity
  8
AM_9
100
AcDbLine
 10
-0.2602304684431302
 20
0.01975639995327
 30
0.0
 11
-0.2602304684431206
 21
-0.0197563999532738
 31
0.0
  0
LINE
  5
B1
330
96
100
AcDbEntity
  8
AM_9
100
AcDbLine
 10
-0.2689146070947219
 20
-0.0811898816047911
 30
0.0
 11
-0.2987675689889715
 21
-0.0811898816047911
 31
0.0
  0
LINE
  5
B2
330
96
100
AcDbEntity
  8
AM_9
100
AcDbLine
 10
-0.2689146070947219
 20
0.0811898816047911
 30
0.0
 11
-0.2987675689889715
 21
0.0811898816047911
 31
0.0
  0
LWPOLYLINE
  5
B3
330
96
100
AcDbEntity
  8
AM_9
100
AcDbPolyline
 90
        3
 70
     0
 43
0.0
 10
-0.2602304684431206
 20
-0.0197563999532738
 10
-0.26169133825892
 20
-0.0370737721666024
 10
-0.2689146070947219
 20
-0.0811898816047911
  0
LWPOLYLINE
  5
B4
330
96
100
AcDbEntity
  8
AM_9
100
AcDbPolyline
 90
        3
 70
     0
 43
0.0
 10
-0.2689146070947219
 20
0.0811898816047911
 10
-0.2634308483997526
 20
0.0507690464395923
 10
-0.2602304684431302
 20
0.01975639995327
  0
ELLIPSE
  5
B5
330
96
100
AcDbEntity
  8
AM_9
100
AcDbEllipse
 10
-0.2013892028241837
 20
-0.0000000000000029
 30
0.0
 11
8.610797806505186E-18
 21
0.1406250000000059
 31
0.0
210
0.0
220
0.0
230
1.0
 40
0.422618261740712
 41
0.6232286105021831
 42
1.429840066212895
  0
LWPOLYLINE
  5
B6
330
96
100
AcDbEntity
  8
AM_9
100
AcDbPolyline
 90
        3
 70
     0
 43
0.0
 10
-0.2360765106845274
 20
0.1141872583780656
 10
-0.2462091938631848
 20
0.1027100776026271
 10
-0.2689146070947219
 20
0.0811898816047911
  0
ELLIPSE
  5
B7
330
96
100
AcDbEntity
  8
AM_9
100
AcDbEllipse
 10
-0.2013892028241893
 20
0.0000000000000006
 30
0.0
 11
8.610797806504861E-18
 21
0.1406250000000006
 31
0.0
210
0.0
220
0.0
230
1.0
 40
0.4226182617406116
 41
1.711752587376912
 42
2.518364043087569
  0
LWPOLYLINE
  5
B8
330
96
100
AcDbEntity
  8
AM_9
100
AcDbPolyline
 90
        3
 70
     0
 43
0.0
 10
-0.2689146070947219
 20
-0.0811898816047911
 10
-0.2512755937295757
 20
-0.0975167708288354
 10
-0.2360765106845271
 20
-0.114187258378066
  0
LWPOLYLINE
  5
B9
330
96
100
AcDbEntity
  8
AM_9
100
AcDbPolyline
 90
        3
 70
     0
 43
0.0
 10
-0.2987675689889715
 20
0.0811898816047911
 10
-0.2912216284034022
 20
0.0975825203205425
 10
-0.2813919000363596
 20
0.1141872583780661
  0
LINE
  5
BA
330
96
100
AcDbEntity
  8
AM_9
100
AcDbLine
 10
-0.3055458577949628
 20
0.0197563999532697
 30
0.0
 11
-0.2987675689889715
 21
0.0811898816047911
 31
0.0
  0
LWPOLYLINE
  5
BB
330
96
100
AcDbEntity
  8
AM_9
100
AcDbPolyline
 90
        3
 70
     0
 43
0.0
 10
-0.2813919000363596
 20
-0.1141872583780661
 10
-0.2911775952746239
 20
-0.0976669589939311
 10
-0.2987675689889715
 20
-0.0811898816047911
  0
LINE
  5
BC
330
96
100
AcDbEntity
  8
AM_9
100
AcDbLine
 10
-0.2987675689889715
 20
-0.0811898816047911
 30
0.0
 11
-0.3055458577949628
 21
-0.0197563999532697
 31
0.0
  0
LWPOLYLINE
  5
BD
330
96
100
AcDbEntity
  8
AM_9
100
AcDbPolyline
 90
        3
 70
     0
 43
0.0
 10
-0.209996266891705
 20
0.1623797632095822
 10
-0.216347937124691
 20
0.1454641154142716
 10
-0.2258378743019626
 20
0.1281745372222425
  0
LINE
  5
BE
330
96
100
AcDbEntity
  8
AM_9
100
AcDbLine
 10
-0.2258378743019626
 20
0.1281745372222425
 30
0.0
 11
-0.2360765106845274
 21
0.1141872583780656
 31
0.0
  0
LWPOLYLINE
  5
BF
330
96
100
AcDbEntity
  8
AM_9
100
AcDbPolyline
 90
        3
 70
     0
 43
0.0
 10
-0.2258378743019624
 20
-0.1281745372222428
 10
-0.2189176876709011
 20
-0.14013919758686
 10
-0.209996266891705
 20
-0.1623797632095822
  0
LINE
  5
C0
330
96
100
AcDbEntity
  8
AM_9
100
AcDbLine
 10
-0.2360765106845271
 20
-0.114187258378066
 30
0.0
 11
-0.2258378743019624
 21
-0.1281745372222428
 31
0.0
  0
LWPOLYLINE
  5
C1
330
96
100
AcDbEntity
  8
AM_9
100
AcDbPolyline
 90
       13
 70
     0
 43
0.0
 10
-0.1790373738501776
 20
0.0891382003679202
 10
-0.1842628795203938
 20
0.0777636883825141
 10
-0.189172997903139
 20
0.0649120702515246
 10
-0.193609895215972
 20
0.0501518541477802
 10
-0.1971856748420368
 20
0.0334336602406979
 10
-0.1994144431868151
 20
0.0152931307616317
 10
-0.1999786710855125
 20
-0.0029208065448306
 10
-0.198832111550905
 20
-0.0215822013754014
 10
-0.1961649429984256
 20
-0.0389783932252771
 10
-0.1920694300574955
 20
-0.0557614027566447
 10
-0.1870948030566192
 20
-0.0706790964090853
 10
-0.1815005947613927
 20
-0.0840091310588356
 10
-0.1790373738501781
 20
-0.0891382003679202
  0
LINE
  5
C2
330
96
100
AcDbEntity
  8
AM_9
100
AcDbLine
 10
-0.1637474306578518
 20
0.1099999999999999
 30
0.0
 11
-0.2013892028241878
 21
0.1099999999999999
 31
0.0
  0
LINE
  5
C3
330
96
100
AcDbEntity
  8
AM_9
100
AcDbLine
 10
-0.2013892028241878
 20
-0.1099999999999999
 30
0.0
 11
-0.1639909404217726
 21
-0.1099999999999999
 31
0.0
  0
LWPOLYLINE
  5
C4
330
96
100
AcDbEntity
  8
AM_9
100
AcDbPolyline
 90
        5
 70
     0
 43
0.0
 10
-0.1557761074387943
 20
-0.1099999996045751
 10
-0.160179943325958
 20
-0.1093244165839199
 10
-0.1668493358980658
 20
-0.1056462146448629
 10
-0.1731116383367603
 20
-0.0989726456321526
 10
-0.1790373738502112
 20
-0.0891382003679049
  0
LWPOLYLINE
  5
C5
330
96
100
AcDbEntity
  8
AM_9
100
AcDbPolyline
 90
        5
 70
     0
 43
0.0
 10
-0.1790373738501776
 20
0.0891382003679202
 10
-0.1733931390117464
 20
0.0985900119595949
 10
-0.1670729780242508
 20
0.1054645023299315
 10
-0.1606047421316792
 20
0.1091871113029
 10
-0.1557751699345313
 20
0.1099999993542103
  0
ARC
  5
C6
330
96
100
AcDbEntity
  8
AM_9
100
AcDbCircle
 10
-0.0000000000015987
 20
-0.0000000000006933
 30
0.0
 40
0.1999999999982866
100
AcDbArc
 50
192.9047654275355
 51
213.9753917461601
  0
ELLIPSE
  5
C7
330
96
100
AcDbEntity
  8
AM_9
100
AcDbEllipse
 10
-0.2013892028241879
 20
-0.0000000000000002
 30
0.0
 11
8.610797806504814E-18
 21
0.1406249999999998
 31
0.0
210
0.0
220
0.0
230
1.0
 40
0.4226182617407006
 41
2.717623712895351
 42
6.707154247874032
  0
ELLIPSE
  5
C8
330
96
100
AcDbEntity
  8
AM_9
100
AcDbEllipse
 10
-0.2467045921758142
 20
-0.000000000000238
 30
0.0
 11
8.610797806523557E-18
 21
0.1406250000003059
 31
0.0
210
0.0
220
0.0
230
1.0
 40
0.4226182617412688
 41
0.6232286105033387
 42
1.429840066211536
  0
LINE
  5
C9
330
96
100
AcDbEntity
  8
AM_9
100
AcDbLine
 10
-0.3055458577949628
 20
-0.0197563999532697
 30
0.0
 11
-0.3055458577949628
 21
0.0197563999532697
 31
0.0
  0
ELLIPSE
  5
CA
330
96
100
AcDbEntity
  8
AM_9
100
AcDbEllipse
 10
-0.246704592176023
 20
-0.0000000000000016
 30
0.0
 11
8.610797806504632E-18
 21
0.1406249999999968
 31
0.0
210
0.0
220
0.0
230
1.0
 40
0.4226182617406898
 41
1.711752587376873
 42
2.446499740662867
  0
LWPOLYLINE
  5
CB
330
96
100
AcDbEntity
  8
AM_9
100
AcDbPolyline
 90
        4
 70
     0
 43
0.0
 10
-0.2807244208919011
 20
-0.1146972838032216
 10
-0.2820739066440475
 20
-0.112758945564239
 10
-0.2845618349446131
 20
-0.1083959100671113
 10
-0.2848763251206348
 20
-0.1077824592400681
  0
LWPOLYLINE
  5
CC
330
96
100
AcDbEntity
  8
AM_9
100
AcDbPolyline
 90
        5
 70
     0
 43
0.0
 10
-0.2846566689225019
 20
0.1082123456797768
 10
-0.2842811518891916
 20
0.108932004463282
 10
-0.2817032665969039
 20
0.1133281246750668
 10
-0.2806112276323578
 20
0.1148364877829559
 10
-0.2806053774633817
 20
0.1148433556507742
  0
ELLIPSE
  5
CD
330
96
100
AcDbEntity
  8
AM_9
100
AcDbEllipse
 10
-0.3729962569746639
 20
-0.0000000000000002
 30
0.0
 11
8.155773951865169E-18
 21
0.1331938965184662
 31
0.0
210
0.0
220
0.0
230
1.0
 40
0.4226182617406978
 41
5.745097245908285
 42
9.962550829701799
  0
ELLIPSE
  5
CE
330
96
100
AcDbEntity
  8
AM_9
100
AcDbEllipse
 10
-0.3994303217889757
 20
0.0000000000000001
 30
0.0
 11
8.520391689943300E-18
 21
0.1391485560714408
 31
0.0
210
0.0
220
0.0
230
1.0
 40
0.4226182617406996
 41
0.228905196265087
 42
2.909940791883044
  0
CIRCLE
  5
CF
330
96
100
AcDbEntity
  8
AM_9
100
AcDbCircle
 10
0.0000000000000002
 20
0.0
 30
0.0
 40
0.1915112338502295
  0
ELLIPSE
  5
D0
330
96
100
AcDbEntity
  8
AM_9
100
AcDbEllipse
 10
-0.2013892028241878
 20
0.0
 30
0.0
 11
6.735557395310441E-18
 21
0.11
 31
0.0
210
0.0
220
0.0
230
1.0
 40
0.4226182617406993
 41
0.0
 42
6.283185307179586
  0
LINE
  5
D2
330
96
100
AcDbEntity
  8
AM_4
100
AcDbLine
 10
0.2187500000000002
 20
0.1262953713852306
 30
0.0
 11
0.0000000000000002
 21
0.2525907427704612
 31
0.0
  0
LINE
  5
D3
330
96
100
AcDbEntity
  8
AM_4
100
AcDbLine
 10
0.0000000000000002
 20
0.2525907427704612
 30
0.0
 11
-0.1897043345002184
 21
0.1430648941803213
 31
0.0
  0
LINE
  5
D4
330
96
100
AcDbEntity
  8
AM_4
100
AcDbLine
 10
-0.1897547619531385
 20
-0.1430357798768033
 30
0.0
 11
0.0000000000000002
 21
-0.2525907427704612
 31
0.0
  0
LINE
  5
D5
330
96
100
AcDbEntity
  8
AM_4
100
AcDbLine
 10
0.2187500000000002
 20
-0.1262953713852306
 30
0.0
 11
0.2187500000000002
 21
0.1262953713852306
 31
0.0
  0
LINE
  5
D6
330
96
100
AcDbEntity
  8
AM_4
100
AcDbLine
 10
0.0000000000000002
 20
-0.2525907427704612
 30
0.0
 11
0.2187500000000002
 21
-0.1262953713852306
 31
0.0
  0
ARC
  5
D7
330
96
100
AcDbEntity
  8
AM_4
100
AcDbCircle
 10
0.0000000000000002
 20
0.0
 30
0.0
 40
0.21875
100
AcDbArc
 50
215.8935753914916
 51
144.0307571663619
  0
LINE
  5
D8
330
96
100
AcDbEntity
  8
AM_4
100
AcDbLine
 10
-0.1557793102687524
 20
0.1099999999999999
 30
0.0
 11
-0.1637474306578518
 21
0.1099999999999999
 31
0.0
  0
LINE
  5
D9
330
96
100
AcDbEntity
  8
AM_4
100
AcDbLine
 10
-0.1639909404217726
 20
-0.1099999999999999
 30
0.0
 11
-0.1557791335654665
 21
-0.1099999999999999
 31
0.0
  0
LWPOLYLINE
  5
DA
330
96
100
AcDbEntity
  8
AM_4
100
AcDbPolyline
 90
       21
 70
     0
 43
0.0
 10
-0.1557751699345313
 20
0.1099999993542103
 10
-0.1538031670974774
 20
0.1098642299902842
 10
-0.147233607373639
 20
0.1074361169500106
 10
-0.1407130262602573
 20
0.101829760403791
 10
-0.1347930597680664
 20
0.0935179578124376
 10
-0.1293028157827814
 20
0.0822566453824391
 10
-0.1247141396218189
 20
0.0690147372405694
 10
-0.1208880884981778
 20
0.0533912635798488
 10
-0.1181545989145986
 20
0.0367379904268302
 10
-0.1164278875396125
 20
0.018541691433427
 10
-0.1158549073091551
 20
0.0003663009477912
 10
-0.1164156227038164
 20
-0.0183436549788656
 10
-0.1180609686233498
 20
-0.0360039211946314
 10
-0.1208367673933809
 20
-0.0531364268189174
 10
-0.124510751350602
 20
-0.0683147951973784
 10
-0.1291842652280559
 20
-0.0819658231771869
 10
-0.1344729790611516
 20
-0.0929661484870866
 10
-0.1405186270901956
 20
-0.1016091178663899
 10
-0.1468270783017118
 20
-0.1071833219201679
 10
-0.1535654953592162
 20
-0.109829591708451
 10
-0.1557761074387943
 20
-0.1099999996045751
  0
ARC
  5
DB
330
96
100
AcDbEntity
  8
AM_4
100
AcDbCircle
 10
0.0000000000000002
 20
0.0
 30
0.0
 40
0.2
100
AcDbArc
 50
213.9753917460688
 51
145.9350089646493
  0
LWPOLYLINE
  5
DC
330
96
100
AcDbEntity
  8
AM_4
100
AcDbPolyline
 90
        6
 70
     0
 43
0.0
 10
-0.209996266891705
 20
-0.1623797632095822
 10
-0.1943573015029055
 20
-0.1479869285061356
 10
-0.18054914203323
 20
-0.1333383958028655
 10
-0.1688997677199806
 20
-0.1182584107681147
 10
-0.1598729403210868
 20
-0.1030720446435313
 10
-0.1510741298357567
 20
-0.0811898816047911
  0
LINE
  5
DD
330
96
100
AcDbEntity
  8
AM_4
100
AcDbLine
 10
-0.209996266891705
 20
-0.1623797632095822
 30
0.0
 11
-0.2389369657326273
 21
-0.1623797632095822
 31
0.0
  0
LWPOLYLINE
  5
DE
330
96
100
AcDbEntity
  8
AM_4
100
AcDbPolyline
 90
        5
 70
     0
 43
0.0
 10
-0.1510741298357567
 20
0.0811898816047911
 10
-0.1639940363880802
 20
0.1105606069314186
 10
-0.1744063212866119
 20
0.1258239699714564
 10
-0.1876759562813854
 20
0.1412050309358237
 10
-0.209996266891705
 20
0.1623797632095822
  0
LINE
  5
DF
330
96
100
AcDbEntity
  8
AM_4
100
AcDbLine
 10
-0.209996266891705
 20
0.1623797632095822
 30
0.0
 11
-0.2389369657326273
 21
0.1623797632095822
 31
0.0
  0
LWPOLYLINE
  5
E0
330
96
100
AcDbEntity
  8
AM_4
100
AcDbPolyline
 90
        6
 70
     0
 43
0.0
 10
-0.1510741298357567
 20
-0.0811898816047911
 10
-0.1458778226760517
 20
-0.052155091529337
 10
-0.1427138007556459
 20
-0.0226013472343071
 10
-0.1420496512545703
 20
0.0078295722246356
 10
-0.1441228263802211
 20
0.0384818408139635
 10
-0.1510741298357567
 20
0.0811898816047911
  0
LINE
  5
E1
330
96
100
AcDbEntity
  8
AM_4
100
AcDbLine
 10
-0.1510741298357567
 20
0.0811898816047911
 30
0.0
 11
-0.1791093260592884
 21
0.0811898816047911
 31
0.0
  0
LINE
  5
E2
330
96
100
AcDbEntity
  8
AM_4
100
AcDbLine
 10
-0.1510741298357567
 20
-0.0811898816047911
 30
0.0
 11
-0.1791093260592884
 21
-0.0811898816047911
 31
0.0
  0
LWPOLYLINE
  5
E3
330
96
100
AcDbEntity
  8
AM_4
100
AcDbPolyline
 90
        5
 70
     0
 43
0.0
 10
-0.1791093260592884
 20
0.0811898816047911
 10
-0.1842540823997051
 20
0.0416203625313734
 10
-0.1862220679364948
 20
0.0014176687078843
 10
-0.1844124966919378
 20
-0.0398791041957931
 10
-0.1791093260592884
 20
-0.0811898816047911
  0
LWPOLYLINE
  5
E4
330
96
100
AcDbEntity
  8
AM_4
100
AcDbPolyline
 90
        5
 70
     0
 43
0.0
 10
-0.2389369657326273
 20
0.1623797632095822
 10
-0.2295338871417793
 20
0.1425944959554254
 10
-0.2166871171046317
 20
0.1224916336047983
 10
-0.1996402057054675
 20
0.1018412668053538
 10
-0.1791093260592884
 20
0.0811898816047911
  0
LWPOLYLINE
  5
E5
330
96
100
AcDbEntity
  8
AM_4
100
AcDbPolyline
 90
        3
 70
     0
 43
0.0
 10
-0.2711532636537953
 20
0.1281745372222423
 10
-0.2561815527589917
 20
0.1453001843968683
 10
-0.2389369657326273
 20
0.1623797632095822
  0
LWPOLYLINE
  5
E6
330
96
100
AcDbEntity
  8
AM_4
100
AcDbPolyline
 90
        3
 70
     0
 43
0.0
 10
-0.2389369657326273
 20
-0.1623797632095822
 10
-0.256093971320235
 20
-0.1453926299734447
 10
-0.2711532636537953
 20
-0.1281745372222423
  0
LWPOLYLINE
  5
E7
330
96
100
AcDbEntity
  8
AM_4
100
AcDbPolyline
 90
        5
 70
     0
 43
0.0
 10
-0.1791093260592884
 20
-0.0811898816047911
 10
-0.1988355121406936
 20
-0.1009664231904839
 10
-0.2156330920108721
 20
-0.121062844630589
 10
-0.2290462109660018
 20
-0.1417146509141334
 10
-0.2389369657326273
 20
-0.1623797632095822
  0
LINE
  5
E8
330
96
100
AcDbEntity
  8
AM_4
100
AcDbLine
 10
-0.2711532636537953
 20
-0.1281745372222423
 30
0.0
 11
-0.2813919000363596
 21
-0.1141872583780661
 31
0.0
  0
ELLIPSE
  5
E9
330
96
100
AcDbEntity
  8
AM_4
100
AcDbEllipse
 10
-0.2467045921760205
 20
-0.0000000000000002
 30
0.0
 11
8.610797806504814E-18
 21
0.1406249999999998
 31
0.0
210
0.0
220
0.0
230
1.0
 40
0.4226182617407001
 41
2.717623712895345
 42
6.707154247874035
  0
LINE
  5
EA
330
96
100
AcDbEntity
  8
AM_4
100
AcDbLine
 10
-0.2813919000363596
 20
0.1141872583780661
 30
0.0
 11
-0.2711532636537953
 21
0.1281745372222423
 31
0.0
  0
LWPOLYLINE
  5
EB
330
96
100
AcDbEntity
  8
AM_4
100
AcDbPolyline
 90
       10
 70
     0
 43
0.0
 10
-0.3417578154695353
 20
-0.1124097162588688
 10
-0.3392356796043622
 20
-0.1106797161406113
 10
-0.3322340009981765
 20
-0.107155893103809
 10
-0.3221965483312613
 20
-0.1043036943655034
 10
-0.3100464644701398
 20
-0.1035098628145385
 10
-0.2980624369378225
 20
-0.1054133658944085
 10
-0.28892331587242
 20
-0.1089615607820258
 10
-0.283446445452582
 20
-0.1123533215526291
 10
-0.2809832812342326
 20
-0.1144472807725024
 10
-0.2806053774633817
 20
-0.1148433556507742
  0
LINE
  5
EC
330
96
100
AcDbEntity
  8
AM_4
100
AcDbLine
 10
-0.3427914347511315
 20
-0.1132269416867344
 30
0.0
 11
-0.3417578154695353
 21
-0.1124097162588688
 31
0.0
  0
LWPOLYLINE
  5
ED
330
96
100
AcDbEntity
  8
AM_4
100
AcDbPolyline
 90
        4
 70
     0
 43
0.0
 10
-0.3445239399801802
 20
-0.1148433556507742
 10
-0.3445195836029041
 20
-0.1148383596830777
 10
-0.3432117771759872
 20
-0.1135836610463394
 10
-0.3427914347511315
 20
-0.1132269416867344
  0
LWPOLYLINE
  5
EE
330
96
100
AcDbEntity
  8
AM_4
100
AcDbPolyline
 90
       10
 70
     0
 43
0.0
 10
-0.2806053774633817
 20
0.1148433556507742
 10
-0.2815858702498618
 20
0.1138774554469438
 10
-0.285165403876512
 20
0.1111468826744426
 10
-0.2917332509944159
 20
0.1076381001212651
 10
-0.3013742872389244
 20
0.1046064387462165
 10
-0.3133388328014532
 20
0.1034577437527124
 10
-0.3255134211579683
 20
0.1050065261854616
 10
-0.3351539988297768
 20
0.1084385225037437
 10
-0.3411192348747452
 20
0.111940065203781
 10
-0.3439506636110111
 20
0.1142564342670644
  0
ELLIPSE
  5
EF
330
96
100
AcDbEntity
  8
AM_4
100
AcDbEllipse
 10
-0.3729962569755461
 20
0.0000000000014683
 30
0.0
 11
8.155773951975057E-18
 21
0.1331938965202608
 31
0.0
210
0.0
220
0.0
230
1.0
 40
0.4226182617426318
 41
3.679365522528013
 42
3.771548928310918
  0
LINE
  5
F0
330
96
100
AcDbEntity
  8
AM_4
100
AcDbLine
 10
-0.4782595695260257
 20
-0.101006617594416
 30
0.0
 11
-0.4122174217232457
 21
-0.1358191566576766
 31
0.0
  0
LINE
  5
F1
330
96
100
AcDbEntity
  8
AM_4
100
AcDbLine
 10
-0.4122174217232457
 20
0.1358191566576766
 30
0.0
 11
-0.4782595695260257
 21
0.101006617594416
 31
0.0
  0
ELLIPSE
  5
F2
330
96
100
AcDbEntity
  8
AM_4
100
AcDbEllipse
 10
-0.3994303217889759
 20
0.0000000000000001
 30
0.0
 11
8.520391689943294E-18
 21
0.1391485560714407
 31
0.0
210
0.0
220
0.0
230
1.0
 40
0.4226182617407003
 41
2.92239880407338
 42
6.51209050344467
  0
ELLIPSE
  5
F3
330
96
100
AcDbEntity
  8
AM_4
100
AcDbEllipse
 10
-0.3729962569746633
 20
0.0000000000000002
 30
0.0
 11
8.155773951865151E-18
 21
0.1331938965184659
 31
0.0
210
0.0
220
0.0
230
1.0
 40
0.4226182617406956
 41
3.77154892830692
 42
5.62953941787059
  0
LWPOLYLINE
  5
F4
330
96
100
AcDbEntity
  8
AM_4
100
AcDbPolyline
 90
        9
 70
     0
 43
0.0
 10
-0.3407235219526649
 20
0.1091787943979379
 10
-0.3444883411800121
 20
0.1148521388226473
 10
-0.3535099945476772
 20
0.1254723685583759
 10
-0.3631884457269321
 20
0.1332902398946826
 10
-0.3734390373582363
 20
0.1384887659274272
 10
-0.3841954423734451
 20
0.1411404183573358
 10
-0.3960895443211999
 20
0.1410653089035862
 10
-0.4071529522434671
 20
0.1381497021708656
 10
-0.4131443275277493
 20
0.1353187680298416
  0
LINE
  5
F5
330
96
100
AcDbEntity
  8
AM_4
100
AcDbLine
 10
-0.3388755377769941
 20
0.1060641267430451
 30
0.0
 11
-0.3407235219526649
 21
0.1091787943979379
 31
0.0
  0
LINE
  5
F6
330
96
100
AcDbEntity
  8
AM_4
100
AcDbLine
 10
-0.3380877778105066
 20
0.1046628993950864
 30
0.0
 11
-0.3388755377769941
 21
0.1060641267430451
 31
0.0
  0
LINE
  5
F7
330
96
100
AcDbEntity
  8
AM_4
100
AcDbLine
 10
-0.3413992656141343
 20
-0.1102607471770732
 30
0.0
 11
-0.3392752188683597
 21
-0.1067578223495415
 31
0.0
  0
LWPOLYLINE
  5
F8
330
96
100
AcDbEntity
  8
AM_4
100
AcDbPolyline
 90
        9
 70
     0
 43
0.0
 10
-0.4133783796206388
 20
-0.1351886564194679
 10
-0.4075097905944555
 20
-0.1380070922961268
 10
-0.3968038499883268
 20
-0.1409618402642307
 10
-0.3848354195750425
 20
-0.1412153367770722
 10
-0.3736713096062587
 20
-0.1385748129146817
 10
-0.3635278334681531
 20
-0.1335091298649927
 10
-0.3542099706946057
 20
-0.1261490449749318
 10
-0.3455255248636865
 20
-0.1162724674056248
 10
-0.3413992656141343
 20
-0.1102607471770732
  0
ELLIPSE
  5
F9
330
96
100
AcDbEntity
  8
AM_4
100
AcDbEllipse
 10
-0.3729962569745471
 20
-0.0000000000000145
 30
0.0
 11
8.155773951866354E-18
 21
0.1331938965184855
 31
0.0
210
0.0
220
0.0
230
1.0
 40
0.4226182617402256
 41
-0.6536458893078265
 42
-0.5380880612699546
  0
ARC
  5
FB
330
96
100
AcDbEntity
  8
AM_5
100
AcDbCircle
 10
0.0000000000000002
 20
0.0
 30
0.0
 40
0.168500005
100
AcDbArc
 50
75.0
 51
14.99999999999994
  0
ARC
  5
FC
330
96
100
AcDbEntity
  8
AM_5
100
AcDbCircle
 10
0.0000000000000002
 20
0.0
 30
0.0
 40
0.168500005
100
AcDbArc
 50
14.99999999999997
 51
195.0
  0
ELLIPSE
  5
FD
330
96
100
AcDbEntity
  8
AM_4
100
AcDbEllipse
 10
-0.4687499999999999
 20
0.0
 30
0.0
 11
6.336484236534233E-18
 21
0.10348264072459
 31
0.0
210
0.0
220
0.0
230
1.0
 40
0.4226182617406934
 41
0.0
 42
6.283185307179586
  0
ENDBLK
  5
99
330
96
100
AcDbEntity
  8
0
100
AcDbBlockEnd
  0
BLOCK
  5
100
330
FE
100
AcDbEntity
  8
0
100
AcDbBlockBegin
  2
3_2_15_16CS2i_0_in_070836_2
 70
     2
 10
0.0
 20
0.0
 30
0.0
  3
3_2_15_16CS2i_0_in_070836_2
  1

  0
ATTDEF
  5
102
330
FE
100
AcDbEntity
  8
AM_6
100
AcDbText
 10
3.180875
 20
2.3125
 30
0.0
 40
0.5
  1
S-2000 Collar -Inch
100
AcDbAttributeDefinition
  3

  2
NN
 70
     8
280
     0
  0
ATTDEF
  5
103
330
FE
100
AcDbEntity
  8
AM_6
100
AcDbText
 10
3.180875
 20
1.8125
 30
0.0
 40
0.5
  1
S-2000 Bearings
100
AcDbAttributeDefinition
  3

  2
NT
 70
     8
280
     0
  0
ATTDEF
  5
104
330
FE
100
AcDbEntity
  8
AM_6
100
AcDbText
 10
3.180875
 20
1.3125
 30
0.0
 40
0.5
  1
2-15/16CS2i
100
AcDbAttributeDefinition
  3

  2
NB
 70
     8
280
     0
  0
ATTDEF
  5
105
330
FE
100
AcDbEntity
  8
AM_6
100
AcDbText
 10
3.180875
 20
0.8125
 30
0.0
 40
0.5
  1
$BORE.CS2i
100
AcDbAttributeDefinition
  3

  2
NBSYN
 70
     8
280
     0
  0
ATTDEF
  5
106
330
FE
100
AcDbEntity
  8
AM_6
100
AcDbText
 10
3.180875
 20
0.3125
 30
0.0
 40
0.5
  1
2-15/16CS2i
100
AcDbAttributeDefinition
  3

  2
LINA
 70
     8
280
     0
  0
ATTDEF
  5
107
330
FE
100
AcDbEntity
  8
AM_6
100
AcDbText
 10
3.180875
 20
-0.1875
 30
0.0
 40
0.5
  1
2-15/16
100
AcDbAttributeDefinition
  3

  2
BORE
 70
     8
280
     0
  0
ATTDEF
  5
108
330
FE
100
AcDbEntity
  8
AM_6
100
AcDbText
 10
3.180875
 20
-0.6875
 30
0.0
 40
0.5
  1
2.937500
100
AcDbAttributeDefinition
  3

  2
BORE1
 70
     8
280
     0
  0
ATTDEF
  5
109
330
FE
100
AcDbEntity
  8
AM_6
100
AcDbText
 10
3.180875
 20
-1.1875
 30
0.0
 40
0.5
  1
4-45/64
100
AcDbAttributeDefinition
  3

  2
L1
 70
     8
280
     0
  0
ATTDEF
  5
10A
330
FE
100
AcDbEntity
  8
AM_6
100
AcDbText
 10
3.180875
 20
-1.6875
 30
0.0
 40
0.5
  1
4.70313
100
AcDbAttributeDefinition
  3

  2
L
 70
     8
280
     0
  0
ATTDEF
  5
10B
330
FE
100
AcDbEntity
  8
AM_6
100
AcDbText
 10
3.180875
 20
-2.1875
 30
0.0
 40
0.5
  1
4.62500
100
AcDbAttributeDefinition
  3

  2
L2
 70
     8
280
     0
  0
ATTDEF
  5
10C
330
FE
100
AcDbEntity
  8
AM_6
100
AcDbText
 10
3.180875
 20
-2.6875
 30
0.0
 40
0.5
  1
4.50
100
AcDbAttributeDefinition
  3

  2
A
 70
     8
280
     0
  0
ATTDEF
  5
10D
330
FE
100
AcDbEntity
  8
AM_6
100
AcDbText
 10
3.180875
 20
-3.1875
 30
0.0
 40
0.5
  1
1.94
100
AcDbAttributeDefinition
  3

  2
B
 70
     8
280
     0
  0
ATTDEF
  5
10E
330
FE
100
AcDbEntity
  8
AM_6
100
AcDbText
 10
3.180875
 20
-3.6875
 30
0.0
 40
0.5
  1
3.47
100
AcDbAttributeDefinition
  3

  2
C
 70
     8
280
     0
  0
ATTDEF
  5
10F
330
FE
100
AcDbEntity
  8
AM_6
100
AcDbText
 10
3.180875
 20
-4.1875
 30
0.0
 40
0.5
  1
4.78
100
AcDbAttributeDefinition
  3

  2
D
 70
     8
280
     0
  0
ATTDEF
  5
110
330
FE
100
AcDbEntity
  8
AM_6
100
AcDbText
 10
3.180875
 20
-4.6875
 30
0.0
 40
0.5
  1
0.54
100
AcDbAttributeDefinition
  3

  2
E
 70
     8
280
     0
  0
ATTDEF
  5
111
330
FE
100
AcDbEntity
  8
AM_6
100
AcDbText
 10
3.180875
 20
-5.1875
 30
0.0
 40
0.5
  1
0.442
100
AcDbAttributeDefinition
  3

  2
F
 70
     8
280
     0
  0
ATTDEF
  5
112
330
FE
100
AcDbEntity
  8
AM_6
100
AcDbText
 10
3.180875
 20
-5.6875
 30
0.0
 40
0.5
  1
1/2-13
100
AcDbAttributeDefinition
  3

  2
CS
 70
     8
280
     0
  0
ATTDEF
  5
113
330
FE
100
AcDbEntity
  8
AM_6
100
AcDbText
 10
3.180875
 20
-6.1875
 30
0.0
 40
0.5
  1
0.5000
100
AcDbAttributeDefinition
  3

  2
NDM
 70
     8
280
     0
  0
ATTDEF
  5
114
330
FE
100
AcDbEntity
  8
AM_6
100
AcDbText
 10
3.180875
 20
-6.6875
 30
0.0
 40
0.5
  1
0.4170
100
AcDbAttributeDefinition
  3

  2
KDM
 70
     8
280
     0
  0
ATTDEF
  5
115
330
FE
100
AcDbEntity
  8
AM_6
100
AcDbText
 10
3.180875
 20
-7.1875
 30
0.0
 40
0.5
  1
2
100
AcDbAttributeDefinition
  3

  2
DD
 70
     8
280
     0
  0
ATTDEF
  5
116
330
FE
100
AcDbEntity
  8
AM_6
100
AcDbText
 10
3.180875
 20
-7.6875
 30
0.0
 40
0.5
  1
baldor
100
AcDbAttributeDefinition
  3

  2
COMPANY
 70
     8
280
     0
  0
LINE
  5
117
330
FE
100
AcDbEntity
  8
AM_9
100
AcDbLine
 10
-2.052775
 20
2.309915
 30
0.0
 11
-2.050189999999999
 21
2.3125
 31
0.0
  0
LINE
  5
118
330
FE
100
AcDbEntity
  8
AM_9
100
AcDbLine
 10
-2.47206
 20
2.3125
 30
0.0
 11
-2.469475
 21
2.309915
 31
0.0
  0
LINE
  5
119
330
FE
100
AcDbEntity
  8
AM_9
100
AcDbLine
 10
-2.083753131528707
 20
2.309915
 30
0.0
 11
-2.052775
 21
2.309915
 31
0.0
  0
LINE
  5
11A
330
FE
100
AcDbEntity
  8
AM_9
100
AcDbLine
 10
-2.052775
 20
1.743316666666673
 30
0.0
 11
-2.052775
 21
2.309915
 31
0.0
  0
LINE
  5
11B
330
FE
100
AcDbEntity
  8
AM_9
100
AcDbLine
 10
-2.469475
 20
2.309915
 30
0.0
 11
-2.469475
 21
1.743316666666673
 31
0.0
  0
LINE
  5
11C
330
FE
100
AcDbEntity
  8
AM_9
100
AcDbLine
 10
-2.469475
 20
2.309915
 30
0.0
 11
-2.438496868471293
 21
2.309915
 31
0.0
  0
LINE
  5
11D
330
FE
100
AcDbEntity
  8
AM_9
100
AcDbLine
 10
-2.469475
 20
1.743316666666673
 30
0.0
 11
-2.052775
 21
1.743316666666673
 31
0.0
  0
LINE
  5
11E
330
FE
100
AcDbEntity
  8
AM_9
100
AcDbLine
 10
-2.469475
 20
1.743316666666673
 30
0.0
 11
-2.477508499926563
 21
1.735283166740109
 31
0.0
  0
LINE
  5
11F
330
FE
100
AcDbEntity
  8
AM_9
100
AcDbLine
 10
-2.044803349708304
 20
1.735345016374976
 30
0.0
 11
-2.052775
 21
1.743316666666673
 31
0.0
  0
LWPOLYLINE
  5
120
330
FE
100
AcDbEntity
  8
AM_9
100
AcDbPolyline
 90
       39
 70
     0
 43
0.0
 10
-2.10068066875648
 20
0.5890254700626273
 10
-2.081184625999029
 20
0.6141961062210206
 10
-2.065615675361797
 20
0.6415065184640436
 10
-2.052529494522095
 20
0.6760599527747676
 10
-2.04558679702824
 20
0.7117782647958321
 10
-2.045085288434039
 20
0.7488859425485238
 10
-2.051295428180735
 20
0.7851620103667715
 10
-2.064312605814691
 20
0.8198680908671245
 10
-2.083754757231113
 20
0.8517504540015436
 10
-2.108766421991176
 20
0.8793522699106655
 10
-2.138979894468448
 20
0.9024724552481196
 10
-2.17175132375807
 20
0.9194273976470282
 10
-2.207562628082111
 20
0.9310007182481745
 10
-2.242443106206522
 20
0.9364023306210596
 10
-2.277903266969308
 20
0.9365686464404309
 10
-2.311131309297699
 20
0.9317852251762073
 10
-2.342980005921873
 20
0.9224310735818811
 10
-2.372947817727668
 20
0.9085724076092785
 10
-2.399993925596461
 20
0.8907712261375367
 10
-2.424839244414015
 20
0.868071826696889
 10
-2.445300428933718
 20
0.8420767489012022
 10
-2.461868085542849
 20
0.8112869058935409
 10
-2.472691887546216
 20
0.7782195829319841
 10
-2.477580950329139
 20
0.7420183810332125
 10
-2.475863766420176
 20
0.7051854586134593
 10
-2.467291359535579
 20
0.6681214688356902
 10
-2.452097840272985
 20
0.6325677012209977
 10
-2.430733146632974
 20
0.599975067788225
 10
-2.403650984542453
 20
0.5711544343957852
 10
-2.372834367588375
 20
0.54820018159056
 10
-2.338177376945248
 20
0.5307967420929365
 10
-2.303431650676083
 20
0.5204789177352633
 10
-2.267321659427123
 20
0.5162103991709194
 10
-2.23330754250781
 20
0.5180049648621361
 10
-2.200088263442653
 20
0.525220883512025
 10
-2.16888782646181
 20
0.537475964708005
 10
-2.140117724445744
 20
0.5542453298024016
 10
-2.119292613816586
 20
0.5705464301926298
 10
-2.10068066875648
 20
0.5890254700626274
  0
LINE
  5
121
330
FE
100
AcDbEntity
  8
AM_9
100
AcDbLine
 10
-2.703125
 20
-1.735
 30
0.0
 11
-1.819125
 21
-1.735
 31
0.0
  0
LINE
  5
122
330
FE
100
AcDbEntity
  8
AM_9
100
AcDbLine
 10
-1.819125
 20
1.735
 30
0.0
 11
-2.045263124101319
 21
1.735
 31
0.0
  0
LINE
  5
123
330
FE
100
AcDbEntity
  8
AM_9
100
AcDbLine
 10
-2.477130839839127
 20
1.735
 30
0.0
 11
-2.703125
 21
1.735
 31
0.0
  0
LWPOLYLINE
  5
124
330
FE
100
AcDbEntity
  8
AM_9
100
AcDbPolyline
 90
       21
 70
     0
 43
0.0
 10
-2.477791666666201
 20
1.734999999999933
 10
-2.477536114352767
 20
1.734963553231908
 10
-2.472192220647532
 20
1.734210872143319
 10
-2.460314965200798
 20
1.732602866727684
 10
-2.441465734915684
 20
1.730235875674304
 10
-2.417609769650648
 20
1.72756835787447
 10
-2.387535334238765
 20
1.724733588278365
 10
-2.355696293770885
 20
1.722381168611358
 10
-2.319471451783199
 20
1.720523846078997
 10
-2.28515122961186
 20
1.719574172208164
 10
-2.248956398016386
 20
1.719429892626525
 10
-2.216013599907359
 20
1.720064026576171
 10
-2.183420213212396
 20
1.721407489605135
 10
-2.153547082354886
 20
1.723261129001908
 10
-2.125779236130348
 20
1.725513960970386
 10
-2.100780096308984
 20
1.727974975329969
 10
-2.079513550425185
 20
1.730388278227267
 10
-2.062446425731911
 20
1.732535648310732
 10
-2.050698200158213
 20
1.734121883030203
 10
-2.044956299756215
 20
1.7349290183679
 10
-2.044458333333534
 20
1.734999999999971
  0
ELLIPSE
  5
125
330
FE
100
AcDbEntity
  8
AM_9
100
AcDbEllipse
 10
-2.261124999999998
 20
0.7367574593302588
 30
0.0
 11
0.2083500000000011
 21
0.0
 31
0.0
210
0.0
220
0.0
230
1.0
 40
0.9063077870366515
 41
2.455471956276837
 42
3.141592653589793
  0
LINE
  5
126
330
FE
100
AcDbEntity
  8
AM_9
100
AcDbLine
 10
-2.052775
 20
0.7367574593302598
 30
0.0
 11
-2.052775
 21
0.9762122620687677
 31
0.0
  0
LINE
  5
127
330
FE
100
AcDbEntity
  8
AM_9
100
AcDbLine
 10
-2.469475
 20
0.9762122620687677
 30
0.0
 11
-2.469475
 21
0.7367574593302598
 31
0.0
  0
ELLIPSE
  5
128
330
FE
100
AcDbEntity
  8
AM_9
100
AcDbEllipse
 10
-2.261124999999999
 20
0.7367574593302596
 30
0.0
 11
0.2083499999999998
 21
0.0
 31
0.0
210
0.0
220
0.0
230
1.0
 40
0.9063077870366509
 41
3.141592653589793
 42
6.968676698645163
  0
LINE
  5
129
330
FE
100
AcDbEntity
  8
AM_5
100
AcDbLine
 10
-2.511125
 20
2.3125
 30
0.0
 11
-2.511125
 21
1.735
 31
0.0
  0
LINE
  5
12A
330
FE
100
AcDbEntity
  8
AM_5
100
AcDbLine
 10
-2.386125
 20
1.701666666666667
 30
0.0
 11
-2.511125
 21
1.701666666666667
 31
0.0
  0
LINE
  5
12B
330
FE
100
AcDbEntity
  8
AM_5
100
AcDbLine
 10
-2.011125
 20
2.25609756097561
 30
0.0
 11
-2.011125
 21
1.735
 31
0.0
  0
LINE
  5
12C
330
FE
100
AcDbEntity
  8
AM_5
100
AcDbLine
 10
-2.136125
 20
1.701666666666667
 30
0.0
 11
-2.011125
 21
1.701666666666667
 31
0.0
  0
ELLIPSE
  5
12D
330
FE
100
AcDbEntity
  8
AM_4
100
AcDbEllipse
 10
-2.26112500000001
 20
0.9762122620687714
 30
0.0
 11
0.2083499999999892
 21
0.0
 31
0.0
210
0.0
220
0.0
230
1.0
 40
0.9063077870366476
 41
2.589286508049165
 42
3.141592653589793
  0
ELLIPSE
  5
12E
330
FE
100
AcDbEntity
  8
AM_4
100
AcDbEllipse
 10
-2.261125000000273
 20
0.9762122620688028
 30
0.0
 11
0.2083500000002729
 21
0.0
 31
0.0
210
0.0
220
0.0
230
1.0
 40
0.90630778703665
 41
5.730879161639451
 42
6.835491452719356
  0
ELLIPSE
  5
12F
330
FE
100
AcDbEntity
  8
AM_4
100
AcDbEllipse
 10
-2.261124999999999
 20
0.7367574593302573
 30
0.0
 11
0.2083500000000016
 21
0.0
 31
0.0
210
0.0
220
0.0
230
1.0
 40
0.9063077870366549
 41
1.570796326794897
 42
2.455471956276829
  0
ELLIPSE
  5
130
330
FE
100
AcDbEntity
  8
AM_4
100
AcDbEllipse
 10
-2.261125000000007
 20
0.9762122620687667
 30
0.0
 11
0.2083499999999927
 21
0.0
 31
0.0
210
0.0
220
0.0
230
1.0
 40
0.9063077870366509
 41
3.141592653589793
 42
3.693898799130418
  0
ELLIPSE
  5
131
330
FE
100
AcDbEntity
  8
AM_4
100
AcDbEllipse
 10
-2.261125
 20
0.7367574593302584
 30
0.0
 11
0.2083500000000007
 21
0.0
 31
0.0
210
0.0
220
0.0
230
1.0
 40
0.9063077870366538
 41
0.6854913914655762
 42
1.570796326794897
  0
LINE
  5
132
330
FE
100
AcDbEntity
  8
AM_4
100
AcDbLine
 10
-1.874075058072009
 20
-2.202380952380952
 30
0.0
 11
-1.819125
 21
-2.202380952380952
 31
0.0
  0
LINE
  5
133
330
FE
100
AcDbEntity
  8
AM_4
100
AcDbLine
 10
-1.819125
 20
2.202380952380952
 30
0.0
 11
-1.874075058072009
 21
2.202380952380952
 31
0.0
  0
LINE
  5
134
330
FE
100
AcDbEntity
  8
AM_4
100
AcDbLine
 10
-1.819125
 20
2.202380952380952
 30
0.0
 11
-1.819125
 21
-2.202380952380952
 31
0.0
  0
LINE
  5
135
330
FE
100
AcDbEntity
  8
AM_4
100
AcDbLine
 10
-1.874075058072009
 20
2.202380952380952
 30
0.0
 11
-1.927791666666667
 21
2.25609756097561
 31
0.0
  0
LINE
  5
136
330
FE
100
AcDbEntity
  8
AM_4
100
AcDbLine
 10
-1.927791666666667
 20
-2.25609756097561
 30
0.0
 11
-1.874075058072009
 21
-2.202380952380952
 31
0.0
  0
LINE
  5
137
330
FE
100
AcDbEntity
  8
AM_4
100
AcDbLine
 10
-1.874075058072009
 20
2.202380952380952
 30
0.0
 11
-1.874075058072009
 21
-2.202380952380952
 31
0.0
  0
LINE
  5
138
330
FE
100
AcDbEntity
  8
AM_4
100
AcDbLine
 10
-2.011125
 20
-2.25609756097561
 30
0.0
 11
-1.927791666666667
 21
-2.25609756097561
 31
0.0
  0
LINE
  5
139
330
FE
100
AcDbEntity
  8
AM_4
100
AcDbLine
 10
-1.927791666666667
 20
2.25609756097561
 30
0.0
 11
-2.011125
 21
2.25609756097561
 31
0.0
  0
LINE
  5
13A
330
FE
100
AcDbEntity
  8
AM_4
100
AcDbLine
 10
-1.927791666666667
 20
2.25609756097561
 30
0.0
 11
-1.927791666666667
 21
-2.25609756097561
 31
0.0
  0
LINE
  5
13B
330
FE
100
AcDbEntity
  8
AM_4
100
AcDbLine
 10
-2.011125
 20
2.25609756097561
 30
0.0
 11
-2.043688963353683
 21
2.3125
 31
0.0
  0
LINE
  5
13C
330
FE
100
AcDbEntity
  8
AM_4
100
AcDbLine
 10
-2.043688963353683
 20
-2.3125
 30
0.0
 11
-2.011125
 21
-2.25609756097561
 31
0.0
  0
LINE
  5
13D
330
FE
100
AcDbEntity
  8
AM_4
100
AcDbLine
 10
-2.011125
 20
2.25609756097561
 30
0.0
 11
-2.011125
 21
-2.25609756097561
 31
0.0
  0
LINE
  5
13E
330
FE
100
AcDbEntity
  8
AM_4
100
AcDbLine
 10
-2.703125
 20
2.165166666666666
 30
0.0
 11
-2.703125
 21
-2.165166666666666
 31
0.0
  0
ARC
  5
13F
330
FE
100
AcDbEntity
  8
AM_4
100
AcDbCircle
 10
-2.555791666666666
 20
-2.165166666666666
 30
0.0
 40
0.147333333333334
100
AcDbArc
 50
179.9999991462263
 51
270.0
  0
ARC
  5
140
330
FE
100
AcDbEntity
  8
AM_4
100
AcDbCircle
 10
-2.555791666666666
 20
2.165166666666666
 30
0.0
 40
0.147333333333334
100
AcDbArc
 50
90.0
 51
179.9999991462263
  0
LWPOLYLINE
  5
141
330
FE
100
AcDbEntity
  8
AM_4
100
AcDbPolyline
 90
       13
 70
     0
 43
0.0
 10
-2.083753131528707
 20
2.309915
 10
-2.104654629022774
 20
2.308404662742254
 10
-2.129971169550632
 20
2.306826359902614
 10
-2.159046720354035
 20
2.305358442529732
 10
-2.191013550396748
 20
2.304161917675377
 10
-2.2249592616189
 20
2.303382563684018
 10
-2.259931869751475
 20
2.303095297867587
 10
-2.294813429328725
 20
2.303344971048241
 10
-2.328745168125475
 20
2.304087458113801
 10
-2.360739136057203
 20
2.305250665408642
 10
-2.389939203713099
 20
2.306694523897397
 10
-2.416600403854406
 20
2.30833758281135
 10
-2.438496868471293
 20
2.309914999999999
  0
LINE
  5
142
330
FE
100
AcDbEntity
  8
AM_4
100
AcDbLine
 10
-2.438496868471293
 20
2.309915
 30
0.0
 11
-2.472059999999922
 21
2.312499999999993
 31
0.0
  0
LWPOLYLINE
  5
143
330
FE
100
AcDbEntity
  8
AM_4
100
AcDbPolyline
 90
       13
 70
     0
 43
0.0
 10
-2.083753131528706
 20
0.8771426523500776
 10
-2.104654629022774
 20
0.8509176810520844
 10
-2.129971169550632
 20
0.8281847138923913
 10
-2.159046720354035
 20
0.8096949765267754
 10
-2.191013550396747
 20
0.7959640854058432
 10
-2.2249592616189
 20
0.7875084133639727
 10
-2.259931869751475
 20
0.784504000196556
 10
-2.294813429328725
 20
0.7871104261757476
 10
-2.328745168125475
 20
0.7951418651509049
 10
-2.360739136057202
 20
0.8084135115991802
 10
-2.389939203713099
 20
0.8264362431262525
 10
-2.416600403854406
 20
0.8498760425596207
 10
-2.438496868471293
 20
0.8771426523500775
  0
LWPOLYLINE
  5
144
330
FE
100
AcDbEntity
  8
AM_4
100
AcDbPolyline
 90
        9
 70
     0
 43
0.0
 10
-2.438496868471293
 20
0.8771426523500776
 10
-2.450540941176019
 20
0.896041374061094
 10
-2.463426360017709
 20
0.9252559454487291
 10
-2.470617496888424
 20
0.9558876512163083
 10
-2.471811569585871
 20
0.9857655362824327
 10
-2.467447732606286
 20
1.015205836698636
 10
-2.45777383735203
 20
1.042981443025478
 10
-2.443173728254032
 20
1.068810686184985
 10
-2.438496868471292
 20
1.075281871787458
  0
LWPOLYLINE
  5
145
330
FE
100
AcDbEntity
  8
AM_4
100
AcDbPolyline
 90
       13
 70
     0
 43
0.0
 10
-2.438496868471292
 20
1.075281871787458
 10
-2.417595370977224
 20
1.10023025087243
 10
-2.392278830449367
 20
1.121629178826944
 10
-2.363203279645964
 20
1.138878178815548
 10
-2.331236449603251
 20
1.151597723428326
 10
-2.297290738381099
 20
1.159394657011978
 10
-2.262318130248524
 20
1.1621562626194
 10
-2.227436570671273
 20
1.159760869531432
 10
-2.193504831874523
 20
1.152357007742298
 10
-2.161510863942796
 20
1.140068546584001
 10
-2.132310796286899
 20
1.123266216986364
 10
-2.105649596145593
 20
1.1012151909573
 10
-2.083753131528707
 20
1.075281871787458
  0
LWPOLYLINE
  5
146
330
FE
100
AcDbEntity
  8
AM_4
100
AcDbPolyline
 90
        9
 70
     0
 43
0.0
 10
-2.083753131528707
 20
1.075281871787458
 10
-2.083126865382718
 20
1.074450625010707
 10
-2.066507342472555
 20
1.047279590613419
 10
-2.055455798587904
 20
1.017758916203462
 10
-2.050579618990659
 20
0.988070038139749
 10
-2.051378046922179
 20
0.957866610901139
 10
-2.061246818270481
 20
0.9184461844141483
 10
-2.07108804221478
 20
0.8971838710077163
 10
-2.083753131528694
 20
0.8771426523500598
  0
LINE
  5
147
330
FE
100
AcDbEntity
  8
AM_4
100
AcDbLine
 10
-2.555791666666666
 20
-2.3125
 30
0.0
 11
-2.043688963353683
 21
-2.3125
 31
0.0
  0
LINE
  5
148
330
FE
100
AcDbEntity
  8
AM_4
100
AcDbLine
 10
-2.043688963353683
 20
2.3125
 30
0.0
 11
-2.050189999999999
 21
2.3125
 31
0.0
  0
LINE
  5
149
330
FE
100
AcDbEntity
  8
AM_4
100
AcDbLine
 10
-2.47206
 20
2.3125
 30
0.0
 11
-2.555791666666666
 21
2.3125
 31
0.0
  0
LINE
  5
14A
330
FE
100
AcDbEntity
  8
AM_4
100
AcDbLine
 10
-2.555791666666666
 20
2.3125
 30
0.0
 11
-2.555791666666666
 21
-2.3125
 31
0.0
  0
LINE
  5
14B
330
FE
100
AcDbEntity
  8
AM_4
100
AcDbLine
 10
-2.050190000000077
 20
2.312499999999993
 30
0.0
 11
-2.083753131528707
 21
2.309915
 31
0.0
  0
LINE
  5
14C
330
FE
100
AcDbEntity
  8
AM_4
100
AcDbLine
 10
-2.043688963353683
 20
2.3125
 30
0.0
 11
-2.043688963353683
 21
-2.3125
 31
0.0
  0
ENDBLK
  5
101
330
FE
100
AcDbEntity
  8
0
100
AcDbBlockEnd
  0
BLOCK
  5
14F
330
14D
100
AcDbEntity
  8
0
100
AcDbBlockBegin
  2
4_070010i_0_in_070836_2
 70
     2
 10
0.0
 20
0.0
 30
0.0
  3
4_070010i_0_in_070836_2
  1

  0
ATTDEF
  5
151
330
14D
100
AcDbEntity
  8
AM_6
100
AcDbText
 10
5.890625
 20
2.55905
 30
0.0
 40
0.5
  1
S-2000 Insert -Inch
100
AcDbAttributeDefinition
  3

  2
NN
 70
     8
280
     0
  0
ATTDEF
  5
152
330
14D
100
AcDbEntity
  8
AM_6
100
AcDbText
 10
5.890625
 20
2.05905
 30
0.0
 40
0.5
  1
S-2000 Bearings
100
AcDbAttributeDefinition
  3

  2
NT
 70
     8
280
     0
  0
ATTDEF
  5
153
330
14D
100
AcDbEntity
  8
AM_6
100
AcDbText
 10
5.890625
 20
1.55905
 30
0.0
 40
0.5
  1
070010i
100
AcDbAttributeDefinition
  3

  2
NB
 70
     8
280
     0
  0
ATTDEF
  5
154
330
14D
100
AcDbEntity
  8
AM_6
100
AcDbText
 10
5.890625
 20
1.05905
 30
0.0
 40
0.5
  1
$PN.i
100
AcDbAttributeDefinition
  3

  2
NBSYN
 70
     8
280
     0
  0
ATTDEF
  5
155
330
14D
100
AcDbEntity
  8
AM_6
100
AcDbText
 10
5.890625
 20
0.55905
 30
0.0
 40
0.5
  1
070010i
100
AcDbAttributeDefinition
  3

  2
LINA
 70
     8
280
     0
  0
ATTDEF
  5
156
330
14D
100
AcDbEntity
  8
AM_6
100
AcDbText
 10
5.890625
 20
0.05905
 30
0.0
 40
0.5
  1
2-15/16
100
AcDbAttributeDefinition
  3

  2
SS
 70
     8
280
     0
  0
ATTDEF
  5
157
330
14D
100
AcDbEntity
  8
AM_6
100
AcDbText
 10
5.890625
 20
-0.44095
 30
0.0
 40
0.5
  1
3.47
100
AcDbAttributeDefinition
  3

  2
CC
 70
     8
280
     0
  0
ATTDEF
  5
158
330
14D
100
AcDbEntity
  8
AM_6
100
AcDbText
 10
5.890625
 20
-0.94095
 30
0.0
 40
0.5
  1
2.937500
100
AcDbAttributeDefinition
  3

  2
SS1
 70
     8
280
     0
  0
ATTDEF
  5
159
330
14D
100
AcDbEntity
  8
AM_6
100
AcDbText
 10
5.890625
 20
-1.44095
 30
0.0
 40
0.5
  1
070010
100
AcDbAttributeDefinition
  3

  2
PN
 70
     8
280
     0
  0
ATTDEF
  5
15A
330
14D
100
AcDbEntity
  8
AM_6
100
AcDbText
 10
5.890625
 20
-1.94095
 30
0.0
 40
0.5
  1
INS-S2-215R
100
AcDbAttributeDefinition
  3

  2
DESCRIPTION
 70
     8
280
     0
  0
ATTDEF
  5
15B
330
14D
100
AcDbEntity
  8
AM_6
100
AcDbText
 10
5.890625
 20
-2.44095
 30
0.0
 40
0.5
  1
Contact Seal
100
AcDbAttributeDefinition
  3

  2
ST
 70
     8
280
     0
  0
ATTDEF
  5
15C
330
14D
100
AcDbEntity
  8
AM_6
100
AcDbText
 10
5.890625
 20
-2.94095
 30
0.0
 40
0.5
  1
1
100
AcDbAttributeDefinition
  3

  2
ST1
 70
     8
280
     0
  0
ATTDEF
  5
15D
330
14D
100
AcDbEntity
  8
AM_6
100
AcDbText
 10
5.890625
 20
-3.44095
 30
0.0
 40
0.5
  1
5.1181
100
AcDbAttributeDefinition
  3

  2
A
 70
     8
280
     0
  0
ATTDEF
  5
15E
330
14D
100
AcDbEntity
  8
AM_6
100
AcDbText
 10
5.890625
 20
-3.94095
 30
0.0
 40
0.5
  1
1-9/32
100
AcDbAttributeDefinition
  3

  2
B
 70
     8
280
     0
  0
ATTDEF
  5
15F
330
14D
100
AcDbEntity
  8
AM_6
100
AcDbText
 10
5.890625
 20
-4.44095
 30
0.0
 40
0.5
  1
3-19/32
100
AcDbAttributeDefinition
  3

  2
C
 70
     8
280
     0
  0
ATTDEF
  5
160
330
14D
100
AcDbEntity
  8
AM_6
100
AcDbText
 10
5.890625
 20
-4.94095
 30
0.0
 40
0.5
  1
1.219
100
AcDbAttributeDefinition
  3

  2
D
 70
     8
280
     0
  0
ATTDEF
  5
161
330
14D
100
AcDbEntity
  8
AM_6
100
AcDbText
 10
5.890625
 20
-5.44095
 30
0.0
 40
0.5
  1
4-5/8
100
AcDbAttributeDefinition
  3

  2
E
 70
     8
280
     0
  0
ATTDEF
  5
162
330
14D
100
AcDbEntity
  8
AM_6
100
AcDbText
 10
5.890625
 20
-5.94095
 30
0.0
 40
0.5
  1
0.53125
100
AcDbAttributeDefinition
  3

  2
F
 70
     8
280
     0
  0
ATTDEF
  5
163
330
14D
100
AcDbEntity
  8
AM_6
100
AcDbText
 10
5.890625
 20
-6.44095
 30
0.0
 40
0.5
  1
2
100
AcDbAttributeDefinition
  3

  2
DD
 70
     8
280
     0
  0
ATTDEF
  5
164
330
14D
100
AcDbEntity
  8
AM_6
100
AcDbText
 10
5.890625
 20
-6.94095
 30
0.0
 40
0.5
  1
baldor
100
AcDbAttributeDefinition
  3

  2
COMPANY
 70
     8
280
     0
  0
LINE
  5
165
330
14D
100
AcDbEntity
  8
AM_9
100
AcDbLine
 10
-2.531125
 20
1.73486036491284
 30
0.0
 11
-2.531125
 21
1.46875
 31
0.0
  0
LINE
  5
166
330
14D
100
AcDbEntity
  8
AM_9
100
AcDbLine
 10
-1.991125
 20
1.46875
 30
0.0
 11
-1.991125
 21
1.734973151062446
 31
0.0
  0
LINE
  5
167
330
14D
100
AcDbEntity
  8
AM_9
100
AcDbLine
 10
-2.531125
 20
0.7332426841201136
 30
0.0
 11
-2.531125
 21
0.6206955618835622
 31
0.0
  0
LINE
  5
168
330
14D
100
AcDbEntity
  8
AM_9
100
AcDbLine
 10
-1.991125
 20
0.6206499805553662
 30
0.0
 11
-1.991125
 21
0.7332426841201136
 31
0.0
  0
LWPOLYLINE
  5
169
330
14D
100
AcDbEntity
  8
AM_9
100
AcDbPolyline
 90
        4
 70
     0
 43
0.0
 10
-2.524109261832867
 20
0.675602760116582
 10
-2.526501944257455
 20
0.6653098720791705
 10
-2.531091692613923
 20
0.6245615073396587
 10
-2.531124999106084
 20
0.6207404841358803
  0
LWPOLYLINE
  5
16A
330
14D
100
AcDbEntity
  8
AM_9
100
AcDbPolyline
 90
        5
 70
     0
 43
0.0
 10
-2.463317563084662
 20
0.7782681770508999
 10
-2.468929968285833
 20
0.7726655461656525
 10
-2.494985887924327
 20
0.7403436039702103
 10
-2.51441655592773
 20
0.7042066749722756
 10
-2.524109261832867
 20
0.675602760116582
  0
LWPOLYLINE
  5
16B
330
14D
100
AcDbEntity
  8
AM_9
100
AcDbPolyline
 90
        4
 70
     0
 43
0.0
 10
-2.390656105392764
 20
0.8272976058589671
 10
-2.400878617367224
 20
0.8223669440423066
 10
-2.437349439305803
 20
0.8000369418766776
 10
-2.463317563084662
 20
0.7782681770508999
  0
LWPOLYLINE
  5
16C
330
14D
100
AcDbEntity
  8
AM_9
100
AcDbPolyline
 90
        4
 70
     0
 43
0.0
 10
-2.05848342156457
 20
0.7778335222269387
 10
-2.067757860483892
 20
0.7863741460022404
 10
-2.102173757767031
 20
0.8116062617096684
 10
-2.131742705046201
 20
0.8273656766053268
  0
LWPOLYLINE
  5
16D
330
14D
100
AcDbEntity
  8
AM_9
100
AcDbPolyline
 90
        5
 70
     0
 43
0.0
 10
-1.998538641793947
 20
0.6771013106515791
 10
-2.001215870866985
 20
0.6861348313858582
 10
-2.016807606252527
 20
0.722979645615245
 10
-2.039249295413498
 20
0.7567053434360853
 10
-2.05848342156457
 20
0.7778335222269387
  0
LWPOLYLINE
  5
16E
330
14D
100
AcDbEntity
  8
AM_9
100
AcDbPolyline
 90
        3
 70
     0
 43
0.0
 10
-1.991125000806485
 20
0.6207016584217604
 10
-1.992696172234286
 20
0.6469592368130527
 10
-1.998538641793947
 20
0.6771013106515791
  0
LWPOLYLINE
  5
16F
330
14D
100
AcDbEntity
  8
AM_9
100
AcDbPolyline
 90
       11
 70
     0
 43
0.0
 10
-2.531124999106084
 20
0.6207404841358803
 10
-2.528031943755326
 20
0.583710316532876
 10
-2.517648380846527
 20
0.5433548452843008
 10
-2.500188744830584
 20
0.5047635787706979
 10
-2.476238218906887
 20
0.4689905595908775
 10
-2.445922800393847
 20
0.4367467240309134
 10
-2.410437625699886
 20
0.4095162568118757
 10
-2.370326056325797
 20
0.3881201778557085
 10
-2.327046522030643
 20
0.3734804889474336
 10
-2.294344978188489
 20
0.3674687348155154
 10
-2.261125
 20
0.3654392061398447
  0
LWPOLYLINE
  5
170
330
14D
100
AcDbEntity
  8
AM_9
100
AcDbPolyline
 90
        7
 70
     0
 43
0.0
 10
-2.070771151621354
 20
0.9023052089997011
 10
-2.051933406601096
 20
0.8843929389854571
 10
-2.026204103600343
 20
0.8516496473503784
 10
-2.007121897166227
 20
0.815198592935213
 10
-1.995378418495136
 20
0.7760819607321047
 10
-1.991134176900261
 20
0.735259596211835
 10
-1.991125000337887
 20
0.733254926266177
  0
LWPOLYLINE
  5
171
330
14D
100
AcDbEntity
  8
AM_9
100
AcDbPolyline
 90
       11
 70
     0
 43
0.0
 10
-2.451792927971218
 20
0.9020364330279518
 10
-2.418951430692859
 20
0.9258893966518486
 10
-2.379906192761772
 20
0.9457982923585129
 10
-2.337376049515454
 20
0.9597448171546433
 10
-2.29264514864933
 20
0.9674620266758084
 10
-2.247463706378366
 20
0.9687007404748414
 10
-2.202670868557394
 20
0.9636303508581853
 10
-2.159789073453575
 20
0.9523662257738067
 10
-2.119728240050793
 20
0.9352349712857533
 10
-2.083352649049556
 20
0.9123427445949038
 10
-2.070771151621354
 20
0.9023052089997011
  0
LWPOLYLINE
  5
172
330
14D
100
AcDbEntity
  8
AM_9
100
AcDbPolyline
 90
        7
 70
     0
 43
0.0
 10
-2.531124999060577
 20
0.7332222712293913
 10
-2.529486689251915
 20
0.760051280386422
 10
-2.520811191475499
 20
0.7994754444077306
 10
-2.504999925706517
 20
0.8366164094441347
 10
-2.482310563952598
 20
0.8706134133622141
 10
-2.453519707038779
 20
0.9005423672521872
 10
-2.451792927971218
 20
0.9020364330279518
  0
LWPOLYLINE
  5
173
330
14D
100
AcDbEntity
  8
AM_9
100
AcDbPolyline
 90
       11
 70
     0
 43
0.0
 10
-1.991125000337887
 20
0.733254926266177
 10
-1.99455219455302
 20
0.6943075068191419
 10
-2.005337070566499
 20
0.6539873103851299
 10
-2.023251624235077
 20
0.6155340832923069
 10
-2.047694579887676
 20
0.5800276648226287
 10
-2.078406807824553
 20
0.54829009896526
 10
-2.114246540818258
 20
0.5216369625882545
 10
-2.154531783534719
 20
0.5009130518079106
 10
-2.197885450401829
 20
0.4869062310260637
 10
-2.229278786116404
 20
0.4814468153714229
 10
-2.261125
 20
0.4796065289345783
  0
LWPOLYLINE
  5
174
330
14D
100
AcDbEntity
  8
AM_9
100
AcDbPolyline
 90
       11
 70
     0
 43
0.0
 10
-2.261125
 20
0.3654392061398447
 10
-2.21623101048721
 20
0.3691698828417416
 10
-2.172612998979805
 20
0.3801072372011741
 10
-2.131550230356317
 20
0.3979407072394607
 10
-2.094093102920861
 20
0.4219545975565779
 10
-2.06097740350302
 20
0.4517710214159965
 10
-2.033458918000719
 20
0.4861326302091234
 10
-2.012256336383516
 20
0.5243051473286796
 10
-1.998126963355146
 20
0.5648167380873815
 10
-1.991642190391
 20
0.6059632404989448
 10
-1.991125000806485
 20
0.6207016584217604
  0
LWPOLYLINE
  5
175
330
14D
100
AcDbEntity
  8
AM_9
100
AcDbPolyline
 90
       11
 70
     0
 43
0.0
 10
-2.261125
 20
1.443719696651673
 10
-2.216868999489902
 20
1.444397852421953
 10
-2.172612998979805
 20
1.446430412022852
 10
-2.132090620936412
 20
1.449474537023788
 10
-2.094093102920861
 20
1.453349998156623
 10
-2.061389153931264
 20
1.457470744373552
 10
-2.033458918000719
 20
1.4615602647147
 10
-2.012491911657267
 20
1.464972687499274
 10
-1.998126963355146
 20
1.467478970813227
 10
-1.991654647551703
 20
1.468652727280554
 10
-1.991125000000899
 20
1.468749999999835
  0
LINE
  5
176
330
14D
100
AcDbEntity
  8
AM_9
100
AcDbLine
 10
0.890625
 20
1.46875
 30
0.0
 11
-1.991125
 21
1.46875
 31
0.0
  0
LINE
  5
177
330
14D
100
AcDbEntity
  8
AM_9
100
AcDbLine
 10
-2.531125
 20
1.46875
 30
0.0
 11
-2.703125
 21
1.46875
 31
0.0
  0
LINE
  5
178
330
14D
100
AcDbEntity
  8
AM_9
100
AcDbLine
 10
-2.703125
 20
-1.46875
 30
0.0
 11
0.890625
 21
-1.46875
 31
0.0
  0
LINE
  5
179
330
14D
100
AcDbEntity
  8
AM_9
100
AcDbLine
 10
-2.516889836372619
 20
1.466199922938448
 30
0.0
 11
-2.531124999999088
 21
1.468749999999833
 31
0.0
  0
LINE
  5
17A
330
14D
100
AcDbEntity
  8
AM_9
100
AcDbLine
 10
-2.244576545814894
 20
1.443814535816803
 30
0.0
 11
-2.268133918549217
 21
1.443736709874494
 31
0.0
  0
LWPOLYLINE
  5
17B
330
14D
100
AcDbEntity
  8
AM_9
100
AcDbPolyline
 90
       11
 70
     0
 43
0.0
 10
-2.531124999999088
 20
1.468749999999833
 10
-2.528155128095984
 20
1.468206951288189
 10
-2.517648380846527
 20
1.466332434143408
 10
-2.500499771366885
 20
1.4634298219139
 10
-2.476238218906887
 20
1.459657582944878
 10
-2.446405272999292
 20
1.455560147181384
 10
-2.410437625699886
 20
1.451420277760165
 10
-2.370950944241546
 20
1.447890983647784
 10
-2.327046522030643
 20
1.445223930595821
 10
-2.294606311854058
 20
1.444107877114265
 10
-2.261125
 20
1.443719696651673
  0
LINE
  5
17C
330
14D
100
AcDbEntity
  8
AM_9
100
AcDbLine
 10
0.890625
 20
-1.735
 30
0.0
 11
0.890625
 21
1.735
 31
0.0
  0
LINE
  5
17D
330
14D
100
AcDbEntity
  8
AM_9
100
AcDbLine
 10
0.890625
 20
1.735
 30
0.0
 11
0.6311249999999997
 21
1.735
 31
0.0
  0
LINE
  5
17E
330
14D
100
AcDbEntity
  8
AM_9
100
AcDbLine
 10
0.6311249999999997
 20
-1.735
 30
0.0
 11
0.890625
 21
-1.735
 31
0.0
  0
LWPOLYLINE
  5
17F
330
14D
100
AcDbEntity
  8
AM_9
100
AcDbPolyline
 90
       11
 70
     0
 43
0.0
 10
-2.261125
 20
0.4796065289345783
 10
-2.306141402455498
 20
0.4833101015160274
 10
-2.349881420371638
 20
0.4941765714991641
 10
-2.391066422842958
 20
0.5119166763251392
 10
-2.428622412273244
 20
0.5358357738896399
 10
-2.461701240282542
 20
0.565477112603116
 10
-2.489157979761296
 20
0.5996662737626878
 10
-2.510232090367962
 20
0.6375998093529771
 10
-2.524242799535108
 20
0.6778983930364383
 10
-2.530642223934402
 20
0.7190153699496271
 10
-2.531124999060577
 20
0.7332222712293913
  0
LWPOLYLINE
  5
180
330
14D
100
AcDbEntity
  8
AM_9
100
AcDbPolyline
 90
       11
 70
     0
 43
0.0
 10
-2.261125
 20
1.713862596592854
 10
-2.305503210185819
 20
1.714437057911225
 10
-2.349881420371638
 20
1.716159288107368
 10
-2.390521105547303
 20
1.718740338774537
 10
-2.428622412273244
 20
1.72202798557928
 10
-2.461288761151045
 20
1.725511672310023
 10
-2.489157979761296
 20
1.728966176609252
 10
-2.509999938649829
 20
1.731838253154133
 10
-2.524242799535108
 20
1.733942322118068
 10
-2.530631065422807
 20
1.73492320270947
 10
-2.531124999999459
 20
1.734999999999916
  0
LINE
  5
181
330
14D
100
AcDbEntity
  8
AM_9
100
AcDbLine
 10
-1.819125
 20
1.735
 30
0.0
 11
-1.991299445653871
 21
1.735
 31
0.0
  0
LINE
  5
182
330
14D
100
AcDbEntity
  8
AM_9
100
AcDbLine
 10
-1.287875
 20
1.735
 30
0.0
 11
-1.375
 21
1.735
 31
0.0
  0
LINE
  5
183
330
14D
100
AcDbEntity
  8
AM_9
100
AcDbLine
 10
-2.530225169706478
 20
1.735
 30
0.0
 11
-2.703125
 21
1.735
 31
0.0
  0
LINE
  5
184
330
14D
100
AcDbEntity
  8
AM_9
100
AcDbLine
 10
-1.375
 20
-1.735
 30
0.0
 11
-1.287875
 21
-1.735
 31
0.0
  0
LINE
  5
185
330
14D
100
AcDbEntity
  8
AM_9
100
AcDbLine
 10
-2.703125
 20
-1.735
 30
0.0
 11
-1.819125
 21
-1.735
 31
0.0
  0
LINE
  5
186
330
14D
100
AcDbEntity
  8
AM_9
100
AcDbLine
 10
-2.005721174768858
 20
1.732788536995412
 30
0.0
 11
-1.991125000000178
 21
1.734999999999972
 31
0.0
  0
LINE
  5
187
330
14D
100
AcDbEntity
  8
AM_9
100
AcDbLine
 10
-2.277029569536441
 20
1.713936391857096
 30
0.0
 11
-2.253008402334594
 21
1.713881815983139
 31
0.0
  0
LWPOLYLINE
  5
188
330
14D
100
AcDbEntity
  8
AM_9
100
AcDbPolyline
 90
       11
 70
     0
 43
0.0
 10
-1.991125000000178
 20
1.734999999999972
 10
-1.994423762514923
 20
1.734489708841212
 10
-2.005337070566499
 20
1.732845193559966
 10
-2.022931273893857
 20
1.730335589172323
 10
-2.047694579887676
 20
1.727100907367408
 10
-2.077916180495765
 20
1.7236271265979
 10
-2.114246540818258
 20
1.720144843253499
 10
-2.153908910902559
 20
1.717212942462684
 10
-2.197885450401828
 20
1.715028932885209
 10
-2.22905068463712
 20
1.714162699893449
 10
-2.261125
 20
1.713862596592854
  0
LINE
  5
189
330
14D
100
AcDbEntity
  8
AM_9
100
AcDbLine
 10
0.5029999999999996
 20
2.04724
 30
0.0
 11
0.3122499999999999
 21
2.04724
 31
0.0
  0
LINE
  5
18A
330
14D
100
AcDbEntity
  8
AM_9
100
AcDbLine
 10
0.3122499999999999
 20
-2.04724
 30
0.0
 11
0.5029999999999996
 21
-2.04724
 31
0.0
  0
LINE
  5
18B
330
14D
100
AcDbEntity
  8
AM_9
100
AcDbLine
 10
0.6311249999999997
 20
-1.919115
 30
0.0
 11
0.6311249999999997
 21
1.919115
 31
0.0
  0
LINE
  5
18C
330
14D
100
AcDbEntity
  8
AM_9
100
AcDbLine
 10
0.5029999999999996
 20
-2.04724
 30
0.0
 11
0.5029999999999996
 21
2.04724
 31
0.0
  0
ARC
  5
18D
330
14D
100
AcDbEntity
  8
AM_9
100
AcDbCircle
 10
0.5029999999999994
 20
1.919115
 30
0.0
 40
0.128125
100
AcDbArc
 50
0.0
 51
90.0
  0
ARC
  5
18E
330
14D
100
AcDbEntity
  8
AM_9
100
AcDbCircle
 10
0.5029999999999993
 20
-1.919115
 30
0.0
 40
0.128125
100
AcDbArc
 50
270.0
 51
0.0
  0
LINE
  5
18F
330
14D
100
AcDbEntity
  8
AM_9
100
AcDbLine
 10
-1.287875
 20
-1.919115
 30
0.0
 11
-1.287875
 21
1.919115
 31
0.0
  0
ARC
  5
190
330
14D
100
AcDbEntity
  8
AM_9
100
AcDbCircle
 10
-1.159749999999999
 20
1.919114999999999
 30
0.0
 40
0.1281250000000009
100
AcDbArc
 50
90.0
 51
180.0
  0
ARC
  5
191
330
14D
100
AcDbEntity
  8
AM_9
100
AcDbCircle
 10
-1.159749999999999
 20
-1.919114999999999
 30
0.0
 40
0.1281250000000014
100
AcDbArc
 50
180.0
 51
270.0
  0
LINE
  5
192
330
14D
100
AcDbEntity
  8
AM_9
100
AcDbLine
 10
-1.15975
 20
-2.04724
 30
0.0
 11
-1.15975
 21
2.04724
 31
0.0
  0
LINE
  5
193
330
14D
100
AcDbEntity
  8
AM_9
100
AcDbLine
 10
-0.9690000000000002
 20
2.04724
 30
0.0
 11
-1.15975
 21
2.04724
 31
0.0
  0
LINE
  5
194
330
14D
100
AcDbEntity
  8
AM_9
100
AcDbLine
 10
-1.15975
 20
-2.04724
 30
0.0
 11
-0.9690000000000002
 21
-2.04724
 31
0.0
  0
LINE
  5
195
330
14D
100
AcDbEntity
  8
AM_9
100
AcDbLine
 10
-0.2643125000000041
 20
2.456688
 30
0.0
 11
-0.3924374999999966
 21
2.456688
 31
0.0
  0
LINE
  5
196
330
14D
100
AcDbEntity
  8
AM_9
100
AcDbLine
 10
-0.3924374999999966
 20
-2.456688
 30
0.0
 11
-0.2643125000000041
 21
-2.456688
 31
0.0
  0
LINE
  5
197
330
14D
100
AcDbEntity
  8
AM_9
100
AcDbLine
 10
0.3122499999999994
 20
-2.430925000000001
 30
0.0
 11
0.3122499999999994
 21
2.430925000000001
 31
0.0
  0
ARC
  5
198
330
14D
100
AcDbEntity
  8
AM_9
100
AcDbCircle
 10
0.1841250000000007
 20
2.430925000000001
 30
0.0
 40
0.1281249999999987
100
AcDbArc
 50
0.0
 51
90.0
  0
ARC
  5
199
330
14D
100
AcDbEntity
  8
AM_9
100
AcDbCircle
 10
0.1841250000000006
 20
-2.430925000000001
 30
0.0
 40
0.1281249999999989
100
AcDbArc
 50
270.0
 51
0.0
  0
LINE
  5
19A
330
14D
100
AcDbEntity
  8
AM_9
100
AcDbLine
 10
-0.2643125000000041
 20
-2.456688
 30
0.0
 11
-0.205213771745216
 21
-2.55905
 31
0.0
  0
LINE
  5
19B
330
14D
100
AcDbEntity
  8
AM_9
100
AcDbLine
 10
-0.205213771745216
 20
2.55905
 30
0.0
 11
-0.2643125000000041
 21
2.456688
 31
0.0
  0
LINE
  5
19C
330
14D
100
AcDbEntity
  8
AM_9
100
AcDbLine
 10
-0.2643125000000041
 20
-2.456688
 30
0.0
 11
-0.2643125000000041
 21
2.456688
 31
0.0
  0
LINE
  5
19D
330
14D
100
AcDbEntity
  8
AM_9
100
AcDbLine
 10
-0.969
 20
-2.430925
 30
0.0
 11
-0.969
 21
2.430925
 31
0.0
  0
ARC
  5
19E
330
14D
100
AcDbEntity
  8
AM_9
100
AcDbCircle
 10
-0.8408750000000011
 20
2.430925000000001
 30
0.0
 40
0.1281249999999989
100
AcDbArc
 50
90.0
 51
180.0
  0
ARC
  5
19F
330
14D
100
AcDbEntity
  8
AM_9
100
AcDbCircle
 10
-0.8408750000000011
 20
-2.430925000000001
 30
0.0
 40
0.1281249999999988
100
AcDbArc
 50
180.0
 51
270.0
  0
LINE
  5
1A0
330
14D
100
AcDbEntity
  8
AM_9
100
AcDbLine
 10
-0.4515362282547846
 20
2.55905
 30
0.0
 11
-0.8408750000000009
 21
2.55905
 31
0.0
  0
LINE
  5
1A1
330
14D
100
AcDbEntity
  8
AM_9
100
AcDbLine
 10
-0.8408750000000009
 20
-2.55905
 30
0.0
 11
-0.4515362282547846
 21
-2.55905
 31
0.0
  0
LINE
  5
1A2
330
14D
100
AcDbEntity
  8
AM_9
100
AcDbLine
 10
-0.8408750000000009
 20
-2.55905
 30
0.0
 11
-0.8408750000000009
 21
2.55905
 31
0.0
  0
LINE
  5
1A3
330
14D
100
AcDbEntity
  8
AM_9
100
AcDbLine
 10
0.1841249999999998
 20
2.55905
 30
0.0
 11
-0.205213771745216
 21
2.55905
 31
0.0
  0
LINE
  5
1A4
330
14D
100
AcDbEntity
  8
AM_9
100
AcDbLine
 10
-0.205213771745216
 20
-2.55905
 30
0.0
 11
0.1841249999999998
 21
-2.55905
 31
0.0
  0
LINE
  5
1A5
330
14D
100
AcDbEntity
  8
AM_9
100
AcDbLine
 10
0.1841249999999998
 20
-2.55905
 30
0.0
 11
0.1841249999999998
 21
2.55905
 31
0.0
  0
LINE
  5
1A6
330
14D
100
AcDbEntity
  8
AM_9
100
AcDbLine
 10
-0.205213771745216
 20
-2.55905
 30
0.0
 11
-0.205213771745216
 21
2.55905
 31
0.0
  0
LINE
  5
1A7
330
14D
100
AcDbEntity
  8
AM_9
100
AcDbLine
 10
-0.3924374999999966
 20
2.456688
 30
0.0
 11
-0.4515362282547846
 21
2.55905
 31
0.0
  0
LINE
  5
1A8
330
14D
100
AcDbEntity
  8
AM_9
100
AcDbLine
 10
-0.4515362282547846
 20
-2.55905
 30
0.0
 11
-0.3924374999999966
 21
-2.456688
 31
0.0
  0
LINE
  5
1A9
330
14D
100
AcDbEntity
  8
AM_9
100
AcDbLine
 10
-0.3924374999999966
 20
-2.456688
 30
0.0
 11
-0.3924374999999966
 21
2.456688
 31
0.0
  0
LINE
  5
1AA
330
14D
100
AcDbEntity
  8
AM_9
100
AcDbLine
 10
-0.4515362282547846
 20
-2.55905
 30
0.0
 11
-0.4515362282547846
 21
2.55905
 31
0.0
  0
LINE
  5
1AD
330
14D
100
AcDbEntity
  8
AM_7
100
AcDbLine
 10
-2.261125
 20
-0.088974358974359
 30
0.0
 11
-2.261125
 21
2.384059916666667
 31
0.0
  0
LWPOLYLINE
  5
1AE
330
14D
100
AcDbEntity
  8
AM_4
100
AcDbPolyline
 90
        8
 70
     0
 43
0.0
 10
-2.131742705046201
 20
0.8273656766053268
 10
-2.141106793199859
 20
0.8314453870948442
 10
-2.183609272470211
 20
0.845399553312535
 10
-2.228370332013573
 20
0.8531951003489624
 10
-2.273442268018811
 20
0.8545917566269962
 10
-2.318162348670711
 20
0.8497989721307619
 10
-2.360902733958428
 20
0.8389569856055265
 10
-2.390656105392764
 20
0.8272976058589671
  0
LINE
  5
1AF
330
14D
100
AcDbEntity
  8
AM_4
100
AcDbLine
 10
-1.375
 20
1.735
 30
0.0
 11
-1.819125
 21
1.735
 31
0.0
  0
LINE
  5
1B0
330
14D
100
AcDbEntity
  8
AM_4
100
AcDbLine
 10
-1.819125
 20
-1.735
 30
0.0
 11
-1.375
 21
-1.735
 31
0.0
  0
ENDBLK
  5
150
330
14D
100
AcDbEntity
  8
0
100
AcDbBlockEnd
  0
BLOCK
  5
1B3
330
1B1
100
AcDbEntity
  8
0
100
AcDbBlockBegin
  2
5_070836H_0_in_070836_2
 70
     2
 10
0.0
 20
0.0
 30
0.0
  3
5_070836H_0_in_070836_2
  1

  0
ATTDEF
  5
1B5
330
1B1
100
AcDbEntity
  8
AM_6
100
AcDbText
 10
7.016666666666667
 20
4.5
 30
0.0
 40
0.5
  1
TPHU-S2 -(Contact Seal)-Housing
100
AcDbAttributeDefinition
  3

  2
NN
 70
     8
280
     0
  0
ATTDEF
  5
1B6
330
1B1
100
AcDbEntity
  8
AM_6
100
AcDbText
 10
7.016666666666667
 20
4.0
 30
0.0
 40
0.5
  1
S-2000 TPHU Take-Up Bearing -Inch
100
AcDbAttributeDefinition
  3

  2
NT
 70
     8
280
     0
  0
ATTDEF
  5
1B7
330
1B1
100
AcDbEntity
  8
AM_6
100
AcDbText
 10
7.016666666666667
 20
3.5
 30
0.0
 40
0.5
  1
070836H
100
AcDbAttributeDefinition
  3

  2
NB
 70
     8
280
     0
  0
ATTDEF
  5
1B8
330
1B1
100
AcDbEntity
  8
AM_6
100
AcDbText
 10
7.016666666666667
 20
3.0
 30
0.0
 40
0.5
  1
$PN.H
100
AcDbAttributeDefinition
  3

  2
NBSYN
 70
     8
280
     0
  0
ATTDEF
  5
1B9
330
1B1
100
AcDbEntity
  8
AM_6
100
AcDbText
 10
7.016666666666667
 20
2.5
 30
0.0
 40
0.5
  1
070836
100
AcDbAttributeDefinition
  3

  2
LINA
 70
     8
280
     0
  0
ATTDEF
  5
1BA
330
1B1
100
AcDbEntity
  8
AM_6
100
AcDbText
 10
7.016666666666667
 20
2.0
 30
0.0
 40
0.5
  1
2-15/16
100
AcDbAttributeDefinition
  3

  2
SS
 70
     8
280
     0
  0
ATTDEF
  5
1BB
330
1B1
100
AcDbEntity
  8
AM_6
100
AcDbText
 10
7.016666666666667
 20
1.5
 30
0.0
 40
0.5
  1
5.1181
100
AcDbAttributeDefinition
  3

  2
BORE
 70
     8
280
     0
  0
ATTDEF
  5
1BC
330
1B1
100
AcDbEntity
  8
AM_6
100
AcDbText
 10
7.016666666666667
 20
1.0
 30
0.0
 40
0.5
  1
2.937500
100
AcDbAttributeDefinition
  3

  2
SS1
 70
     8
280
     0
  0
ATTDEF
  5
1BD
330
1B1
100
AcDbEntity
  8
AM_6
100
AcDbText
 10
7.016666666666667
 20
0.5
 30
0.0
 40
0.5
  1
070836
100
AcDbAttributeDefinition
  3

  2
PN
 70
     8
280
     0
  0
ATTDEF
  5
1BE
330
1B1
100
AcDbEntity
  8
AM_6
100
AcDbText
 10
7.016666666666667
 20
0.0
 30
0.0
 40
0.5
  1
TPHU-S2-215RE
100
AcDbAttributeDefinition
  3

  2
DESCRIPTION
 70
     8
280
     0
  0
ATTDEF
  5
1BF
330
1B1
100
AcDbEntity
  8
AM_6
100
AcDbText
 10
7.016666666666667
 20
-0.5
 30
0.0
 40
0.5
  1
Expansion Type
100
AcDbAttributeDefinition
  3

  2
EF
 70
     8
280
     0
  0
ATTDEF
  5
1C0
330
1B1
100
AcDbEntity
  8
AM_6
100
AcDbText
 10
7.016666666666667
 20
-1.0
 30
0.0
 40
0.5
  1
2
100
AcDbAttributeDefinition
  3

  2
EF1
 70
     8
280
     0
  0
ATTDEF
  5
1C1
330
1B1
100
AcDbEntity
  8
AM_6
100
AcDbText
 10
7.016666666666667
 20
-1.5
 30
0.0
 40
0.5
  1
Contact Seal
100
AcDbAttributeDefinition
  3

  2
ST
 70
     8
280
     0
  0
ATTDEF
  5
1C2
330
1B1
100
AcDbEntity
  8
AM_6
100
AcDbText
 10
7.016666666666667
 20
-2.0
 30
0.0
 40
0.5
  1
1
100
AcDbAttributeDefinition
  3

  2
ST1
 70
     8
280
     0
  0
ATTDEF
  5
1C3
330
1B1
100
AcDbEntity
  8
AM_6
100
AcDbText
 10
7.016666666666667
 20
-2.5
 30
0.0
 40
0.5
  1
3-19/32
100
AcDbAttributeDefinition
  3

  2
A
 70
     8
280
     0
  0
ATTDEF
  5
1C4
330
1B1
100
AcDbEntity
  8
AM_6
100
AcDbText
 10
7.016666666666667
 20
-3.0
 30
0.0
 40
0.5
  1
3.5937500
100
AcDbAttributeDefinition
  3

  2
A1
 70
     8
280
     0
  0
ATTDEF
  5
1C5
330
1B1
100
AcDbEntity
  8
AM_6
100
AcDbText
 10
7.016666666666667
 20
-3.5
 30
0.0
 40
0.5
  1
2-3/4
100
AcDbAttributeDefinition
  3

  2
B
 70
     8
280
     0
  0
ATTDEF
  5
1C6
330
1B1
100
AcDbEntity
  8
AM_6
100
AcDbText
 10
7.016666666666667
 20
-4.0
 30
0.0
 40
0.5
  1
2.750000
100
AcDbAttributeDefinition
  3

  2
B1
 70
     8
280
     0
  0
ATTDEF
  5
1C7
330
1B1
100
AcDbEntity
  8
AM_6
100
AcDbText
 10
7.016666666666667
 20
-4.5
 30
0.0
 40
0.5
  1
13/16
100
AcDbAttributeDefinition
  3

  2
C
 70
     8
280
     0
  0
ATTDEF
  5
1C8
330
1B1
100
AcDbEntity
  8
AM_6
100
AcDbText
 10
7.016666666666667
 20
-5.0
 30
0.0
 40
0.5
  1
0.812500
100
AcDbAttributeDefinition
  3

  2
C1
 70
     8
280
     0
  0
ATTDEF
  5
1C9
330
1B1
100
AcDbEntity
  8
AM_6
100
AcDbText
 10
7.016666666666667
 20
-5.5
 30
0.0
 40
0.5
  1
7-1/8
100
AcDbAttributeDefinition
  3

  2
D
 70
     8
280
     0
  0
ATTDEF
  5
1CA
330
1B1
100
AcDbEntity
  8
AM_6
100
AcDbText
 10
7.016666666666667
 20
-6.0
 30
0.0
 40
0.5
  1
7.125000
100
AcDbAttributeDefinition
  3

  2
D1
 70
     8
280
     0
  0
ATTDEF
  5
1CB
330
1B1
100
AcDbEntity
  8
AM_6
100
AcDbText
 10
7.016666666666667
 20
-6.5
 30
0.0
 40
0.5
  1
3-5/16
100
AcDbAttributeDefinition
  3

  2
E
 70
     8
280
     0
  0
ATTDEF
  5
1CC
330
1B1
100
AcDbEntity
  8
AM_6
100
AcDbText
 10
7.016666666666667
 20
-7.0
 30
0.0
 40
0.5
  1
3.312500
100
AcDbAttributeDefinition
  3

  2
E1
 70
     8
280
     0
  0
ATTDEF
  5
1CD
330
1B1
100
AcDbEntity
  8
AM_6
100
AcDbText
 10
7.016666666666667
 20
-7.5
 30
0.0
 40
0.5
  1
1-7/16
100
AcDbAttributeDefinition
  3

  2
F
 70
     8
280
     0
  0
ATTDEF
  5
1CE
330
1B1
100
AcDbEntity
  8
AM_6
100
AcDbText
 10
7.016666666666667
 20
-8.0
 30
0.0
 40
0.5
  1
1.437500
100
AcDbAttributeDefinition
  3

  2
F1
 70
     8
280
     0
  0
ATTDEF
  5
1CF
330
1B1
100
AcDbEntity
  8
AM_6
100
AcDbText
 10
7.016666666666667
 20
-8.5
 30
0.0
 40
0.5
  1
9/16
100
AcDbAttributeDefinition
  3

  2
G
 70
     8
280
     0
  0
ATTDEF
  5
1D0
330
1B1
100
AcDbEntity
  8
AM_6
100
AcDbText
 10
7.016666666666667
 20
-9.0
 30
0.0
 40
0.5
  1
0.562500
100
AcDbAttributeDefinition
  3

  2
G1
 70
     8
280
     0
  0
ATTDEF
  5
1D1
330
1B1
100
AcDbEntity
  8
AM_6
100
AcDbText
 10
7.016666666666667
 20
-9.5
 30
0.0
 40
0.5
  1
8-1/2
100
AcDbAttributeDefinition
  3

  2
H
 70
     8
280
     0
  0
ATTDEF
  5
1D2
330
1B1
100
AcDbEntity
  8
AM_6
100
AcDbText
 10
7.016666666666667
 20
-10.0
 30
0.0
 40
0.5
  1
8.500000
100
AcDbAttributeDefinition
  3

  2
H1
 70
     8
280
     0
  0
ATTDEF
  5
1D3
330
1B1
100
AcDbEntity
  8
AM_6
100
AcDbText
 10
7.016666666666667
 20
-10.5
 30
0.0
 40
0.5
  1
8-1/2
100
AcDbAttributeDefinition
  3

  2
J
 70
     8
280
     0
  0
ATTDEF
  5
1D4
330
1B1
100
AcDbEntity
  8
AM_6
100
AcDbText
 10
7.016666666666667
 20
-11.0
 30
0.0
 40
0.5
  1
8.500000
100
AcDbAttributeDefinition
  3

  2
J1
 70
     8
280
     0
  0
ATTDEF
  5
1D5
330
1B1
100
AcDbEntity
  8
AM_6
100
AcDbText
 10
7.016666666666667
 20
-11.5
 30
0.0
 40
0.5
  1
4
100
AcDbAttributeDefinition
  3

  2
K
 70
     8
280
     0
  0
ATTDEF
  5
1D6
330
1B1
100
AcDbEntity
  8
AM_6
100
AcDbText
 10
7.016666666666667
 20
-12.0
 30
0.0
 40
0.5
  1
4.000000
100
AcDbAttributeDefinition
  3

  2
K1
 70
     8
280
     0
  0
ATTDEF
  5
1D7
330
1B1
100
AcDbEntity
  8
AM_6
100
AcDbText
 10
7.016666666666667
 20
-12.5
 30
0.0
 40
0.5
  1
4-45/64
100
AcDbAttributeDefinition
  3

  2
L
 70
     8
280
     0
  0
ATTDEF
  5
1D8
330
1B1
100
AcDbEntity
  8
AM_6
100
AcDbText
 10
7.016666666666667
 20
-13.0
 30
0.0
 40
0.5
  1
4.7031250
100
AcDbAttributeDefinition
  3

  2
L1
 70
     8
280
     0
  0
ATTDEF
  5
1D9
330
1B1
100
AcDbEntity
  8
AM_6
100
AcDbText
 10
7.016666666666667
 20
-13.5
 30
0.0
 40
0.5
  1
8
100
AcDbAttributeDefinition
  3

  2
M
 70
     8
280
     0
  0
ATTDEF
  5
1DA
330
1B1
100
AcDbEntity
  8
AM_6
100
AcDbText
 10
7.016666666666667
 20
-14.0
 30
0.0
 40
0.5
  1
8.000000
100
AcDbAttributeDefinition
  3

  2
M1
 70
     8
280
     0
  0
ATTDEF
  5
1DB
330
1B1
100
AcDbEntity
  8
AM_6
100
AcDbText
 10
7.016666666666667
 20
-14.5
 30
0.0
 40
0.5
  1
1-15/16
100
AcDbAttributeDefinition
  3

  2
N
 70
     8
280
     0
  0
ATTDEF
  5
1DC
330
1B1
100
AcDbEntity
  8
AM_6
100
AcDbText
 10
7.016666666666667
 20
-15.0
 30
0.0
 40
0.5
  1
1.937500
100
AcDbAttributeDefinition
  3

  2
N1
 70
     8
280
     0
  0
ATTDEF
  5
1DD
330
1B1
100
AcDbEntity
  8
AM_6
100
AcDbText
 10
7.016666666666667
 20
-15.5
 30
0.0
 40
0.5
  1
1-3/4
100
AcDbAttributeDefinition
  3

  2
P
 70
     8
280
     0
  0
ATTDEF
  5
1DE
330
1B1
100
AcDbEntity
  8
AM_6
100
AcDbText
 10
7.016666666666667
 20
-16.0
 30
0.0
 40
0.5
  1
1.750000
100
AcDbAttributeDefinition
  3

  2
P1
 70
     8
280
     0
  0
ATTDEF
  5
1DF
330
1B1
100
AcDbEntity
  8
AM_6
100
AcDbText
 10
7.016666666666667
 20
-16.5
 30
0.0
 40
0.5
  1
1-1/16
100
AcDbAttributeDefinition
  3

  2
Q
 70
     8
280
     0
  0
ATTDEF
  5
1E0
330
1B1
100
AcDbEntity
  8
AM_6
100
AcDbText
 10
7.016666666666667
 20
-17.0
 30
0.0
 40
0.5
  1
1.062500
100
AcDbAttributeDefinition
  3

  2
Q1
 70
     8
280
     0
  0
ATTDEF
  5
1E1
330
1B1
100
AcDbEntity
  8
AM_6
100
AcDbText
 10
7.016666666666667
 20
-17.5
 30
0.0
 40
0.5
  1
3-53/64
100
AcDbAttributeDefinition
  3

  2
R
 70
     8
280
     0
  0
ATTDEF
  5
1E2
330
1B1
100
AcDbEntity
  8
AM_6
100
AcDbText
 10
7.016666666666667
 20
-18.0
 30
0.0
 40
0.5
  1
3.828125
100
AcDbAttributeDefinition
  3

  2
R1
 70
     8
280
     0
  0
ATTDEF
  5
1E3
330
1B1
100
AcDbEntity
  8
AM_6
100
AcDbText
 10
7.016666666666667
 20
-18.5
 30
0.0
 40
0.5
  1
2-29/64
100
AcDbAttributeDefinition
  3

  2
S
 70
     8
280
     0
  0
ATTDEF
  5
1E4
330
1B1
100
AcDbEntity
  8
AM_6
100
AcDbText
 10
7.016666666666667
 20
-19.0
 30
0.0
 40
0.5
  1
2.453125
100
AcDbAttributeDefinition
  3

  2
S1
 70
     8
280
     0
  0
ATTDEF
  5
1E5
330
1B1
100
AcDbEntity
  8
AM_6
100
AcDbText
 10
7.016666666666667
 20
-19.5
 30
0.0
 40
0.5
  1
5/16
100
AcDbAttributeDefinition
  3

  2
T
 70
     8
280
     0
  0
ATTDEF
  5
1E6
330
1B1
100
AcDbEntity
  8
AM_6
100
AcDbText
 10
7.016666666666667
 20
-20.0
 30
0.0
 40
0.5
  1
0.312500
100
AcDbAttributeDefinition
  3

  2
T1
 70
     8
280
     0
  0
ATTDEF
  5
1E7
330
1B1
100
AcDbEntity
  8
AM_6
100
AcDbText
 10
7.016666666666667
 20
-20.5
 30
0.0
 40
0.5
  1
1-1/2
100
AcDbAttributeDefinition
  3

  2
U
 70
     8
280
     0
  0
ATTDEF
  5
1E8
330
1B1
100
AcDbEntity
  8
AM_6
100
AcDbText
 10
7.016666666666667
 20
-21.0
 30
0.0
 40
0.5
  1
1.500000
100
AcDbAttributeDefinition
  3

  2
U1
 70
     8
280
     0
  0
ATTDEF
  5
1E9
330
1B1
100
AcDbEntity
  8
AM_6
100
AcDbText
 10
7.016666666666667
 20
-21.5
 30
0.0
 40
0.5
  1
2-3/4
100
AcDbAttributeDefinition
  3

  2
V
 70
     8
280
     0
  0
ATTDEF
  5
1EA
330
1B1
100
AcDbEntity
  8
AM_6
100
AcDbText
 10
7.016666666666667
 20
-22.0
 30
0.0
 40
0.5
  1
2.750000
100
AcDbAttributeDefinition
  3

  2
V1
 70
     8
280
     0
  0
ATTDEF
  5
1EB
330
1B1
100
AcDbEntity
  8
AM_6
100
AcDbText
 10
7.016666666666667
 20
-22.5
 30
0.0
 40
0.5
  1
1
100
AcDbAttributeDefinition
  3

  2
W
 70
     8
280
     0
  0
ATTDEF
  5
1EC
330
1B1
100
AcDbEntity
  8
AM_6
100
AcDbText
 10
7.016666666666667
 20
-23.0
 30
0.0
 40
0.5
  1
1.000000
100
AcDbAttributeDefinition
  3

  2
W1
 70
     8
280
     0
  0
ATTDEF
  5
1ED
330
1B1
100
AcDbEntity
  8
AM_6
100
AcDbText
 10
7.016666666666667
 20
-23.5
 30
0.0
 40
0.5
  1
1/4
100
AcDbAttributeDefinition
  3

  2
X
 70
     8
280
     0
  0
ATTDEF
  5
1EE
330
1B1
100
AcDbEntity
  8
AM_6
100
AcDbText
 10
7.016666666666667
 20
-24.0
 30
0.0
 40
0.5
  1
0.250000
100
AcDbAttributeDefinition
  3

  2
X1
 70
     8
280
     0
  0
ATTDEF
  5
1EF
330
1B1
100
AcDbEntity
  8
AM_6
100
AcDbText
 10
7.016666666666667
 20
-24.5
 30
0.0
 40
0.5
  1
0.025
100
AcDbAttributeDefinition
  3

  2
Y
 70
     8
280
     0
  0
ATTDEF
  5
1F0
330
1B1
100
AcDbEntity
  8
AM_6
100
AcDbText
 10
7.016666666666667
 20
-25.0
 30
0.0
 40
0.5
  1
3-15/32
100
AcDbAttributeDefinition
  3

  2
Z
 70
     8
280
     0
  0
ATTDEF
  5
1F1
330
1B1
100
AcDbEntity
  8
AM_6
100
AcDbText
 10
7.016666666666667
 20
-25.5
 30
0.0
 40
0.5
  1
3.468750
100
AcDbAttributeDefinition
  3

  2
Z1
 70
     8
280
     0
  0
ATTDEF
  5
1F2
330
1B1
100
AcDbEntity
  8
AM_6
100
AcDbText
 10
7.016666666666667
 20
-26.0
 30
0.0
 40
0.5
  1
baldor
100
AcDbAttributeDefinition
  3

  2
COMPANY
 70
     8
280
     0
  0
LINE
  5
1F3
330
1B1
100
AcDbEntity
  8
AM_9
100
AcDbLine
 10
0.3818985130871303
 20
2.154912447815119
 30
0.0
 11
0.3702329682652221
 21
2.134290144374224
 31
0.0
  0
LINE
  5
1F4
330
1B1
100
AcDbEntity
  8
AM_9
100
AcDbLine
 10
-0.377662234423054
 20
2.148428537941085
 30
0.0
 11
-0.3812674748234925
 21
2.154000427882181
 31
0.0
  0
LINE
  5
1F5
330
1B1
100
AcDbEntity
  8
AM_9
100
AcDbLine
 10
-0.3593750000000001
 20
0.3476343040826091
 30
0.0
 11
-0.3593750000000001
 21
-0.3476343040826091
 31
0.0
  0
LINE
  5
1F6
330
1B1
100
AcDbEntity
  8
AM_9
100
AcDbLine
 10
0.3593750000000001
 20
-0.3476343040826092
 30
0.0
 11
0.3593750000000001
 21
0.3476343040826092
 31
0.0
  0
LWPOLYLINE
  5
1F7
330
1B1
100
AcDbEntity
  8
AM_9
100
AcDbPolyline
 90
        6
 70
     0
 43
0.0
 10
-1.183361639227914
 20
-3.112299863750495
 10
-1.199163000053319
 20
-3.139533184594177
 10
-1.218115410922126
 20
-3.174237323541968
 10
-1.232571430259241
 20
-3.20262561537126
 10
-1.243032484480064
 20
-3.224503905196095
 10
-1.249999999999999
 20
-3.239678038130518
  0
LINE
  5
1F8
330
1B1
100
AcDbEntity
  8
AM_9
100
AcDbLine
 10
-0.769880923613013
 20
-2.673242187449753
 30
0.0
 11
-0.8255775372948827
 21
-2.712933389960337
 31
0.0
  0
LWPOLYLINE
  5
1F9
330
1B1
100
AcDbEntity
  8
AM_9
100
AcDbPolyline
 90
        3
 70
     0
 43
0.0
 10
-0.5411654018659877
 20
-2.548472702896324
 10
-0.6149639868947473
 20
-2.582818835351036
 10
-0.686199081147617
 20
-2.620964930842501
  0
LINE
  5
1FA
330
1B1
100
AcDbEntity
  8
AM_9
100
AcDbLine
 10
0.5929065825333976
 20
-2.571900635020085
 30
0.0
 11
0.5395453228949048
 21
-2.547780329661062
 31
0.0
  0
LINE
  5
1FB
330
1B1
100
AcDbEntity
  8
AM_9
100
AcDbLine
 10
0.8811968839379195
 20
-2.756982566824167
 30
0.0
 11
0.8232132396050306
 21
-2.711162194356795
 31
0.0
  0
LWPOLYLINE
  5
1FC
330
1B1
100
AcDbEntity
  8
AM_9
100
AcDbPolyline
 90
        7
 70
     0
 43
0.0
 10
1.25
 20
-3.23967803813052
 10
1.242613606781725
 20
-3.223411896851064
 10
1.231356271933191
 20
-3.199596938128351
 10
1.21554377642858
 20
-3.168530607713488
 10
1.194491901242076
 20
-3.13051035135759
 10
1.167516427347861
 20
-3.085833614811764
 10
1.150253659555146
 20
-3.059146484922254
  0
LINE
  5
1FD
330
1B1
100
AcDbEntity
  8
AM_9
100
AcDbLine
 10
-1.375
 20
3.125
 30
0.0
 11
-0.5303300858899105
 21
3.125
 31
0.0
  0
LINE
  5
1FE
330
1B1
100
AcDbEntity
  8
AM_9
100
AcDbLine
 10
-1.375
 20
3.0
 30
0.0
 11
-0.4677071733467423
 21
3.0
 31
0.0
  0
LINE
  5
1FF
330
1B1
100
AcDbEntity
  8
AM_9
100
AcDbLine
 10
0.5303300858899108
 20
3.125
 30
0.0
 11
1.375
 21
3.125
 31
0.0
  0
LINE
  5
200
330
1B1
100
AcDbEntity
  8
AM_9
100
AcDbLine
 10
0.4677071733467426
 20
3.0
 30
0.0
 11
1.375
 21
3.0
 31
0.0
  0
ARC
  5
201
330
1B1
100
AcDbEntity
  8
AM_9
100
AcDbCircle
 10
0.0000000000000001
 20
-3.8125
 30
0.0
 40
0.8531250000000001
100
AcDbArc
 50
0.0
 51
179.9999991462263
  0
LINE
  5
202
330
1B1
100
AcDbEntity
  8
AM_9
100
AcDbLine
 10
-0.8531249999999999
 20
-3.8125
 30
0.0
 11
-0.8531249999999999
 21
-4.0
 31
0.0
  0
LINE
  5
203
330
1B1
100
AcDbEntity
  8
AM_9
100
AcDbLine
 10
0.8531250000000002
 20
-4.0
 30
0.0
 11
0.8531250000000002
 21
-3.8125
 31
0.0
  0
LINE
  5
204
330
1B1
100
AcDbEntity
  8
AM_9
100
AcDbLine
 10
-1.375
 20
-2.55905
 30
0.0
 11
1.375000000000003
 21
-2.55905
 31
0.0
  0
LINE
  5
205
330
1B1
100
AcDbEntity
  8
AM_9
100
AcDbLine
 10
1.375000000000001
 20
2.55905
 30
0.0
 11
-1.375
 21
2.55905
 31
0.0
  0
LINE
  5
206
330
1B1
100
AcDbEntity
  8
AM_9
100
AcDbLine
 10
-1.254640116178807
 20
-3.249913847597696
 30
0.0
 11
-1.249999999999999
 21
-3.239678038130519
 31
0.0
  0
LINE
  5
207
330
1B1
100
AcDbEntity
  8
AM_9
100
AcDbLine
 10
1.25
 20
-3.23967803813052
 30
0.0
 11
1.254640116179127
 21
-3.24991384759841
 31
0.0
  0
ARC
  5
208
330
1B1
100
AcDbEntity
  8
AM_9
100
AcDbCircle
 10
0.0000000000000036
 20
0.0
 30
0.0
 40
0.5000000000000033
100
AcDbArc
 50
169.9655946544137
 51
190.0344053455863
  0
ARC
  5
209
330
1B1
100
AcDbEntity
  8
AM_9
100
AcDbCircle
 10
0.0000000000000001
 20
0.0
 30
0.0
 40
0.4499999999999993
100
AcDbArc
 50
163.8351258292454
 51
196.1648741707546
  0
LINE
  5
20A
330
1B1
100
AcDbEntity
  8
AM_7
100
AcDbLine
 10
2.016666666666667
 20
0.0
 30
0.0
 11
-2.8828125
 21
0.0
 31
0.0
  0
LINE
  5
20B
330
1B1
100
AcDbEntity
  8
AM_7
100
AcDbLine
 10
-0.89578125
 20
-3.8125
 30
0.0
 11
0.89578125
 21
-3.8125
 31
0.0
  0
LINE
  5
20C
330
1B1
100
AcDbEntity
  8
AM_7
100
AcDbLine
 10
0.0000000000000001
 20
-4.70828125
 30
0.0
 11
0.0000000000000001
 21
-2.91671875
 31
0.0
  0
LINE
  5
20D
330
1B1
100
AcDbEntity
  8
AM_7
100
AcDbLine
 10
0.0000000000000003
 20
-0.525
 30
0.0
 11
0.0000000000000003
 21
0.5249999999999998
 31
0.0
  0
LINE
  5
20E
330
1B1
100
AcDbEntity
  8
AM_7
100
AcDbLine
 10
-0.7874999999999999
 20
3.3125
 30
0.0
 11
0.7875000000000003
 21
3.3125
 31
0.0
  0
LINE
  5
20F
330
1B1
100
AcDbEntity
  8
AM_7
100
AcDbLine
 10
0.0000000000000002
 20
2.525
 30
0.0
 11
0.0000000000000002
 21
4.100000000000001
 31
0.0
  0
LINE
  5
210
330
1B1
100
AcDbEntity
  8
AM_4
100
AcDbLine
 10
1.026785714285715
 20
4.5
 30
0.0
 11
0.7187500000000002
 21
4.5
 31
0.0
  0
LINE
  5
211
330
1B1
100
AcDbEntity
  8
AM_4
100
AcDbLine
 10
-0.7187499999999998
 20
4.5
 30
0.0
 11
-1.026785714285714
 21
4.5
 31
0.0
  0
LINE
  5
212
330
1B1
100
AcDbEntity
  8
AM_4
100
AcDbLine
 10
-0.7187499999999998
 20
4.1875
 30
0.0
 11
-0.5624999999999998
 21
4.1875
 31
0.0
  0
LINE
  5
213
330
1B1
100
AcDbEntity
  8
AM_4
100
AcDbLine
 10
-0.5624999999999998
 20
4.1875
 30
0.0
 11
-0.5624999999999998
 21
3.3125
 31
0.0
  0
LINE
  5
214
330
1B1
100
AcDbEntity
  8
AM_4
100
AcDbLine
 10
0.7187500000000001
 20
4.1875
 30
0.0
 11
0.7187500000000002
 21
4.5
 31
0.0
  0
LINE
  5
215
330
1B1
100
AcDbEntity
  8
AM_4
100
AcDbLine
 10
0.5625000000000002
 20
4.1875
 30
0.0
 11
0.7187500000000001
 21
4.1875
 31
0.0
  0
LINE
  5
216
330
1B1
100
AcDbEntity
  8
AM_4
100
AcDbLine
 10
-0.7187499999999998
 20
4.5
 30
0.0
 11
-0.7187499999999998
 21
4.1875
 31
0.0
  0
ARC
  5
217
330
1B1
100
AcDbEntity
  8
AM_4
100
AcDbCircle
 10
0.0000000000000001
 20
3.3125
 30
0.0
 40
0.5624999999999999
100
AcDbArc
 50
180.0
 51
0.0
  0
LINE
  5
218
330
1B1
100
AcDbEntity
  8
AM_4
100
AcDbLine
 10
0.5625000000000002
 20
3.3125
 30
0.0
 11
0.5625000000000002
 21
4.1875
 31
0.0
  0
LINE
  5
219
330
1B1
100
AcDbEntity
  8
AM_4
100
AcDbLine
 10
-1.375
 20
4.151785714285714
 30
0.0
 11
-1.375
 21
-3.125
 31
0.0
  0
ARC
  5
21A
330
1B1
100
AcDbEntity
  8
AM_4
100
AcDbCircle
 10
-1.249999999999999
 20
-3.124999999999999
 30
0.0
 40
0.1250000000000007
100
AcDbArc
 50
180.0
 51
267.9438850321341
  0
LINE
  5
21B
330
1B1
100
AcDbEntity
  8
AM_4
100
AcDbLine
 10
-1.249999999999999
 20
2.260416666666666
 30
0.0
 11
-1.249999999999999
 21
-3.239678038130518
 31
0.0
  0
LINE
  5
21C
330
1B1
100
AcDbEntity
  8
AM_4
100
AcDbLine
 10
1.375
 20
4.151785714285714
 30
0.0
 11
1.375
 21
-3.124999999999999
 31
0.0
  0
LINE
  5
21D
330
1B1
100
AcDbEntity
  8
AM_4
100
AcDbLine
 10
1.25
 20
2.260416666666666
 30
0.0
 11
1.25
 21
-3.23967803813052
 31
0.0
  0
ARC
  5
21E
330
1B1
100
AcDbEntity
  8
AM_4
100
AcDbCircle
 10
1.249999999999999
 20
-3.125
 30
0.0
 40
0.1250000000000004
100
AcDbArc
 50
272.0363015490557
 51
0.0
  0
ARC
  5
21F
330
1B1
100
AcDbEntity
  8
AM_4
100
AcDbCircle
 10
0.0000000000000002
 20
0.0
 30
0.0
 40
0.5
100
AcDbArc
 50
190.0344053455864
 51
169.9655946544136
  0
ARC
  5
220
330
1B1
100
AcDbEntity
  8
AM_4
100
AcDbCircle
 10
0.0000000000000003
 20
0.0
 30
0.0
 40
0.4499999999999995
100
AcDbArc
 50
196.1648741707546
 51
163.8351258292454
  0
LINE
  5
221
330
1B1
100
AcDbEntity
  8
AM_4
100
AcDbLine
 10
0.3593750000000003
 20
2.083333333333334
 30
0.0
 11
0.3593750000000002
 21
0.3476343040826092
 31
0.0
  0
LINE
  5
222
330
1B1
100
AcDbEntity
  8
AM_4
100
AcDbLine
 10
-0.3593749999999998
 20
0.3476343040826091
 30
0.0
 11
-0.3593749999999997
 21
2.083333333333332
 31
0.0
  0
LINE
  5
223
330
1B1
100
AcDbEntity
  8
AM_4
100
AcDbLine
 10
0.3508630061849757
 20
0.3562234564017954
 30
0.0
 11
0.3593750000000002
 21
0.3476343040826092
 31
0.0
  0
LWPOLYLINE
  5
224
330
1B1
100
AcDbEntity
  8
AM_4
100
AcDbPolyline
 90
        3
 70
     0
 43
0.0
 10
-0.3593749999999998
 20
0.3476343040826091
 10
-0.3490442700245343
 20
0.3580057228076666
 10
-0.3197682863401901
 20
0.384380336452137
  0
LINE
  5
225
330
1B1
100
AcDbEntity
  8
AM_4
100
AcDbLine
 10
-1.026785714285714
 20
4.5
 30
0.0
 11
-1.375
 21
4.151785714285714
 31
0.0
  0
LINE
  5
226
330
1B1
100
AcDbEntity
  8
AM_4
100
AcDbLine
 10
-1.197916666666667
 20
2.208333333333333
 30
0.0
 11
-0.4843749999999998
 21
2.208333333333333
 31
0.0
  0
LINE
  5
227
330
1B1
100
AcDbEntity
  8
AM_4
100
AcDbLine
 10
0.7500000000000002
 20
3.3125
 30
0.0
 11
0.7500000000000002
 21
4.5
 31
0.0
  0
ARC
  5
228
330
1B1
100
AcDbEntity
  8
AM_4
100
AcDbCircle
 10
0.4843749999999988
 20
2.083333333333336
 30
0.0
 40
0.1249999999999978
100
AcDbArc
 50
90.0
 51
146.9316810845853
  0
LINE
  5
229
330
1B1
100
AcDbEntity
  8
AM_4
100
AcDbLine
 10
0.4843749999999997
 20
2.208333333333333
 30
0.0
 11
1.197916666666668
 21
2.208333333333333
 31
0.0
  0
ARC
  5
22A
330
1B1
100
AcDbEntity
  8
AM_4
100
AcDbCircle
 10
0.0000000000000004
 20
3.3125
 30
0.0
 40
0.75
100
AcDbArc
 50
180.0
 51
0.0
  0
LINE
  5
22B
330
1B1
100
AcDbEntity
  8
AM_4
100
AcDbLine
 10
1.197916666666668
 20
2.208333333333333
 30
0.0
 11
1.375000000000001
 21
2.385416666666667
 31
0.0
  0
ARC
  5
22C
330
1B1
100
AcDbEntity
  8
AM_4
100
AcDbCircle
 10
-0.4843750000000008
 20
2.083333333333333
 30
0.0
 40
0.125000000000001
100
AcDbArc
 50
33.06831891541548
 51
90.0
  0
LINE
  5
22D
330
1B1
100
AcDbEntity
  8
AM_4
100
AcDbLine
 10
-0.7499999999999997
 20
4.5
 30
0.0
 11
-0.7499999999999997
 21
3.3125
 31
0.0
  0
LINE
  5
22E
330
1B1
100
AcDbEntity
  8
AM_4
100
AcDbLine
 10
-1.375
 20
2.385416666666667
 30
0.0
 11
-1.197916666666667
 21
2.208333333333333
 31
0.0
  0
LINE
  5
22F
330
1B1
100
AcDbEntity
  8
AM_4
100
AcDbLine
 10
1.375
 20
4.151785714285714
 30
0.0
 11
1.026785714285715
 21
4.5
 31
0.0
  0
LWPOLYLINE
  5
230
330
1B1
100
AcDbEntity
  8
AM_4
100
AcDbPolyline
 90
        4
 70
     0
 43
0.0
 10
-0.3593749999999997
 20
2.083333333333332
 10
-0.3607579957272388
 20
2.101876155519511
 10
-0.3651283520484279
 20
2.120819823597345
 10
-0.379622431282041
 20
2.151538167084243
  0
LINE
  5
231
330
1B1
100
AcDbEntity
  8
AM_4
100
AcDbLine
 10
-0.3593749999999998
 20
2.018226517890059
 30
0.0
 11
0.3593750000000003
 21
2.018226517890059
 31
0.0
  0
LWPOLYLINE
  5
232
330
1B1
100
AcDbEntity
  8
AM_4
100
AcDbPolyline
 90
        4
 70
     0
 43
0.0
 10
0.3796224312820407
 20
2.151538167084243
 10
0.3704443645076792
 20
2.134761052476962
 10
0.3638084123614347
 20
2.11632875642794
 10
0.3593750000000002
 20
2.083333333333334
  0
LINE
  5
233
330
1B1
100
AcDbEntity
  8
AM_4
100
AcDbLine
 10
-0.379622431282041
 20
2.151538167084243
 30
0.0
 11
0.3796224312820407
 21
2.151538167084243
 31
0.0
  0
LWPOLYLINE
  5
234
330
1B1
100
AcDbEntity
  8
AM_4
100
AcDbPolyline
 90
        3
 70
     0
 43
0.0
 10
-0.5640910748713744
 20
-2.558535782308579
 10
-0.5050055951987952
 20
-2.533596427083765
 10
-0.4440104166666663
 20
-2.511162322880224
  0
LWPOLYLINE
  5
235
330
1B1
100
AcDbEntity
  8
AM_4
100
AcDbPolyline
 90
        3
 70
     0
 43
0.0
 10
0.4440104166666667
 20
-2.511162322880224
 10
0.504808092130833
 20
-2.533518455911412
 10
0.5640910748713742
 20
-2.558535782308579
  0
LINE
  5
236
330
1B1
100
AcDbEntity
  8
AM_4
100
AcDbLine
 10
0.3593750000000002
 20
-0.3476343040826092
 30
0.0
 11
0.359375
 21
-2.392858897687518
 31
0.0
  0
LINE
  5
237
330
1B1
100
AcDbEntity
  8
AM_4
100
AcDbLine
 10
-0.3593749999999998
 20
-2.392858897687518
 30
0.0
 11
-0.3593749999999998
 21
-0.3476343040826091
 31
0.0
  0
LWPOLYLINE
  5
238
330
1B1
100
AcDbEntity
  8
AM_4
100
AcDbPolyline
 90
        8
 70
     0
 43
0.0
 10
-0.3593749999999997
 20
-2.392858897687518
 10
-0.3620905041239836
 20
-2.41872485481426
 10
-0.3701761060537633
 20
-2.44368814735202
 10
-0.3833995302569344
 20
-2.466513882025204
 10
-0.4018190672001333
 20
-2.486717930068766
 10
-0.4169016334903863
 20
-2.498073577826491
 10
-0.4340731032998714
 20
-2.507291057452024
 10
-0.4440104166666664
 20
-2.511162322880224
  0
LWPOLYLINE
  5
239
330
1B1
100
AcDbEntity
  8
AM_4
100
AcDbPolyline
 90
        8
 70
     0
 43
0.0
 10
0.4440104166666669
 20
-2.511162322880224
 10
0.4253073177503444
 20
-2.503008117192333
 10
0.4086734937097746
 20
-2.492328902942322
 10
0.3945048897416089
 20
-2.479733480723751
 10
0.3827169926821079
 20
-2.465595749063938
 10
0.3720332623005966
 20
-2.447661074651553
 10
0.3645944158320948
 20
-2.428602591626385
 10
0.359375
 20
-2.392858897687518
  0
LWPOLYLINE
  5
23A
330
1B1
100
AcDbEntity
  8
AM_4
100
AcDbPolyline
 90
        6
 70
     0
 43
0.0
 10
-0.5640910748713697
 20
-2.558535782308577
 10
-0.6182265326763171
 20
-2.584322099899604
 10
-0.6721285613107465
 20
-2.612971677253785
 10
-0.7261416215275599
 20
-2.644877053374966
 10
-0.7794873428352987
 20
-2.679793293760664
 10
-0.8254350758232907
 20
-2.71282644134698
  0
LWPOLYLINE
  5
23B
330
1B1
100
AcDbEntity
  8
AM_4
100
AcDbPolyline
 90
        6
 70
     0
 43
0.0
 10
0.8254350758232909
 20
-2.71282644134698
 10
0.777964304362424
 20
-2.678746701818297
 10
0.7289985535706313
 20
-2.646658626187967
 10
0.6782212284409805
 20
-2.616405954662424
 10
0.626524461278313
 20
-2.58853427359263
 10
0.5640910748713689
 20
-2.558535782308576
  0
LINE
  5
23C
330
1B1
100
AcDbEntity
  8
AM_4
100
AcDbLine
 10
-0.5640910748713744
 20
-2.558535782308579
 30
0.0
 11
0.5640910748713743
 21
-2.558535782308579
 31
0.0
  0
LINE
  5
23D
330
1B1
100
AcDbEntity
  8
AM_4
100
AcDbLine
 10
-1.375
 20
-3.8125
 30
0.0
 11
-1.375
 21
-4.0
 31
0.0
  0
LINE
  5
23E
330
1B1
100
AcDbEntity
  8
AM_4
100
AcDbLine
 10
-0.8124999999999998
 20
-3.8125
 30
0.0
 11
-0.8124999999999999
 21
-4.0
 31
0.0
  0
ARC
  5
23F
330
1B1
100
AcDbEntity
  8
AM_4
100
AcDbCircle
 10
0.0000000000000004
 20
-3.8125
 30
0.0
 40
0.8125
100
AcDbArc
 50
0.0
 51
180.0
  0
LINE
  5
240
330
1B1
100
AcDbEntity
  8
AM_4
100
AcDbLine
 10
0.8125000000000004
 20
-4.0
 30
0.0
 11
0.8125000000000003
 21
-3.8125
 31
0.0
  0
LINE
  5
241
330
1B1
100
AcDbEntity
  8
AM_4
100
AcDbLine
 10
0.8125000000000004
 20
-4.0
 30
0.0
 11
1.375
 21
-4.0
 31
0.0
  0
LINE
  5
242
330
1B1
100
AcDbEntity
  8
AM_4
100
AcDbLine
 10
1.375
 20
-4.0
 30
0.0
 11
1.375
 21
-3.8125
 31
0.0
  0
ARC
  5
243
330
1B1
100
AcDbEntity
  8
AM_4
100
AcDbCircle
 10
-0.0000000000000011
 20
-3.8125
 30
0.0
 40
1.375000000000001
100
AcDbArc
 50
0.0000008537736463
 51
53.10743716547864
  0
LINE
  5
244
330
1B1
100
AcDbEntity
  8
AM_4
100
AcDbLine
 10
-0.8254350758232907
 20
-2.71282644134698
 30
0.0
 11
0.8254350758232909
 21
-2.71282644134698
 31
0.0
  0
ARC
  5
245
330
1B1
100
AcDbEntity
  8
AM_4
100
AcDbCircle
 10
0.0000000000000009
 20
-3.812500000000001
 30
0.0
 40
1.375000000000001
100
AcDbArc
 50
126.8925628345214
 51
180.0
  0
LINE
  5
246
330
1B1
100
AcDbEntity
  8
AM_4
100
AcDbLine
 10
-1.375
 20
-4.0
 30
0.0
 11
-0.8124999999999999
 21
-4.0
 31
0.0
  0
ENDBLK
  5
1B4
330
1B1
100
AcDbEntity
  8
0
100
AcDbBlockEnd
  0
ENDSEC
  0
SECTION
  2
ENTITIES
  0
INSERT
  5
6F
330
1F
100
AcDbEntity
  8
0
100
AcDbBlockReference
  2
1_070836_2
 10
0.0
 20
0.0
 30
0.0
  0
POINT
  5
248
330
1F
100
AcDbEntity
  8
ConnectionPoints
100
AcDbPoint
 10
-2.703125
 20
0.0
 30
0.0000000000000002
  0
POINT
  5
249
330
1F
100
AcDbEntity
  8
ConnectionPoints
100
AcDbPoint
 10
-2.703125
 20
0.0
 30
0.0000000000000002
  0
POINT
  5
24A
330
1F
100
AcDbEntity
  8
ConnectionPoints
100
AcDbPoint
 10
2.046374999999999
 20
0.0
 30
-0.0000000000000001
  0
POINT
  5
24B
330
1F
100
AcDbEntity
  8
ConnectionPoints
100
AcDbPoint
 10
-2.703125
 20
0.0
 30
0.0000000000000002
  0
POINT
  5
24C
330
1F
100
AcDbEntity
  8
ConnectionPoints
100
AcDbPoint
 10
0.0000000000000002
 20
0.0
 30
3.45
  0
POINT
  5
24D
330
1F
100
AcDbEntity
  8
ConnectionPoints
100
AcDbPoint
 10
-2.703125
 20
0.0
 30
0.0000000000000002
  0
POINT
  5
24E
330
1F
100
AcDbEntity
  8
ConnectionPoints
100
AcDbPoint
 10
-2.453125
 20
0.0
 30
0.0000000000000002
  0
ENDSEC
  0
SECTION
  2
OBJECTS
  0
DICTIONARY
  5
C
330
0
100
AcDbDictionary
281
     1
  3
ACAD_DETAILVIEWSTYLE
350
256
  3
ACAD_GROUP
350
D
  3
ACAD_LAYOUT
350
1A
  3
ACAD_MATERIAL
350
43
  3
ACAD_MLEADERSTYLE
350
6B
  3
ACAD_MLINESTYLE
350
17
  3
ACAD_PLOTSETTINGS
350
19
  3
ACAD_PLOTSTYLENAME
350
E
  3
ACAD_SCALELIST
350
47
  3
ACAD_SECTIONVIEWSTYLE
350
257
  3
ACAD_TABLESTYLE
350
69
  3
ACAD_VISUALSTYLE
350
2A
  3
ACDB_RECOMPOSE_DATA
350
253
  3
AcDbVariableDictionary
350
24F
  0
SUN
  5
6D
330
29
100
AcDbSun
 90
        1
290
     0
 63
     7
421
 16777215
 40
1.0
291
     1
 91
  2455826
 92
 54000000
292
     0
 70
     2
 71
   256
280
     1
  0
DICTIONARY
  5
256
102
{ACAD_REACTORS
330
C
102
}
330
C
100
AcDbDictionary
281
     1
  0
DICTIONARY
  5
D
102
{ACAD_REACTORS
330
C
102
}
330
C
100
AcDbDictionary
281
     1
  0
DICTIONARY
  5
1A
102
{ACAD_REACTORS
330
C
102
}
330
C
100
AcDbDictionary
281
     1
  3
Layout1
350
1E
  3
Layout2
350
26
  3
Model
350
22
  0
DICTIONARY
  5
43
102
{ACAD_REACTORS
330
C
102
}
330
C
100
AcDbDictionary
281
     1
  3
ByBlock
350
45
  3
ByLayer
350
44
  3
Global
350
46
  0
DICTIONARY
  5
6B
102
{ACAD_REACTORS
330
C
102
}
330
C
100
AcDbDictionary
281
     1
  3
Standard
350
6C
  0
DICTIONARY
  5
17
102
{ACAD_REACTORS
330
C
102
}
330
C
100
AcDbDictionary
281
     1
  3
Standard
350
18
  0
DICTIONARY
  5
19
102
{ACAD_REACTORS
330
C
102
}
330
C
100
AcDbDictionary
281
     1
  0
ACDBDICTIONARYWDFLT
  5
E
102
{ACAD_REACTORS
330
C
102
}
330
C
100
AcDbDictionary
281
     1
  3
Normal
350
F
100
AcDbDictionaryWithDefault
340
F
  0
DICTIONARY
  5
47
102
{ACAD_REACTORS
330
C
102
}
330
C
100
AcDbDictionary
281
     1
  3
A0
350
48
  3
A1
350
49
  3
A2
350
4A
  3
A3
350
4B
  3
A4
350
4C
  3
A5
350
4D
  3
A6
350
4E
  3
A7
350
4F
  3
A8
350
50
  3
A9
350
51
  3
B0
350
52
  3
B1
350
53
  3
B2
350
54
  3
B3
350
55
  3
B4
350
56
  3
B5
350
57
  3
B6
350
58
  3
B7
350
59
  3
B8
350
5A
  3
B9
350
5B
  3
C0
350
5C
  3
C1
350
5D
  3
C2
350
5E
  3
C3
350
5F
  3
C4
350
60
  3
C5
350
61
  3
C6
350
62
  3
C7
350
63
  3
C8
350
64
  3
C9
350
65
  3
D0
350
66
  3
D1
350
67
  3
D2
350
68
  0
DICTIONARY
  5
257
102
{ACAD_REACTORS
330
C
102
}
330
C
100
AcDbDictionary
281
     1
  0
DICTIONARY
  5
69
102
{ACAD_REACTORS
330
C
102
}
330
C
100
AcDbDictionary
281
     1
  3
Standard
350
6A
  0
DICTIONARY
  5
2A
102
{ACAD_REACTORS
330
C
102
}
330
C
100
AcDbDictionary
281
     1
  3
2dWireframe
350
2F
  3
Basic
350
32
  3
Brighten
350
36
  3
ColorChange
350
3A
  3
Conceptual
350
34
  3
Dim
350
35
  3
EdgeColorOff
350
3D
  3
Facepattern
350
39
  3
Flat
350
2B
  3
FlatWithEdges
350
2C
  3
Gouraud
350
2D
  3
GouraudWithEdges
350
2E
  3
Hidden
350
31
  3
JitterOff
350
3B
  3
Linepattern
350
38
  3
OverhangOff
350
3C
  3
Realistic
350
33
  3
Shaded
350
42
  3
Shaded with edges
350
41
  3
Shades of Gray
350
3E
  3
Sketchy
350
3F
  3
Thicken
350
37
  3
Wireframe
350
30
  3
X-Ray
350
40
  0
XRECORD
  5
253
102
{ACAD_REACTORS
330
C
102
}
330
C
100
AcDbXrecord
280
     1
 90
        1
330
6A
  0
DICTIONARY
  5
24F
102
{ACAD_REACTORS
330
C
102
}
330
C
100
AcDbDictionary
281
     1
  3
CANNOSCALE
350
250
  3
CMLEADERSTYLE
350
255
  3
CTABLESTYLE
350
254
  0
LAYOUT
  5
1E
102
{ACAD_REACTORS
330
1A
102
}
330
1A
100
AcDbPlotSettings
  1

  2
none_device
  4

  6

 40
0.0
 41
0.0
 42
0.0
 43
0.0
 44
0.0
 45
0.0
 46
0.0
 47
0.0
 48
0.0
 49
0.0
140
0.0
141
0.0
142
1.0
143
1.0
 70
   688
 72
     0
 73
     0
 74
     5
  7

 75
    16
 76
     0
 77
     2
 78
   300
147
1.0
148
0.0
149
0.0
100
AcDbLayout
  1
Layout1
 70
     1
 71
     1
 10
0.0
 20
0.0
 11
12.0
 21
9.0
 12
0.0
 22
0.0
 32
0.0
 14
1.000000000000000E+20
 24
1.000000000000000E+20
 34
1.000000000000000E+20
 15
-1.000000000000000E+20
 25
-1.000000000000000E+20
 35
-1.000000000000000E+20
146
0.0
 13
0.0
 23
0.0
 33
0.0
 16
1.0
 26
0.0
 36
0.0
 17
0.0
 27
1.0
 37
0.0
 76
     0
330
1B
  0
LAYOUT
  5
26
102
{ACAD_REACTORS
330
1A
102
}
330
1A
100
AcDbPlotSettings
  1

  2
none_device
  4

  6

 40
0.0
 41
0.0
 42
0.0
 43
0.0
 44
0.0
 45
0.0
 46
0.0
 47
0.0
 48
0.0
 49
0.0
140
0.0
141
0.0
142
1.0
143
1.0
 70
   688
 72
     0
 73
     0
 74
     5
  7

 75
    16
 76
     0
 77
     2
 78
   300
147
1.0
148
0.0
149
0.0
100
AcDbLayout
  1
Layout2
 70
     1
 71
     2
 10
0.0
 20
0.0
 11
0.0
 21
0.0
 12
0.0
 22
0.0
 32
0.0
 14
0.0
 24
0.0
 34
0.0
 15
0.0
 25
0.0
 35
0.0
146
0.0
 13
0.0
 23
0.0
 33
0.0
 16
1.0
 26
0.0
 36
0.0
 17
0.0
 27
1.0
 37
0.0
 76
     0
330
23
  0
LAYOUT
  5
22
102
{ACAD_REACTORS
330
1A
102
}
330
1A
100
AcDbPlotSettings
  1

  2
none_device
  4
Letter_(8.50_x_11.00_Inches)
  6

 40
6.35
 41
6.35
 42
6.35000508
 43
6.35000508
 44
215.9
 45
279.4
 46
0.0
 47
0.0
 48
0.0
 49
0.0
140
0.0
141
0.0
142
1.0
143
1.0
 70
  1712
 72
     0
 73
     0
 74
     0
  7

 75
     0
 76
     0
 77
     2
 78
   300
147
1.0
148
0.0
149
0.0
100
AcDbLayout
  1
Model
 70
     1
 71
     0
 10
0.0
 20
0.0
 11
12.0
 21
9.0
 12
0.0
 22
0.0
 32
0.0
 14
1.000000000000000E+20
 24
1.000000000000000E+20
 34
1.000000000000000E+20
 15
-1.000000000000000E+20
 25
-1.000000000000000E+20
 35
-1.000000000000000E+20
146
0.0
 13
0.0
 23
0.0
 33
0.0
 16
1.0
 26
0.0
 36
0.0
 17
0.0
 27
1.0
 37
0.0
 76
     0
330
1F
331
29
  0
MATERIAL
  5
45
102
{ACAD_REACTORS
330
43
102
}
330
43
100
AcDbMaterial
  1
ByBlock
 72
     1
 94
      127
  0
MATERIAL
  5
44
102
{ACAD_REACTORS
330
43
102
}
330
43
100
AcDbMaterial
  1
ByLayer
 72
     1
 94
      127
  0
MATERIAL
  5
46
102
{ACAD_REACTORS
330
43
102
}
330
43
100
AcDbMaterial
  1
Global
 72
     1
 94
      127
  0
MLEADERSTYLE
  5
6C
102
{ACAD_REACTORS
330
6B
102
}
330
6B
100
AcDbMLeaderStyle
179
     2
170
     2
171
     1
172
     0
 90
        2
 40
0.0
 41
0.0
173
     1
 91
-1056964608
340
14
 92
       -2
290
     1
 42
0.09
291
     1
 43
0.36
  3
Standard
341
0
 44
0.18
300

342
11
174
     1
178
     6
175
     1
176
     0
 93
-1056964608
 45
0.18
292
     0
297
     0
 46
0.18
343
0
 94
-1056964608
 47
1.0
 49
1.0
140
1.0
293
     1
141
0.0
294
     1
177
     0
142
1.0
295
     0
296
     0
143
0.125
271
     0
272
     9
273
     9
298
     0
  0
MLINESTYLE
  5
18
102
{ACAD_REACTORS
330
17
102
}
330
17
100
AcDbMlineStyle
  2
Standard
 70
     0
  3

 62
   256
 51
90.0
 52
90.0
 71
     2
 49
0.5
 62
   256
  6
BYLAYER
 49
-0.5
 62
   256
  6
BYLAYER
  0
ACDBPLACEHOLDER
  5
F
102
{ACAD_REACTORS
330
E
102
}
330
E
  0
SCALE
  5
48
102
{ACAD_REACTORS
330
47
102
}
330
47
100
AcDbScale
 70
     0
300
1:1
140
1.0
141
1.0
290
     1
  0
SCALE
  5
49
102
{ACAD_REACTORS
330
47
102
}
330
47
100
AcDbScale
 70
     0
300
1:2
140
1.0
141
2.0
290
     0
  0
SCALE
  5
4A
102
{ACAD_REACTORS
330
47
102
}
330
47
100
AcDbScale
 70
     0
300
1:4
140
1.0
141
4.0
290
     0
  0
SCALE
  5
4B
102
{ACAD_REACTORS
330
47
102
}
330
47
100
AcDbScale
 70
     0
300
1:5
140
1.0
141
5.0
290
     0
  0
SCALE
  5
4C
102
{ACAD_REACTORS
330
47
102
}
330
47
100
AcDbScale
 70
     0
300
1:8
140
1.0
141
8.0
290
     0
  0
SCALE
  5
4D
102
{ACAD_REACTORS
330
47
102
}
330
47
100
AcDbScale
 70
     0
300
1:10
140
1.0
141
10.0
290
     0
  0
SCALE
  5
4E
102
{ACAD_REACTORS
330
47
102
}
330
47
100
AcDbScale
 70
     0
300
1:16
140
1.0
141
16.0
290
     0
  0
SCALE
  5
4F
102
{ACAD_REACTORS
330
47
102
}
330
47
100
AcDbScale
 70
     0
300
1:20
140
1.0
141
20.0
290
     0
  0
SCALE
  5
50
102
{ACAD_REACTORS
330
47
102
}
330
47
100
AcDbScale
 70
     0
300
1:30
140
1.0
141
30.0
290
     0
  0
SCALE
  5
51
102
{ACAD_REACTORS
330
47
102
}
330
47
100
AcDbScale
 70
     0
300
1:40
140
1.0
141
40.0
290
     0
  0
SCALE
  5
52
102
{ACAD_REACTORS
330
47
102
}
330
47
100
AcDbScale
 70
     0
300
1:50
140
1.0
141
50.0
290
     0
  0
SCALE
  5
53
102
{ACAD_REACTORS
330
47
102
}
330
47
100
AcDbScale
 70
     0
300
1:100
140
1.0
141
100.0
290
     0
  0
SCALE
  5
54
102
{ACAD_REACTORS
330
47
102
}
330
47
100
AcDbScale
 70
     0
300
2:1
140
2.0
141
1.0
290
     0
  0
SCALE
  5
55
102
{ACAD_REACTORS
330
47
102
}
330
47
100
AcDbScale
 70
     0
300
4:1
140
4.0
141
1.0
290
     0
  0
SCALE
  5
56
102
{ACAD_REACTORS
330
47
102
}
330
47
100
AcDbScale
 70
     0
300
8:1
140
8.0
141
1.0
290
     0
  0
SCALE
  5
57
102
{ACAD_REACTORS
330
47
102
}
330
47
100
AcDbScale
 70
     0
300
10:1
140
10.0
141
1.0
290
     0
  0
SCALE
  5
58
102
{ACAD_REACTORS
330
47
102
}
330
47
100
AcDbScale
 70
     0
300
100:1
140
100.0
141
1.0
290
     0
  0
SCALE
  5
59
102
{ACAD_REACTORS
330
47
102
}
330
47
100
AcDbScale
 70
     0
300
1/128" = 1'-0"
140
0.0078125
141
12.0
290
     0
  0
SCALE
  5
5A
102
{ACAD_REACTORS
330
47
102
}
330
47
100
AcDbScale
 70
     0
300
1/64" = 1'-0"
140
0.015625
141
12.0
290
     0
  0
SCALE
  5
5B
102
{ACAD_REACTORS
330
47
102
}
330
47
100
AcDbScale
 70
     0
300
1/32" = 1'-0"
140
0.03125
141
12.0
290
     0
  0
SCALE
  5
5C
102
{ACAD_REACTORS
330
47
102
}
330
47
100
AcDbScale
 70
     0
300
1/16" = 1'-0"
140
0.0625
141
12.0
290
     0
  0
SCALE
  5
5D
102
{ACAD_REACTORS
330
47
102
}
330
47
100
AcDbScale
 70
     0
300
3/32" = 1'-0"
140
0.09375
141
12.0
290
     0
  0
SCALE
  5
5E
102
{ACAD_REACTORS
330
47
102
}
330
47
100
AcDbScale
 70
     0
300
1/8" = 1'-0"
140
0.125
141
12.0
290
     0
  0
SCALE
  5
5F
102
{ACAD_REACTORS
330
47
102
}
330
47
100
AcDbScale
 70
     0
300
3/16" = 1'-0"
140
0.1875
141
12.0
290
     0
  0
SCALE
  5
60
102
{ACAD_REACTORS
330
47
102
}
330
47
100
AcDbScale
 70
     0
300
1/4" = 1'-0"
140
0.25
141
12.0
290
     0
  0
SCALE
  5
61
102
{ACAD_REACTORS
330
47
102
}
330
47
100
AcDbScale
 70
     0
300
3/8" = 1'-0"
140
0.375
141
12.0
290
     0
  0
SCALE
  5
62
102
{ACAD_REACTORS
330
47
102
}
330
47
100
AcDbScale
 70
     0
300
1/2" = 1'-0"
140
0.5
141
12.0
290
     0
  0
SCALE
  5
63
102
{ACAD_REACTORS
330
47
102
}
330
47
100
AcDbScale
 70
     0
300
3/4" = 1'-0"
140
0.75
141
12.0
290
     0
  0
SCALE
  5
64
102
{ACAD_REACTORS
330
47
102
}
330
47
100
AcDbScale
 70
     0
300
1" = 1'-0"
140
1.0
141
12.0
290
     0
  0
SCALE
  5
65
102
{ACAD_REACTORS
330
47
102
}
330
47
100
AcDbScale
 70
     0
300
1-1/2" = 1'-0"
140
1.5
141
12.0
290
     0
  0
SCALE
  5
66
102
{ACAD_REACTORS
330
47
102
}
330
47
100
AcDbScale
 70
     0
300
3" = 1'-0"
140
3.0
141
12.0
290
     0
  0
SCALE
  5
67
102
{ACAD_REACTORS
330
47
102
}
330
47
100
AcDbScale
 70
     0
300
6" = 1'-0"
140
6.0
141
12.0
290
     0
  0
SCALE
  5
68
102
{ACAD_REACTORS
330
47
102
}
330
47
100
AcDbScale
 70
     0
300
1'-0" = 1'-0"
140
12.0
141
12.0
290
     0
  0
TABLESTYLE
  5
6A
102
{ACAD_REACTORS
330
69
102
}
102
{ACAD_XDICTIONARY
360
251
102
}
330
69
100
AcDbTableStyle
  3
Standard
 70
     0
 71
     0
 40
0.06
 41
0.06
280
     0
281
     0
  7
Standard
140
0.18
170
     2
 62
     0
 63
   257
283
     0
 90
        4
 91
        0
  1

274
    -2
284
     1
 64
     0
275
    -2
285
     1
 65
     0
276
    -2
286
     1
 66
     0
277
    -2
287
     1
 67
     0
278
    -2
288
     1
 68
     0
279
    -2
289
     1
 69
     0
  7
Standard
140
0.25
170
     5
 62
     0
 63
   257
283
     0
 90
        4
 91
        0
  1

274
    -2
284
     1
 64
     0
275
    -2
285
     1
 65
     0
276
    -2
286
     1
 66
     0
277
    -2
287
     1
 67
     0
278
    -2
288
     1
 68
     0
279
    -2
289
     1
 69
     0
  7
Standard
140
0.18
170
     5
 62
     0
 63
   257
283
     0
 90
        4
 91
        0
  1

274
    -2
284
     1
 64
     0
275
    -2
285
     1
 65
     0
276
    -2
286
     1
 66
     0
277
    -2
287
     1
 67
     0
278
    -2
288
     1
 68
     0
279
    -2
289
     1
 69
     0
  0
VISUALSTYLE
  5
2F
102
{ACAD_REACTORS
330
2A
102
}
330
2A
100
AcDbVisualStyle
  2
2dWireframe
 70
     4
177
     3
291
     0
 70
    58
 90
        0
176
     1
 90
        2
176
     1
 90
        0
176
     1
 90
        0
176
     1
 40
0.6
176
     1
 40
30.0
176
     1
 62
     7
420
 16777215
176
     1
 90
        1
176
     1
 90
        4
176
     1
 62
     7
176
     1
 62
   257
176
     1
 90
        1
176
     1
 90
        1
176
     1
 40
1.0
176
     1
 90
        0
176
     1
 62
   257
176
     1
 40
1.0
176
     1
 90
        1
176
     1
 90
        6
176
     1
 90
        2
176
     1
 62
     7
176
     1
 90
        5
176
     1
 90
        0
176
     1
 90
        0
176
     1
290
     0
176
     1
 90
        1
176
     1
 40
0.0
176
     1
 90
        0
176
     1
290
     1
176
     1
290
     1
176
     1
290
     0
176
     1
290
     0
176
     1
290
     0
176
     1
290
     0
176
     1
290
     0
176
     1
290
     0
176
     1
290
     0
176
     1
 90
       50
176
     1
 40
0.0
176
     1
 40
1.0
176
     1
 90
        0
176
     1
 62
    18
420
        0
176
     1
 90
       50
176
     1
 90
        3
176
     1
 62
     5
420
      255
176
     1
290
     0
176
     1
 90
       50
176
     1
 90
       50
176
     1
 90
       50
176
     1
290
     0
176
     1
 90
       50
176
     1
 62
   256
176
     0
 40
1.0
176
     0
 90
        2
176
     1
  1
strokes_ogs.tif
176
     1
290
     0
176
     1
 40
1.0
176
     1
 40
1.0
176
     1
  0
VISUALSTYLE
  5
32
102
{ACAD_REACTORS
330
2A
102
}
330
2A
100
AcDbVisualStyle
  2
Basic
 70
     7
177
     3
291
     1
 70
    58
 90
        1
176
     1
 90
        0
176
     1
 90
        1
176
     1
 90
        0
176
     1
 40
0.6
176
     1
 40
30.0
176
     1
 62
     7
420
 16777215
176
     1
 90
        0
176
     1
 90
        4
176
     1
 62
     7
176
     1
 62
   257
176
     1
 90
        1
176
     1
 90
        1
176
     1
 40
1.0
176
     1
 90
        8
176
     1
 62
     7
176
     1
 40
1.0
176
     1
 90
        1
176
     1
 90
        6
176
     1
 90
        2
176
     1
 62
     7
176
     1
 90
        5
176
     1
 90
        0
176
     1
 90
        0
176
     1
290
     0
176
     1
 90
        1
176
     1
 40
0.0
176
     1
 90
        0
176
     1
290
     0
176
     1
290
     1
176
     1
290
     1
176
     1
290
     0
176
     1
290
     0
176
     1
290
     0
176
     1
290
     0
176
     1
290
     0
176
     1
290
     0
176
     1
 90
       50
176
     1
 40
0.0
176
     1
 40
1.0
176
     1
 90
        0
176
     1
 62
    18
420
        0
176
     1
 90
       50
176
     1
 90
        3
176
     1
 62
     5
420
      255
176
     1
290
     0
176
     1
 90
       50
176
     1
 90
       50
176
     1
 90
       50
176
     1
290
     0
176
     1
 90
       50
176
     1
 62
   256
176
     0
 40
1.0
176
     0
 90
        2
176
     1
  1
strokes_ogs.tif
176
     1
290
     0
176
     1
 40
1.0
176
     1
 40
1.0
176
     1
  0
VISUALSTYLE
  5
36
102
{ACAD_REACTORS
330
2A
102
}
330
2A
100
AcDbVisualStyle
  2
Brighten
 70
    12
177
     3
291
     1
 70
    58
 90
        2
176
     1
 90
        2
176
     1
 90
        0
176
     1
 90
        0
176
     1
 40
0.6
176
     1
 40
30.0
176
     1
 62
     7
420
 16777215
176
     1
 90
        1
176
     1
 90
        4
176
     1
 62
     7
176
     1
 62
   257
176
     1
 90
        1
176
     1
 90
        1
176
     1
 40
1.0
176
     1
 90
        8
176
     1
 62
     7
176
     1
 40
1.0
176
     1
 90
        1
176
     1
 90
        6
176
     1
 90
        2
176
     1
 62
     7
176
     1
 90
        5
176
     1
 90
        0
176
     1
 90
        0
176
     1
290
     0
176
     1
 90
        1
176
     1
 40
50.0
176
     1
 90
        0
176
     1
290
     0
176
     1
290
     1
176
     1
290
     1
176
     1
290
     0
176
     1
290
     0
176
     1
290
     0
176
     1
290
     0
176
     1
290
     0
176
     1
290
     0
176
     1
 90
       50
176
     1
 40
0.0
176
     1
 40
1.0
176
     1
 90
        0
176
     1
 62
    18
420
        0
176
     1
 90
       50
176
     1
 90
        3
176
     1
 62
     5
420
      255
176
     1
290
     0
176
     1
 90
       50
176
     1
 90
       50
176
     1
 90
       50
176
     1
290
     0
176
     1
 90
       50
176
     1
 62
   256
176
     0
 40
1.0
176
     0
 90
        2
176
     1
  1
strokes_ogs.tif
176
     1
290
     0
176
     1
 40
1.0
176
     1
 40
1.0
176
     1
  0
VISUALSTYLE
  5
3A
102
{ACAD_REACTORS
330
2A
102
}
330
2A
100
AcDbVisualStyle
  2
ColorChange
 70
    16
177
     3
291
     1
 70
    58
 90
        2
176
     1
 90
        2
176
     1
 90
        3
176
     1
 90
        0
176
     1
 40
0.6
176
     1
 40
30.0
176
     1
 62
     8
420
  8421504
176
     1
 90
        1
176
     1
 90
        4
176
     1
 62
     7
176
     1
 62
   257
176
     1
 90
        1
176
     1
 90
        1
176
     1
 40
1.0
176
     1
 90
        8
176
     1
 62
     8
420
  8421504
176
     1
 40
1.0
176
     1
 90
        1
176
     1
 90
        6
176
     1
 90
        2
176
     1
 62
     7
176
     1
 90
        5
176
     1
 90
        0
176
     1
 90
        0
176
     1
290
     0
176
     1
 90
        1
176
     1
 40
0.0
176
     1
 90
        0
176
     1
290
     0
176
     1
290
     1
176
     1
290
     1
176
     1
290
     0
176
     1
290
     0
176
     1
290
     0
176
     1
290
     0
176
     1
290
     0
176
     1
290
     0
176
     1
 90
       50
176
     1
 40
0.0
176
     1
 40
1.0
176
     1
 90
        0
176
     1
 62
    18
420
        0
176
     1
 90
       50
176
     1
 90
        3
176
     1
 62
     5
420
      255
176
     1
290
     0
176
     1
 90
       50
176
     1
 90
       50
176
     1
 90
       50
176
     1
290
     0
176
     1
 90
       50
176
     1
 62
   256
176
     0
 40
1.0
176
     0
 90
        2
176
     1
  1
strokes_ogs.tif
176
     1
290
     0
176
     1
 40
1.0
176
     1
 40
1.0
176
     1
  0
VISUALSTYLE
  5
34
102
{ACAD_REACTORS
330
2A
102
}
330
2A
100
AcDbVisualStyle
  2
Conceptual
 70
     9
177
     3
291
     0
 70
    58
 90
        3
176
     1
 90
        2
176
     1
 90
        0
176
     1
 90
        0
176
     1
 40
0.6
176
     1
 40
30.0
176
     1
 62
     7
420
 16777215
176
     1
 90
        2
176
     1
 90
        2
176
     1
 62
     7
176
     1
 62
   257
176
     1
 90
        1
176
     1
 90
        1
176
     1
 40
179.0
176
     1
 90
        8
176
     1
 62
     7
176
     1
 40
1.0
176
     1
 90
        1
176
     1
 90
        6
176
     1
 90
        2
176
     1
 62
     7
176
     1
 90
        3
176
     1
 90
        0
176
     1
 90
        0
176
     1
290
     0
176
     1
 90
        1
176
     1
 40
0.0
176
     1
 90
        0
176
     1
290
     0
176
     1
290
     1
176
     1
290
     1
176
     1
290
     0
176
     1
290
     0
176
     1
290
     0
176
     1
290
     0
176
     1
290
     0
176
     1
290
     0
176
     1
 90
       50
176
     1
 40
0.0
176
     1
 40
1.0
176
     1
 90
        0
176
     1
 62
    18
420
        0
176
     1
 90
       50
176
     1
 90
        3
176
     1
 62
     5
420
      255
176
     1
290
     0
176
     1
 90
       50
176
     1
 90
       50
176
     1
 90
       50
176
     1
290
     0
176
     1
 90
       50
176
     1
 62
   256
176
     0
 40
1.0
176
     0
 90
        2
176
     1
  1
strokes_ogs.tif
176
     1
290
     0
176
     1
 40
1.0
176
     1
 40
1.0
176
     1
  0
VISUALSTYLE
  5
35
102
{ACAD_REACTORS
330
2A
102
}
330
2A
100
AcDbVisualStyle
  2
Dim
 70
    11
177
     3
291
     1
 70
    58
 90
        2
176
     1
 90
        2
176
     1
 90
        0
176
     1
 90
        0
176
     1
 40
0.6
176
     1
 40
30.0
176
     1
 62
     7
420
 16777215
176
     1
 90
        1
176
     1
 90
        4
176
     1
 62
     7
176
     1
 62
   257
176
     1
 90
        1
176
     1
 90
        1
176
     1
 40
1.0
176
     1
 90
        8
176
     1
 62
     7
176
     1
 40
1.0
176
     1
 90
        1
176
     1
 90
        6
176
     1
 90
        2
176
     1
 62
     7
176
     1
 90
        5
176
     1
 90
        0
176
     1
 90
        0
176
     1
290
     0
176
     1
 90
        1
176
     1
 40
-50.0
176
     1
 90
        0
176
     1
290
     0
176
     1
290
     1
176
     1
290
     1
176
     1
290
     0
176
     1
290
     0
176
     1
290
     0
176
     1
290
     0
176
     1
290
     0
176
     1
290
     0
176
     1
 90
       50
176
     1
 40
0.0
176
     1
 40
1.0
176
     1
 90
        0
176
     1
 62
    18
420
        0
176
     1
 90
       50
176
     1
 90
        3
176
     1
 62
     5
420
      255
176
     1
290
     0
176
     1
 90
       50
176
     1
 90
       50
176
     1
 90
       50
176
     1
290
     0
176
     1
 90
       50
176
     1
 62
   256
176
     0
 40
1.0
176
     0
 90
        2
176
     1
  1
strokes_ogs.tif
176
     1
290
     0
176
     1
 40
1.0
176
     1
 40
1.0
176
     1
  0
VISUALSTYLE
  5
3D
102
{ACAD_REACTORS
330
2A
102
}
330
2A
100
AcDbVisualStyle
  2
EdgeColorOff
 70
    22
177
     3
291
     1
 70
    58
 90
        2
176
     0
 90
        2
176
     0
 90
        0
176
     0
 90
        0
176
     0
 40
0.6
176
     0
 40
30.0
176
     0
 62
     7
420
 16777215
176
     0
 90
        1
176
     0
 90
        4
176
     0
 62
     7
176
     0
 62
   257
176
     0
 90
        1
176
     0
 90
        1
176
     0
 40
1.0
176
     0
 90
        8
176
     2
 62
     7
176
     0
 40
1.0
176
     0
 90
        1
176
     0
 90
        6
176
     0
 90
        2
176
     0
 62
     7
176
     0
 90
        5
176
     0
 90
        0
176
     0
 90
        0
176
     0
290
     0
176
     0
 90
        1
176
     0
 40
0.0
176
     0
 90
        0
176
     0
290
     0
176
     0
290
     1
176
     0
290
     1
176
     0
290
     0
176
     0
290
     0
176
     0
290
     0
176
     0
290
     0
176
     0
290
     0
176
     0
290
     0
176
     0
 90
       50
176
     0
 40
0.0
176
     0
 40
1.0
176
     0
 90
        0
176
     0
 62
    18
420
        0
176
     0
 90
       50
176
     0
 90
        3
176
     0
 62
     5
420
      255
176
     0
290
     0
176
     0
 90
       50
176
     0
 90
       50
176
     0
 90
       50
176
     0
290
     0
176
     0
 90
       50
176
     0
 62
   256
176
     0
 40
1.0
176
     0
 90
        2
176
     0
  1
strokes_ogs.tif
176
     0
290
     0
176
     0
 40
1.0
176
     0
 40
1.0
176
     0
  0
VISUALSTYLE
  5
39
102
{ACAD_REACTORS
330
2A
102
}
330
2A
100
AcDbVisualStyle
  2
Facepattern
 70
    15
177
     3
291
     1
 70
    58
 90
        2
176
     1
 90
        2
176
     1
 90
        0
176
     1
 90
        0
176
     1
 40
0.6
176
     1
 40
30.0
176
     1
 62
     7
420
 16777215
176
     1
 90
        1
176
     1
 90
        4
176
     1
 62
     7
176
     1
 62
   257
176
     1
 90
        1
176
     1
 90
        1
176
     1
 40
1.0
176
     1
 90
        8
176
     1
 62
     7
176
     1
 40
1.0
176
     1
 90
        1
176
     1
 90
        6
176
     1
 90
        2
176
     1
 62
     7
176
     1
 90
        5
176
     1
 90
        0
176
     1
 90
        0
176
     1
290
     0
176
     1
 90
        1
176
     1
 40
0.0
176
     1
 90
        0
176
     1
290
     0
176
     1
290
     1
176
     1
290
     1
176
     1
290
     0
176
     1
290
     0
176
     1
290
     0
176
     1
290
     0
176
     1
290
     0
176
     1
290
     0
176
     1
 90
       50
176
     1
 40
0.0
176
     1
 40
1.0
176
     1
 90
        0
176
     1
 62
    18
420
        0
176
     1
 90
       50
176
     1
 90
        3
176
     1
 62
     5
420
      255
176
     1
290
     0
176
     1
 90
       50
176
     1
 90
       50
176
     1
 90
       50
176
     1
290
     0
176
     1
 90
       50
176
     1
 62
   256
176
     0
 40
1.0
176
     0
 90
        2
176
     1
  1
strokes_ogs.tif
176
     1
290
     0
176
     1
 40
1.0
176
     1
 40
1.0
176
     1
  0
VISUALSTYLE
  5
2B
102
{ACAD_REACTORS
330
2A
102
}
330
2A
100
AcDbVisualStyle
  2
Flat
 70
     0
177
     3
291
     1
 70
    58
 90
        2
176
     1
 90
        1
176
     1
 90
        1
176
     1
 90
        2
176
     1
 40
0.6
176
     1
 40
30.0
176
     1
 62
     7
420
 16777215
176
     1
 90
        0
176
     1
 90
        0
176
     1
 62
     7
176
     1
 62
   257
176
     1
 90
        1
176
     1
 90
        1
176
     1
 40
1.0
176
     1
 90
        8
176
     1
 62
     7
176
     1
 40
1.0
176
     1
 90
        1
176
     1
 90
        6
176
     1
 90
        2
176
     1
 62
     7
176
     1
 90
        5
176
     1
 90
        0
176
     1
 90
        0
176
     1
290
     0
176
     1
 90
       13
176
     1
 40
0.0
176
     1
 90
        0
176
     1
290
     0
176
     1
290
     1
176
     1
290
     1
176
     1
290
     0
176
     1
290
     0
176
     1
290
     0
176
     1
290
     0
176
     1
290
     0
176
     1
290
     0
176
     1
 90
       50
176
     1
 40
0.0
176
     1
 40
1.0
176
     1
 90
        0
176
     1
 62
    18
420
        0
176
     1
 90
       50
176
     1
 90
        3
176
     1
 62
     5
420
      255
176
     1
290
     0
176
     1
 90
       50
176
     1
 90
       50
176
     1
 90
       50
176
     1
290
     0
176
     1
 90
       50
176
     1
 62
   256
176
     0
 40
1.0
176
     0
 90
        2
176
     1
  1
strokes_ogs.tif
176
     1
290
     0
176
     1
 40
1.0
176
     1
 40
1.0
176
     1
  0
VISUALSTYLE
  5
2C
102
{ACAD_REACTORS
330
2A
102
}
330
2A
100
AcDbVisualStyle
  2
FlatWithEdges
 70
     1
177
     3
291
     1
 70
    58
 90
        2
176
     1
 90
        1
176
     1
 90
        1
176
     1
 90
        2
176
     1
 40
0.6
176
     1
 40
30.0
176
     1
 62
     7
420
 16777215
176
     1
 90
        1
176
     1
 90
        0
176
     1
 62
     7
176
     1
 62
   257
176
     1
 90
        1
176
     1
 90
        1
176
     1
 40
1.0
176
     1
 90
        0
176
     1
 62
   257
176
     1
 40
1.0
176
     1
 90
        1
176
     1
 90
        6
176
     1
 90
        2
176
     1
 62
     7
176
     1
 90
        5
176
     1
 90
        0
176
     1
 90
        0
176
     1
290
     0
176
     1
 90
       13
176
     1
 40
0.0
176
     1
 90
        0
176
     1
290
     0
176
     1
290
     1
176
     1
290
     1
176
     1
290
     0
176
     1
290
     0
176
     1
290
     0
176
     1
290
     0
176
     1
290
     0
176
     1
290
     0
176
     1
 90
       50
176
     1
 40
0.0
176
     1
 40
1.0
176
     1
 90
        0
176
     1
 62
    18
420
        0
176
     1
 90
       50
176
     1
 90
        3
176
     1
 62
     5
420
      255
176
     1
290
     0
176
     1
 90
       50
176
     1
 90
       50
176
     1
 90
       50
176
     1
290
     0
176
     1
 90
       50
176
     1
 62
   256
176
     0
 40
1.0
176
     0
 90
        2
176
     1
  1
strokes_ogs.tif
176
     1
290
     0
176
     1
 40
1.0
176
     1
 40
1.0
176
     1
  0
VISUALSTYLE
  5
2D
102
{ACAD_REACTORS
330
2A
102
}
330
2A
100
AcDbVisualStyle
  2
Gouraud
 70
     2
177
     3
291
     1
 70
    58
 90
        2
176
     1
 90
        2
176
     1
 90
        1
176
     1
 90
        2
176
     1
 40
0.6
176
     1
 40
30.0
176
     1
 62
     7
420
 16777215
176
     1
 90
        0
176
     1
 90
        0
176
     1
 62
     7
176
     1
 62
   257
176
     1
 90
        1
176
     1
 90
        1
176
     1
 40
1.0
176
     1
 90
        0
176
     1
 62
     7
176
     1
 40
1.0
176
     1
 90
        1
176
     1
 90
        6
176
     1
 90
        2
176
     1
 62
     7
176
     1
 90
        5
176
     1
 90
        0
176
     1
 90
        0
176
     1
290
     0
176
     1
 90
       13
176
     1
 40
0.0
176
     1
 90
        0
176
     1
290
     0
176
     1
290
     1
176
     1
290
     1
176
     1
290
     0
176
     1
290
     0
176
     1
290
     0
176
     1
290
     0
176
     1
290
     0
176
     1
290
     0
176
     1
 90
       50
176
     1
 40
0.0
176
     1
 40
1.0
176
     1
 90
        0
176
     1
 62
    18
420
        0
176
     1
 90
       50
176
     1
 90
        3
176
     1
 62
     5
420
      255
176
     1
290
     0
176
     1
 90
       50
176
     1
 90
       50
176
     1
 90
       50
176
     1
290
     0
176
     1
 90
       50
176
     1
 62
   256
176
     0
 40
1.0
176
     0
 90
        2
176
     1
  1
strokes_ogs.tif
176
     1
290
     0
176
     1
 40
1.0
176
     1
 40
1.0
176
     1
  0
VISUALSTYLE
  5
2E
102
{ACAD_REACTORS
330
2A
102
}
330
2A
100
AcDbVisualStyle
  2
GouraudWithEdges
 70
     3
177
     3
291
     1
 70
    58
 90
        2
176
     1
 90
        2
176
     1
 90
        1
176
     1
 90
        2
176
     1
 40
0.6
176
     1
 40
30.0
176
     1
 62
     7
420
 16777215
176
     1
 90
        1
176
     1
 90
        0
176
     1
 62
     7
176
     1
 62
   257
176
     1
 90
        1
176
     1
 90
        1
176
     1
 40
1.0
176
     1
 90
        0
176
     1
 62
   257
176
     1
 40
1.0
176
     1
 90
        1
176
     1
 90
        6
176
     1
 90
        2
176
     1
 62
     7
176
     1
 90
        5
176
     1
 90
        0
176
     1
 90
        0
176
     1
290
     0
176
     1
 90
       13
176
     1
 40
0.0
176
     1
 90
        0
176
     1
290
     0
176
     1
290
     1
176
     1
290
     1
176
     1
290
     0
176
     1
290
     0
176
     1
290
     0
176
     1
290
     0
176
     1
290
     0
176
     1
290
     0
176
     1
 90
       50
176
     1
 40
0.0
176
     1
 40
1.0
176
     1
 90
        0
176
     1
 62
    18
420
        0
176
     1
 90
       50
176
     1
 90
        3
176
     1
 62
     5
420
      255
176
     1
290
     0
176
     1
 90
       50
176
     1
 90
       50
176
     1
 90
       50
176
     1
290
     0
176
     1
 90
       50
176
     1
 62
   256
176
     0
 40
1.0
176
     0
 90
        2
176
     1
  1
strokes_ogs.tif
176
     1
290
     0
176
     1
 40
1.0
176
     1
 40
1.0
176
     1
  0
VISUALSTYLE
  5
31
102
{ACAD_REACTORS
330
2A
102
}
330
2A
100
AcDbVisualStyle
  2
Hidden
 70
     6
177
     3
291
     0
 70
    58
 90
        1
176
     1
 90
        2
176
     1
 90
        2
176
     1
 90
        0
176
     1
 40
0.6
176
     1
 40
30.0
176
     1
 62
     7
420
 16777215
176
     1
 90
        2
176
     1
 90
        2
176
     1
 62
     7
176
     1
 62
   257
176
     1
 90
        2
176
     1
 90
        1
176
     1
 40
40.0
176
     1
 90
        0
176
     1
 62
   257
176
     1
 40
1.0
176
     1
 90
        1
176
     1
 90
        6
176
     1
 90
        2
176
     1
 62
     7
176
     1
 90
        3
176
     1
 90
        0
176
     1
 90
        0
176
     1
290
     0
176
     1
 90
        1
176
     1
 40
0.0
176
     1
 90
        0
176
     1
290
     0
176
     1
290
     1
176
     1
290
     1
176
     1
290
     0
176
     1
290
     0
176
     1
290
     0
176
     1
290
     0
176
     1
290
     0
176
     1
290
     0
176
     1
 90
       50
176
     1
 40
0.0
176
     1
 40
1.0
176
     1
 90
        0
176
     1
 62
    18
420
        0
176
     1
 90
       50
176
     1
 90
        3
176
     1
 62
     5
420
      255
176
     1
290
     0
176
     1
 90
       50
176
     1
 90
       50
176
     1
 90
       50
176
     1
290
     0
176
     1
 90
       50
176
     1
 62
   256
176
     0
 40
1.0
176
     0
 90
        2
176
     1
  1
strokes_ogs.tif
176
     1
290
     0
176
     1
 40
1.0
176
     1
 40
1.0
176
     1
  0
VISUALSTYLE
  5
3B
102
{ACAD_REACTORS
330
2A
102
}
330
2A
100
AcDbVisualStyle
  2
JitterOff
 70
    20
177
     3
291
     1
 70
    58
 90
        2
176
     0
 90
        2
176
     0
 90
        0
176
     0
 90
        0
176
     0
 40
0.6
176
     0
 40
30.0
176
     0
 62
     7
420
 16777215
176
     0
 90
        1
176
     0
 90
        4
176
     0
 62
     7
176
     0
 62
   257
176
     0
 90
        1
176
     0
 90
        1
176
     0
 40
1.0
176
     0
 90
       10
176
     2
 62
     7
176
     0
 40
1.0
176
     0
 90
        1
176
     0
 90
        6
176
     0
 90
        2
176
     0
 62
     7
176
     0
 90
        5
176
     0
 90
        0
176
     0
 90
        0
176
     0
290
     0
176
     0
 90
        1
176
     0
 40
0.0
176
     0
 90
        0
176
     0
290
     0
176
     0
290
     1
176
     0
290
     1
176
     0
290
     0
176
     0
290
     0
176
     0
290
     0
176
     0
290
     0
176
     0
290
     0
176
     0
290
     0
176
     0
 90
       50
176
     0
 40
0.0
176
     0
 40
1.0
176
     0
 90
        0
176
     0
 62
    18
420
        0
176
     0
 90
       50
176
     0
 90
        3
176
     0
 62
     5
420
      255
176
     0
290
     0
176
     0
 90
       50
176
     0
 90
       50
176
     0
 90
       50
176
     0
290
     0
176
     0
 90
       50
176
     0
 62
   256
176
     0
 40
1.0
176
     0
 90
        2
176
     0
  1
strokes_ogs.tif
176
     0
290
     0
176
     0
 40
1.0
176
     0
 40
1.0
176
     0
  0
VISUALSTYLE
  5
38
102
{ACAD_REACTORS
330
2A
102
}
330
2A
100
AcDbVisualStyle
  2
Linepattern
 70
    14
177
     3
291
     1
 70
    58
 90
        2
176
     1
 90
        2
176
     1
 90
        0
176
     1
 90
        0
176
     1
 40
0.6
176
     1
 40
30.0
176
     1
 62
     7
420
 16777215
176
     1
 90
        1
176
     1
 90
        4
176
     1
 62
     7
176
     1
 62
   257
176
     1
 90
        7
176
     1
 90
        7
176
     1
 40
1.0
176
     1
 90
        8
176
     1
 62
     7
176
     1
 40
1.0
176
     1
 90
        1
176
     1
 90
        6
176
     1
 90
        2
176
     1
 62
     7
176
     1
 90
        5
176
     1
 90
        0
176
     1
 90
        0
176
     1
290
     0
176
     1
 90
        1
176
     1
 40
0.0
176
     1
 90
        0
176
     1
290
     0
176
     1
290
     1
176
     1
290
     1
176
     1
290
     0
176
     1
290
     0
176
     1
290
     0
176
     1
290
     0
176
     1
290
     0
176
     1
290
     0
176
     1
 90
       50
176
     1
 40
0.0
176
     1
 40
1.0
176
     1
 90
        0
176
     1
 62
    18
420
        0
176
     1
 90
       50
176
     1
 90
        3
176
     1
 62
     5
420
      255
176
     1
290
     0
176
     1
 90
       50
176
     1
 90
       50
176
     1
 90
       50
176
     1
290
     0
176
     1
 90
       50
176
     1
 62
   256
176
     0
 40
1.0
176
     0
 90
        2
176
     1
  1
strokes_ogs.tif
176
     1
290
     0
176
     1
 40
1.0
176
     1
 40
1.0
176
     1
  0
VISUALSTYLE
  5
3C
102
{ACAD_REACTORS
330
2A
102
}
330
2A
100
AcDbVisualStyle
  2
OverhangOff
 70
    21
177
     3
291
     1
 70
    58
 90
        2
176
     0
 90
        2
176
     0
 90
        0
176
     0
 90
        0
176
     0
 40
0.6
176
     0
 40
30.0
176
     0
 62
     7
420
 16777215
176
     0
 90
        1
176
     0
 90
        4
176
     0
 62
     7
176
     0
 62
   257
176
     0
 90
        1
176
     0
 90
        1
176
     0
 40
1.0
176
     0
 90
        9
176
     2
 62
     7
176
     0
 40
1.0
176
     0
 90
        1
176
     0
 90
        6
176
     0
 90
        2
176
     0
 62
     7
176
     0
 90
        5
176
     0
 90
        0
176
     0
 90
        0
176
     0
290
     0
176
     0
 90
        1
176
     0
 40
0.0
176
     0
 90
        0
176
     0
290
     0
176
     0
290
     1
176
     0
290
     1
176
     0
290
     0
176
     0
290
     0
176
     0
290
     0
176
     0
290
     0
176
     0
290
     0
176
     0
290
     0
176
     0
 90
       50
176
     0
 40
0.0
176
     0
 40
1.0
176
     0
 90
        0
176
     0
 62
    18
420
        0
176
     0
 90
       50
176
     0
 90
        3
176
     0
 62
     5
420
      255
176
     0
290
     0
176
     0
 90
       50
176
     0
 90
       50
176
     0
 90
       50
176
     0
290
     0
176
     0
 90
       50
176
     0
 62
   256
176
     0
 40
1.0
176
     0
 90
        2
176
     0
  1
strokes_ogs.tif
176
     0
290
     0
176
     0
 40
1.0
176
     0
 40
1.0
176
     0
  0
VISUALSTYLE
  5
33
102
{ACAD_REACTORS
330
2A
102
}
330
2A
100
AcDbVisualStyle
  2
Realistic
 70
     8
177
     3
291
     0
 70
    58
 90
        2
176
     1
 90
        3
176
     1
 90
        0
176
     1
 90
        2
176
     1
 40
0.6
176
     1
 40
30.0
176
     1
 62
     7
420
 16777215
176
     1
 90
        0
176
     1
 90
        0
176
     1
 62
     7
176
     1
 62
   257
176
     1
 90
        1
176
     1
 90
        1
176
     1
 40
1.0
176
     1
 90
        8
176
     1
 62
   257
176
     1
 40
1.0
176
     1
 90
        1
176
     1
 90
        6
176
     1
 90
        2
176
     1
 62
     7
176
     1
 90
        3
176
     1
 90
        0
176
     1
 90
        0
176
     1
290
     0
176
     1
 90
       13
176
     1
 40
0.0
176
     1
 90
        0
176
     1
290
     0
176
     1
290
     1
176
     1
290
     1
176
     1
290
     0
176
     1
290
     0
176
     1
290
     0
176
     1
290
     0
176
     1
290
     0
176
     1
290
     0
176
     1
 90
       50
176
     1
 40
0.0
176
     1
 40
1.0
176
     1
 90
        0
176
     1
 62
    18
420
        0
176
     1
 90
       50
176
     1
 90
        3
176
     1
 62
     5
420
      255
176
     1
290
     0
176
     1
 90
       50
176
     1
 90
       50
176
     1
 90
       50
176
     1
290
     0
176
     1
 90
       50
176
     1
 62
   256
176
     0
 40
1.0
176
     0
 90
        2
176
     1
  1
strokes_ogs.tif
176
     1
290
     0
176
     1
 40
1.0
176
     1
 40
1.0
176
     1
  0
VISUALSTYLE
  5
42
102
{ACAD_REACTORS
330
2A
102
}
330
2A
100
AcDbVisualStyle
  2
Shaded
 70
    27
177
     3
291
     0
 70
    58
 90
        2
176
     1
 90
        2
176
     1
 90
        1
176
     1
 90
        2
176
     1
 40
0.6
176
     1
 40
30.0
176
     1
 62
     7
420
 16777215
176
     1
 90
        0
176
     1
 90
        4
176
     1
 62
     7
176
     1
 62
   257
176
     1
 90
        1
176
     1
 90
        1
176
     1
 40
1.0
176
     1
 90
        8
176
     1
 62
   257
176
     1
 40
1.0
176
     1
 90
        1
176
     1
 90
        6
176
     1
 90
        2
176
     1
 62
     8
420
  7895160
176
     1
 90
        3
176
     1
 90
        0
176
     1
 90
        0
176
     1
290
     0
176
     1
 90
        5
176
     1
 40
0.0
176
     1
 90
        0
176
     1
290
     0
176
     1
290
     1
176
     1
290
     1
176
     1
290
     0
176
     1
290
     0
176
     1
290
     0
176
     1
290
     0
176
     1
290
     0
176
     1
290
     0
176
     1
 90
       50
176
     1
 40
0.0
176
     1
 40
1.0
176
     1
 90
        0
176
     1
 62
    18
420
        0
176
     1
 90
       50
176
     1
 90
        3
176
     1
 62
     5
420
      255
176
     1
290
     0
176
     1
 90
       50
176
     1
 90
       50
176
     1
 90
       50
176
     1
290
     0
176
     1
 90
       50
176
     1
 62
   256
176
     0
 40
1.0
176
     0
 90
        2
176
     1
  1
strokes_ogs.tif
176
     1
290
     0
176
     1
 40
1.0
176
     1
 40
1.0
176
     1
  0
VISUALSTYLE
  5
41
102
{ACAD_REACTORS
330
2A
102
}
330
2A
100
AcDbVisualStyle
  2
Shaded with edges
 70
    26
177
     3
291
     0
 70
    58
 90
        2
176
     1
 90
        2
176
     1
 90
        1
176
     1
 90
        2
176
     1
 40
0.6
176
     1
 40
30.0
176
     1
 62
     7
420
 16777215
176
     1
 90
        1
176
     1
 90
       10
176
     1
 62
     7
176
     1
 62
   257
176
     1
 90
        2
176
     1
 90
        1
176
     1
 40
1.0
176
     1
 90
        8
176
     1
 62
   257
176
     1
 40
1.0
176
     1
 90
        1
176
     1
 90
        6
176
     1
 90
        2
176
     1
 62
     7
176
     1
 90
        3
176
     1
 90
        0
176
     1
 90
        0
176
     1
290
     0
176
     1
 90
        5
176
     1
 40
0.0
176
     1
 90
        0
176
     1
290
     0
176
     1
290
     1
176
     1
290
     1
176
     1
290
     0
176
     1
290
     0
176
     1
290
     0
176
     1
290
     0
176
     1
290
     0
176
     1
290
     0
176
     1
 90
       50
176
     1
 40
0.0
176
     1
 40
1.0
176
     1
 90
        0
176
     1
 62
    18
420
        0
176
     1
 90
       50
176
     1
 90
        3
176
     1
 62
     5
420
      255
176
     1
290
     0
176
     1
 90
       50
176
     1
 90
       50
176
     1
 90
       50
176
     1
290
     0
176
     1
 90
       50
176
     1
 62
   256
176
     0
 40
1.0
176
     0
 90
        2
176
     1
  1
strokes_ogs.tif
176
     1
290
     0
176
     1
 40
1.0
176
     1
 40
1.0
176
     1
  0
VISUALSTYLE
  5
3E
102
{ACAD_REACTORS
330
2A
102
}
330
2A
100
AcDbVisualStyle
  2
Shades of Gray
 70
    23
177
     3
291
     0
 70
    58
 90
        2
176
     1
 90
        2
176
     1
 90
        3
176
     1
 90
        0
176
     1
 40
0.6
176
     1
 40
30.0
176
     1
 62
     7
420
 16777215
176
     1
 90
        2
176
     1
 90
        2
176
     1
 62
     7
176
     1
 62
     7
176
     1
 90
        1
176
     1
 90
        1
176
     1
 40
40.0
176
     1
 90
        8
176
     1
 62
     7
176
     1
 40
1.0
176
     1
 90
        1
176
     1
 90
        6
176
     1
 90
        2
176
     1
 62
     7
176
     1
 90
        3
176
     1
 90
        0
176
     1
 90
        0
176
     1
290
     0
176
     1
 90
        1
176
     1
 40
0.0
176
     1
 90
        0
176
     1
290
     0
176
     1
290
     1
176
     1
290
     1
176
     1
290
     0
176
     1
290
     0
176
     1
290
     0
176
     1
290
     0
176
     1
290
     0
176
     1
290
     0
176
     1
 90
       50
176
     1
 40
0.0
176
     1
 40
1.0
176
     1
 90
        0
176
     1
 62
    18
420
        0
176
     1
 90
       50
176
     1
 90
        3
176
     1
 62
     5
420
      255
176
     1
290
     0
176
     1
 90
       50
176
     1
 90
       50
176
     1
 90
       50
176
     1
290
     0
176
     1
 90
       50
176
     1
 62
   256
176
     0
 40
1.0
176
     0
 90
        2
176
     1
  1
strokes_ogs.tif
176
     1
290
     0
176
     1
 40
1.0
176
     1
 40
1.0
176
     1
  0
VISUALSTYLE
  5
3F
102
{ACAD_REACTORS
330
2A
102
}
330
2A
100
AcDbVisualStyle
  2
Sketchy
 70
    24
177
     3
291
     0
 70
    58
 90
        1
176
     1
 90
        2
176
     1
 90
        2
176
     1
 90
        0
176
     1
 40
0.6
176
     1
 40
30.0
176
     1
 62
     7
420
 16777215
176
     1
 90
        2
176
     1
 90
        2
176
     1
 62
     7
176
     1
 62
     7
176
     1
 90
        1
176
     1
 90
        1
176
     1
 40
40.0
176
     1
 90
       11
176
     1
 62
     7
176
     1
 40
1.0
176
     1
 90
        1
176
     1
 90
        6
176
     1
 90
        2
176
     1
 62
     7
176
     1
 90
        6
176
     1
 90
        0
176
     1
 90
        0
176
     1
290
     0
176
     1
 90
        1
176
     1
 40
0.0
176
     1
 90
        0
176
     1
290
     0
176
     1
290
     1
176
     1
290
     1
176
     1
290
     0
176
     1
290
     0
176
     1
290
     0
176
     1
290
     0
176
     1
290
     0
176
     1
290
     0
176
     1
 90
       50
176
     1
 40
0.0
176
     1
 40
1.0
176
     1
 90
        0
176
     1
 62
    18
420
        0
176
     1
 90
       50
176
     1
 90
        3
176
     1
 62
     5
420
      255
176
     1
290
     0
176
     1
 90
       50
176
     1
 90
       50
176
     1
 90
       50
176
     1
290
     0
176
     1
 90
       50
176
     1
 62
   256
176
     0
 40
1.0
176
     0
 90
        2
176
     1
  1
strokes_ogs.tif
176
     1
290
     0
176
     1
 40
1.0
176
     1
 40
1.0
176
     1
  0
VISUALSTYLE
  5
37
102
{ACAD_REACTORS
330
2A
102
}
330
2A
100
AcDbVisualStyle
  2
Thicken
 70
    13
177
     3
291
     1
 70
    58
 90
        2
176
     1
 90
        2
176
     1
 90
        0
176
     1
 90
        0
176
     1
 40
0.6
176
     1
 40
30.0
176
     1
 62
     7
420
 16777215
176
     1
 90
        1
176
     1
 90
        4
176
     1
 62
     7
176
     1
 62
   257
176
     1
 90
        1
176
     1
 90
        1
176
     1
 40
1.0
176
     1
 90
       12
176
     1
 62
     7
176
     1
 40
1.0
176
     1
 90
        1
176
     1
 90
        6
176
     1
 90
        2
176
     1
 62
     7
176
     1
 90
        5
176
     1
 90
        0
176
     1
 90
        0
176
     1
290
     0
176
     1
 90
        1
176
     1
 40
0.0
176
     1
 90
        0
176
     1
290
     0
176
     1
290
     1
176
     1
290
     1
176
     1
290
     0
176
     1
290
     0
176
     1
290
     0
176
     1
290
     0
176
     1
290
     0
176
     1
290
     0
176
     1
 90
       50
176
     1
 40
0.0
176
     1
 40
1.0
176
     1
 90
        0
176
     1
 62
    18
420
        0
176
     1
 90
       50
176
     1
 90
        3
176
     1
 62
     5
420
      255
176
     1
290
     0
176
     1
 90
       50
176
     1
 90
       50
176
     1
 90
       50
176
     1
290
     0
176
     1
 90
       50
176
     1
 62
   256
176
     0
 40
1.0
176
     0
 90
        2
176
     1
  1
strokes_ogs.tif
176
     1
290
     0
176
     1
 40
1.0
176
     1
 40
1.0
176
     1
  0
VISUALSTYLE
  5
30
102
{ACAD_REACTORS
330
2A
102
}
330
2A
100
AcDbVisualStyle
  2
Wireframe
 70
     5
177
     3
291
     0
 70
    58
 90
        0
176
     1
 90
        2
176
     1
 90
        0
176
     1
 90
        0
176
     1
 40
0.6
176
     1
 40
30.0
176
     1
 62
     7
420
 16777215
176
     1
 90
        1
176
     1
 90
        4
176
     1
 62
     7
176
     1
 62
   257
176
     1
 90
        1
176
     1
 90
        1
176
     1
 40
1.0
176
     1
 90
        0
176
     1
 62
   257
176
     1
 40
1.0
176
     1
 90
        1
176
     1
 90
        6
176
     1
 90
        2
176
     1
 62
     7
176
     1
 90
        3
176
     1
 90
        0
176
     1
 90
        0
176
     1
290
     0
176
     1
 90
        1
176
     1
 40
0.0
176
     1
 90
        0
176
     1
290
     0
176
     1
290
     1
176
     1
290
     1
176
     1
290
     0
176
     1
290
     0
176
     1
290
     0
176
     1
290
     0
176
     1
290
     0
176
     1
290
     0
176
     1
 90
       50
176
     1
 40
0.0
176
     1
 40
1.0
176
     1
 90
        0
176
     1
 62
    18
420
        0
176
     1
 90
       50
176
     1
 90
        3
176
     1
 62
     5
420
      255
176
     1
290
     0
176
     1
 90
       50
176
     1
 90
       50
176
     1
 90
       50
176
     1
290
     0
176
     1
 90
       50
176
     1
 62
   256
176
     0
 40
1.0
176
     0
 90
        2
176
     1
  1
strokes_ogs.tif
176
     1
290
     0
176
     1
 40
1.0
176
     1
 40
1.0
176
     1
  0
VISUALSTYLE
  5
40
102
{ACAD_REACTORS
330
2A
102
}
330
2A
100
AcDbVisualStyle
  2
X-Ray
 70
    25
177
     3
291
     0
 70
    58
 90
        2
176
     1
 90
        2
176
     1
 90
        1
176
     1
 90
        1
176
     1
 40
0.5
176
     1
 40
30.0
176
     1
 62
     7
420
 16777215
176
     1
 90
        1
176
     1
 90
        0
176
     1
 62
     7
176
     1
 62
   257
176
     1
 90
        1
176
     1
 90
        1
176
     1
 40
1.0
176
     1
 90
        8
176
     1
 62
     7
176
     1
 40
1.0
176
     1
 90
        1
176
     1
 90
        6
176
     1
 90
        2
176
     1
 62
     7
176
     1
 90
        3
176
     1
 90
        0
176
     1
 90
        0
176
     1
290
     0
176
     1
 90
       13
176
     1
 40
0.0
176
     1
 90
        0
176
     1
290
     0
176
     1
290
     1
176
     1
290
     1
176
     1
290
     0
176
     1
290
     0
176
     1
290
     0
176
     1
290
     0
176
     1
290
     0
176
     1
290
     0
176
     1
 90
       50
176
     1
 40
0.0
176
     1
 40
1.0
176
     1
 90
        0
176
     1
 62
    18
420
        0
176
     1
 90
       50
176
     1
 90
        3
176
     1
 62
     5
420
      255
176
     1
290
     0
176
     1
 90
       50
176
     1
 90
       50
176
     1
 90
       50
176
     1
290
     0
176
     1
 90
       50
176
     1
 62
   256
176
     0
 40
1.0
176
     0
 90
        2
176
     1
  1
strokes_ogs.tif
176
     1
290
     0
176
     1
 40
1.0
176
     1
 40
1.0
176
     1
  0
DICTIONARYVAR
  5
250
102
{ACAD_REACTORS
330
24F
102
}
330
24F
100
DictionaryVariables
280
     0
  1
1:1
  0
DICTIONARYVAR
  5
255
102
{ACAD_REACTORS
330
24F
102
}
330
24F
100
DictionaryVariables
280
     0
  1
Standard
  0
DICTIONARYVAR
  5
254
102
{ACAD_REACTORS
330
24F
102
}
330
24F
100
DictionaryVariables
280
     0
  1
Standard
  0
DICTIONARY
  5
251
330
6A
100
AcDbDictionary
280
     1
281
     1
  3
ACAD_ROUNDTRIP_2008_TABLESTYLE_CELLSTYLEMAP
360
252
  0
CELLSTYLEMAP
  5
252
102
{ACAD_REACTORS
330
251
102
}
330
251
100
AcDbCellStyleMap
 90
        3
300
CELLSTYLE
  1
TABLEFORMAT_BEGIN
 90
        5
170
     1
 91
        0
 92
    32768
 62
   257
 93
        1
300
CONTENTFORMAT
  1
CONTENTFORMAT_BEGIN
 90
        0
 91
        0
 92
        4
 93
        0
300

 40
0.0
140
1.0
 94
        5
 62
     0
340
11
144
0.25
309
CONTENTFORMAT_END
171
     1
301
MARGIN
  1
CELLMARGIN_BEGIN
 40
0.06
 40
0.06
 40
0.06
 40
0.06
 40
0.06
 40
0.06
309
CELLMARGIN_END
 94
        6
 95
        1
302
GRIDFORMAT
  1
GRIDFORMAT_BEGIN
 90
        0
 91
        1
 62
     0
 92
       -2
340
14
 93
        0
 40
0.045
309
GRIDFORMAT_END
 95
        2
302
GRIDFORMAT
  1
GRIDFORMAT_BEGIN
 90
        0
 91
        1
 62
     0
 92
       -2
340
14
 93
        0
 40
0.045
309
GRIDFORMAT_END
 95
        4
302
GRIDFORMAT
  1
GRIDFORMAT_BEGIN
 90
        0
 91
        1
 62
     0
 92
       -2
340
14
 93
        0
 40
0.045
309
GRIDFORMAT_END
 95
        8
302
GRIDFORMAT
  1
GRIDFORMAT_BEGIN
 90
        0
 91
        1
 62
     0
 92
       -2
340
14
 93
        0
 40
0.045
309
GRIDFORMAT_END
 95
       16
302
GRIDFORMAT
  1
GRIDFORMAT_BEGIN
 90
        0
 91
        1
 62
     0
 92
       -2
340
14
 93
        0
 40
0.045
309
GRIDFORMAT_END
 95
       32
302
GRIDFORMAT
  1
GRIDFORMAT_BEGIN
 90
        0
 91
        1
 62
     0
 92
       -2
340
14
 93
        0
 40
0.045
309
GRIDFORMAT_END
309
TABLEFORMAT_END
  1
CELLSTYLE_BEGIN
 90
        1
 91
        1
300
_TITLE
309
CELLSTYLE_END
300
CELLSTYLE
  1
TABLEFORMAT_BEGIN
 90
        5
170
     1
 91
        0
 92
        0
 62
   257
 93
        1
300
CONTENTFORMAT
  1
CONTENTFORMAT_BEGIN
 90
        0
 91
        0
 92
        4
 93
        0
300

 40
0.0
140
1.0
 94
        5
 62
     0
340
11
144
0.18
309
CONTENTFORMAT_END
171
     1
301
MARGIN
  1
CELLMARGIN_BEGIN
 40
0.06
 40
0.06
 40
0.06
 40
0.06
 40
0.06
 40
0.06
309
CELLMARGIN_END
 94
        6
 95
        1
302
GRIDFORMAT
  1
GRIDFORMAT_BEGIN
 90
        0
 91
        1
 62
     0
 92
       -2
340
14
 93
        0
 40
0.045
309
GRIDFORMAT_END
 95
        2
302
GRIDFORMAT
  1
GRIDFORMAT_BEGIN
 90
        0
 91
        1
 62
     0
 92
       -2
340
14
 93
        0
 40
0.045
309
GRIDFORMAT_END
 95
        4
302
GRIDFORMAT
  1
GRIDFORMAT_BEGIN
 90
        0
 91
        1
 62
     0
 92
       -2
340
14
 93
        0
 40
0.045
309
GRIDFORMAT_END
 95
        8
302
GRIDFORMAT
  1
GRIDFORMAT_BEGIN
 90
        0
 91
        1
 62
     0
 92
       -2
340
14
 93
        0
 40
0.045
309
GRIDFORMAT_END
 95
       16
302
GRIDFORMAT
  1
GRIDFORMAT_BEGIN
 90
        0
 91
        1
 62
     0
 92
       -2
340
14
 93
        0
 40
0.045
309
GRIDFORMAT_END
 95
       32
302
GRIDFORMAT
  1
GRIDFORMAT_BEGIN
 90
        0
 91
        1
 62
     0
 92
       -2
340
14
 93
        0
 40
0.045
309
GRIDFORMAT_END
309
TABLEFORMAT_END
  1
CELLSTYLE_BEGIN
 90
        2
 91
        1
300
_HEADER
309
CELLSTYLE_END
300
CELLSTYLE
  1
TABLEFORMAT_BEGIN
 90
        5
170
     1
 91
        0
 92
        0
 62
   257
 93
        1
300
CONTENTFORMAT
  1
CONTENTFORMAT_BEGIN
 90
        0
 91
        0
 92
        4
 93
        0
300

 40
0.0
140
1.0
 94
        2
 62
     0
340
11
144
0.18
309
CONTENTFORMAT_END
171
     1
301
MARGIN
  1
CELLMARGIN_BEGIN
 40
0.06
 40
0.06
 40
0.06
 40
0.06
 40
0.06
 40
0.06
309
CELLMARGIN_END
 94
        6
 95
        1
302
GRIDFORMAT
  1
GRIDFORMAT_BEGIN
 90
        0
 91
        1
 62
     0
 92
       -2
340
14
 93
        0
 40
0.045
309
GRIDFORMAT_END
 95
        2
302
GRIDFORMAT
  1
GRIDFORMAT_BEGIN
 90
        0
 91
        1
 62
     0
 92
       -2
340
14
 93
        0
 40
0.045
309
GRIDFORMAT_END
 95
        4
302
GRIDFORMAT
  1
GRIDFORMAT_BEGIN
 90
        0
 91
        1
 62
     0
 92
       -2
340
14
 93
        0
 40
0.045
309
GRIDFORMAT_END
 95
        8
302
GRIDFORMAT
  1
GRIDFORMAT_BEGIN
 90
        0
 91
        1
 62
     0
 92
       -2
340
14
 93
        0
 40
0.045
309
GRIDFORMAT_END
 95
       16
302
GRIDFORMAT
  1
GRIDFORMAT_BEGIN
 90
        0
 91
        1
 62
     0
 92
       -2
340
14
 93
        0
 40
0.045
309
GRIDFORMAT_END
 95
       32
302
GRIDFORMAT
  1
GRIDFORMAT_BEGIN
 90
        0
 91
        1
 62
     0
 92
       -2
340
14
 93
        0
 40
0.045
309
GRIDFORMAT_END
309
TABLEFORMAT_END
  1
CELLSTYLE_BEGIN
 90
        3
 91
        2
300
_DATA
309
CELLSTYLE_END
  0
ENDSEC
  0
EOF