0
SECTION
  2
HEADER
  9
$ACADVER
  1
AC1027
  9
$ACADMAINTVER
 70
     8
  9
$DWGCODEPAGE
  3
ANSI_1252
  9
$REQUIREDVERSIONS
160
                 0
  9
$COMMENTS
  1
File was created by Cadenas
  9
$CUSTOMPROPERTYTAG
  1
NN
  9
$CUSTOMPROPERTY
  1
TP Take-Up Trident Seal
  9
$CUSTOMPROPERTYTAG
  1
NT
  9
$CUSTOMPROPERTY
  1
S-2000 TPHU Take-Up Bearing -Inch
  9
$CUSTOMPROPERTYTAG
  1
NB
  9
$CUSTOMPROPERTY
  1
070833
  9
$CUSTOMPROPERTYTAG
  1
NBSYN
  9
$CUSTOMPROPERTY
  1
$PN.
  9
$CUSTOMPROPERTYTAG
  1
LINA
  9
$CUSTOMPROPERTY
  1
070833
  9
$CUSTOMPROPERTYTAG
  1
SS
  9
$CUSTOMPROPERTY
  1
2-7/16
  9
$CUSTOMPROPERTYTAG
  1
PN
  9
$CUSTOMPROPERTY
  1
070833
  9
$CUSTOMPROPERTYTAG
  1
DESCRIPTION
  9
$CUSTOMPROPERTY
  1
TPHU-S2-207RE
  9
$CUSTOMPROPERTYTAG
  1
EF
  9
$CUSTOMPROPERTY
  1
Expansion Type
  9
$CUSTOMPROPERTYTAG
  1
ST
  9
$CUSTOMPROPERTY
  1
Contact Seal
  9
$CUSTOMPROPERTYTAG
  1
A
  9
$CUSTOMPROPERTY
  1
3-13/64
  9
$CUSTOMPROPERTYTAG
  1
B
  9
$CUSTOMPROPERTY
  1
2-3/4
  9
$CUSTOMPROPERTYTAG
  1
C
  9
$CUSTOMPROPERTY
  1
13/16
  9
$CUSTOMPROPERTYTAG
  1
D
  9
$CUSTOMPROPERTY
  1
6-21/64
  9
$CUSTOMPROPERTYTAG
  1
E
  9
$CUSTOMPROPERTY
  1
3-21/64
  9
$CUSTOMPROPERTYTAG
  1
F
  9
$CUSTOMPROPERTY
  1
1-7/16
  9
$CUSTOMPROPERTYTAG
  1
G
  9
$CUSTOMPROPERTY
  1
9/16
  9
$CUSTOMPROPERTYTAG
  1
H
  9
$CUSTOMPROPERTY
  1
8-1/2
  9
$CUSTOMPROPERTYTAG
  1
J
  9
$CUSTOMPROPERTY
  1
8-9/32
  9
$CUSTOMPROPERTYTAG
  1
K
  9
$CUSTOMPROPERTY
  1
3-27/32
  9
$CUSTOMPROPERTYTAG
  1
L
  9
$CUSTOMPROPERTY
  1
4-1/16
  9
$CUSTOMPROPERTYTAG
  1
M
  9
$CUSTOMPROPERTY
  1
8
  9
$CUSTOMPROPERTYTAG
  1
N
  9
$CUSTOMPROPERTY
  1
1-7/8
  9
$CUSTOMPROPERTYTAG
  1
P
  9
$CUSTOMPROPERTY
  1
1-3/4
  9
$CUSTOMPROPERTYTAG
  1
Q
  9
$CUSTOMPROPERTY
  1
1-1/16
  9
$CUSTOMPROPERTYTAG
  1
R
  9
$CUSTOMPROPERTY
  1
3-17/32
  9
$CUSTOMPROPERTYTAG
  1
S
  9
$CUSTOMPROPERTY
  1
2-5/32
  9
$CUSTOMPROPERTYTAG
  1
T
  9
$CUSTOMPROPERTY
  1
5/16
  9
$CUSTOMPROPERTYTAG
  1
U
  9
$CUSTOMPROPERTY
  1
1-7/16
  9
$CUSTOMPROPERTYTAG
  1
V
  9
$CUSTOMPROPERTY
  1
2-3/4
  9
$CUSTOMPROPERTYTAG
  1
W
  9
$CUSTOMPROPERTY
  1
1
  9
$CUSTOMPROPERTYTAG
  1
X
  9
$CUSTOMPROPERTY
  1
1/4
  9
$CUSTOMPROPERTYTAG
  1
Y
  9
$CUSTOMPROPERTY
  1
0.025
  9
$CUSTOMPROPERTYTAG
  1
Z
  9
$CUSTOMPROPERTY
  1
2-15/16
  9
$CUSTOMPROPERTYTAG
  1
COMPANY
  9
$CUSTOMPROPERTY
  1
baldor
  9
$INSBASE
 10
0.0
 20
0.0
 30
0.0
  9
$EXTMIN
 10
1.000000000000000E+20
 20
1.000000000000000E+20
 30
1.000000000000000E+20
  9
$EXTMAX
 10
-1.000000000000000E+20
 20
-1.000000000000000E+20
 30
-1.000000000000000E+20
  9
$LIMMIN
 10
0.0
 20
0.0
  9
$LIMMAX
 10
12.0
 20
9.0
  9
$ORTHOMODE
 70
     0
  9
$REGENMODE
 70
     1
  9
$FILLMODE
 70
     1
  9
$QTEXTMODE
 70
     0
  9
$MIRRTEXT
 70
     1
  9
$LTSCALE
 40
1.0
  9
$ATTMODE
 70
     1
  9
$TEXTSIZE
 40
0.2
  9
$TRACEWID
 40
0.05
  9
$TEXTSTYLE
  7
Standard
  9
$CLAYER
  8
0
  9
$CELTYPE
  6
ByLayer
  9
$CECOLOR
 62
   256
  9
$CELTSCALE
 40
1.0
  9
$DISPSILH
 70
     0
  9
$DIMSCALE
 40
1.0
  9
$DIMASZ
 40
0.18
  9
$DIMEXO
 40
0.0625
  9
$DIMDLI
 40
0.38
  9
$DIMRND
 40
0.0
  9
$DIMDLE
 40
0.0
  9
$DIMEXE
 40
0.18
  9
$DIMTP
 40
0.0
  9
$DIMTM
 40
0.0
  9
$DIMTXT
 40
0.18
  9
$DIMCEN
 40
0.09
  9
$DIMTSZ
 40
0.0
  9
$DIMTOL
 70
     0
  9
$DIMLIM
 70
     0
  9
$DIMTIH
 70
     1
  9
$DIMTOH
 70
     1
  9
$DIMSE1
 70
     0
  9
$DIMSE2
 70
     0
  9
$DIMTAD
 70
     0
  9
$DIMZIN
 70
     0
  9
$DIMBLK
  1

  9
$DIMASO
 70
     1
  9
$DIMSHO
 70
     1
  9
$DIMPOST
  1

  9
$DIMAPOST
  1

  9
$DIMALT
 70
     0
  9
$DIMALTD
 70
     2
  9
$DIMALTF
 40
25.4
  9
$DIMLFAC
 40
1.0
  9
$DIMTOFL
 70
     0
  9
$DIMTVP
 40
0.0
  9
$DIMTIX
 70
     0
  9
$DIMSOXD
 70
     0
  9
$DIMSAH
 70
     0
  9
$DIMBLK1
  1

  9
$DIMBLK2
  1

  9
$DIMSTYLE
  2
Standard
  9
$DIMCLRD
 70
     0
  9
$DIMCLRE
 70
     0
  9
$DIMCLRT
 70
     0
  9
$DIMTFAC
 40
1.0
  9
$DIMGAP
 40
0.09
  9
$DIMJUST
 70
     0
  9
$DIMSD1
 70
     0
  9
$DIMSD2
 70
     0
  9
$DIMTOLJ
 70
     1
  9
$DIMTZIN
 70
     0
  9
$DIMALTZ
 70
     0
  9
$DIMALTTZ
 70
     0
  9
$DIMUPT
 70
     0
  9
$DIMDEC
 70
     4
  9
$DIMTDEC
 70
     4
  9
$DIMALTU
 70
     2
  9
$DIMALTTD
 70
     2
  9
$DIMTXSTY
  7
Standard
  9
$DIMAUNIT
 70
     0
  9
$DIMADEC
 70
     0
  9
$DIMALTRND
 40
0.0
  9
$DIMAZIN
 70
     0
  9
$DIMDSEP
 70
    46
  9
$DIMATFIT
 70
     3
  9
$DIMFRAC
 70
     0
  9
$DIMLDRBLK
  1

  9
$DIMLUNIT
 70
     2
  9
$DIMLWD
 70
    -2
  9
$DIMLWE
 70
    -2
  9
$DIMTMOVE
 70
     0
  9
$DIMFXL
 40
1.0
  9
$DIMFXLON
 70
     0
  9
$DIMJOGANG
 40
0.7853981633974483
  9
$DIMTFILL
 70
     0
  9
$DIMTFILLCLR
 70
     0
  9
$DIMARCSYM
 70
     0
  9
$DIMLTYPE
  6

  9
$DIMLTEX1
  6

  9
$DIMLTEX2
  6

  9
$DIMTXTDIRECTION
 70
     0
  9
$LUNITS
 70
     2
  9
$LUPREC
 70
     4
  9
$SKETCHINC
 40
0.1
  9
$FILLETRAD
 40
0.5
  9
$AUNITS
 70
     0
  9
$AUPREC
 70
     0
  9
$MENU
  1
.
  9
$ELEVATION
 40
0.0
  9
$PELEVATION
 40
0.0
  9
$THICKNESS
 40
0.0
  9
$LIMCHECK
 70
     0
  9
$CHAMFERA
 40
0.0
  9
$CHAMFERB
 40
0.0
  9
$CHAMFERC
 40
0.0
  9
$CHAMFERD
 40
0.0
  9
$SKPOLY
 70
     0
  9
$TDCREATE
 40
2458168.983827894
  9
$TDUCREATE
 40
2458168.942161227
  9
$TDUPDATE
 40
2458168.983828252
  9
$TDUUPDATE
 40
2458168.942161586
  9
$TDINDWG
 40
0.0000000116
  9
$TDUSRTIMER
 40
0.0000000116
  9
$USRTIMER
 70
     1
  9
$ANGBASE
 50
0.0
  9
$ANGDIR
 70
     0
  9
$PDMODE
 70
     0
  9
$PDSIZE
 40
0.0
  9
$PLINEWID
 40
0.0
  9
$SPLFRAME
 70
     0
  9
$SPLINETYPE
 70
     6
  9
$SPLINESEGS
 70
     8
  9
$HANDSEED
  5
264
  9
$SURFTAB1
 70
     6
  9
$SURFTAB2
 70
     6
  9
$SURFTYPE
 70
     6
  9
$SURFU
 70
     6
  9
$SURFV
 70
     6
  9
$UCSBASE
  2

  9
$UCSNAME
  2

  9
$UCSORG
 10
0.0
 20
0.0
 30
0.0
  9
$UCSXDIR
 10
1.0
 20
0.0
 30
0.0
  9
$UCSYDIR
 10
0.0
 20
1.0
 30
0.0
  9
$UCSORTHOREF
  2

  9
$UCSORTHOVIEW
 70
     0
  9
$UCSORGTOP
 10
0.0
 20
0.0
 30
0.0
  9
$UCSORGBOTTOM
 10
0.0
 20
0.0
 30
0.0
  9
$UCSORGLEFT
 10
0.0
 20
0.0
 30
0.0
  9
$UCSORGRIGHT
 10
0.0
 20
0.0
 30
0.0
  9
$UCSORGFRONT
 10
0.0
 20
0.0
 30
0.0
  9
$UCSORGBACK
 10
0.0
 20
0.0
 30
0.0
  9
$PUCSBASE
  2

  9
$PUCSNAME
  2

  9
$PUCSORG
 10
0.0
 20
0.0
 30
0.0
  9
$PUCSXDIR
 10
1.0
 20
0.0
 30
0.0
  9
$PUCSYDIR
 10
0.0
 20
1.0
 30
0.0
  9
$PUCSORTHOREF
  2

  9
$PUCSORTHOVIEW
 70
     0
  9
$PUCSORGTOP
 10
0.0
 20
0.0
 30
0.0
  9
$PUCSORGBOTTOM
 10
0.0
 20
0.0
 30
0.0
  9
$PUCSORGLEFT
 10
0.0
 20
0.0
 30
0.0
  9
$PUCSORGRIGHT
 10
0.0
 20
0.0
 30
0.0
  9
$PUCSORGFRONT
 10
0.0
 20
0.0
 30
0.0
  9
$PUCSORGBACK
 10
0.0
 20
0.0
 30
0.0
  9
$USERI1
 70
     0
  9
$USERI2
 70
     0
  9
$USERI3
 70
     0
  9
$USERI4
 70
     0
  9
$USERI5
 70
     0
  9
$USERR1
 40
0.0
  9
$USERR2
 40
0.0
  9
$USERR3
 40
0.0
  9
$USERR4
 40
0.0
  9
$USERR5
 40
0.0
  9
$WORLDVIEW
 70
     1
  9
$SHADEDGE
 70
     3
  9
$SHADEDIF
 70
    70
  9
$TILEMODE
 70
     1
  9
$MAXACTVP
 70
    64
  9
$PINSBASE
 10
0.0
 20
0.0
 30
0.0
  9
$PLIMCHECK
 70
     0
  9
$PEXTMIN
 10
1.000000000000000E+20
 20
1.000000000000000E+20
 30
1.000000000000000E+20
  9
$PEXTMAX
 10
-1.000000000000000E+20
 20
-1.000000000000000E+20
 30
-1.000000000000000E+20
  9
$PLIMMIN
 10
0.0
 20
0.0
  9
$PLIMMAX
 10
12.0
 20
9.0
  9
$UNITMODE
 70
     0
  9
$VISRETAIN
 70
     1
  9
$PLINEGEN
 70
     0
  9
$PSLTSCALE
 70
     1
  9
$TREEDEPTH
 70
  3020
  9
$CMLSTYLE
  2
Standard
  9
$CMLJUST
 70
     0
  9
$CMLSCALE
 40
1.0
  9
$PROXYGRAPHICS
 70
     1
  9
$MEASUREMENT
 70
     0
  9
$CELWEIGHT
370
    -1
  9
$ENDCAPS
280
     0
  9
$JOINSTYLE
280
     0
  9
$LWDISPLAY
290
     0
  9
$INSUNITS
 70
     1
  9
$HYPERLINKBASE
  1

  9
$STYLESHEET
  1

  9
$XEDIT
290
     1
  9
$CEPSNTYPE
380
     0
  9
$PSTYLEMODE
290
     1
  9
$FINGERPRINTGUID
  2
{5D036845-4B72-4E3A-B568-2EDE9A4770F3}
  9
$VERSIONGUID
  2
{FAEB1C32-E019-11D5-929B-00C0DF256EC4}
  9
$EXTNAMES
290
     1
  9
$PSVPSCALE
 40
0.0
  9
$OLESTARTUP
290
     0
  9
$SORTENTS
280
   127
  9
$INDEXCTL
280
     0
  9
$HIDETEXT
280
     1
  9
$XCLIPFRAME
280
     2
  9
$HALOGAP
280
     0
  9
$OBSCOLOR
 70
   257
  9
$OBSLTYPE
280
     0
  9
$INTERSECTIONDISPLAY
280
     0
  9
$INTERSECTIONCOLOR
 70
   257
  9
$DIMASSOC
280
     2
  9
$PROJECTNAME
  1

  9
$CAMERADISPLAY
290
     0
  9
$LENSLENGTH
 40
50.0
  9
$CAMERAHEIGHT
 40
0.0
  9
$STEPSPERSEC
 40
2.0
  9
$STEPSIZE
 40
6.0
  9
$3DDWFPREC
 40
2.0
  9
$PSOLWIDTH
 40
0.25
  9
$PSOLHEIGHT
 40
4.0
  9
$LOFTANG1
 40
1.570796326794897
  9
$LOFTANG2
 40
1.570796326794897
  9
$LOFTMAG1
 40
0.0
  9
$LOFTMAG2
 40
0.0
  9
$LOFTPARAM
 70
     7
  9
$LOFTNORMALS
280
     1
  9
$LATITUDE
 40
37.795
  9
$LONGITUDE
 40
-122.394
  9
$NORTHDIRECTION
 40
0.0
  9
$TIMEZONE
 70
 -8000
  9
$LIGHTGLYPHDISPLAY
280
     1
  9
$TILEMODELIGHTSYNCH
280
     1
  9
$CMATERIAL
347
44
  9
$SOLIDHIST
280
     0
  9
$SHOWHIST
280
     1
  9
$DWFFRAME
280
     2
  9
$DGNFRAME
280
     2
  9
$REALWORLDSCALE
290
     1
  9
$INTERFERECOLOR
 62
   256
  9
$CSHADOW
280
     0
  9
$SHADOWPLANELOCATION
 40
0.0
  0
ENDSEC
  0
SECTION
  2
CLASSES
  0
CLASS
  1
ACDBDICTIONARYWDFLT
  2
AcDbDictionaryWithDefault
  3
ObjectDBX Classes
 90
        0
 91
        4
280
     0
281
     0
  0
CLASS
  1
VISUALSTYLE
  2
AcDbVisualStyle
  3
ObjectDBX Classes
 90
     4095
 91
        4
280
     0
281
     0
  0
CLASS
  1
MATERIAL
  2
AcDbMaterial
  3
ObjectDBX Classes
 90
     1153
 91
        4
280
     0
281
     0
  0
CLASS
  1
SCALE
  2
AcDbScale
  3
ObjectDBX Classes
 90
     1153
 91
        4
280
     0
281
     0
  0
CLASS
  1
TABLESTYLE
  2
AcDbTableStyle
  3
ObjectDBX Classes
 90
     4095
 91
        4
280
     0
281
     0
  0
CLASS
  1
MLEADERSTYLE
  2
AcDbMLeaderStyle
  3
ACDB_MLEADERSTYLE_CLASS
 90
     4095
 91
        4
280
     0
281
     0
  0
CLASS
  1
SUN
  2
AcDbSun
  3
SCENEOE
 90
     1153
 91
        4
280
     0
281
     0
  0
CLASS
  1
DICTIONARYVAR
  2
AcDbDictionaryVar
  3
ObjectDBX Classes
 90
        0
 91
        4
280
     0
281
     0
  0
CLASS
  1
CELLSTYLEMAP
  2
AcDbCellStyleMap
  3
ObjectDBX Classes
 90
     1152
 91
        4
280
     0
281
     0
  0
ENDSEC
  0
SECTION
  2
TABLES
  0
TABLE
  2
VPORT
  5
8
330
0
100
AcDbSymbolTable
 70
     1
  0
VPORT
  5
29
330
8
100
AcDbSymbolTableRecord
100
AcDbViewportTableRecord
  2
*Active
 70
     0
 10
0.0
 20
0.0
 11
1.0
 21
1.0
 12
0.0
 22
-0.2748697916666671
 13
0.0
 23
0.0
 14
0.5
 24
0.5
 15
0.5
 25
0.5
 16
0.0
 26
0.0
 36
1.0
 17
0.0
 27
0.0
 37
0.0
 40
4.674734374999999
 41
1.854650832433661
 42
50.0
 43
0.0
 44
0.0
 50
0.0
 51
0.0
 71
     0
 72
   100
 73
     1
 74
     3
 75
     0
 76
     0
 77
     0
 78
     0
281
     0
 65
     1
110
0.0
120
0.0
130
0.0
111
1.0
121
0.0
131
0.0
112
0.0
122
1.0
132
0.0
 79
     0
146
0.0
348
2F
 60
     3
 61
     5
292
     1
282
     1
141
0.0
142
0.0
 63
   250
361
6D
  0
ENDTAB
  0
TABLE
  2
LTYPE
  5
5
330
0
100
AcDbSymbolTable
 70
     3
  0
LTYPE
  5
14
330
5
100
AcDbSymbolTableRecord
100
AcDbLinetypeTableRecord
  2
ByBlock
 70
     0
  3

 72
    65
 73
     0
 40
0.0
  0
LTYPE
  5
15
330
5
100
AcDbSymbolTableRecord
100
AcDbLinetypeTableRecord
  2
ByLayer
 70
     0
  3

 72
    65
 73
     0
 40
0.0
  0
LTYPE
  5
16
330
5
100
AcDbSymbolTableRecord
100
AcDbLinetypeTableRecord
  2
Continuous
 70
     0
  3
Solid line
 72
    65
 73
     0
 40
0.0
  0
LTYPE
  5
A7
330
5
100
AcDbSymbolTableRecord
100
AcDbLinetypeTableRecord
  2
Dashed
 70
     0
  3

 72
    65
 73
     2
 40
2.0
 49
1.0
 74
     0
 49
-1.0
 74
     0
  0
LTYPE
  5
DF
330
5
100
AcDbSymbolTableRecord
100
AcDbLinetypeTableRecord
  2
Center
 70
     0
  3

 72
    65
 73
     4
 40
1.5
 49
0.45
 74
     0
 49
-0.5
 74
     0
 49
0.05
 74
     0
 49
-0.5
 74
     0
  0
ENDTAB
  0
TABLE
  2
LAYER
  5
2
330
0
100
AcDbSymbolTable
 70
     7
  0
LAYER
  5
10
330
2
100
AcDbSymbolTableRecord
100
AcDbLayerTableRecord
  2
0
 70
     0
 62
     7
  6
Continuous
370
    -3
390
F
347
46
348
0
  0
LAYER
  5
72
330
2
100
AcDbSymbolTableRecord
100
AcDbLayerTableRecord
  2
AM_6
 70
     0
 62
    -2
  6
Continuous
370
    35
390
F
347
46
348
0
  0
LAYER
  5
A8
330
2
100
AcDbSymbolTableRecord
100
AcDbLayerTableRecord
  2
AM_9
 70
     0
 62
     6
  6
Dashed
370
    25
390
F
347
46
348
0
  0
LAYER
  5
D9
330
2
100
AcDbSymbolTableRecord
100
AcDbLayerTableRecord
  2
AM_5
 70
     0
 62
     3
  6
Continuous
370
    25
390
F
347
46
348
0
  0
LAYER
  5
E0
330
2
100
AcDbSymbolTableRecord
100
AcDbLayerTableRecord
  2
AM_7
 70
     0
 62
     7
  6
Center
370
    25
390
F
347
46
348
0
  0
LAYER
  5
E2
330
2
100
AcDbSymbolTableRecord
100
AcDbLayerTableRecord
  2
AM_4
 70
     0
 62
     7
  6
Continuous
370
    50
390
F
347
46
348
0
  0
LAYER
  5
253
330
2
100
AcDbSymbolTableRecord
100
AcDbLayerTableRecord
  2
ConnectionPoints
 70
     0
 62
     7
  6
Continuous
370
    50
390
F
347
46
348
0
  0
ENDTAB
  0
TABLE
  2
STYLE
  5
3
330
0
100
AcDbSymbolTable
 70
     1
  0
STYLE
  5
11
330
3
100
AcDbSymbolTableRecord
100
AcDbTextStyleTableRecord
  2
Standard
 70
     0
 40
0.0
 41
1.0
 50
0.0
 71
     0
 42
0.2
  3
txt
  4

  0
ENDTAB
  0
TABLE
  2
VIEW
  5
6
330
0
100
AcDbSymbolTable
 70
     0
  0
ENDTAB
  0
TABLE
  2
UCS
  5
7
330
0
100
AcDbSymbolTable
 70
     0
  0
ENDTAB
  0
TABLE
  2
APPID
  5
9
330
0
100
AcDbSymbolTable
 70
     1
  0
APPID
  5
12
330
9
100
AcDbSymbolTableRecord
100
AcDbRegAppTableRecord
  2
ACAD
 70
     0
  0
ENDTAB
  0
TABLE
  2
DIMSTYLE
  5
A
330
0
100
AcDbSymbolTable
 70
     1
100
AcDbDimStyleTable
  0
DIMSTYLE
105
27
330
A
100
AcDbSymbolTableRecord
100
AcDbDimStyleTableRecord
  2
Standard
 70
     0
178
     0
340
11
  0
ENDTAB
  0
TABLE
  2
BLOCK_RECORD
  5
1
330
0
100
AcDbSymbolTable
 70
     6
  0
BLOCK_RECORD
  5
1F
330
1
100
AcDbSymbolTableRecord
100
AcDbBlockTableRecord
  2
*Model_Space
340
22
 70
     0
280
     1
281
     0
  0
BLOCK_RECORD
  5
1B
330
1
100
AcDbSymbolTableRecord
100
AcDbBlockTableRecord
  2
*Paper_Space
340
1E
 70
     0
280
     1
281
     0
  0
BLOCK_RECORD
  5
23
330
1
100
AcDbSymbolTableRecord
100
AcDbBlockTableRecord
  2
*Paper_Space0
340
26
 70
     0
280
     1
281
     0
  0
BLOCK_RECORD
  5
6E
330
1
100
AcDbSymbolTableRecord
100
AcDbBlockTableRecord
  2
1_070833_4
340
0
102
{BLKREFS
331
6F
102
}
 70
     0
280
     1
281
     0
  0
BLOCK_RECORD
  5
96
330
1
100
AcDbSymbolTableRecord
100
AcDbBlockTableRecord
  2
2_405016_Inch_0_in_070833_4
340
0
102
{BLKREFS
331
97
102
}
 70
     0
280
     1
281
     0
  0
BLOCK_RECORD
  5
EE
330
1
100
AcDbSymbolTableRecord
100
AcDbBlockTableRecord
  2
3_2_7_16CS2i_0_in_070833_4
340
0
102
{BLKREFS
331
EF
102
}
 70
     0
280
     1
281
     0
  0
BLOCK_RECORD
  5
12E
330
1
100
AcDbSymbolTableRecord
100
AcDbBlockTableRecord
  2
4_070008i_0_in_070833_4
340
0
102
{BLKREFS
331
12F
102
}
 70
     0
280
     1
281
     0
  0
BLOCK_RECORD
  5
17C
330
1
100
AcDbSymbolTableRecord
100
AcDbBlockTableRecord
  2
5_070833H_0_in_070833_4
340
0
102
{BLKREFS
331
17D
102
}
 70
     0
280
     1
281
     0
  0
ENDTAB
  0
ENDSEC
  0
SECTION
  2
BLOCKS
  0
BLOCK
  5
20
330
1F
100
AcDbEntity
  8
0
100
AcDbBlockBegin
  2
*Model_Space
 70
     0
 10
0.0
 20
0.0
 30
0.0
  3
*Model_Space
  1

  0
ENDBLK
  5
21
330
1F
100
AcDbEntity
  8
0
100
AcDbBlockEnd
  0
BLOCK
  5
1C
330
1B
100
AcDbEntity
 67
     1
  8
0
100
AcDbBlockBegin
  2
*Paper_Space
 70
     0
 10
0.0
 20
0.0
 30
0.0
  3
*Paper_Space
  1

  0
ENDBLK
  5
1D
330
1B
100
AcDbEntity
 67
     1
  8
0
100
AcDbBlockEnd
  0
BLOCK
  5
24
330
23
100
AcDbEntity
  8
0
100
AcDbBlockBegin
  2
*Paper_Space0
 70
     0
 10
0.0
 20
0.0
 30
0.0
  3
*Paper_Space0
  1

  0
ENDBLK
  5
25
330
23
100
AcDbEntity
  8
0
100
AcDbBlockEnd
  0
BLOCK
  5
70
330
6E
100
AcDbEntity
  8
0
100
AcDbBlockBegin
  2
1_070833_4
 70
     2
 10
0.0
 20
0.0
 30
0.0
  3
1_070833_4
  1

  0
ATTDEF
  5
73
330
6E
100
AcDbEntity
  8
AM_6
100
AcDbText
 10
9.25
 20
2.016666666666667
 30
0.0
 40
0.5
  1
TP Take-Up Trident Seal
100
AcDbAttributeDefinition
  3

  2
NN
 70
     8
280
     0
  0
ATTDEF
  5
74
330
6E
100
AcDbEntity
  8
AM_6
100
AcDbText
 10
9.25
 20
1.516666666666667
 30
0.0
 40
0.5
  1
S-2000 TPHU Take-Up Bearing -Inch
100
AcDbAttributeDefinition
  3

  2
NT
 70
     8
280
     0
  0
ATTDEF
  5
75
330
6E
100
AcDbEntity
  8
AM_6
100
AcDbText
 10
9.25
 20
1.016666666666667
 30
0.0
 40
0.5
  1
070833
100
AcDbAttributeDefinition
  3

  2
NB
 70
     8
280
     0
  0
ATTDEF
  5
76
330
6E
100
AcDbEntity
  8
AM_6
100
AcDbText
 10
9.25
 20
0.5166666666666666
 30
0.0
 40
0.5
  1
$PN.
100
AcDbAttributeDefinition
  3

  2
NBSYN
 70
     8
280
     0
  0
ATTDEF
  5
77
330
6E
100
AcDbEntity
  8
AM_6
100
AcDbText
 10
9.25
 20
0.0166666666666666
 30
0.0
 40
0.5
  1
070833
100
AcDbAttributeDefinition
  3

  2
LINA
 70
     8
280
     0
  0
ATTDEF
  5
78
330
6E
100
AcDbEntity
  8
AM_6
100
AcDbText
 10
9.25
 20
-0.4833333333333334
 30
0.0
 40
0.5
  1
2-7/16
100
AcDbAttributeDefinition
  3

  2
SS
 70
     8
280
     0
  0
ATTDEF
  5
79
330
6E
100
AcDbEntity
  8
AM_6
100
AcDbText
 10
9.25
 20
-0.9833333333333334
 30
0.0
 40
0.5
  1
070833
100
AcDbAttributeDefinition
  3

  2
PN
 70
     8
280
     0
  0
ATTDEF
  5
7A
330
6E
100
AcDbEntity
  8
AM_6
100
AcDbText
 10
9.25
 20
-1.483333333333333
 30
0.0
 40
0.5
  1
TPHU-S2-207RE
100
AcDbAttributeDefinition
  3

  2
DESCRIPTION
 70
     8
280
     0
  0
ATTDEF
  5
7B
330
6E
100
AcDbEntity
  8
AM_6
100
AcDbText
 10
9.25
 20
-1.983333333333333
 30
0.0
 40
0.5
  1
Expansion Type
100
AcDbAttributeDefinition
  3

  2
EF
 70
     8
280
     0
  0
ATTDEF
  5
7C
330
6E
100
AcDbEntity
  8
AM_6
100
AcDbText
 10
9.25
 20
-2.483333333333333
 30
0.0
 40
0.5
  1
Contact Seal
100
AcDbAttributeDefinition
  3

  2
ST
 70
     8
280
     0
  0
ATTDEF
  5
7D
330
6E
100
AcDbEntity
  8
AM_6
100
AcDbText
 10
9.25
 20
-2.983333333333333
 30
0.0
 40
0.5
  1
3-13/64
100
AcDbAttributeDefinition
  3

  2
A
 70
     8
280
     0
  0
ATTDEF
  5
7E
330
6E
100
AcDbEntity
  8
AM_6
100
AcDbText
 10
9.25
 20
-3.483333333333333
 30
0.0
 40
0.5
  1
2-3/4
100
AcDbAttributeDefinition
  3

  2
B
 70
     8
280
     0
  0
ATTDEF
  5
7F
330
6E
100
AcDbEntity
  8
AM_6
100
AcDbText
 10
9.25
 20
-3.983333333333333
 30
0.0
 40
0.5
  1
13/16
100
AcDbAttributeDefinition
  3

  2
C
 70
     8
280
     0
  0
ATTDEF
  5
80
330
6E
100
AcDbEntity
  8
AM_6
100
AcDbText
 10
9.25
 20
-4.483333333333333
 30
0.0
 40
0.5
  1
6-21/64
100
AcDbAttributeDefinition
  3

  2
D
 70
     8
280
     0
  0
ATTDEF
  5
81
330
6E
100
AcDbEntity
  8
AM_6
100
AcDbText
 10
9.25
 20
-4.983333333333333
 30
0.0
 40
0.5
  1
3-21/64
100
AcDbAttributeDefinition
  3

  2
E
 70
     8
280
     0
  0
ATTDEF
  5
82
330
6E
100
AcDbEntity
  8
AM_6
100
AcDbText
 10
9.25
 20
-5.483333333333333
 30
0.0
 40
0.5
  1
1-7/16
100
AcDbAttributeDefinition
  3

  2
F
 70
     8
280
     0
  0
ATTDEF
  5
83
330
6E
100
AcDbEntity
  8
AM_6
100
AcDbText
 10
9.25
 20
-5.983333333333333
 30
0.0
 40
0.5
  1
9/16
100
AcDbAttributeDefinition
  3

  2
G
 70
     8
280
     0
  0
ATTDEF
  5
84
330
6E
100
AcDbEntity
  8
AM_6
100
AcDbText
 10
9.25
 20
-6.483333333333333
 30
0.0
 40
0.5
  1
8-1/2
100
AcDbAttributeDefinition
  3

  2
H
 70
     8
280
     0
  0
ATTDEF
  5
85
330
6E
100
AcDbEntity
  8
AM_6
100
AcDbText
 10
9.25
 20
-6.983333333333333
 30
0.0
 40
0.5
  1
8-9/32
100
AcDbAttributeDefinition
  3

  2
J
 70
     8
280
     0
  0
ATTDEF
  5
86
330
6E
100
AcDbEntity
  8
AM_6
100
AcDbText
 10
9.25
 20
-7.483333333333333
 30
0.0
 40
0.5
  1
3-27/32
100
AcDbAttributeDefinition
  3

  2
K
 70
     8
280
     0
  0
ATTDEF
  5
87
330
6E
100
AcDbEntity
  8
AM_6
100
AcDbText
 10
9.25
 20
-7.983333333333333
 30
0.0
 40
0.5
  1
4-1/16
100
AcDbAttributeDefinition
  3

  2
L
 70
     8
280
     0
  0
ATTDEF
  5
88
330
6E
100
AcDbEntity
  8
AM_6
100
AcDbText
 10
9.25
 20
-8.483333333333334
 30
0.0
 40
0.5
  1
8
100
AcDbAttributeDefinition
  3

  2
M
 70
     8
280
     0
  0
ATTDEF
  5
89
330
6E
100
AcDbEntity
  8
AM_6
100
AcDbText
 10
9.25
 20
-8.983333333333334
 30
0.0
 40
0.5
  1
1-7/8
100
AcDbAttributeDefinition
  3

  2
N
 70
     8
280
     0
  0
ATTDEF
  5
8A
330
6E
100
AcDbEntity
  8
AM_6
100
AcDbText
 10
9.25
 20
-9.483333333333334
 30
0.0
 40
0.5
  1
1-3/4
100
AcDbAttributeDefinition
  3

  2
P
 70
     8
280
     0
  0
ATTDEF
  5
8B
330
6E
100
AcDbEntity
  8
AM_6
100
AcDbText
 10
9.25
 20
-9.983333333333334
 30
0.0
 40
0.5
  1
1-1/16
100
AcDbAttributeDefinition
  3

  2
Q
 70
     8
280
     0
  0
ATTDEF
  5
8C
330
6E
100
AcDbEntity
  8
AM_6
100
AcDbText
 10
9.25
 20
-10.48333333333333
 30
0.0
 40
0.5
  1
3-17/32
100
AcDbAttributeDefinition
  3

  2
R
 70
     8
280
     0
  0
ATTDEF
  5
8D
330
6E
100
AcDbEntity
  8
AM_6
100
AcDbText
 10
9.25
 20
-10.98333333333333
 30
0.0
 40
0.5
  1
2-5/32
100
AcDbAttributeDefinition
  3

  2
S
 70
     8
280
     0
  0
ATTDEF
  5
8E
330
6E
100
AcDbEntity
  8
AM_6
100
AcDbText
 10
9.25
 20
-11.48333333333333
 30
0.0
 40
0.5
  1
5/16
100
AcDbAttributeDefinition
  3

  2
T
 70
     8
280
     0
  0
ATTDEF
  5
8F
330
6E
100
AcDbEntity
  8
AM_6
100
AcDbText
 10
9.25
 20
-11.98333333333333
 30
0.0
 40
0.5
  1
1-7/16
100
AcDbAttributeDefinition
  3

  2
U
 70
     8
280
     0
  0
ATTDEF
  5
90
330
6E
100
AcDbEntity
  8
AM_6
100
AcDbText
 10
9.25
 20
-12.48333333333333
 30
0.0
 40
0.5
  1
2-3/4
100
AcDbAttributeDefinition
  3

  2
V
 70
     8
280
     0
  0
ATTDEF
  5
91
330
6E
100
AcDbEntity
  8
AM_6
100
AcDbText
 10
9.25
 20
-12.98333333333333
 30
0.0
 40
0.5
  1
1
100
AcDbAttributeDefinition
  3

  2
W
 70
     8
280
     0
  0
ATTDEF
  5
92
330
6E
100
AcDbEntity
  8
AM_6
100
AcDbText
 10
9.25
 20
-13.48333333333333
 30
0.0
 40
0.5
  1
1/4
100
AcDbAttributeDefinition
  3

  2
X
 70
     8
280
     0
  0
ATTDEF
  5
93
330
6E
100
AcDbEntity
  8
AM_6
100
AcDbText
 10
9.25
 20
-13.98333333333333
 30
0.0
 40
0.5
  1
0.025
100
AcDbAttributeDefinition
  3

  2
Y
 70
     8
280
     0
  0
ATTDEF
  5
94
330
6E
100
AcDbEntity
  8
AM_6
100
AcDbText
 10
9.25
 20
-14.48333333333333
 30
0.0
 40
0.5
  1
2-15/16
100
AcDbAttributeDefinition
  3

  2
Z
 70
     8
280
     0
  0
ATTDEF
  5
95
330
6E
100
AcDbEntity
  8
AM_6
100
AcDbText
 10
9.25
 20
-14.98333333333333
 30
0.0
 40
0.5
  1
baldor
100
AcDbAttributeDefinition
  3

  2
COMPANY
 70
     8
280
     0
  0
INSERT
  5
97
330
6E
100
AcDbEntity
  8
0
100
AcDbBlockReference
  2
2_405016_Inch_0_in_070833_4
 10
0.0
 20
0.0
 30
0.0
  0
INSERT
  5
EF
330
6E
100
AcDbEntity
  8
0
100
AcDbBlockReference
  2
3_2_7_16CS2i_0_in_070833_4
 10
0.0
 20
0.0
 30
0.0
  0
INSERT
  5
12F
330
6E
100
AcDbEntity
  8
0
100
AcDbBlockReference
  2
4_070008i_0_in_070833_4
 10
0.0
 20
0.0
 30
0.0
  0
INSERT
  5
17D
330
6E
100
AcDbEntity
  8
0
100
AcDbBlockReference
  2
5_070833H_0_in_070833_4
 10
0.0
 20
0.0
 30
0.0
  0
ENDBLK
  5
71
330
6E
100
AcDbEntity
  8
0
100
AcDbBlockEnd
  0
BLOCK
  5
98
330
96
100
AcDbEntity
  8
0
100
AcDbBlockBegin
  2
2_405016_Inch_0_in_070833_4
 70
     2
 10
0.0
 20
0.0
 30
0.0
  3
2_405016_Inch_0_in_070833_4
  1

  0
ATTDEF
  5
9A
330
96
100
AcDbEntity
  8
AM_6
100
AcDbText
 10
9.075
 20
0.21875
 30
0.0
 40
0.5
  1
405016 -Inch
100
AcDbAttributeDefinition
  3

  2
NN
 70
     8
280
     0
  0
ATTDEF
  5
9B
330
96
100
AcDbEntity
  8
AM_6
100
AcDbText
 10
9.075
 20
-0.28125
 30
0.0
 40
0.5
  1
Grease Fitting
100
AcDbAttributeDefinition
  3

  2
NT
 70
     8
280
     0
  0
ATTDEF
  5
9C
330
96
100
AcDbEntity
  8
AM_6
100
AcDbText
 10
9.075
 20
-0.78125
 30
0.0
 40
0.5
  1
405016-Inch
100
AcDbAttributeDefinition
  3

  2
NB
 70
     8
280
     0
  0
ATTDEF
  5
9D
330
96
100
AcDbEntity
  8
AM_6
100
AcDbText
 10
9.075
 20
-1.28125
 30
0.0
 40
0.5
  1
$MN.-Inch
100
AcDbAttributeDefinition
  3

  2
NBSYN
 70
     8
280
     0
  0
ATTDEF
  5
9E
330
96
100
AcDbEntity
  8
AM_6
100
AcDbText
 10
9.075
 20
-1.78125
 30
0.0
 40
0.5
  1
405016
100
AcDbAttributeDefinition
  3

  2
LINA
 70
     8
280
     0
  0
ATTDEF
  5
9F
330
96
100
AcDbEntity
  8
AM_6
100
AcDbText
 10
9.075
 20
-2.28125
 30
0.0
 40
0.5
  1
405016
100
AcDbAttributeDefinition
  3

  2
MN
 70
     8
280
     0
  0
ATTDEF
  5
A0
330
96
100
AcDbEntity
  8
AM_6
100
AcDbText
 10
9.075
 20
-2.78125
 30
0.0
 40
0.5
  1
7/16 HEX
100
AcDbAttributeDefinition
  3

  2
H
 70
     8
280
     0
  0
ATTDEF
  5
A1
330
96
100
AcDbEntity
  8
AM_6
100
AcDbText
 10
9.075
 20
-3.28125
 30
0.0
 40
0.5
  1
0.383
100
AcDbAttributeDefinition
  3

  2
NDR
 70
     8
280
     0
  0
ATTDEF
  5
A2
330
96
100
AcDbEntity
  8
AM_6
100
AcDbText
 10
9.075
 20
-3.78125
 30
0.0
 40
0.5
  1
0.337
100
AcDbAttributeDefinition
  3

  2
KDR
 70
     8
280
     0
  0
ATTDEF
  5
A3
330
96
100
AcDbEntity
  8
AM_6
100
AcDbText
 10
9.075
 20
-4.28125
 30
0.0
 40
0.5
  1
0.1575
100
AcDbAttributeDefinition
  3

  2
BZE
 70
     8
280
     0
  0
ATTDEF
  5
A4
330
96
100
AcDbEntity
  8
AM_6
100
AcDbText
 10
9.075
 20
-4.78125
 30
0.0
 40
0.5
  1
0.4375
100
AcDbAttributeDefinition
  3

  2
HEX
 70
     8
280
     0
  0
ATTDEF
  5
A5
330
96
100
AcDbEntity
  8
AM_6
100
AcDbText
 10
9.075
 20
-5.28125
 30
0.0
 40
0.5
  1
0.281250
100
AcDbAttributeDefinition
  3

  2
HEX2
 70
     8
280
     0
  0
ATTDEF
  5
A6
330
96
100
AcDbEntity
  8
AM_6
100
AcDbText
 10
9.075
 20
-5.78125
 30
0.0
 40
0.5
  1
baldor
100
AcDbAttributeDefinition
  3

  2
COMPANY
 70
     8
280
     0
  0
LINE
  5
A9
330
96
100
AcDbEntity
  8
AM_9
100
AcDbLine
 10
3.751485901430354
 20
-0.305545857794963
 30
0.0
 11
3.730354988343318
 21
-0.2602304684431305
 31
0.0
  0
LINE
  5
AA
330
96
100
AcDbEntity
  8
AM_9
100
AcDbLine
 10
3.734521122673159
 20
-0.2
 30
0.0
 11
3.75684663310065
 21
-0.2478772116156649
 31
0.0
  0
LINE
  5
AB
330
96
100
AcDbEntity
  8
AM_9
100
AcDbLine
 10
3.956234346248714
 20
-0.1549011940327111
 30
0.0
 11
3.938026660150522
 21
-0.1158546851886725
 31
0.0
  0
LINE
  5
AC
330
96
100
AcDbEntity
  8
AM_9
100
AcDbLine
 10
4.000000000000001
 20
-0.4599894206182613
 30
0.0
 11
3.887425753776376
 21
-0.5124836537433635
 31
0.0
  0
LINE
  5
AD
330
96
100
AcDbEntity
  8
AM_9
100
AcDbLine
 10
3.822777160155095
 20
-0.4582370426796164
 30
0.0
 11
3.887425753776376
 21
-0.5124836537433635
 31
0.0
  0
ARC
  5
AE
330
96
100
AcDbEntity
  8
AM_9
100
AcDbCircle
 10
3.73340326416709
 20
-0.3941587959651975
 30
0.0
 40
0.0896158688558197
100
AcDbArc
 50
336.9222389899025
 51
78.39933252639004
  0
ARC
  5
AF
330
96
100
AcDbEntity
  8
AM_9
100
AcDbCircle
 10
4.083361648150115
 20
-0.2309705214783648
 30
0.0
 40
0.0896158688558186
100
AcDbArc
 50
158.4676971249618
 51
201.5323028750382
  0
LINE
  5
B0
330
96
100
AcDbEntity
  8
AM_9
100
AcDbLine
 10
4.000000000000001
 20
-0.3434147125297254
 30
0.0
 11
3.815847507618029
 21
-0.4292864299957689
 31
0.0
  0
LINE
  5
B1
330
96
100
AcDbEntity
  8
AM_9
100
AcDbLine
 10
4.000000000000001
 20
-0.3755966752599603
 30
0.0
 11
3.822777160155095
 21
-0.4582370426796164
 31
0.0
  0
ARC
  5
B2
330
96
100
AcDbEntity
  8
AM_9
100
AcDbCircle
 10
3.838846850397258
 20
-0.4390859316016419
 30
0.0
 40
0.0249999999999996
100
AcDbArc
 50
156.9222389899012
 51
230.0000000000011
  0
LINE
  5
B3
330
96
100
AcDbEntity
  8
AM_9
100
AcDbLine
 10
3.98565103198678
 20
-0.1419585097669022
 30
0.0
 11
3.983990022226711
 21
-0.1419585097669022
 31
0.0
  0
LINE
  5
B4
330
96
100
AcDbEntity
  8
AM_9
100
AcDbLine
 10
3.985528907998513
 20
-0.1419585098156049
 30
0.0
 11
4.0
 21
-0.1729918667601243
 31
0.0
  0
LINE
  5
B5
330
96
100
AcDbEntity
  8
AM_9
100
AcDbLine
 10
3.983990022226711
 20
-0.1419585097669022
 30
0.0
 11
3.730354988343318
 21
-0.2602304684431305
 31
0.0
  0
LINE
  5
B6
330
96
100
AcDbEntity
  8
AM_9
100
AcDbLine
 10
4.000000000000001
 20
-0.1896618304724506
 30
0.0
 11
3.751485901430354
 21
-0.305545857794963
 31
0.0
  0
LWPOLYLINE
  5
B7
330
96
100
AcDbEntity
  8
AM_9
100
AcDbPolyline
 90
        5
 70
     0
 43
0.0
 10
3.989779591422741
 20
-0.1510741298357569
 10
3.939673655314264
 20
-0.1639940363880804
 10
3.915359069419333
 20
-0.1744063212866122
 10
3.89215195447448
 20
-0.1876759562813857
 10
3.862092915312688
 20
-0.2099962668917053
  0
LWPOLYLINE
  5
B8
330
96
100
AcDbEntity
  8
AM_9
100
AcDbPolyline
 90
        5
 70
     0
 43
0.0
 10
3.875588184814567
 20
-0.2389369657326275
 10
3.909015212398109
 20
-0.2295338871417795
 10
3.941443378377863
 20
-0.216687117104632
 10
3.972959325649376
 20
-0.1996402057054678
 10
4.000075902161568
 20
-0.1811823284246527
  0
LWPOLYLINE
  5
B9
330
96
100
AcDbEntity
  8
AM_9
100
AcDbPolyline
 90
        3
 70
     0
 43
0.0
 10
3.862092915312688
 20
-0.2099962668917053
 10
3.832727141375751
 20
-0.2163479371246912
 10
3.804110144493329
 20
-0.2258378743019628
  0
LWPOLYLINE
  5
BA
330
96
100
AcDbEntity
  8
AM_9
100
AcDbPolyline
 90
        3
 70
     0
 43
0.0
 10
3.782153317914338
 20
-0.2360765106845276
 10
3.764944149569911
 20
-0.246209193863185
 10
3.734404468701036
 20
-0.2689146070947221
  0
LINE
  5
BB
330
96
100
AcDbEntity
  8
AM_9
100
AcDbLine
 10
3.748325133450933
 20
-0.2987675689889717
 30
0.0
 11
3.803284231001374
 21
-0.2813919000363598
 31
0.0
  0
LWPOLYLINE
  5
BC
330
96
100
AcDbEntity
  8
AM_9
100
AcDbPolyline
 90
        3
 70
     0
 43
0.0
 10
3.825241057580364
 20
-0.2711532636537956
 10
3.850988571746168
 20
-0.256181552758992
 10
3.875588184814567
 20
-0.2389369657326275
  0
LINE
  5
BD
330
96
100
AcDbEntity
  8
AM_9
100
AcDbLine
 10
3.862092915312688
 20
-0.2099962668917053
 30
0.0
 11
3.875588184814567
 21
-0.2389369657326275
 31
0.0
  0
LINE
  5
BE
330
96
100
AcDbEntity
  8
AM_9
100
AcDbLine
 10
3.23125
 20
0.1616637258772237
 30
0.0
 11
3.23125
 21
-0.1616637258772237
 31
0.0
  0
LINE
  5
BF
330
96
100
AcDbEntity
  8
AM_9
100
AcDbLine
 10
3.23125
 20
-0.1616637258772237
 30
0.0
 11
3.255003564847762
 21
-0.1854172907249859
 31
0.0
  0
LINE
  5
C0
330
96
100
AcDbEntity
  8
AM_9
100
AcDbLine
 10
3.255003564847762
 20
0.1854172907249859
 30
0.0
 11
3.23125
 21
0.1616637258772237
 31
0.0
  0
LINE
  5
C1
330
96
100
AcDbEntity
  8
AM_9
100
AcDbLine
 10
3.628125
 20
0.21875
 30
0.0
 11
3.528125
 21
0.21875
 31
0.0
  0
LINE
  5
C2
330
96
100
AcDbEntity
  8
AM_9
100
AcDbLine
 10
3.628125
 20
0.21875
 30
0.0
 11
3.628125
 21
-0.21875
 31
0.0
  0
LINE
  5
C3
330
96
100
AcDbEntity
  8
AM_9
100
AcDbLine
 10
3.528125
 20
0.21875
 30
0.0
 11
3.528125
 21
-0.21875
 31
0.0
  0
LINE
  5
C4
330
96
100
AcDbEntity
  8
AM_9
100
AcDbLine
 10
3.528125
 20
-0.21875
 30
0.0
 11
3.628125
 21
-0.21875
 31
0.0
  0
LINE
  5
C5
330
96
100
AcDbEntity
  8
AM_9
100
AcDbLine
 10
3.255003564847762
 20
0.1854172907249859
 30
0.0
 11
3.255003564847762
 21
-0.1854172907249859
 31
0.0
  0
LINE
  5
C6
330
96
100
AcDbEntity
  8
AM_9
100
AcDbLine
 10
3.255003564847762
 20
-0.1854172907249859
 30
0.0
 11
3.45
 21
-0.1915112338502295
 31
0.0
  0
LINE
  5
C7
330
96
100
AcDbEntity
  8
AM_9
100
AcDbLine
 10
3.45
 20
0.1915112338502295
 30
0.0
 11
3.255003564847762
 21
0.1854172907249859
 31
0.0
  0
LINE
  5
C8
330
96
100
AcDbEntity
  8
AM_9
100
AcDbLine
 10
3.45
 20
-0.2
 30
0.0
 11
3.528125
 21
-0.2
 31
0.0
  0
LINE
  5
C9
330
96
100
AcDbEntity
  8
AM_9
100
AcDbLine
 10
3.528125
 20
0.2
 30
0.0
 11
3.45
 21
0.2
 31
0.0
  0
LWPOLYLINE
  5
CA
330
96
100
AcDbEntity
  8
AM_9
100
AcDbPolyline
 90
        6
 70
     0
 43
0.0
 10
3.775
 20
-0.1790373738501783
 10
3.762711773328742
 20
-0.184262879520394
 10
3.744890090732852
 20
-0.1936098952159723
 10
3.738950819230624
 20
-0.1971856748420371
 10
3.735426786929245
 20
-0.1994144431868154
 10
3.734521122719426
 20
-0.1999999999699528
  0
LINE
  5
CB
330
96
100
AcDbEntity
  8
AM_9
100
AcDbLine
 10
3.628125
 20
-0.2
 30
0.0
 11
3.734521122673159
 21
-0.2
 31
0.0
  0
LINE
  5
CC
330
96
100
AcDbEntity
  8
AM_9
100
AcDbLine
 10
3.775
 20
0.2
 30
0.0
 11
3.628125
 21
0.2
 31
0.0
  0
LINE
  5
CD
330
96
100
AcDbEntity
  8
AM_9
100
AcDbLine
 10
3.775
 20
-0.1790373738501778
 30
0.0
 11
3.938026657371554
 21
-0.1158546862727975
 31
0.0
  0
ARC
  5
CE
330
96
100
AcDbEntity
  8
AM_9
100
AcDbCircle
 10
3.775000000000001
 20
0.0000000000000009
 30
0.0
 40
0.1999999999999995
100
AcDbArc
 50
324.598120401917
 51
90.0
  0
LINE
  5
CF
330
96
100
AcDbEntity
  8
AM_9
100
AcDbLine
 10
3.775
 20
0.2
 30
0.0
 11
3.775
 21
-0.1790373738501778
 31
0.0
  0
LWPOLYLINE
  5
D0
330
96
100
AcDbEntity
  8
AM_9
100
AcDbPolyline
 90
        3
 70
     0
 43
0.0
 10
3.628125
 20
-0.1093749999999999
 10
3.625731619214966
 20
-0.1640625
 10
3.619057400303385
 20
-0.21875
  0
LWPOLYLINE
  5
D1
330
96
100
AcDbEntity
  8
AM_9
100
AcDbPolyline
 90
        3
 70
     0
 43
0.0
 10
3.537192599696614
 20
-0.21875
 10
3.53053952494962
 20
-0.1643083897258504
 10
3.528125
 20
-0.109375
  0
LWPOLYLINE
  5
D2
330
96
100
AcDbEntity
  8
AM_9
100
AcDbPolyline
 90
        3
 70
     0
 43
0.0
 10
3.619057400303385
 20
0.0
 10
3.62571047505038
 20
-0.0544416102741496
 10
3.628125
 20
-0.1093749999999999
  0
LINE
  5
D3
330
96
100
AcDbEntity
  8
AM_9
100
AcDbLine
 10
3.619057400303385
 20
0.0
 30
0.0
 11
3.537192599696614
 21
0.0
 31
0.0
  0
LWPOLYLINE
  5
D4
330
96
100
AcDbEntity
  8
AM_9
100
AcDbPolyline
 90
        3
 70
     0
 43
0.0
 10
3.628125
 20
0.109375
 10
3.625731619214966
 20
0.0546875
 10
3.619057400303385
 20
0.0
  0
LWPOLYLINE
  5
D5
330
96
100
AcDbEntity
  8
AM_9
100
AcDbPolyline
 90
        3
 70
     0
 43
0.0
 10
3.619057400303385
 20
0.21875
 10
3.62571047505038
 20
0.1643083897258504
 10
3.628125
 20
0.109375
  0
LWPOLYLINE
  5
D6
330
96
100
AcDbEntity
  8
AM_9
100
AcDbPolyline
 90
        3
 70
     0
 43
0.0
 10
3.528125
 20
0.109375
 10
3.530518380785035
 20
0.1640625
 10
3.537192599696614
 20
0.21875
  0
LWPOLYLINE
  5
D7
330
96
100
AcDbEntity
  8
AM_9
100
AcDbPolyline
 90
        3
 70
     0
 43
0.0
 10
3.528125
 20
-0.109375
 10
3.530518380785035
 20
-0.0546875
 10
3.537192599696614
 20
0.0
  0
LWPOLYLINE
  5
D8
330
96
100
AcDbEntity
  8
AM_9
100
AcDbPolyline
 90
        3
 70
     0
 43
0.0
 10
3.537192599696614
 20
0.0
 10
3.53053952494962
 20
0.0544416102741496
 10
3.528125
 20
0.109375
  0
LINE
  5
DA
330
96
100
AcDbEntity
  8
AM_5
100
AcDbLine
 10
3.407862509955051
 20
0.1671831426298035
 30
0.0
 11
3.23125
 21
0.1616637258772237
 31
0.0
  0
LINE
  5
DB
330
96
100
AcDbEntity
  8
AM_5
100
AcDbLine
 10
3.45
 20
0.1915112338502292
 30
0.0
 11
3.407862509955052
 21
0.1671831426298035
 31
0.0
  0
LINE
  5
DC
330
96
100
AcDbEntity
  8
AM_5
100
AcDbLine
 10
3.407862509955052
 20
0.190194371480033
 30
0.0
 11
3.407862509955052
 21
-0.190194371480033
 31
0.0
  0
LINE
  5
DD
330
96
100
AcDbEntity
  8
AM_5
100
AcDbLine
 10
3.407862509955051
 20
-0.1671831426298035
 30
0.0
 11
3.23125
 21
-0.1616637258772237
 31
0.0
  0
LINE
  5
DE
330
96
100
AcDbEntity
  8
AM_5
100
AcDbLine
 10
3.45
 20
-0.1915112338502292
 30
0.0
 11
3.407862509955052
 21
-0.1671831426298035
 31
0.0
  0
LINE
  5
E1
330
96
100
AcDbEntity
  8
AM_7
100
AcDbLine
 10
3.71983579112304
 20
0.0917749692859806
 30
0.0
 11
4.011208030815163
 21
-0.533074815178147
 31
0.0
  0
LINE
  5
E3
330
96
100
AcDbEntity
  8
AM_4
100
AcDbLine
 10
4.075
 20
-0.4250163462566365
 30
0.0
 11
4.000000000000001
 21
-0.4599894206182613
 31
0.0
  0
LINE
  5
E4
330
96
100
AcDbEntity
  8
AM_4
100
AcDbLine
 10
4.075
 20
-0.4250163462566365
 30
0.0
 11
4.075
 21
-0.3406236008983355
 31
0.0
  0
ARC
  5
E5
330
96
100
AcDbEntity
  8
AM_4
100
AcDbCircle
 10
4.083361648149995
 20
-0.2309705214783052
 30
0.0
 40
0.0896158688556853
100
AcDbArc
 50
150.8170969074213
 51
158.467697124969
  0
ARC
  5
E6
330
96
100
AcDbEntity
  8
AM_4
100
AcDbCircle
 10
4.083361648150117
 20
-0.2309705214783644
 30
0.0
 40
0.0896158688558204
100
AcDbArc
 50
201.5323028750381
 51
253.0777610100969
  0
LINE
  5
E7
330
96
100
AcDbEntity
  8
AM_4
100
AcDbLine
 10
4.057276838818908
 20
-0.3167060839535595
 30
0.0
 11
4.000000000000001
 21
-0.3434147125297254
 31
0.0
  0
LINE
  5
E8
330
96
100
AcDbEntity
  8
AM_4
100
AcDbLine
 10
4.075
 20
-0.3406236008983355
 30
0.0
 11
4.000000000000001
 21
-0.3755966752599603
 31
0.0
  0
ARC
  5
E9
330
96
100
AcDbEntity
  8
AM_4
100
AcDbCircle
 10
4.049999999999997
 20
-0.3406236008983378
 30
0.0
 40
0.025000000000003
100
AcDbArc
 50
0.0
 51
73.07776101009412
  0
LINE
  5
EA
330
96
100
AcDbEntity
  8
AM_4
100
AcDbLine
 10
4.0
 20
-0.1729918667601243
 30
0.0
 11
4.006170432486621
 21
-0.1862244019302201
 31
0.0
  0
LINE
  5
EB
330
96
100
AcDbEntity
  8
AM_4
100
AcDbLine
 10
4.005120935313745
 20
-0.1872738991187349
 30
0.0
 11
4.0061875964768
 21
-0.1862072379556804
 31
0.0
  0
LINE
  5
EC
330
96
100
AcDbEntity
  8
AM_4
100
AcDbLine
 10
4.005120935313745
 20
-0.1872738991187349
 30
0.0
 11
4.000000000000001
 21
-0.1896618304724506
 31
0.0
  0
LINE
  5
ED
330
96
100
AcDbEntity
  8
AM_4
100
AcDbLine
 10
4.000075902161568
 20
-0.1811823284246527
 30
0.0
 11
4.00285261811965
 21
-0.1791093260592899
 31
0.0
  0
ENDBLK
  5
99
330
96
100
AcDbEntity
  8
0
100
AcDbBlockEnd
  0
BLOCK
  5
F0
330
EE
100
AcDbEntity
  8
0
100
AcDbBlockBegin
  2
3_2_7_16CS2i_0_in_070833_4
 70
     2
 10
0.0
 20
0.0
 30
0.0
  3
3_2_7_16CS2i_0_in_070833_4
  1

  0
ATTDEF
  5
F2
330
EE
100
AcDbEntity
  8
AM_6
100
AcDbText
 10
6.984375
 20
-1.77225
 30
0.0
 40
0.5
  1
S-2000 Collar -Inch
100
AcDbAttributeDefinition
  3

  2
NN
 70
     8
280
     0
  0
ATTDEF
  5
F3
330
EE
100
AcDbEntity
  8
AM_6
100
AcDbText
 10
6.984375
 20
-2.27225
 30
0.0
 40
0.5
  1
S-2000 Bearings
100
AcDbAttributeDefinition
  3

  2
NT
 70
     8
280
     0
  0
ATTDEF
  5
F4
330
EE
100
AcDbEntity
  8
AM_6
100
AcDbText
 10
6.984375
 20
-2.77225
 30
0.0
 40
0.5
  1
2-7/16CS2i
100
AcDbAttributeDefinition
  3

  2
NB
 70
     8
280
     0
  0
ATTDEF
  5
F5
330
EE
100
AcDbEntity
  8
AM_6
100
AcDbText
 10
6.984375
 20
-3.27225
 30
0.0
 40
0.5
  1
$BORE.CS2i
100
AcDbAttributeDefinition
  3

  2
NBSYN
 70
     8
280
     0
  0
ATTDEF
  5
F6
330
EE
100
AcDbEntity
  8
AM_6
100
AcDbText
 10
6.984375
 20
-3.77225
 30
0.0
 40
0.5
  1
2-7/16CS2i
100
AcDbAttributeDefinition
  3

  2
LINA
 70
     8
280
     0
  0
ATTDEF
  5
F7
330
EE
100
AcDbEntity
  8
AM_6
100
AcDbText
 10
6.984375
 20
-4.27225
 30
0.0
 40
0.5
  1
2-7/16
100
AcDbAttributeDefinition
  3

  2
BORE
 70
     8
280
     0
  0
ATTDEF
  5
F8
330
EE
100
AcDbEntity
  8
AM_6
100
AcDbText
 10
6.984375
 20
-4.77225
 30
0.0
 40
0.5
  1
2.437500
100
AcDbAttributeDefinition
  3

  2
BORE1
 70
     8
280
     0
  0
ATTDEF
  5
F9
330
EE
100
AcDbEntity
  8
AM_6
100
AcDbText
 10
6.984375
 20
-5.27225
 30
0.0
 40
0.5
  1
4-1/16
100
AcDbAttributeDefinition
  3

  2
L1
 70
     8
280
     0
  0
ATTDEF
  5
FA
330
EE
100
AcDbEntity
  8
AM_6
100
AcDbText
 10
6.984375
 20
-5.77225
 30
0.0
 40
0.5
  1
4.06250
100
AcDbAttributeDefinition
  3

  2
L
 70
     8
280
     0
  0
ATTDEF
  5
FB
330
EE
100
AcDbEntity
  8
AM_6
100
AcDbText
 10
6.984375
 20
-6.27225
 30
0.0
 40
0.5
  1
3.96875
100
AcDbAttributeDefinition
  3

  2
L2
 70
     8
280
     0
  0
ATTDEF
  5
FC
330
EE
100
AcDbEntity
  8
AM_6
100
AcDbText
 10
6.984375
 20
-6.77225
 30
0.0
 40
0.5
  1
4.00
100
AcDbAttributeDefinition
  3

  2
A
 70
     8
280
     0
  0
ATTDEF
  5
FD
330
EE
100
AcDbEntity
  8
AM_6
100
AcDbText
 10
6.984375
 20
-7.27225
 30
0.0
 40
0.5
  1
1.70
100
AcDbAttributeDefinition
  3

  2
B
 70
     8
280
     0
  0
ATTDEF
  5
FE
330
EE
100
AcDbEntity
  8
AM_6
100
AcDbText
 10
6.984375
 20
-7.77225
 30
0.0
 40
0.5
  1
2.94
100
AcDbAttributeDefinition
  3

  2
C
 70
     8
280
     0
  0
ATTDEF
  5
FF
330
EE
100
AcDbEntity
  8
AM_6
100
AcDbText
 10
6.984375
 20
-8.27225
 30
0.0
 40
0.5
  1
4.12
100
AcDbAttributeDefinition
  3

  2
D
 70
     8
280
     0
  0
ATTDEF
  5
100
330
EE
100
AcDbEntity
  8
AM_6
100
AcDbText
 10
6.984375
 20
-8.77225
 30
0.0
 40
0.5
  1
0.41
100
AcDbAttributeDefinition
  3

  2
E
 70
     8
280
     0
  0
ATTDEF
  5
101
330
EE
100
AcDbEntity
  8
AM_6
100
AcDbText
 10
6.984375
 20
-9.27225
 30
0.0
 40
0.5
  1
0.317
100
AcDbAttributeDefinition
  3

  2
F
 70
     8
280
     0
  0
ATTDEF
  5
102
330
EE
100
AcDbEntity
  8
AM_6
100
AcDbText
 10
6.984375
 20
-9.77225
 30
0.0
 40
0.5
  1
3/8-16
100
AcDbAttributeDefinition
  3

  2
CS
 70
     8
280
     0
  0
ATTDEF
  5
103
330
EE
100
AcDbEntity
  8
AM_6
100
AcDbText
 10
6.984375
 20
-10.27225
 30
0.0
 40
0.5
  1
0.3750
100
AcDbAttributeDefinition
  3

  2
NDM
 70
     8
280
     0
  0
ATTDEF
  5
104
330
EE
100
AcDbEntity
  8
AM_6
100
AcDbText
 10
6.984375
 20
-10.77225
 30
0.0
 40
0.5
  1
0.3070
100
AcDbAttributeDefinition
  3

  2
KDM
 70
     8
280
     0
  0
ATTDEF
  5
105
330
EE
100
AcDbEntity
  8
AM_6
100
AcDbText
 10
6.984375
 20
-11.27225
 30
0.0
 40
0.5
  1
2
100
AcDbAttributeDefinition
  3

  2
DD
 70
     8
280
     0
  0
ATTDEF
  5
106
330
EE
100
AcDbEntity
  8
AM_6
100
AcDbText
 10
6.984375
 20
-11.77225
 30
0.0
 40
0.5
  1
baldor
100
AcDbAttributeDefinition
  3

  2
COMPANY
 70
     8
280
     0
  0
LINE
  5
107
330
EE
100
AcDbEntity
  8
AM_9
100
AcDbLine
 10
1.370573096629555
 20
-1.953327735467822
 30
0.0
 11
1.362943640073037
 21
-1.943811616648717
 31
0.0
  0
LINE
  5
108
330
EE
100
AcDbEntity
  8
AM_9
100
AcDbLine
 10
1.363002366930395
 20
-2.23461513412988
 30
0.0
 11
1.370573096629555
 21
-2.225172264532178
 31
0.0
  0
LWPOLYLINE
  5
109
330
EE
100
AcDbEntity
  8
AM_9
100
AcDbPolyline
 90
       22
 70
     0
 43
0.0
 10
1.319766005028324
 20
-1.929064686588544
 10
1.313458235211242
 20
-1.931929019343004
 10
1.300212399266799
 20
-1.941652011676166
 10
1.287467625967343
 20
-1.956124026234257
 10
1.275952008629166
 20
-1.974711621957356
 10
1.265957458711347
 20
-1.997119816854495
 10
1.258363344261786
 20
-2.021525405848488
 10
1.253046103606413
 20
-2.048171743985311
 10
1.250467930555333
 20
-2.074422826139211
 10
1.250317936966781
 20
-2.101127379624312
 10
1.252504891835034
 20
-2.12637089620609
 10
1.256814525415928
 20
-2.150586015025138
 10
1.263126712121887
 20
-2.173324159602231
 10
1.271086964458086
 20
-2.193841196266354
 10
1.28088369137668
 20
-2.212505087034341
 10
1.291736354734563
 20
-2.227849152053086
 10
1.30397260176277
 20
-2.240128021810583
 10
1.316527776949461
 20
-2.248104740441029
 10
1.329523629178863
 20
-2.251620073700269
 10
1.342050610996702
 20
-2.2502262598253
 10
1.353939848551234
 20
-2.243748321371626
 10
1.362874446005802
 20
-2.234774688122723
  0
LWPOLYLINE
  5
10A
330
EE
100
AcDbEntity
  8
AM_9
100
AcDbPolyline
 90
        4
 70
     0
 43
0.0
 10
1.362870758955028
 20
-1.943720713784022
 10
1.361722345582697
 20
-1.942327262917383
 10
1.35103406399326
 20
-1.93264580257175
 10
1.34439012691687
 20
-1.929116297483092
  0
LWPOLYLINE
  5
10B
330
EE
100
AcDbEntity
  8
AM_9
100
AcDbPolyline
 90
       12
 70
     0
 43
0.0
 10
1.366509961585433
 20
-2.229829730015441
 10
1.374063062848139
 20
-2.2164384259221
 10
1.381919814639623
 20
-2.196303118707598
 10
1.38792744612551
 20
-2.173368876585748
 10
1.392333523157499
 20
-2.147622362384886
 10
1.394923028277636
 20
-2.121573361674165
 10
1.395996704930882
 20
-2.094503692110981
 10
1.395582298384875
 20
-2.068725178627994
 10
1.393800834805257
 20
-2.043532242319745
 10
1.390694314034126
 20
-2.019832022152445
 10
1.38631075514024
 20
-1.997979825610209
 10
1.376953389882087
 20
-1.968539438370364
  0
LWPOLYLINE
  5
10C
330
EE
100
AcDbEntity
  8
AM_9
100
AcDbPolyline
 90
        3
 70
     0
 43
0.0
 10
1.362874446005802
 20
-2.234774688122723
 10
1.364719250926726
 20
-2.232370512588064
 10
1.366509961585433
 20
-2.229829730015441
  0
LINE
  5
10D
330
EE
100
AcDbEntity
  8
AM_9
100
AcDbLine
 10
1.340293270859148
 20
-2.2429
 30
0.0
 11
1.798449194050572
 21
-2.2429
 31
0.0
  0
LINE
  5
10E
330
EE
100
AcDbEntity
  8
AM_9
100
AcDbLine
 10
1.798419829738785
 20
-1.9356
 30
0.0
 11
1.340293270859148
 21
-1.9356
 31
0.0
  0
LWPOLYLINE
  5
10F
330
EE
100
AcDbEntity
  8
AM_9
100
AcDbPolyline
 90
        5
 70
     0
 43
0.0
 10
-0.0297327284186663
 20
-1.929187386423437
 10
-0.0505692376377667
 20
-1.933903510283509
 10
-0.0794294786535825
 20
-1.945028789329427
 10
-0.1007080854076395
 20
-1.957346508212433
 10
-0.1203997891174551
 20
-1.972889819734367
  0
LWPOLYLINE
  5
110
330
EE
100
AcDbEntity
  8
AM_9
100
AcDbPolyline
 90
       34
 70
     0
 43
0.0
 10
-0.1203997891174551
 20
-1.972889819734367
 10
-0.1372296735781088
 20
-1.99075229245536
 10
-0.1515019595327708
 20
-2.011411958540254
 10
-0.1631682951265867
 20
-2.036173525823132
 10
-0.1704843477765803
 20
-2.063490172729329
 10
-0.1726772085485024
 20
-2.089259687192519
 10
-0.1703441373534041
 20
-2.115815268728921
 10
-0.1639532413147657
 20
-2.140147011353679
 10
-0.1533986900799313
 20
-2.163733942158415
 10
-0.13922265208257
 20
-2.185241999372007
 10
-0.1213664561682597
 20
-2.204717316343776
 10
-0.100006665742607
 20
-2.221625933542745
 10
-0.0756079461070765
 20
-2.235283645202893
 10
-0.0485346204402695
 20
-2.245172265681338
 10
-0.0194379493571095
 20
-2.250712694819539
 10
0.0103829531401279
 20
-2.251454694987159
 10
0.0407534256545685
 20
-2.247140339424633
 10
0.0693814756037794
 20
-2.238003413306857
 10
0.0968140168912324
 20
-2.22371461965297
 10
0.1202208485808588
 20
-2.205773936179176
 10
0.1407203522010067
 20
-2.183290770599331
 10
0.1556576988351674
 20
-2.159472462372668
 10
0.1664282947795937
 20
-2.132481656816433
 10
0.1716792036591155
 20
-2.10665785885086
 10
0.1723629232003215
 20
-2.079471677539698
 10
0.1686660074888883
 20
-2.054501116569449
 10
0.1606637967266597
 20
-2.029811129721633
 10
0.1489786988876092
 20
-2.007221313926028
 10
0.1334463894552746
 20
-1.986255878699985
 10
0.114341111997039
 20
-1.967596267382887
 10
0.0919564811328841
 20
-1.951793745800936
 10
0.0664994555385478
 20
-1.939331910056275
 10
0.0386345759420251
 20
-1.930886785972306
 10
0.0297438856852202
 20
-1.929189229740329
  0
LINE
  5
111
330
EE
100
AcDbEntity
  8
AM_9
100
AcDbLine
 10
1.368094478040377
 20
-1.951100983064554
 30
0.0
 11
1.362870758955028
 21
-1.943720713784022
 31
0.0
  0
LWPOLYLINE
  5
112
330
EE
100
AcDbEntity
  8
AM_9
100
AcDbPolyline
 90
        3
 70
     0
 43
0.0
 10
1.376953389882087
 20
-1.968539438370364
 10
1.369812117787199
 20
-1.953955728926734
 10
1.368094478040377
 20
-1.951100983064554
  0
LINE
  5
113
330
EE
100
AcDbEntity
  8
AM_9
100
AcDbLine
 10
1.47
 20
-2.40625
 30
0.0
 11
1.47
 21
-1.77225
 31
0.0
  0
LINE
  5
114
330
EE
100
AcDbEntity
  8
AM_9
100
AcDbLine
 10
-1.47
 20
-1.77225
 30
0.0
 11
-1.47
 21
-2.40625
 31
0.0
  0
ELLIPSE
  5
115
330
EE
100
AcDbEntity
  8
AM_9
100
AcDbEllipse
 10
1.340293270859148
 20
-2.089249999999999
 30
0.0
 11
-2.822504710334867E-17
 21
-0.1536500000000003
 31
0.0
210
0.0
220
0.0
230
1.0
 40
0.4226182617407012
 41
0.0
 42
6.283185307179586
  0
LWPOLYLINE
  5
116
330
EE
100
AcDbEntity
  8
AM_4
100
AcDbPolyline
 90
       20
 70
     0
 43
0.0
 10
1.798448400926248
 20
-1.935600000681053
 10
1.805809189250787
 20
-1.936607813250999
 10
1.816150321275724
 20
-1.941717611782737
 10
1.825730138495744
 20
-1.950959574499235
 10
1.834322554701013
 20
-1.964142339881111
 10
1.841758701682838
 20
-1.980833186685994
 10
1.847901212093323
 20
-2.000663744745505
 10
1.852648572696537
 20
-2.022995851109963
 10
1.855914657455737
 20
-2.047231781430096
 10
1.85767386653891
 20
-2.072659015791484
 10
1.857887950996726
 20
-2.098496550930557
 10
1.856578541065335
 20
-2.124072908379543
 10
1.853748510216699
 20
-2.148622747165491
 10
1.849451135831668
 20
-2.171504263081642
 10
1.843714921903975
 20
-2.192086169796078
 10
1.836653878060594
 20
-2.209776833304738
 10
1.828353745136256
 20
-2.224060824437439
 10
1.819010015188052
 20
-2.234540838997033
 10
1.808826833608244
 20
-2.24085600638957
 10
1.798451980148296
 20
-2.242899999882941
  0
LWPOLYLINE
  5
117
330
EE
100
AcDbEntity
  8
AM_4
100
AcDbPolyline
 90
       11
 70
     0
 43
0.0
 10
1.798451980148296
 20
-2.242899999882941
 10
1.798061677162696
 20
-2.24289719110597
 10
1.787028889913483
 20
-2.240556042296196
 10
1.776033281578342
 20
-2.233971711665555
 10
1.765423599735523
 20
-2.223275397453846
 10
1.755549558640244
 20
-2.208825728112164
 10
1.746748516963849
 20
-2.190930556472105
 10
1.739354410963826
 20
-2.170171029897144
 10
1.733666749864641
 20
-2.147066596584467
 10
1.729892621157302
 20
-2.122323663061274
 10
1.728119893508289
 20
-2.08925
  0
LINE
  5
118
330
EE
100
AcDbEntity
  8
AM_4
100
AcDbLine
 10
-1.889880952380952
 20
-1.77225
 30
0.0
 11
1.889880952380952
 21
-1.77225
 31
0.0
  0
LINE
  5
119
330
EE
100
AcDbEntity
  8
AM_4
100
AcDbLine
 10
1.889880952380952
 20
-1.793155342624854
 30
0.0
 11
1.889880952380952
 21
-1.77225
 31
0.0
  0
LINE
  5
11A
330
EE
100
AcDbEntity
  8
AM_4
100
AcDbLine
 10
-1.889880952380952
 20
-1.77225
 30
0.0
 11
-1.889880952380952
 21
-1.793155342624854
 31
0.0
  0
LINE
  5
11B
330
EE
100
AcDbEntity
  8
AM_4
100
AcDbLine
 10
1.935975609756098
 20
-1.90175
 30
0.0
 11
1.935975609756098
 21
-1.83925
 31
0.0
  0
LINE
  5
11C
330
EE
100
AcDbEntity
  8
AM_4
100
AcDbLine
 10
-1.935975609756098
 20
-1.83925
 30
0.0
 11
-1.935975609756098
 21
-1.90175
 31
0.0
  0
LINE
  5
11D
330
EE
100
AcDbEntity
  8
AM_4
100
AcDbLine
 10
-1.935975609756098
 20
-1.83925
 30
0.0
 11
1.935975609756098
 21
-1.83925
 31
0.0
  0
LINE
  5
11E
330
EE
100
AcDbEntity
  8
AM_4
100
AcDbLine
 10
-1.889880952380952
 20
-1.793155342624854
 30
0.0
 11
1.889880952380952
 21
-1.793155342624854
 31
0.0
  0
LINE
  5
11F
330
EE
100
AcDbEntity
  8
AM_4
100
AcDbLine
 10
-1.889880952380952
 20
-1.793155342624854
 30
0.0
 11
-1.935975609756098
 21
-1.83925
 31
0.0
  0
LINE
  5
120
330
EE
100
AcDbEntity
  8
AM_4
100
AcDbLine
 10
1.935975609756098
 20
-1.83925
 30
0.0
 11
1.889880952380952
 21
-1.793155342624854
 31
0.0
  0
LWPOLYLINE
  5
121
330
EE
100
AcDbEntity
  8
AM_4
100
AcDbPolyline
 90
       38
 70
     0
 43
0.0
 10
0.0
 20
-2.2429
 10
-0.0253864268906885
 20
-2.240788285029637
 10
-0.0507728537813769
 20
-2.234268756783027
 10
-0.0740262784538164
 20
-2.223891867924795
 10
-0.0958203615198608
 20
-2.20936153490903
 10
-0.1143678027603874
 20
-2.191857641975445
 10
-0.1301601216302282
 20
-2.170899649339137
 10
-0.1418866174830835
 20
-2.14821193924227
 10
-0.1498610317182339
 20
-2.123161556619337
 10
-0.1534056974734496
 20
-2.09791109015566
 10
-0.1526421295231124
 20
-2.071680059913323
 10
-0.1476497545558803
 20
-2.046730916289408
 10
-0.1382905866346437
 20
-2.022287053916019
 10
-0.1253338405664514
 20
-2.00036945708501
 10
-0.1084172881712892
 20
-1.980373858786308
 10
-0.0888987268616731
 20
-1.963929056569248
 10
-0.0662543890832565
 20
-1.950618551810188
 10
-0.0423821659204989
 20
-1.941560885601249
 10
-0.0165915302232083
 20
-1.936498425131351
 10
0.00887607280925
 20
-1.935856591303652
 10
0.0348225805430855
 20
-1.939598035815361
 10
0.0590387133527745
 20
-1.947395310878882
 10
0.082254741447417
 20
-1.959471419296485
 10
0.1025722287748135
 20
-1.974850435384712
 10
0.1205271181000702
 20
-1.993952905067931
 10
0.1346455019439965
 20
-2.015230331625647
 10
0.1452909154254987
 20
-2.039261277323574
 10
0.1515605672598288
 20
-2.06399694173216
 10
0.1536471876925706
 20
-2.090179631197834
 10
0.1513850255008234
 20
-2.11553491114908
 10
0.1447217274806528
 20
-2.140863410030879
 10
0.1342184896985184
 20
-2.164041172761554
 10
0.1195761817666805
 20
-2.1857376119204
 10
0.1019683641109169
 20
-2.204188136493261
 10
0.0809213287987628
 20
-2.219864168624397
 10
0.0581685532523521
 20
-2.231463719143155
 10
0.0330740667994354
 20
-2.239298087643083
 10
0.0
 20
-2.2429
  0
LWPOLYLINE
  5
122
330
EE
100
AcDbEntity
  8
AM_4
100
AcDbPolyline
 90
       11
 70
     0
 43
0.0
 10
1.728119893508289
 20
-2.08925
 10
1.72919883795411
 20
-2.063500271415994
 10
1.732357931553432
 20
-2.038477417019945
 10
1.737500738903282
 20
-2.014908416855346
 10
1.744395451546023
 20
-1.993430157735215
 10
1.752818165168681
 20
-1.974647082769836
 10
1.762424713099947
 20
-1.959090038706733
 10
1.772897928253394
 20
-1.947235044534593
 10
1.783860089522099
 20
-1.93938904543096
 10
1.794933804621747
 20
-1.935839352109346
 10
1.798448400926248
 20
-1.935600000681053
  0
LINE
  5
123
330
EE
100
AcDbEntity
  8
AM_4
100
AcDbLine
 10
1.984375
 20
-2.300583333333333
 30
0.0
 11
1.984375
 21
-1.92969340098593
 31
0.0
  0
LINE
  5
124
330
EE
100
AcDbEntity
  8
AM_4
100
AcDbLine
 10
-1.984375
 20
-1.92969340098593
 30
0.0
 11
-1.984375
 21
-2.300583333333333
 31
0.0
  0
LINE
  5
125
330
EE
100
AcDbEntity
  8
AM_4
100
AcDbLine
 10
-1.878708333333333
 20
-2.40625
 30
0.0
 11
1.878708333319955
 21
-2.40625
 31
0.0
  0
LINE
  5
126
330
EE
100
AcDbEntity
  8
AM_4
100
AcDbLine
 10
-1.984375
 20
-2.300583333333333
 30
0.0
 11
1.984375
 21
-2.300583333333333
 31
0.0
  0
ARC
  5
127
330
EE
100
AcDbEntity
  8
AM_4
100
AcDbCircle
 10
1.878708333333333
 20
-2.300583333333333
 30
0.0
 40
0.105666666666667
100
AcDbArc
 50
270.0
 51
0.0000008537736463
  0
ARC
  5
128
330
EE
100
AcDbEntity
  8
AM_4
100
AcDbCircle
 10
-1.878708333333333
 20
-2.300583333333333
 30
0.0
 40
0.105666666666667
100
AcDbArc
 50
179.9999991462263
 51
270.0
  0
LINE
  5
129
330
EE
100
AcDbEntity
  8
AM_4
100
AcDbLine
 10
-1.984375
 20
-1.92969340098593
 30
0.0
 11
1.984375
 21
-1.92969340098593
 31
0.0
  0
LINE
  5
12A
330
EE
100
AcDbEntity
  8
AM_4
100
AcDbLine
 10
-1.935975609756098
 20
-1.90175
 30
0.0
 11
1.935975609756098
 21
-1.90175
 31
0.0
  0
LINE
  5
12B
330
EE
100
AcDbEntity
  8
AM_4
100
AcDbLine
 10
-1.935975609756098
 20
-1.90175
 30
0.0
 11
-1.984375
 21
-1.92969340098593
 31
0.0
  0
LINE
  5
12C
330
EE
100
AcDbEntity
  8
AM_4
100
AcDbLine
 10
1.984375
 20
-1.92969340098593
 30
0.0
 11
1.935975609756098
 21
-1.90175
 31
0.0
  0
CIRCLE
  5
12D
330
EE
100
AcDbEntity
  8
AM_5
100
AcDbCircle
 10
0.0000000000000005
 20
-2.089249999999999
 30
0.0
 40
0.1875000000000001
  0
ENDBLK
  5
F1
330
EE
100
AcDbEntity
  8
0
100
AcDbBlockEnd
  0
BLOCK
  5
130
330
12E
100
AcDbEntity
  8
0
100
AcDbBlockBegin
  2
4_070008i_0_in_070833_4
 70
     2
 10
0.0
 20
0.0
 30
0.0
  3
4_070008i_0_in_070833_4
  1

  0
ATTDEF
  5
132
330
12E
100
AcDbEntity
  8
AM_6
100
AcDbText
 10
7.36205
 20
0.7968750000000001
 30
0.0
 40
0.5
  1
S-2000 Insert -Inch
100
AcDbAttributeDefinition
  3

  2
NN
 70
     8
280
     0
  0
ATTDEF
  5
133
330
12E
100
AcDbEntity
  8
AM_6
100
AcDbText
 10
7.36205
 20
0.2968750000000001
 30
0.0
 40
0.5
  1
S-2000 Bearings
100
AcDbAttributeDefinition
  3

  2
NT
 70
     8
280
     0
  0
ATTDEF
  5
134
330
12E
100
AcDbEntity
  8
AM_6
100
AcDbText
 10
7.36205
 20
-0.2031249999999999
 30
0.0
 40
0.5
  1
070008i
100
AcDbAttributeDefinition
  3

  2
NB
 70
     8
280
     0
  0
ATTDEF
  5
135
330
12E
100
AcDbEntity
  8
AM_6
100
AcDbText
 10
7.36205
 20
-0.7031249999999999
 30
0.0
 40
0.5
  1
$PN.i
100
AcDbAttributeDefinition
  3

  2
NBSYN
 70
     8
280
     0
  0
ATTDEF
  5
136
330
12E
100
AcDbEntity
  8
AM_6
100
AcDbText
 10
7.36205
 20
-1.203125
 30
0.0
 40
0.5
  1
070008i
100
AcDbAttributeDefinition
  3

  2
LINA
 70
     8
280
     0
  0
ATTDEF
  5
137
330
12E
100
AcDbEntity
  8
AM_6
100
AcDbText
 10
7.36205
 20
-1.703125
 30
0.0
 40
0.5
  1
2-7/16
100
AcDbAttributeDefinition
  3

  2
SS
 70
     8
280
     0
  0
ATTDEF
  5
138
330
12E
100
AcDbEntity
  8
AM_6
100
AcDbText
 10
7.36205
 20
-2.203125
 30
0.0
 40
0.5
  1
2.94
100
AcDbAttributeDefinition
  3

  2
CC
 70
     8
280
     0
  0
ATTDEF
  5
139
330
12E
100
AcDbEntity
  8
AM_6
100
AcDbText
 10
7.36205
 20
-2.703125
 30
0.0
 40
0.5
  1
2.437500
100
AcDbAttributeDefinition
  3

  2
SS1
 70
     8
280
     0
  0
ATTDEF
  5
13A
330
12E
100
AcDbEntity
  8
AM_6
100
AcDbText
 10
7.36205
 20
-3.203125
 30
0.0
 40
0.5
  1
070008
100
AcDbAttributeDefinition
  3

  2
PN
 70
     8
280
     0
  0
ATTDEF
  5
13B
330
12E
100
AcDbEntity
  8
AM_6
100
AcDbText
 10
7.36205
 20
-3.703125
 30
0.0
 40
0.5
  1
INS-S2-207R
100
AcDbAttributeDefinition
  3

  2
DESCRIPTION
 70
     8
280
     0
  0
ATTDEF
  5
13C
330
12E
100
AcDbEntity
  8
AM_6
100
AcDbText
 10
7.36205
 20
-4.203125
 30
0.0
 40
0.5
  1
Contact Seal
100
AcDbAttributeDefinition
  3

  2
ST
 70
     8
280
     0
  0
ATTDEF
  5
13D
330
12E
100
AcDbEntity
  8
AM_6
100
AcDbText
 10
7.36205
 20
-4.703125
 30
0.0
 40
0.5
  1
1
100
AcDbAttributeDefinition
  3

  2
ST1
 70
     8
280
     0
  0
ATTDEF
  5
13E
330
12E
100
AcDbEntity
  8
AM_6
100
AcDbText
 10
7.36205
 20
-5.203125
 30
0.0
 40
0.5
  1
4.7241
100
AcDbAttributeDefinition
  3

  2
A
 70
     8
280
     0
  0
ATTDEF
  5
13F
330
12E
100
AcDbEntity
  8
AM_6
100
AcDbText
 10
7.36205
 20
-5.703125
 30
0.0
 40
0.5
  1
1-9/32
100
AcDbAttributeDefinition
  3

  2
B
 70
     8
280
     0
  0
ATTDEF
  5
140
330
12E
100
AcDbEntity
  8
AM_6
100
AcDbText
 10
7.36205
 20
-6.203125
 30
0.0
 40
0.5
  1
3-13/64
100
AcDbAttributeDefinition
  3

  2
C
 70
     8
280
     0
  0
ATTDEF
  5
141
330
12E
100
AcDbEntity
  8
AM_6
100
AcDbText
 10
7.36205
 20
-6.703125
 30
0.0
 40
0.5
  1
1.208
100
AcDbAttributeDefinition
  3

  2
D
 70
     8
280
     0
  0
ATTDEF
  5
142
330
12E
100
AcDbEntity
  8
AM_6
100
AcDbText
 10
7.36205
 20
-7.203125
 30
0.0
 40
0.5
  1
3-31/32
100
AcDbAttributeDefinition
  3

  2
E
 70
     8
280
     0
  0
ATTDEF
  5
143
330
12E
100
AcDbEntity
  8
AM_6
100
AcDbText
 10
7.36205
 20
-7.703125
 30
0.0
 40
0.5
  1
0.34375
100
AcDbAttributeDefinition
  3

  2
F
 70
     8
280
     0
  0
ATTDEF
  5
144
330
12E
100
AcDbEntity
  8
AM_6
100
AcDbText
 10
7.36205
 20
-8.203125
 30
0.0
 40
0.5
  1
2
100
AcDbAttributeDefinition
  3

  2
DD
 70
     8
280
     0
  0
ATTDEF
  5
145
330
12E
100
AcDbEntity
  8
AM_6
100
AcDbText
 10
7.36205
 20
-8.703125
 30
0.0
 40
0.5
  1
baldor
100
AcDbAttributeDefinition
  3

  2
COMPANY
 70
     8
280
     0
  0
LINE
  5
146
330
12E
100
AcDbEntity
  8
AM_9
100
AcDbLine
 10
1.332272446943875
 20
-1.88425
 30
0.0
 11
1.104458266192005
 21
-1.88425
 31
0.0
  0
LINE
  5
147
330
12E
100
AcDbEntity
  8
AM_9
100
AcDbLine
 10
1.104534722396004
 20
-2.29425
 30
0.0
 11
1.332272446943875
 21
-2.29425
 31
0.0
  0
LWPOLYLINE
  5
148
330
12E
100
AcDbEntity
  8
AM_9
100
AcDbPolyline
 90
       21
 70
     0
 43
0.0
 10
1.104569619821105
 20
-1.884250000669993
 10
1.094931128467441
 20
-1.885472044956707
 10
1.079821545021566
 20
-1.892008415961445
 10
1.064650438772503
 20
-1.903941953348352
 10
1.049902755151483
 20
-1.921088867244258
 10
1.036230031545063
 20
-1.942857300099845
 10
1.024091098813451
 20
-1.969054719063554
 10
1.014196028176797
 20
-1.998664457501145
 10
1.00706247855446
 20
-2.030946751471267
 10
1.003023764245674
 20
-2.06491858579052
 10
1.002342510102828
 20
-2.099187183116764
 10
1.004927446644613
 20
-2.133172614838395
 10
1.010650638802965
 20
-2.165685670341081
 10
1.019176584577286
 20
-2.196075237305716
 10
1.030245646176242
 20
-2.223725420978762
 10
1.043241419139136
 20
-2.247633753634779
 10
1.057772927911255
 20
-2.26727477450744
 10
1.073087194259603
 20
-2.281875841356008
 10
1.088511874315733
 20
-2.290902513744124
 10
1.103570798769614
 20
-2.29423662145982
 10
1.104556991204386
 20
-2.294249999568045
  0
LWPOLYLINE
  5
149
330
12E
100
AcDbEntity
  8
AM_9
100
AcDbPolyline
 90
       11
 70
     0
 43
0.0
 10
1.104556991204386
 20
-2.294249999568045
 10
1.117594432479565
 20
-2.291757684036892
 10
1.130430134903845
 20
-2.283699551522779
 10
1.141774276191843
 20
-2.270245308349225
 10
1.151515378289319
 20
-2.251846315116115
 10
1.159642084529728
 20
-2.228655325639816
 10
1.166050827977468
 20
-2.201557114121199
 10
1.170784598892302
 20
-2.171025705588854
 10
1.173863421450654
 20
-2.138132391279229
 10
1.175062272492738
 20
-2.113873425049861
 10
1.175461567401798
 20
-2.08925
  0
LWPOLYLINE
  5
14A
330
12E
100
AcDbEntity
  8
AM_9
100
AcDbPolyline
 90
       21
 70
     0
 43
0.0
 10
1.33227992806566
 20
-2.294249999235699
 10
1.322484519753496
 20
-2.292980209059695
 10
1.307476580024336
 20
-2.286333612012716
 10
1.292535745256103
 20
-2.274244593424448
 10
1.278146616819186
 20
-2.256923337945753
 10
1.264903732586876
 20
-2.234956653008369
 10
1.253274252271301
 20
-2.20865388947654
 10
1.243858159770482
 20
-2.178967634597043
 10
1.237124383126524
 20
-2.146665224658343
 10
1.233357859461284
 20
-2.11271346083227
 10
1.232790325309992
 20
-2.078366274228121
 10
1.235350877507819
 20
-2.044328073454837
 10
1.240935527503694
 20
-2.011717286314386
 10
1.249234697637844
 20
-1.981270023359241
 10
1.259984413163226
 20
-1.95369030108056
 10
1.272632178715926
 20
-1.929898575512461
 10
1.28677451853363
 20
-1.910487670881196
 10
1.301747191318942
 20
-1.896131463371869
 10
1.316938967536532
 20
-1.887343948853534
 10
1.33188092404375
 20
-1.884252090498296
 10
1.332269890195177
 20
-1.884250000089267
  0
LWPOLYLINE
  5
14B
330
12E
100
AcDbEntity
  8
AM_9
100
AcDbPolyline
 90
       10
 70
     0
 43
0.0
 10
1.332269890195177
 20
-1.884250000089267
 10
1.345975800620106
 20
-1.886984149912956
 10
1.359002493254403
 20
-1.895326611128521
 10
1.370647220752903
 20
-1.909102085301832
 10
1.380753620768268
 20
-1.927848098465075
 10
1.389245449046793
 20
-1.951314603808705
 10
1.396004047691731
 20
-1.978656823356912
 10
1.40101409445907
 20
-2.009307727275544
 10
1.404270457600154
 20
-2.042250707716885
 10
1.405890623028544
 20
-2.08925
  0
LWPOLYLINE
  5
14C
330
12E
100
AcDbEntity
  8
AM_9
100
AcDbPolyline
 90
       11
 70
     0
 43
0.0
 10
1.175461567401798
 20
-2.08925
 10
1.174688387641965
 20
-2.05511040648739
 10
1.172365911505428
 20
-2.021939783775384
 10
1.168446841157104
 20
-1.990709147180743
 10
1.162894738545294
 20
-1.96222630500495
 10
1.155572673945597
 20
-1.937098906634479
 10
1.146526644412504
 20
-1.916232110081896
 10
1.135694217158819
 20
-1.900189964585988
 10
1.12327713357505
 20
-1.889513940349555
 10
1.109606067799191
 20
-1.884627561660186
 10
1.104569619821105
 20
-1.884250000669993
  0
LINE
  5
14D
330
12E
100
AcDbEntity
  8
AM_9
100
AcDbLine
 10
-1.21875
 20
0.7968750000000001
 30
0.0
 11
-1.21875
 21
-2.40625
 31
0.0
  0
LINE
  5
14E
330
12E
100
AcDbEntity
  8
AM_9
100
AcDbLine
 10
1.21875
 20
-2.40625
 30
0.0
 11
1.21875
 21
0.7968750000000001
 31
0.0
  0
LINE
  5
14F
330
12E
100
AcDbEntity
  8
AM_9
100
AcDbLine
 10
-1.47
 20
0.7968750000000001
 30
0.0
 11
-1.47
 21
0.6062499999999997
 31
0.0
  0
LINE
  5
150
330
12E
100
AcDbEntity
  8
AM_9
100
AcDbLine
 10
1.47
 20
0.6062499999999997
 30
0.0
 11
1.47
 21
0.7968750000000001
 31
0.0
  0
LINE
  5
151
330
12E
100
AcDbEntity
  8
AM_9
100
AcDbLine
 10
1.47
 20
0.7968750000000001
 30
0.0
 11
-1.47
 21
0.7968750000000001
 31
0.0
  0
LWPOLYLINE
  5
152
330
12E
100
AcDbEntity
  8
AM_9
100
AcDbPolyline
 90
       11
 70
     0
 43
0.0
 10
1.405890623028544
 20
-2.08925
 10
1.405035365780322
 20
-2.123475322904128
 10
1.402479054278472
 20
-2.156731371322097
 10
1.398194231252277
 20
-2.188047566945057
 10
1.392184934276705
 20
-2.216599516563767
 10
1.384379043130069
 20
-2.241700744071455
 10
1.374865411534359
 20
-2.262523994117106
 10
1.363655882634405
 20
-2.278476374366815
 10
1.350979522916503
 20
-2.289069507838594
 10
1.337158605461955
 20
-2.293896122837449
 10
1.33227992806566
 20
-2.294249999235699
  0
LWPOLYLINE
  5
153
330
12E
100
AcDbEntity
  8
AM_9
100
AcDbPolyline
 90
       38
 70
     0
 43
0.0
 10
0.2050000000000001
 20
-2.08925
 10
0.2022042683306224
 20
-2.122990685661049
 10
0.1935749584127278
 20
-2.156731371322097
 10
0.1798500751283857
 20
-2.187631657214717
 10
0.1606458858202564
 20
-2.216599516563767
 10
0.1374017519036985
 20
-2.241387301717213
 10
0.1095496369811647
 20
-2.262523994117106
 10
0.0792752790872424
 20
-2.278301395460705
 10
0.0457948063337105
 20
-2.289069507838594
 10
0.0121751037202358
 20
-2.293888136351467
 10
-0.0227816135620965
 20
-2.292980209059695
 10
-0.0558821314104723
 20
-2.286486374406504
 10
-0.0883289329932342
 20
-2.274244593424448
 10
-0.1175252605760592
 20
-2.257216702433933
 10
-0.1442032290522611
 20
-2.234956653008369
 10
-0.1663389312221284
 20
-2.209068028526095
 10
-0.1843251096359675
 20
-2.178967634597043
 10
-0.1966515669066932
 20
-2.147156486969444
 10
-0.2036528075077104
 20
-2.11271346083227
 10
-0.2047366120992951
 20
-2.078861560940028
 10
-0.2000175505186256
 20
-2.044328073454837
 10
-0.1899519196475668
 20
-2.012157404880855
 10
-0.1742564909685179
 20
-1.981270023359241
 10
-0.1540902145684011
 20
-1.954041990717029
 10
-0.1289655904254784
 20
-1.929898575512461
 10
-0.1007485855957664
 20
-1.9107150664423
 10
-0.0687766734482645
 20
-1.896131463371869
 10
-0.0358589283899704
 20
-1.887410615204259
 10
-0.0009257969166899
 20
-1.884252090498296
 10
0.0327604635176695
 20
-1.886884607627422
 10
0.0664734476960605
 20
-1.895326611128521
 10
0.0973793085471208
 20
-1.908855237695534
 10
0.1263899765840246
 20
-1.927848098465075
 10
0.1513112674025117
 20
-1.950939116997086
 10
0.1726098180289598
 20
-1.978656823356912
 10
0.1885697209198567
 20
-2.008835695599555
 10
0.1995396364757796
 20
-2.042250707716885
 10
0.2050000000000001
 20
-2.08925
  0
LINE
  5
154
330
12E
100
AcDbEntity
  8
AM_9
100
AcDbLine
 10
-1.47
 20
-1.77225
 30
0.0
 11
-1.47
 21
-2.40625
 31
0.0
  0
LINE
  5
155
330
12E
100
AcDbEntity
  8
AM_9
100
AcDbLine
 10
1.47
 20
-2.40625
 30
0.0
 11
1.47
 21
-1.77225
 31
0.0
  0
LINE
  5
156
330
12E
100
AcDbEntity
  8
AM_9
100
AcDbLine
 10
1.761515
 20
0.6062499999999997
 30
0.0
 11
-1.761515
 21
0.6062499999999997
 31
0.0
  0
ARC
  5
157
330
12E
100
AcDbEntity
  8
AM_9
100
AcDbCircle
 10
-1.761515
 20
0.4781250000000002
 30
0.0
 40
0.1281249999999995
100
AcDbArc
 50
90.0
 51
180.0
  0
ARC
  5
158
330
12E
100
AcDbEntity
  8
AM_9
100
AcDbCircle
 10
1.761515
 20
0.4781250000000002
 30
0.0
 40
0.1281249999999996
100
AcDbArc
 50
0.0
 51
90.0
  0
LINE
  5
159
330
12E
100
AcDbEntity
  8
AM_9
100
AcDbLine
 10
-1.88964
 20
0.4781249999999996
 30
0.0
 11
-1.88964
 21
0.2295
 31
0.0
  0
LINE
  5
15A
330
12E
100
AcDbEntity
  8
AM_9
100
AcDbLine
 10
1.88964
 20
0.2295
 30
0.0
 11
1.88964
 21
0.4781249999999996
 31
0.0
  0
LINE
  5
15B
330
12E
100
AcDbEntity
  8
AM_9
100
AcDbLine
 10
1.88964
 20
0.4781249999999996
 30
0.0
 11
-1.88964
 21
0.4781249999999996
 31
0.0
  0
ARC
  5
15C
330
12E
100
AcDbEntity
  8
AM_9
100
AcDbCircle
 10
-1.761514999999997
 20
-1.300374999999999
 30
0.0
 40
0.1281250000000027
100
AcDbArc
 50
180.0
 51
215.6222741083643
  0
ARC
  5
15D
330
12E
100
AcDbEntity
  8
AM_9
100
AcDbCircle
 10
1.761514999999997
 20
-1.300374999999999
 30
0.0
 40
0.1281250000000027
100
AcDbArc
 50
324.3777258916357
 51
0.0
  0
LINE
  5
15E
330
12E
100
AcDbEntity
  8
AM_9
100
AcDbLine
 10
-1.88964
 20
-1.05175
 30
0.0
 11
-1.88964
 21
-1.300375
 31
0.0
  0
LINE
  5
15F
330
12E
100
AcDbEntity
  8
AM_9
100
AcDbLine
 10
1.88964
 20
-1.300375
 30
0.0
 11
1.88964
 21
-1.05175
 31
0.0
  0
LINE
  5
160
330
12E
100
AcDbEntity
  8
AM_9
100
AcDbLine
 10
1.88964
 20
-1.300375
 30
0.0
 11
-1.88964
 21
-1.300375
 31
0.0
  0
LINE
  5
161
330
12E
100
AcDbEntity
  8
AM_9
100
AcDbLine
 10
-2.267568
 20
-0.3470624999999986
 30
0.0
 11
-2.267568
 21
-0.4751875000000014
 31
0.0
  0
LINE
  5
162
330
12E
100
AcDbEntity
  8
AM_9
100
AcDbLine
 10
2.267568
 20
-0.4751875000000014
 30
0.0
 11
2.267568
 21
-0.3470624999999986
 31
0.0
  0
LINE
  5
163
330
12E
100
AcDbEntity
  8
AM_9
100
AcDbLine
 10
-2.36205
 20
0.1013749999999998
 30
0.0
 11
-2.36205
 21
-0.2925132918664241
 31
0.0
  0
LINE
  5
164
330
12E
100
AcDbEntity
  8
AM_9
100
AcDbLine
 10
2.36205
 20
-0.2925132918664241
 30
0.0
 11
2.36205
 21
0.1013749999999998
 31
0.0
  0
LINE
  5
165
330
12E
100
AcDbEntity
  8
AM_9
100
AcDbLine
 10
2.233925001909211
 20
0.2295
 30
0.0
 11
-2.233925001909211
 21
0.2295
 31
0.0
  0
ARC
  5
166
330
12E
100
AcDbEntity
  8
AM_9
100
AcDbCircle
 10
-2.233925
 20
0.1013750000000003
 30
0.0
 40
0.1281249999999997
100
AcDbArc
 50
90.0
 51
180.0
  0
ARC
  5
167
330
12E
100
AcDbEntity
  8
AM_9
100
AcDbCircle
 10
2.233925
 20
0.1013750000000003
 30
0.0
 40
0.1281249999999998
100
AcDbArc
 50
0.0
 51
90.0
  0
LINE
  5
168
330
12E
100
AcDbEntity
  8
AM_9
100
AcDbLine
 10
2.36205
 20
0.1013749999999998
 30
0.0
 11
-2.36205
 21
0.1013749999999998
 31
0.0
  0
LINE
  5
169
330
12E
100
AcDbEntity
  8
AM_9
100
AcDbLine
 10
2.267568
 20
-0.3470624999999986
 30
0.0
 11
2.36205
 21
-0.2925132918664241
 31
0.0
  0
LINE
  5
16A
330
12E
100
AcDbEntity
  8
AM_9
100
AcDbLine
 10
-2.36205
 20
-0.2925132918664241
 30
0.0
 11
-2.267568
 21
-0.3470624999999986
 31
0.0
  0
LINE
  5
16B
330
12E
100
AcDbEntity
  8
AM_9
100
AcDbLine
 10
2.36205
 20
-0.2925132918664241
 30
0.0
 11
-2.36205
 21
-0.2925132918664241
 31
0.0
  0
LINE
  5
16C
330
12E
100
AcDbEntity
  8
AM_9
100
AcDbLine
 10
2.267568
 20
-0.3470624999999986
 30
0.0
 11
-2.267568
 21
-0.3470624999999986
 31
0.0
  0
LINE
  5
16D
330
12E
100
AcDbEntity
  8
AM_9
100
AcDbLine
 10
-2.267568
 20
-0.4751875000000014
 30
0.0
 11
-2.36205
 21
-0.5297367081335759
 31
0.0
  0
LINE
  5
16E
330
12E
100
AcDbEntity
  8
AM_9
100
AcDbLine
 10
2.36205
 20
-0.5297367081335759
 30
0.0
 11
2.267568
 21
-0.4751875000000014
 31
0.0
  0
LINE
  5
16F
330
12E
100
AcDbEntity
  8
AM_9
100
AcDbLine
 10
2.267568
 20
-0.4751875000000014
 30
0.0
 11
-2.267568
 21
-0.4751875000000014
 31
0.0
  0
LINE
  5
170
330
12E
100
AcDbEntity
  8
AM_9
100
AcDbLine
 10
2.233925
 20
-1.05175
 30
0.0
 11
-2.233925
 21
-1.05175
 31
0.0
  0
ARC
  5
171
330
12E
100
AcDbEntity
  8
AM_9
100
AcDbCircle
 10
-2.233925000000007
 20
-0.9236250000000069
 30
0.0
 40
0.1281249999999932
100
AcDbArc
 50
180.0
 51
270.0
  0
ARC
  5
172
330
12E
100
AcDbEntity
  8
AM_9
100
AcDbCircle
 10
2.233925
 20
-0.9236250000000004
 30
0.0
 40
0.1281249999999998
100
AcDbArc
 50
270.0
 51
0.0
  0
LINE
  5
173
330
12E
100
AcDbEntity
  8
AM_9
100
AcDbLine
 10
-2.36205
 20
-0.5297367081335759
 30
0.0
 11
-2.36205
 21
-0.9236250000000006
 31
0.0
  0
LINE
  5
174
330
12E
100
AcDbEntity
  8
AM_9
100
AcDbLine
 10
2.36205
 20
-0.9236250000000006
 30
0.0
 11
2.36205
 21
-0.5297367081335759
 31
0.0
  0
LINE
  5
175
330
12E
100
AcDbEntity
  8
AM_9
100
AcDbLine
 10
2.36205
 20
-0.5297367081335759
 30
0.0
 11
-2.36205
 21
-0.5297367081335759
 31
0.0
  0
LINE
  5
176
330
12E
100
AcDbEntity
  8
AM_9
100
AcDbLine
 10
2.36205
 20
-0.9236250000000006
 30
0.0
 11
-2.36205
 21
-0.9236250000000006
 31
0.0
  0
LINE
  5
177
330
12E
100
AcDbEntity
  8
AM_4
100
AcDbLine
 10
-1.47
 20
-1.4285
 30
0.0
 11
-1.47
 21
-1.77225
 31
0.0
  0
LINE
  5
178
330
12E
100
AcDbEntity
  8
AM_4
100
AcDbLine
 10
1.47
 20
-1.77225
 30
0.0
 11
1.47
 21
-1.4285
 31
0.0
  0
LINE
  5
179
330
12E
100
AcDbEntity
  8
AM_4
100
AcDbLine
 10
1.761515
 20
-1.4285
 30
0.0
 11
-1.761515
 21
-1.4285
 31
0.0
  0
ARC
  5
17A
330
12E
100
AcDbEntity
  8
AM_4
100
AcDbCircle
 10
-1.761514999999999
 20
-1.300374999999999
 30
0.0
 40
0.1281250000000012
100
AcDbArc
 50
215.6222741083649
 51
270.0
  0
ARC
  5
17B
330
12E
100
AcDbEntity
  8
AM_4
100
AcDbCircle
 10
1.761514999999999
 20
-1.300374999999999
 30
0.0
 40
0.1281250000000012
100
AcDbArc
 50
270.0
 51
324.3777258916351
  0
ENDBLK
  5
131
330
12E
100
AcDbEntity
  8
0
100
AcDbBlockEnd
  0
BLOCK
  5
17E
330
17C
100
AcDbEntity
  8
0
100
AcDbBlockBegin
  2
5_070833H_0_in_070833_4
 70
     2
 10
0.0
 20
0.0
 30
0.0
  3
5_070833H_0_in_070833_4
  1

  0
ATTDEF
  5
180
330
17C
100
AcDbEntity
  8
AM_6
100
AcDbText
 10
9.25
 20
2.016666666666667
 30
0.0
 40
0.5
  1
TPHU-S2 -(Contact Seal)-Housing
100
AcDbAttributeDefinition
  3

  2
NN
 70
     8
280
     0
  0
ATTDEF
  5
181
330
17C
100
AcDbEntity
  8
AM_6
100
AcDbText
 10
9.25
 20
1.516666666666667
 30
0.0
 40
0.5
  1
S-2000 TPHU Take-Up Bearing -Inch
100
AcDbAttributeDefinition
  3

  2
NT
 70
     8
280
     0
  0
ATTDEF
  5
182
330
17C
100
AcDbEntity
  8
AM_6
100
AcDbText
 10
9.25
 20
1.016666666666667
 30
0.0
 40
0.5
  1
070833H
100
AcDbAttributeDefinition
  3

  2
NB
 70
     8
280
     0
  0
ATTDEF
  5
183
330
17C
100
AcDbEntity
  8
AM_6
100
AcDbText
 10
9.25
 20
0.5166666666666666
 30
0.0
 40
0.5
  1
$PN.H
100
AcDbAttributeDefinition
  3

  2
NBSYN
 70
     8
280
     0
  0
ATTDEF
  5
184
330
17C
100
AcDbEntity
  8
AM_6
100
AcDbText
 10
9.25
 20
0.0166666666666666
 30
0.0
 40
0.5
  1
070833
100
AcDbAttributeDefinition
  3

  2
LINA
 70
     8
280
     0
  0
ATTDEF
  5
185
330
17C
100
AcDbEntity
  8
AM_6
100
AcDbText
 10
9.25
 20
-0.4833333333333334
 30
0.0
 40
0.5
  1
2-7/16
100
AcDbAttributeDefinition
  3

  2
SS
 70
     8
280
     0
  0
ATTDEF
  5
186
330
17C
100
AcDbEntity
  8
AM_6
100
AcDbText
 10
9.25
 20
-0.9833333333333334
 30
0.0
 40
0.5
  1
4.7241
100
AcDbAttributeDefinition
  3

  2
BORE
 70
     8
280
     0
  0
ATTDEF
  5
187
330
17C
100
AcDbEntity
  8
AM_6
100
AcDbText
 10
9.25
 20
-1.483333333333333
 30
0.0
 40
0.5
  1
2.437500
100
AcDbAttributeDefinition
  3

  2
SS1
 70
     8
280
     0
  0
ATTDEF
  5
188
330
17C
100
AcDbEntity
  8
AM_6
100
AcDbText
 10
9.25
 20
-1.983333333333333
 30
0.0
 40
0.5
  1
070833
100
AcDbAttributeDefinition
  3

  2
PN
 70
     8
280
     0
  0
ATTDEF
  5
189
330
17C
100
AcDbEntity
  8
AM_6
100
AcDbText
 10
9.25
 20
-2.483333333333333
 30
0.0
 40
0.5
  1
TPHU-S2-207RE
100
AcDbAttributeDefinition
  3

  2
DESCRIPTION
 70
     8
280
     0
  0
ATTDEF
  5
18A
330
17C
100
AcDbEntity
  8
AM_6
100
AcDbText
 10
9.25
 20
-2.983333333333333
 30
0.0
 40
0.5
  1
Expansion Type
100
AcDbAttributeDefinition
  3

  2
EF
 70
     8
280
     0
  0
ATTDEF
  5
18B
330
17C
100
AcDbEntity
  8
AM_6
100
AcDbText
 10
9.25
 20
-3.483333333333333
 30
0.0
 40
0.5
  1
2
100
AcDbAttributeDefinition
  3

  2
EF1
 70
     8
280
     0
  0
ATTDEF
  5
18C
330
17C
100
AcDbEntity
  8
AM_6
100
AcDbText
 10
9.25
 20
-3.983333333333333
 30
0.0
 40
0.5
  1
Contact Seal
100
AcDbAttributeDefinition
  3

  2
ST
 70
     8
280
     0
  0
ATTDEF
  5
18D
330
17C
100
AcDbEntity
  8
AM_6
100
AcDbText
 10
9.25
 20
-4.483333333333333
 30
0.0
 40
0.5
  1
1
100
AcDbAttributeDefinition
  3

  2
ST1
 70
     8
280
     0
  0
ATTDEF
  5
18E
330
17C
100
AcDbEntity
  8
AM_6
100
AcDbText
 10
9.25
 20
-4.983333333333333
 30
0.0
 40
0.5
  1
3-13/64
100
AcDbAttributeDefinition
  3

  2
A
 70
     8
280
     0
  0
ATTDEF
  5
18F
330
17C
100
AcDbEntity
  8
AM_6
100
AcDbText
 10
9.25
 20
-5.483333333333333
 30
0.0
 40
0.5
  1
3.2031250
100
AcDbAttributeDefinition
  3

  2
A1
 70
     8
280
     0
  0
ATTDEF
  5
190
330
17C
100
AcDbEntity
  8
AM_6
100
AcDbText
 10
9.25
 20
-5.983333333333333
 30
0.0
 40
0.5
  1
2-3/4
100
AcDbAttributeDefinition
  3

  2
B
 70
     8
280
     0
  0
ATTDEF
  5
191
330
17C
100
AcDbEntity
  8
AM_6
100
AcDbText
 10
9.25
 20
-6.483333333333333
 30
0.0
 40
0.5
  1
2.750000
100
AcDbAttributeDefinition
  3

  2
B1
 70
     8
280
     0
  0
ATTDEF
  5
192
330
17C
100
AcDbEntity
  8
AM_6
100
AcDbText
 10
9.25
 20
-6.983333333333333
 30
0.0
 40
0.5
  1
13/16
100
AcDbAttributeDefinition
  3

  2
C
 70
     8
280
     0
  0
ATTDEF
  5
193
330
17C
100
AcDbEntity
  8
AM_6
100
AcDbText
 10
9.25
 20
-7.483333333333333
 30
0.0
 40
0.5
  1
0.812500
100
AcDbAttributeDefinition
  3

  2
C1
 70
     8
280
     0
  0
ATTDEF
  5
194
330
17C
100
AcDbEntity
  8
AM_6
100
AcDbText
 10
9.25
 20
-7.983333333333333
 30
0.0
 40
0.5
  1
6-21/64
100
AcDbAttributeDefinition
  3

  2
D
 70
     8
280
     0
  0
ATTDEF
  5
195
330
17C
100
AcDbEntity
  8
AM_6
100
AcDbText
 10
9.25
 20
-8.483333333333334
 30
0.0
 40
0.5
  1
6.328125
100
AcDbAttributeDefinition
  3

  2
D1
 70
     8
280
     0
  0
ATTDEF
  5
196
330
17C
100
AcDbEntity
  8
AM_6
100
AcDbText
 10
9.25
 20
-8.983333333333334
 30
0.0
 40
0.5
  1
3-21/64
100
AcDbAttributeDefinition
  3

  2
E
 70
     8
280
     0
  0
ATTDEF
  5
197
330
17C
100
AcDbEntity
  8
AM_6
100
AcDbText
 10
9.25
 20
-9.483333333333334
 30
0.0
 40
0.5
  1
3.328125
100
AcDbAttributeDefinition
  3

  2
E1
 70
     8
280
     0
  0
ATTDEF
  5
198
330
17C
100
AcDbEntity
  8
AM_6
100
AcDbText
 10
9.25
 20
-9.983333333333334
 30
0.0
 40
0.5
  1
1-7/16
100
AcDbAttributeDefinition
  3

  2
F
 70
     8
280
     0
  0
ATTDEF
  5
199
330
17C
100
AcDbEntity
  8
AM_6
100
AcDbText
 10
9.25
 20
-10.48333333333333
 30
0.0
 40
0.5
  1
1.437500
100
AcDbAttributeDefinition
  3

  2
F1
 70
     8
280
     0
  0
ATTDEF
  5
19A
330
17C
100
AcDbEntity
  8
AM_6
100
AcDbText
 10
9.25
 20
-10.98333333333333
 30
0.0
 40
0.5
  1
9/16
100
AcDbAttributeDefinition
  3

  2
G
 70
     8
280
     0
  0
ATTDEF
  5
19B
330
17C
100
AcDbEntity
  8
AM_6
100
AcDbText
 10
9.25
 20
-11.48333333333333
 30
0.0
 40
0.5
  1
0.562500
100
AcDbAttributeDefinition
  3

  2
G1
 70
     8
280
     0
  0
ATTDEF
  5
19C
330
17C
100
AcDbEntity
  8
AM_6
100
AcDbText
 10
9.25
 20
-11.98333333333333
 30
0.0
 40
0.5
  1
8-1/2
100
AcDbAttributeDefinition
  3

  2
H
 70
     8
280
     0
  0
ATTDEF
  5
19D
330
17C
100
AcDbEntity
  8
AM_6
100
AcDbText
 10
9.25
 20
-12.48333333333333
 30
0.0
 40
0.5
  1
8.500000
100
AcDbAttributeDefinition
  3

  2
H1
 70
     8
280
     0
  0
ATTDEF
  5
19E
330
17C
100
AcDbEntity
  8
AM_6
100
AcDbText
 10
9.25
 20
-12.98333333333333
 30
0.0
 40
0.5
  1
8-9/32
100
AcDbAttributeDefinition
  3

  2
J
 70
     8
280
     0
  0
ATTDEF
  5
19F
330
17C
100
AcDbEntity
  8
AM_6
100
AcDbText
 10
9.25
 20
-13.48333333333333
 30
0.0
 40
0.5
  1
8.281250
100
AcDbAttributeDefinition
  3

  2
J1
 70
     8
280
     0
  0
ATTDEF
  5
1A0
330
17C
100
AcDbEntity
  8
AM_6
100
AcDbText
 10
9.25
 20
-13.98333333333333
 30
0.0
 40
0.5
  1
3-27/32
100
AcDbAttributeDefinition
  3

  2
K
 70
     8
280
     0
  0
ATTDEF
  5
1A1
330
17C
100
AcDbEntity
  8
AM_6
100
AcDbText
 10
9.25
 20
-14.48333333333333
 30
0.0
 40
0.5
  1
3.843750
100
AcDbAttributeDefinition
  3

  2
K1
 70
     8
280
     0
  0
ATTDEF
  5
1A2
330
17C
100
AcDbEntity
  8
AM_6
100
AcDbText
 10
9.25
 20
-14.98333333333333
 30
0.0
 40
0.5
  1
4-1/16
100
AcDbAttributeDefinition
  3

  2
L
 70
     8
280
     0
  0
ATTDEF
  5
1A3
330
17C
100
AcDbEntity
  8
AM_6
100
AcDbText
 10
9.25
 20
-15.48333333333333
 30
0.0
 40
0.5
  1
4.0625000
100
AcDbAttributeDefinition
  3

  2
L1
 70
     8
280
     0
  0
ATTDEF
  5
1A4
330
17C
100
AcDbEntity
  8
AM_6
100
AcDbText
 10
9.25
 20
-15.98333333333333
 30
0.0
 40
0.5
  1
8
100
AcDbAttributeDefinition
  3

  2
M
 70
     8
280
     0
  0
ATTDEF
  5
1A5
330
17C
100
AcDbEntity
  8
AM_6
100
AcDbText
 10
9.25
 20
-16.48333333333333
 30
0.0
 40
0.5
  1
8.000000
100
AcDbAttributeDefinition
  3

  2
M1
 70
     8
280
     0
  0
ATTDEF
  5
1A6
330
17C
100
AcDbEntity
  8
AM_6
100
AcDbText
 10
9.25
 20
-16.98333333333333
 30
0.0
 40
0.5
  1
1-7/8
100
AcDbAttributeDefinition
  3

  2
N
 70
     8
280
     0
  0
ATTDEF
  5
1A7
330
17C
100
AcDbEntity
  8
AM_6
100
AcDbText
 10
9.25
 20
-17.48333333333333
 30
0.0
 40
0.5
  1
1.875000
100
AcDbAttributeDefinition
  3

  2
N1
 70
     8
280
     0
  0
ATTDEF
  5
1A8
330
17C
100
AcDbEntity
  8
AM_6
100
AcDbText
 10
9.25
 20
-17.98333333333333
 30
0.0
 40
0.5
  1
1-3/4
100
AcDbAttributeDefinition
  3

  2
P
 70
     8
280
     0
  0
ATTDEF
  5
1A9
330
17C
100
AcDbEntity
  8
AM_6
100
AcDbText
 10
9.25
 20
-18.48333333333333
 30
0.0
 40
0.5
  1
1.750000
100
AcDbAttributeDefinition
  3

  2
P1
 70
     8
280
     0
  0
ATTDEF
  5
1AA
330
17C
100
AcDbEntity
  8
AM_6
100
AcDbText
 10
9.25
 20
-18.98333333333333
 30
0.0
 40
0.5
  1
1-1/16
100
AcDbAttributeDefinition
  3

  2
Q
 70
     8
280
     0
  0
ATTDEF
  5
1AB
330
17C
100
AcDbEntity
  8
AM_6
100
AcDbText
 10
9.25
 20
-19.48333333333333
 30
0.0
 40
0.5
  1
1.062500
100
AcDbAttributeDefinition
  3

  2
Q1
 70
     8
280
     0
  0
ATTDEF
  5
1AC
330
17C
100
AcDbEntity
  8
AM_6
100
AcDbText
 10
9.25
 20
-19.98333333333333
 30
0.0
 40
0.5
  1
3-17/32
100
AcDbAttributeDefinition
  3

  2
R
 70
     8
280
     0
  0
ATTDEF
  5
1AD
330
17C
100
AcDbEntity
  8
AM_6
100
AcDbText
 10
9.25
 20
-20.48333333333333
 30
0.0
 40
0.5
  1
3.531250
100
AcDbAttributeDefinition
  3

  2
R1
 70
     8
280
     0
  0
ATTDEF
  5
1AE
330
17C
100
AcDbEntity
  8
AM_6
100
AcDbText
 10
9.25
 20
-20.98333333333333
 30
0.0
 40
0.5
  1
2-5/32
100
AcDbAttributeDefinition
  3

  2
S
 70
     8
280
     0
  0
ATTDEF
  5
1AF
330
17C
100
AcDbEntity
  8
AM_6
100
AcDbText
 10
9.25
 20
-21.48333333333333
 30
0.0
 40
0.5
  1
2.156250
100
AcDbAttributeDefinition
  3

  2
S1
 70
     8
280
     0
  0
ATTDEF
  5
1B0
330
17C
100
AcDbEntity
  8
AM_6
100
AcDbText
 10
9.25
 20
-21.98333333333333
 30
0.0
 40
0.5
  1
5/16
100
AcDbAttributeDefinition
  3

  2
T
 70
     8
280
     0
  0
ATTDEF
  5
1B1
330
17C
100
AcDbEntity
  8
AM_6
100
AcDbText
 10
9.25
 20
-22.48333333333333
 30
0.0
 40
0.5
  1
0.312500
100
AcDbAttributeDefinition
  3

  2
T1
 70
     8
280
     0
  0
ATTDEF
  5
1B2
330
17C
100
AcDbEntity
  8
AM_6
100
AcDbText
 10
9.25
 20
-22.98333333333333
 30
0.0
 40
0.5
  1
1-7/16
100
AcDbAttributeDefinition
  3

  2
U
 70
     8
280
     0
  0
ATTDEF
  5
1B3
330
17C
100
AcDbEntity
  8
AM_6
100
AcDbText
 10
9.25
 20
-23.48333333333333
 30
0.0
 40
0.5
  1
1.437500
100
AcDbAttributeDefinition
  3

  2
U1
 70
     8
280
     0
  0
ATTDEF
  5
1B4
330
17C
100
AcDbEntity
  8
AM_6
100
AcDbText
 10
9.25
 20
-23.98333333333333
 30
0.0
 40
0.5
  1
2-3/4
100
AcDbAttributeDefinition
  3

  2
V
 70
     8
280
     0
  0
ATTDEF
  5
1B5
330
17C
100
AcDbEntity
  8
AM_6
100
AcDbText
 10
9.25
 20
-24.48333333333333
 30
0.0
 40
0.5
  1
2.750000
100
AcDbAttributeDefinition
  3

  2
V1
 70
     8
280
     0
  0
ATTDEF
  5
1B6
330
17C
100
AcDbEntity
  8
AM_6
100
AcDbText
 10
9.25
 20
-24.98333333333333
 30
0.0
 40
0.5
  1
1
100
AcDbAttributeDefinition
  3

  2
W
 70
     8
280
     0
  0
ATTDEF
  5
1B7
330
17C
100
AcDbEntity
  8
AM_6
100
AcDbText
 10
9.25
 20
-25.48333333333333
 30
0.0
 40
0.5
  1
1.000000
100
AcDbAttributeDefinition
  3

  2
W1
 70
     8
280
     0
  0
ATTDEF
  5
1B8
330
17C
100
AcDbEntity
  8
AM_6
100
AcDbText
 10
9.25
 20
-25.98333333333333
 30
0.0
 40
0.5
  1
1/4
100
AcDbAttributeDefinition
  3

  2
X
 70
     8
280
     0
  0
ATTDEF
  5
1B9
330
17C
100
AcDbEntity
  8
AM_6
100
AcDbText
 10
9.25
 20
-26.48333333333333
 30
0.0
 40
0.5
  1
0.250000
100
AcDbAttributeDefinition
  3

  2
X1
 70
     8
280
     0
  0
ATTDEF
  5
1BA
330
17C
100
AcDbEntity
  8
AM_6
100
AcDbText
 10
9.25
 20
-26.98333333333333
 30
0.0
 40
0.5
  1
0.025
100
AcDbAttributeDefinition
  3

  2
Y
 70
     8
280
     0
  0
ATTDEF
  5
1BB
330
17C
100
AcDbEntity
  8
AM_6
100
AcDbText
 10
9.25
 20
-27.48333333333333
 30
0.0
 40
0.5
  1
2-15/16
100
AcDbAttributeDefinition
  3

  2
Z
 70
     8
280
     0
  0
ATTDEF
  5
1BC
330
17C
100
AcDbEntity
  8
AM_6
100
AcDbText
 10
9.25
 20
-27.98333333333333
 30
0.0
 40
0.5
  1
2.937500
100
AcDbAttributeDefinition
  3

  2
Z1
 70
     8
280
     0
  0
ATTDEF
  5
1BD
330
17C
100
AcDbEntity
  8
AM_6
100
AcDbText
 10
9.25
 20
-28.48333333333333
 30
0.0
 40
0.5
  1
baldor
100
AcDbAttributeDefinition
  3

  2
COMPANY
 70
     8
280
     0
  0
LINE
  5
1BE
330
17C
100
AcDbEntity
  8
AM_9
100
AcDbLine
 10
-2.5
 20
0.8124999999999999
 30
0.0
 11
-4.25
 21
0.8124999999999999
 31
0.0
  0
LINE
  5
1BF
330
17C
100
AcDbEntity
  8
AM_9
100
AcDbLine
 10
-2.5
 20
-0.8125000000000001
 30
0.0
 11
-4.25
 21
-0.8125000000000001
 31
0.0
  0
LINE
  5
1C0
330
17C
100
AcDbEntity
  8
AM_9
100
AcDbLine
 10
4.25
 20
0.8124999999999999
 30
0.0
 11
2.5
 21
0.8124999999999999
 31
0.0
  0
LINE
  5
1C1
330
17C
100
AcDbEntity
  8
AM_9
100
AcDbLine
 10
4.25
 20
-0.8125000000000001
 30
0.0
 11
2.5
 21
-0.8125000000000001
 31
0.0
  0
LINE
  5
1C2
330
17C
100
AcDbEntity
  8
AM_9
100
AcDbLine
 10
-2.5
 20
0.8531249999999999
 30
0.0
 11
-2.5
 21
-0.8531250000000002
 31
0.0
  0
LINE
  5
1C3
330
17C
100
AcDbEntity
  8
AM_9
100
AcDbLine
 10
2.5
 20
0.8531249999999999
 30
0.0
 11
2.5
 21
-0.8531250000000002
 31
0.0
  0
LINE
  5
1C4
330
17C
100
AcDbEntity
  8
AM_9
100
AcDbLine
 10
2.5
 20
0.8531249999999999
 30
0.0
 11
-2.5
 21
0.8531249999999999
 31
0.0
  0
LINE
  5
1C5
330
17C
100
AcDbEntity
  8
AM_9
100
AcDbLine
 10
2.5
 20
-0.8531250000000002
 30
0.0
 11
-2.5
 21
-0.8531250000000002
 31
0.0
  0
LINE
  5
1C6
330
17C
100
AcDbEntity
  8
AM_9
100
AcDbLine
 10
-2.770748330835401
 20
0.4440104166666668
 30
0.0
 11
-3.742400571034595
 21
0.4440104166666668
 31
0.0
  0
LINE
  5
1C7
330
17C
100
AcDbEntity
  8
AM_9
100
AcDbLine
 10
3.742400571034596
 20
0.4440104166666668
 30
0.0
 11
2.770748330835401
 21
0.4440104166666668
 31
0.0
  0
LINE
  5
1C8
330
17C
100
AcDbEntity
  8
AM_9
100
AcDbLine
 10
-2.770748330835394
 20
-0.4440104166666021
 30
0.0
 11
-3.742400571034595
 21
-0.4440104166666669
 31
0.0
  0
LINE
  5
1C9
330
17C
100
AcDbEntity
  8
AM_9
100
AcDbLine
 10
3.742400571034596
 20
-0.4440104166666669
 30
0.0
 11
2.770748330835401
 21
-0.444010416666667
 31
0.0
  0
LWPOLYLINE
  5
1CA
330
17C
100
AcDbEntity
  8
AM_9
100
AcDbPolyline
 90
        8
 70
     0
 43
0.0
 10
3.686291656596699
 20
-0.3593750000000001
 10
3.69672016877519
 20
-0.3614849586784912
 10
3.707001262394839
 20
-0.3677219966603513
 10
3.71683347379551
 20
-0.3780530531803895
 10
3.725844080163874
 20
-0.3922451030173231
 10
3.73331554772682
 20
-0.4092053010103985
 10
3.73932338642215
 20
-0.4290330434435238
 10
3.742400571034597
 20
-0.4440104166666667
  0
LWPOLYLINE
  5
1CB
330
17C
100
AcDbEntity
  8
AM_9
100
AcDbPolyline
 90
        5
 70
     0
 43
0.0
 10
3.826167234171331
 20
-0.7657687301551106
 10
3.804852616449352
 20
-0.7043987827604153
 10
3.783920805369349
 20
-0.6340856695955951
 10
3.761181190629094
 20
-0.5412900397238938
 10
3.742400571034596
 20
-0.4440104166666669
  0
LWPOLYLINE
  5
1CC
330
17C
100
AcDbEntity
  8
AM_9
100
AcDbPolyline
 90
        6
 70
     0
 43
0.0
 10
3.999962385133734
 20
-1.073053435987759
 10
3.945533414757375
 20
-1.001309178041607
 10
3.897320973234783
 20
-0.9224254455471415
 10
3.854632574605576
 20
-0.835824608207269
 10
3.828433172387663
 20
-0.7717713502671192
 10
3.826167234171331
 20
-0.7657687301551106
  0
LWPOLYLINE
  5
1CD
330
17C
100
AcDbEntity
  8
AM_9
100
AcDbPolyline
 90
        6
 70
     0
 43
0.0
 10
3.826372202283168
 20
0.7663175091269782
 10
3.847455726081148
 20
0.8192438051700176
 10
3.884526846520989
 20
0.898399078435278
 10
3.926047647187309
 20
0.9714511098400637
 10
3.973255398619275
 20
1.03978522438035
 10
3.999442010520438
 20
1.072437914263596
  0
LWPOLYLINE
  5
1CE
330
17C
100
AcDbEntity
  8
AM_9
100
AcDbPolyline
 90
        5
 70
     0
 43
0.0
 10
3.742400571034596
 20
0.4440104166666668
 10
3.761605350011298
 20
0.5432104196181547
 10
3.78510805777734
 20
0.6384045252464361
 10
3.813924921416188
 20
0.7316067266979801
 10
3.826372202283168
 20
0.7663175091269782
  0
LWPOLYLINE
  5
1CF
330
17C
100
AcDbEntity
  8
AM_9
100
AcDbPolyline
 90
        8
 70
     0
 43
0.0
 10
3.742400571034596
 20
0.4440104166666668
 10
3.7382991375808
 20
0.425038918794704
 10
3.732848672011014
 20
0.4079238270977211
 10
3.726306448121963
 20
0.3931421366236164
 10
3.718905765867951
 20
0.3808460930046262
 10
3.71023666944296
 20
0.3706174801629036
 10
3.701101065977435
 20
0.363613082088681
 10
3.6862916565967
 20
0.3593749999999996
  0
LINE
  5
1D0
330
17C
100
AcDbEntity
  8
AM_9
100
AcDbLine
 10
3.45
 20
0.4499999999999995
 30
0.0
 11
3.45
 21
-0.4499999997533162
 31
0.0
  0
ARC
  5
1D1
330
17C
100
AcDbEntity
  8
AM_9
100
AcDbCircle
 10
3.399999999999999
 20
-0.4499999999999994
 30
0.0
 40
0.0500000000000006
100
AcDbArc
 50
270.0
 51
0.0
  0
ARC
  5
1D2
330
17C
100
AcDbEntity
  8
AM_9
100
AcDbCircle
 10
3.399999999999999
 20
0.4499999999999997
 30
0.0
 40
0.0500000000000003
100
AcDbArc
 50
0.0
 51
90.0
  0
LWPOLYLINE
  5
1D3
330
17C
100
AcDbEntity
  8
AM_9
100
AcDbPolyline
 90
       20
 70
     0
 43
0.0
 10
3.368207702378658
 20
-0.3593750000000001
 10
3.371591923590261
 20
-0.3244629465231888
 10
3.374862123735182
 20
-0.286574226744261
 10
3.377522386576572
 20
-0.2514659900192218
 10
3.37993866399409
 20
-0.2146014367323152
 10
3.38210040345834
 20
-0.1750794319411416
 10
3.383872676041172
 20
-0.1342527791373481
 10
3.385163624849375
 20
-0.093855273501116
 10
3.386008028301543
 20
-0.0528012884875508
 10
3.386383209140527
 20
-0.0101498741879942
 10
3.386249919588667
 20
0.0325769667309511
 10
3.385640191424092
 20
0.0735382278277689
 10
3.384577792279342
 20
0.113992349488192
 10
3.383039252909442
 20
0.154793794983705
 10
3.381095264217653
 20
0.1944708490268492
 10
3.378862182474502
 20
0.2317529037260285
 10
3.376355298851037
 20
0.2674492178460314
 10
3.373559080102991
 20
0.3022537763720366
 10
3.370619775473185
 20
0.3348846136845332
 10
3.368207702378658
 20
0.3593750000000001
  0
LINE
  5
1D4
330
17C
100
AcDbEntity
  8
AM_9
100
AcDbLine
 10
3.4
 20
0.5
 30
0.0
 11
3.4
 21
-0.5
 31
0.0
  0
LWPOLYLINE
  5
1D5
330
17C
100
AcDbEntity
  8
AM_9
100
AcDbPolyline
 90
       16
 70
     0
 43
0.0
 10
3.363899466469804
 20
0.3593750000000001
 10
3.366263315670483
 20
0.3319087563083301
 10
3.369679597419338
 20
0.2878316183581567
 10
3.372861555974798
 20
0.2399737340257059
 10
3.375623010282412
 20
0.1892282065594886
 10
3.377807501675171
 20
0.1360839869160071
 10
3.379327521163134
 20
0.0810329114843411
 10
3.380093106986508
 20
0.025122620373791
 10
3.38004326862209
 20
-0.0307095280019571
 10
3.379214467416242
 20
-0.0863295954877941
 10
3.377655200981991
 20
-0.1406892065834279
 10
3.375425463181998
 20
-0.1931595932395969
 10
3.372652754440562
 20
-0.243379485627408
 10
3.369496732118735
 20
-0.2904248352695261
 10
3.366727985224018
 20
-0.326251886009588
 10
3.363899466469804
 20
-0.3593750000000001
  0
LINE
  5
1D6
330
17C
100
AcDbEntity
  8
AM_9
100
AcDbLine
 10
3.25
 20
-0.5
 30
0.0
 11
3.4
 21
-0.5
 31
0.0
  0
LINE
  5
1D7
330
17C
100
AcDbEntity
  8
AM_9
100
AcDbLine
 10
3.4
 20
0.5
 30
0.0
 11
3.25
 21
0.5
 31
0.0
  0
LWPOLYLINE
  5
1D8
330
17C
100
AcDbEntity
  8
AM_9
100
AcDbPolyline
 90
        6
 70
     0
 43
0.0
 10
-3.826372202283167
 20
-0.7663175091269776
 10
-3.847455726081147
 20
-0.8192438051700174
 10
-3.884526846520988
 20
-0.8983990784352777
 10
-3.926047647187308
 20
-0.9714511098400634
 10
-3.973255398619274
 20
-1.03978522438035
 10
-3.999442010520438
 20
-1.072437914263596
  0
LWPOLYLINE
  5
1D9
330
17C
100
AcDbEntity
  8
AM_9
100
AcDbPolyline
 90
        5
 70
     0
 43
0.0
 10
-3.742400571034595
 20
-0.4440104166666669
 10
-3.761605350011297
 20
-0.5432104196181547
 10
-3.785108057777339
 20
-0.638404525246436
 10
-3.813924921416188
 20
-0.73160672669798
 10
-3.826372202283167
 20
-0.7663175091269776
  0
LWPOLYLINE
  5
1DA
330
17C
100
AcDbEntity
  8
AM_9
100
AcDbPolyline
 90
        8
 70
     0
 43
0.0
 10
-3.742400571034595
 20
-0.4440104166666668
 10
-3.738299137580799
 20
-0.425038918794704
 10
-3.732848672011013
 20
-0.4079238270977211
 10
-3.726306448121963
 20
-0.3931421366236162
 10
-3.718905765867951
 20
-0.3808460930046262
 10
-3.71023666944296
 20
-0.3706174801629037
 10
-3.701101065977435
 20
-0.3636130820886813
 10
-3.686291656596699
 20
-0.3593750000000001
  0
LWPOLYLINE
  5
1DB
330
17C
100
AcDbEntity
  8
AM_9
100
AcDbPolyline
 90
        8
 70
     0
 43
0.0
 10
-3.686291656596699
 20
0.3593749999999996
 10
-3.696720168775189
 20
0.3614849586784907
 10
-3.707001262394839
 20
0.3677219966603507
 10
-3.71683347379551
 20
0.378053053180389
 10
-3.725844080163873
 20
0.3922451030173226
 10
-3.73331554772682
 20
0.4092053010103979
 10
-3.73932338642215
 20
0.429033043443523
 10
-3.742400571034596
 20
0.4440104166666665
  0
LWPOLYLINE
  5
1DC
330
17C
100
AcDbEntity
  8
AM_9
100
AcDbPolyline
 90
        5
 70
     0
 43
0.0
 10
-3.826167234171331
 20
0.7657687301551114
 10
-3.804852616449351
 20
0.7043987827604133
 10
-3.783920805369348
 20
0.634085669595593
 10
-3.761181190629094
 20
0.5412900397238924
 10
-3.742400571034595
 20
0.4440104166666668
  0
LWPOLYLINE
  5
1DD
330
17C
100
AcDbEntity
  8
AM_9
100
AcDbPolyline
 90
        6
 70
     0
 43
0.0
 10
-3.999962385133733
 20
1.073053435987759
 10
-3.945533414757374
 20
1.001309178041606
 10
-3.897320973234782
 20
0.9224254455471398
 10
-3.854632574605575
 20
0.8358246082072672
 10
-3.828433172387663
 20
0.7717713502671172
 10
-3.826167234171331
 20
0.7657687301551114
  0
LINE
  5
1DE
330
17C
100
AcDbEntity
  8
AM_9
100
AcDbLine
 10
-3.349928197403559
 20
-0.3593750000000001
 30
0.0
 11
-3.349928197403559
 21
0.3593750000000001
 31
0.0
  0
LINE
  5
1DF
330
17C
100
AcDbEntity
  8
AM_9
100
AcDbLine
 10
-2.485701295349097
 20
-0.3593749999999999
 30
0.0
 11
-3.988351173478491
 21
-0.3593749999999996
 31
0.0
  0
LINE
  5
1E0
330
17C
100
AcDbEntity
  8
AM_9
100
AcDbLine
 10
3.988351173478491
 20
-0.3593749999999996
 30
0.0
 11
2.485701295349097
 21
-0.3593749999999999
 31
0.0
  0
LWPOLYLINE
  5
1E1
330
17C
100
AcDbEntity
  8
AM_9
100
AcDbPolyline
 90
        5
 70
     0
 43
0.0
 10
3.988351173478491
 20
-0.3593749999999996
 10
3.993420340490419
 20
-0.360743390853846
 10
3.997081621141677
 20
-0.3650811162348769
 10
3.999308209832971
 20
-0.3730447793424397
 10
4.0
 20
-0.3846941010393704
  0
LINE
  5
1E2
330
17C
100
AcDbEntity
  8
AM_9
100
AcDbLine
 10
3.959594639458765
 20
-0.3593749999999999
 30
0.0
 11
3.959594639458765
 21
0.3593750000000002
 31
0.0
  0
LWPOLYLINE
  5
1E3
330
17C
100
AcDbEntity
  8
AM_9
100
AcDbPolyline
 90
        5
 70
     0
 43
0.0
 10
-4.0
 20
-0.3846941010393712
 10
-3.999479379210152
 20
-0.3743351703577019
 10
-3.997664790592857
 20
-0.3664065192029844
 10
-3.994032608405874
 20
-0.3611733902297069
 10
-3.988351173478491
 20
-0.3593749999999996
  0
LINE
  5
1E4
330
17C
100
AcDbEntity
  8
AM_9
100
AcDbLine
 10
-3.959594639458764
 20
-0.3593749999999999
 30
0.0
 11
-3.959594639458764
 21
0.3593750000000002
 31
0.0
  0
LINE
  5
1E5
330
17C
100
AcDbEntity
  8
AM_9
100
AcDbLine
 10
-2.374794398995416
 20
0.4843750000000006
 30
0.0
 11
-4.0
 21
0.4843750000000005
 31
0.0
  0
LINE
  5
1E6
330
17C
100
AcDbEntity
  8
AM_9
100
AcDbLine
 10
-2.485701296918035
 20
0.3593750000000001
 30
0.0
 11
-3.988351172889077
 21
0.3593750000000002
 31
0.0
  0
LWPOLYLINE
  5
1E7
330
17C
100
AcDbEntity
  8
AM_9
100
AcDbPolyline
 90
        5
 70
     0
 43
0.0
 10
-3.988351172889077
 20
0.3593750000000001
 10
-3.993420340054485
 20
0.3607433905759901
 10
-3.997081620863129
 20
0.3650811156693375
 10
-3.999308209766151
 20
0.3730447788848284
 10
-4.0
 20
0.3846941010393718
  0
LINE
  5
1E8
330
17C
100
AcDbEntity
  8
AM_9
100
AcDbLine
 10
4.0
 20
1.197916666666667
 30
0.0
 11
2.374794398995417
 21
1.197916666666667
 31
0.0
  0
LINE
  5
1E9
330
17C
100
AcDbEntity
  8
AM_9
100
AcDbLine
 10
-2.374794398995416
 20
-0.4843749999999999
 30
0.0
 11
-4.0
 21
-0.4843749999999999
 31
0.0
  0
LINE
  5
1EA
330
17C
100
AcDbEntity
  8
AM_9
100
AcDbLine
 10
-2.374794398995416
 20
-1.197916666666667
 30
0.0
 11
-4.0
 21
-1.197916666666667
 31
0.0
  0
LINE
  5
1EB
330
17C
100
AcDbEntity
  8
AM_9
100
AcDbLine
 10
4.0
 20
-1.197916666666667
 30
0.0
 11
2.374794398995416
 21
-1.197916666666667
 31
0.0
  0
LINE
  5
1EC
330
17C
100
AcDbEntity
  8
AM_9
100
AcDbLine
 10
4.0
 20
-0.4843749999999999
 30
0.0
 11
2.374794398995378
 21
-0.4843750000000124
 31
0.0
  0
LINE
  5
1ED
330
17C
100
AcDbEntity
  8
AM_9
100
AcDbLine
 10
-2.374794398995416
 20
1.197916666666667
 30
0.0
 11
-4.0
 21
1.197916666666667
 31
0.0
  0
LINE
  5
1EE
330
17C
100
AcDbEntity
  8
AM_9
100
AcDbLine
 10
3.988351172889078
 20
0.3593750000000002
 30
0.0
 11
2.485701296918035
 21
0.3593750000000001
 31
0.0
  0
LINE
  5
1EF
330
17C
100
AcDbEntity
  8
AM_9
100
AcDbLine
 10
4.0
 20
0.4843750000000005
 30
0.0
 11
2.374794398995416
 21
0.4843750000000006
 31
0.0
  0
LWPOLYLINE
  5
1F0
330
17C
100
AcDbEntity
  8
AM_9
100
AcDbPolyline
 90
        5
 70
     0
 43
0.0
 10
4.0
 20
0.3846941010393711
 10
3.999479379210152
 20
0.3743351703577017
 10
3.997664790592857
 20
0.3664065192029845
 10
3.994032608207617
 20
0.3611733900769033
 10
3.988351172889078
 20
0.3593750000000001
  0
LINE
  5
1F1
330
17C
100
AcDbEntity
  8
AM_9
100
AcDbLine
 10
2.374794398995416
 20
-1.197916666666667
 30
0.0
 11
2.325041068932382
 21
-1.249999999999998
 31
0.0
  0
LWPOLYLINE
  5
1F2
330
17C
100
AcDbEntity
  8
AM_9
100
AcDbPolyline
 90
       10
 70
     0
 43
0.0
 10
3.231354265725904
 20
-0.359375
 10
3.237207862552727
 20
-0.4086743757237495
 10
3.239998630078006
 20
-0.43022284784848
 10
3.242555749717873
 20
-0.449074370264478
 10
3.24491560721753
 20
-0.4658101328366337
 10
3.246883546987235
 20
-0.4793253255320548
 10
3.24843988252262
 20
-0.4897597087464033
 10
3.24947765587559
 20
-0.4965934313245806
 10
3.249954176488139
 20
-0.499704882354927
 10
3.25
 20
-0.4999999999999952
  0
LWPOLYLINE
  5
1F3
330
17C
100
AcDbEntity
  8
AM_9
100
AcDbPolyline
 90
        9
 70
     0
 43
0.0
 10
2.374794398995378
 20
-0.4843750000000124
 10
2.375017602430616
 20
-0.4766500881284905
 10
2.380294436896636
 20
-0.4464203934761249
 10
2.391839615711502
 20
-0.4191187256275447
 10
2.403351775270963
 20
-0.4020258937885666
 10
2.416516871864599
 20
-0.3879007193714037
 10
2.435429620624308
 20
-0.3737890274488746
 10
2.455437123566666
 20
-0.364495776014728
 10
2.485701295349097
 20
-0.3593749999999999
  0
LINE
  5
1F4
330
17C
100
AcDbEntity
  8
AM_9
100
AcDbLine
 10
2.374794398995378
 20
-0.4843750000000124
 30
0.0
 11
2.374794398995416
 21
-1.197916666666667
 31
0.0
  0
LWPOLYLINE
  5
1F5
330
17C
100
AcDbEntity
  8
AM_9
100
AcDbPolyline
 90
       16
 70
     0
 43
0.0
 10
2.161320608150696
 20
-1.249999999999999
 10
2.250079246202417
 20
-1.209029093077411
 10
2.333652958819211
 20
-1.160152944940765
 10
2.387544506981844
 20
-1.121875022248323
 10
2.438679481306775
 20
-1.079470021540029
 10
2.486829122007016
 20
-1.032911399901513
 10
2.530890476066316
 20
-0.9832889181290293
 10
2.571955865293779
 20
-0.9295648709863826
 10
2.609856871202195
 20
-0.8718972926447954
 10
2.645873560343343
 20
-0.8077364504639932
 10
2.678430155279927
 20
-0.7394613369336188
 10
2.707421797415665
 20
-0.6674795673765328
 10
2.725835667680397
 20
-0.6142627506936599
 10
2.742477681690132
 20
-0.5594020664430828
 10
2.757507111936992
 20
-0.5024059026044643
 10
2.770748330835401
 20
-0.444010416666667
  0
LWPOLYLINE
  5
1F6
330
17C
100
AcDbEntity
  8
AM_9
100
AcDbPolyline
 90
        7
 70
     0
 43
0.0
 10
2.839888334864576
 20
-0.3593750000000001
 10
2.821703294863771
 20
-0.3636054828485245
 10
2.808596618359238
 20
-0.3721210584024816
 10
2.796281335781613
 20
-0.3850834090059869
 10
2.785720797001904
 20
-0.4015947338821192
 10
2.776924958005317
 20
-0.4217607912552289
 10
2.770748330835401
 20
-0.444010416666667
  0
LINE
  5
1F7
330
17C
100
AcDbEntity
  8
AM_9
100
AcDbLine
 10
3.25
 20
-1.249999999999999
 30
0.0
 11
3.25
 21
-0.5000000000000001
 31
0.0
  0
LINE
  5
1F8
330
17C
100
AcDbEntity
  8
AM_9
100
AcDbLine
 10
-2.325041068932381
 20
-1.249999999999999
 30
0.0
 11
-2.374794398995416
 21
-1.197916666666667
 31
0.0
  0
LINE
  5
1F9
330
17C
100
AcDbEntity
  8
AM_9
100
AcDbLine
 10
-2.374794398995416
 20
-1.197916666666667
 30
0.0
 11
-2.374794398995416
 21
-0.4843749999999999
 31
0.0
  0
LWPOLYLINE
  5
1FA
330
17C
100
AcDbEntity
  8
AM_9
100
AcDbPolyline
 90
       11
 70
     0
 43
0.0
 10
-2.485701295349097
 20
-0.3593749999999999
 10
-2.479834946383726
 20
-0.3595680700387227
 10
-2.457382619015254
 20
-0.3638588502106525
 10
-2.435447774333646
 20
-0.3737757033267559
 10
-2.418825368885162
 20
-0.3858430647705416
 10
-2.403589574012772
 20
-0.4017214320824363
 10
-2.393529150970078
 20
-0.4162174851896769
 10
-2.385118817675216
 20
-0.4328743082803912
 10
-2.379854979974559
 20
-0.4479675977617144
 10
-2.37633811795629
 20
-0.4641110779310541
 10
-2.374794398995416
 20
-0.4843749999999999
  0
LWPOLYLINE
  5
1FB
330
17C
100
AcDbEntity
  8
AM_9
100
AcDbPolyline
 90
        9
 70
     0
 43
0.0
 10
-2.770748330835394
 20
-0.4440104166666021
 10
-2.776158899470952
 20
-0.4239887670170235
 10
-2.782216409215329
 20
-0.4086629715047019
 10
-2.789333448371664
 20
-0.3952147075454486
 10
-2.798378655864953
 20
-0.3824760102418362
 10
-2.808187113732773
 20
-0.3724552273063447
 10
-2.819969808448472
 20
-0.3644625678124842
 10
-2.832071661269214
 20
-0.3601575842195184
 10
-2.839888334864576
 20
-0.3593750000000001
  0
LWPOLYLINE
  5
1FC
330
17C
100
AcDbEntity
  8
AM_9
100
AcDbPolyline
 90
       13
 70
     0
 43
0.0
 10
-2.770748330835401
 20
-0.4440104166666668
 10
-2.747787612905636
 20
-0.5401764826201381
 10
-2.719882317788592
 20
-0.632230021420148
 10
-2.68586199206588
 20
-0.7221709392453024
 10
-2.646529076707207
 20
-0.8065039002525224
 10
-2.603361639324501
 20
-0.8824096348444056
 10
-2.555328291728423
 20
-0.9523251695384598
 10
-2.501124153104565
 20
-1.017610768818782
 10
-2.442142184145935
 20
-1.07636876898096
 10
-2.378744527581978
 20
-1.128547357971836
 10
-2.311097176668166
 20
-1.174492573336311
 10
-2.238109758362656
 20
-1.21515266701799
 10
-2.161320608150696
 20
-1.249999999999999
  0
LINE
  5
1FD
330
17C
100
AcDbEntity
  8
AM_9
100
AcDbLine
 10
-3.25
 20
-0.3593750000000001
 30
0.0
 11
-3.25
 21
-1.249999999999999
 31
0.0
  0
LINE
  5
1FE
330
17C
100
AcDbEntity
  8
AM_9
100
AcDbLine
 10
-2.374794398995418
 20
1.197916666666666
 30
0.0
 11
-2.32504106893238
 21
1.25
 31
0.0
  0
LWPOLYLINE
  5
1FF
330
17C
100
AcDbEntity
  8
AM_9
100
AcDbPolyline
 90
       16
 70
     0
 43
0.0
 10
-2.161320608150692
 20
1.25
 10
-2.250079246202414
 20
1.209029093077413
 10
-2.333652958819209
 20
1.160152944940767
 10
-2.387544506981842
 20
1.121875022248325
 10
-2.438679481306773
 20
1.079470021540031
 10
-2.486829122007014
 20
1.032911399901514
 10
-2.530890476066315
 20
0.9832889181290311
 10
-2.571955865293777
 20
0.9295648709863844
 10
-2.609856871202194
 20
0.8718972926447973
 10
-2.645873560343341
 20
0.8077364504639952
 10
-2.678430155279925
 20
0.7394613369336211
 10
-2.707421797415665
 20
0.6674795673765354
 10
-2.725835667680397
 20
0.6142627506936617
 10
-2.742477681690132
 20
0.5594020664430838
 10
-2.757507111936992
 20
0.5024059026044645
 10
-2.770748330835401
 20
0.4440104166666663
  0
LWPOLYLINE
  5
200
330
17C
100
AcDbEntity
  8
AM_9
100
AcDbPolyline
 90
        8
 70
     0
 43
0.0
 10
-2.839888334864576
 20
0.3593749999999996
 10
-2.824254450252106
 20
0.3625190600370878
 10
-2.808971641760551
 20
0.371795114181436
 10
-2.796685640370079
 20
0.3845831319964116
 10
-2.785690601070864
 20
0.4016232849443771
 10
-2.778598272105058
 20
0.417244629074804
 10
-2.772898592633838
 20
0.434897616622046
 10
-2.770748330835401
 20
0.4440104166666668
  0
LWPOLYLINE
  5
201
330
17C
100
AcDbEntity
  8
AM_9
100
AcDbPolyline
 90
        9
 70
     0
 43
0.0
 10
-2.374794398995416
 20
0.4843750000000006
 10
-2.3754925605248
 20
0.4707252391930183
 10
-2.381930959696477
 20
0.4412812434020355
 10
-2.394701476801601
 20
0.414283071917667
 10
-2.40729439712942
 20
0.3973191369488491
 10
-2.421495325732531
 20
0.3835854014023583
 10
-2.441433109775683
 20
0.3704593090589151
 10
-2.46232103157646
 20
0.3624254916985267
 10
-2.485701296918036
 20
0.3593750000000001
  0
LINE
  5
202
330
17C
100
AcDbEntity
  8
AM_9
100
AcDbLine
 10
-2.374794398995416
 20
0.4843750000000006
 30
0.0
 11
-2.374794398995416
 21
1.197916666666667
 31
0.0
  0
LINE
  5
203
330
17C
100
AcDbEntity
  8
AM_9
100
AcDbLine
 10
-3.25
 20
1.25
 30
0.0
 11
-3.25
 21
0.3593750000000001
 31
0.0
  0
LINE
  5
204
330
17C
100
AcDbEntity
  8
AM_9
100
AcDbLine
 10
2.32504106893238
 20
1.25
 30
0.0
 11
2.374794398995416
 21
1.197916666666668
 31
0.0
  0
LWPOLYLINE
  5
205
330
17C
100
AcDbEntity
  8
AM_9
100
AcDbPolyline
 90
        9
 70
     0
 43
0.0
 10
2.770748330835401
 20
0.4440104166666668
 10
2.773481611713567
 20
0.4327403529480763
 10
2.778725189292113
 20
0.4169107167232581
 10
2.785100437862456
 20
0.4027481371639006
 10
2.793311847293406
 20
0.3891248769549268
 10
2.802378847826124
 20
0.377970325124766
 10
2.813473288486241
 20
0.3683770863943194
 10
2.825031487532075
 20
0.3621961841357308
 10
2.839888334864576
 20
0.3593749999999996
  0
LWPOLYLINE
  5
206
330
17C
100
AcDbEntity
  8
AM_9
100
AcDbPolyline
 90
       13
 70
     0
 43
0.0
 10
2.770748330835401
 20
0.4440104166666664
 10
2.747787612905636
 20
0.5401764826201374
 10
2.719882317788592
 20
0.6322300214201473
 10
2.68586199206588
 20
0.7221709392453018
 10
2.646529076707207
 20
0.806503900252522
 10
2.603361639324501
 20
0.8824096348444054
 10
2.555328291728423
 20
0.9523251695384595
 10
2.501124153104565
 20
1.017610768818781
 10
2.442142184145935
 20
1.076368768980959
 10
2.378744527581977
 20
1.128547357971836
 10
2.311097176668163
 20
1.174492573336311
 10
2.238109758362653
 20
1.215152667017991
 10
2.161320608150692
 20
1.25
  0
LINE
  5
207
330
17C
100
AcDbEntity
  8
AM_9
100
AcDbLine
 10
2.374794398995417
 20
1.197916666666667
 30
0.0
 11
2.374794398995416
 21
0.4843750000000006
 31
0.0
  0
LWPOLYLINE
  5
208
330
17C
100
AcDbEntity
  8
AM_9
100
AcDbPolyline
 90
       10
 70
     0
 43
0.0
 10
2.485701296918035
 20
0.3593750000000001
 10
2.465223346546354
 20
0.361717732367373
 10
2.44497719722194
 20
0.3687167055525643
 10
2.426603752899976
 20
0.379631948600449
 10
2.409502833886711
 20
0.3948706228037911
 10
2.398144478722221
 20
0.4090392333128557
 10
2.388391171008676
 20
0.4256695043908161
 10
2.382139753092774
 20
0.4406978188607266
 10
2.377624179334749
 20
0.4570076514274695
 10
2.374794398995416
 20
0.4843750000000006
  0
LINE
  5
209
330
17C
100
AcDbEntity
  8
AM_9
100
AcDbLine
 10
3.25
 20
0.5
 30
0.0
 11
3.25
 21
1.25
 31
0.0
  0
LWPOLYLINE
  5
20A
330
17C
100
AcDbEntity
  8
AM_9
100
AcDbPolyline
 90
       10
 70
     0
 43
0.0
 10
3.25
 20
0.5
 10
3.249737390810993
 20
0.4982929616337945
 10
3.248960277903654
 20
0.4931966011600099
 10
3.247641982010072
 20
0.4844388762497919
 10
3.245839113323878
 20
0.4721986336099917
 10
3.243669627978182
 20
0.457049338407495
 10
3.241149923304428
 20
0.4388084152979521
 10
3.238261994753854
 20
0.4169425477769356
 10
3.235157062675516
 20
0.3920984827556384
 10
3.231354265725905
 20
0.3593750000000001
  0
LINE
  5
20B
330
17C
100
AcDbEntity
  8
AM_9
100
AcDbLine
 10
2.36205
 20
-1.375
 30
0.0
 11
2.36205
 21
1.375
 31
0.0
  0
LINE
  5
20C
330
17C
100
AcDbEntity
  8
AM_9
100
AcDbLine
 10
-2.36205
 20
1.375
 30
0.0
 11
-2.36205
 21
-1.375
 31
0.0
  0
LWPOLYLINE
  5
20D
330
17C
100
AcDbEntity
  8
AM_9
100
AcDbPolyline
 90
       10
 70
     0
 43
0.0
 10
2.006391696276898
 20
-1.375
 10
2.032141967381332
 20
-1.373993891264266
 10
2.057892238485766
 20
-1.37123299690623
 10
2.089817703378955
 20
-1.365733969331032
 10
2.121207799042668
 20
-1.358289937102631
 10
2.182522237129035
 20
-1.338076768554397
 10
2.241277157348194
 20
-1.31083901785338
 10
2.268861929287198
 20
-1.294617391115857
 10
2.294595210966366
 20
-1.276688395228895
 10
2.325041068932381
 20
-1.249999999999999
  0
LWPOLYLINE
  5
20E
330
17C
100
AcDbEntity
  8
AM_9
100
AcDbPolyline
 90
       16
 70
     0
 43
0.0
 10
2.161320608150696
 20
-1.249999999999999
 10
2.119082870330371
 20
-1.265730211775635
 10
2.074745175045257
 20
-1.27967123580691
 10
1.980989075562583
 20
-1.303192057878978
 10
1.898222982923157
 20
-1.3192016960494
 10
1.81310299128243
 20
-1.332283745869535
 10
1.725397890926911
 20
-1.343007435567765
 10
1.636101388478821
 20
-1.351624976112649
 10
1.543837697730981
 20
-1.358568264999903
 10
1.450363182516238
 20
-1.363940045841194
 10
1.355464545902642
 20
-1.368001175826822
 10
1.259617610698201
 20
-1.370938523632064
 10
1.071311621416911
 20
-1.374135420751209
 10
0.8799183938282051
 20
-1.374999564091542
 10
0.879911981537434
 20
-1.374999565230742
 10
0.8749999999999948
 20
-1.375
  0
LINE
  5
20F
330
17C
100
AcDbEntity
  8
AM_9
100
AcDbLine
 10
2.161320608150696
 20
-1.249999999999999
 30
0.0
 11
3.25
 21
-1.249999999999999
 31
0.0
  0
ARC
  5
210
330
17C
100
AcDbEntity
  8
AM_9
100
AcDbCircle
 10
3.125
 20
-1.25
 30
0.0
 40
0.1250000000000004
100
AcDbArc
 50
270.0
 51
0.0
  0
LWPOLYLINE
  5
211
330
17C
100
AcDbEntity
  8
AM_9
100
AcDbPolyline
 90
       14
 70
     0
 43
0.0
 10
-2.161320608150693
 20
1.25
 10
-2.119023825606809
 20
1.265757225510194
 10
-2.074745175045254
 20
1.279671235806911
 10
-1.98098907556258
 20
1.303192057878979
 10
-1.869724091639003
 20
1.323976441307106
 10
-1.75437940759954
 20
1.339787276706285
 10
-1.636101388478814
 20
1.351624976112649
 10
-1.512596650427167
 20
1.360548059214331
 10
-1.386959929472694
 20
1.366806408453301
 10
-1.259617610698192
 20
1.370938523632064
 10
-1.071311621416902
 20
1.374135420751209
 10
-0.8799183938282278
 20
1.374999564091541
 10
-0.8799119815374382
 20
1.374999565230742
 10
-0.8749999999999947
 20
1.375
  0
LINE
  5
212
330
17C
100
AcDbEntity
  8
AM_9
100
AcDbLine
 10
-2.161320608150693
 20
1.25
 30
0.0
 11
-3.25
 21
1.25
 31
0.0
  0
LWPOLYLINE
  5
213
330
17C
100
AcDbEntity
  8
AM_9
100
AcDbPolyline
 90
       10
 70
     0
 43
0.0
 10
-2.006391696276897
 20
1.375
 10
-2.032141967381344
 20
1.373993891264266
 10
-2.05789223848579
 20
1.371232996906226
 10
-2.089817703378981
 20
1.365733969331027
 10
-2.121207799042697
 20
1.358289937102625
 10
-2.182522237129068
 20
1.338076768554386
 10
-2.241277157348228
 20
1.310839017853362
 10
-2.268861929287231
 20
1.294617391115836
 10
-2.2945952109664
 20
1.27668839522887
 10
-2.325041068932381
 20
1.25
  0
ARC
  5
214
330
17C
100
AcDbEntity
  8
AM_9
100
AcDbCircle
 10
-3.124999999999999
 20
1.249999999999999
 30
0.0
 40
0.1250000000000011
100
AcDbArc
 50
90.0
 51
180.0
  0
LWPOLYLINE
  5
215
330
17C
100
AcDbEntity
  8
AM_9
100
AcDbPolyline
 90
       14
 70
     0
 43
0.0
 10
0.8749999999999973
 20
1.375
 10
0.8799119815374918
 20
1.374999565230742
 10
1.001487991319926
 20
1.374668010075051
 10
1.122217981892856
 20
1.37355034192318
 10
1.241793954263634
 20
1.371376356040203
 10
1.360105560529538
 20
1.367830241725934
 10
1.477554574677991
 20
1.3625331957789
 10
1.593292816748296
 20
1.355069914693559
 10
1.709445922814373
 20
1.344707731176584
 10
1.823000431918354
 20
1.33091000000116
 10
1.934704591527701
 20
1.312622733937661
 10
2.041753487424148
 20
1.288745563592401
 10
2.103065194911802
 20
1.271027995899477
 10
2.161320608150691
 20
1.25
  0
LWPOLYLINE
  5
216
330
17C
100
AcDbEntity
  8
AM_9
100
AcDbPolyline
 90
       10
 70
     0
 43
0.0
 10
2.325041068932381
 20
1.25
 10
2.287941145390351
 20
1.281639886160036
 10
2.243433918368428
 20
1.309662470269578
 10
2.211193961827876
 20
1.325871021210981
 10
2.177174637996884
 20
1.340148612036167
 10
2.140551567013036
 20
1.352736775075803
 10
2.102495144485796
 20
1.362963925516114
 10
2.069576747353282
 20
1.36947322964708
 10
2.03561074385913
 20
1.373717174932158
 10
2.006391696276897
 20
1.375
  0
LINE
  5
217
330
17C
100
AcDbEntity
  8
AM_9
100
AcDbLine
 10
2.161320608150691
 20
1.25
 30
0.0
 11
3.25
 21
1.25
 31
0.0
  0
ARC
  5
218
330
17C
100
AcDbEntity
  8
AM_9
100
AcDbCircle
 10
3.124999999999999
 20
1.249999999999999
 30
0.0
 40
0.1250000000000009
100
AcDbArc
 50
0.0
 51
90.0
  0
LWPOLYLINE
  5
219
330
17C
100
AcDbEntity
  8
AM_9
100
AcDbPolyline
 90
       10
 70
     0
 43
0.0
 10
-2.325041068932381
 20
-1.249999999999999
 10
-2.287941145390333
 20
-1.281639886160048
 10
-2.243433918368385
 20
-1.309662470269601
 10
-2.211304983650321
 20
-1.325817185511664
 10
-2.177174637996836
 20
-1.340148612036184
 10
-2.140697939849259
 20
-1.352686917008296
 10
-2.102495144485745
 20
-1.362963925516125
 10
-2.06957674735325
 20
-1.369473229647084
 10
-2.035610743859118
 20
-1.373717174932158
 10
-2.006391696276898
 20
-1.375
  0
LINE
  5
21A
330
17C
100
AcDbEntity
  8
AM_9
100
AcDbLine
 10
-2.161320608150696
 20
-1.249999999999999
 30
0.0
 11
-3.25
 21
-1.249999999999999
 31
0.0
  0
LWPOLYLINE
  5
21B
330
17C
100
AcDbEntity
  8
AM_9
100
AcDbPolyline
 90
       14
 70
     0
 43
0.0
 10
-0.8750000000000024
 20
-1.375
 10
-0.8799119815374761
 20
-1.374999565230742
 10
-1.00148799131992
 20
-1.374668010075052
 10
-1.122217981892871
 20
-1.373550341923181
 10
-1.241725694104431
 20
-1.371376209659073
 10
-1.360105560529554
 20
-1.367830241725934
 10
-1.477467008442191
 20
-1.362534843977098
 10
-1.593292816748311
 20
-1.355069914693558
 10
-1.709305174846033
 20
-1.344714722481894
 10
-1.823000431918369
 20
-1.330910000001158
 10
-1.93440601449909
 20
-1.312650930899179
 10
-2.041753487424162
 20
-1.288745563592398
 10
-2.103065194911812
 20
-1.271027995899474
 10
-2.161320608150696
 20
-1.249999999999999
  0
ARC
  5
21C
330
17C
100
AcDbEntity
  8
AM_9
100
AcDbCircle
 10
-3.125
 20
-1.25
 30
0.0
 40
0.1250000000000004
100
AcDbArc
 50
180.0
 51
270.0
  0
LINE
  5
21D
330
17C
100
AcDbEntity
  8
AM_7
100
AcDbLine
 10
-0.1725
 20
0.0
 30
0.0
 11
4.0121875
 21
0.0
 31
0.0
  0
LINE
  5
21E
330
17C
100
AcDbEntity
  8
AM_7
100
AcDbLine
 10
0.0
 20
2.016666666666667
 30
0.0
 11
0.0
 21
-2.56640625
 31
0.0
  0
LWPOLYLINE
  5
21F
330
17C
100
AcDbEntity
  8
AM_4
100
AcDbPolyline
 90
       11
 70
     0
 43
0.0
 10
-4.25
 20
-0.333490985884667
 10
-4.248897023153217
 20
-0.2755101806950427
 10
-4.246363482900667
 20
-0.2155353504267923
 10
-4.243407007658949
 20
-0.1531264372972923
 10
-4.240946756134024
 20
-0.0893412490711071
 10
-4.239626420505591
 20
-0.0230416155987308
 10
-4.239880700324048
 20
0.0439103292031613
 10
-4.241713599573247
 20
0.112047711378034
 10
-4.244650770498223
 20
0.1798527122026278
 10
-4.248229437947238
 20
0.2575324104704223
 10
-4.25
 20
0.3334909858846667
  0
LINE
  5
220
330
17C
100
AcDbEntity
  8
AM_4
100
AcDbLine
 10
-4.25
 20
-1.375
 30
0.0
 11
-4.25
 21
-0.333490985884667
 31
0.0
  0
LINE
  5
221
330
17C
100
AcDbEntity
  8
AM_4
100
AcDbLine
 10
-4.25
 20
0.3334909858846667
 30
0.0
 11
-4.25
 21
1.375
 31
0.0
  0
LWPOLYLINE
  5
222
330
17C
100
AcDbEntity
  8
AM_4
100
AcDbPolyline
 90
       11
 70
     0
 43
0.0
 10
4.25
 20
0.3334909858846667
 10
4.248897023153217
 20
0.2755101806950423
 10
4.246363482900668
 20
0.2155353504267915
 10
4.243407007658949
 20
0.1531264372972914
 10
4.240946756134024
 20
0.0893412490711061
 10
4.239626420505592
 20
0.0230416155987297
 10
4.239880700324048
 20
-0.0439103292031623
 10
4.241713599573247
 20
-0.1120477113780349
 10
4.244650770498223
 20
-0.1798527122026286
 10
4.248229437947238
 20
-0.2575324104704229
 10
4.25
 20
-0.333490985884667
  0
LINE
  5
223
330
17C
100
AcDbEntity
  8
AM_4
100
AcDbLine
 10
4.25
 20
0.3334909858846667
 30
0.0
 11
4.25
 21
1.375
 31
0.0
  0
LINE
  5
224
330
17C
100
AcDbEntity
  8
AM_4
100
AcDbLine
 10
4.25
 20
-1.375
 30
0.0
 11
4.25
 21
-0.333490985884667
 31
0.0
  0
LWPOLYLINE
  5
225
330
17C
100
AcDbEntity
  8
AM_4
100
AcDbPolyline
 90
        5
 70
     0
 43
0.0
 10
4.25
 20
1.302393144935464
 10
4.246079148303392
 20
1.286620618288065
 10
4.234115223501504
 20
1.269334196580296
 10
4.217175378072733
 20
1.253672620534364
 10
4.194055832676247
 20
1.237901273511144
  0
LINE
  5
226
330
17C
100
AcDbEntity
  8
AM_4
100
AcDbLine
 10
4.25
 20
-1.375
 30
0.0
 11
-4.25
 21
-1.375
 31
0.0
  0
LWPOLYLINE
  5
227
330
17C
100
AcDbEntity
  8
AM_4
100
AcDbPolyline
 90
        5
 70
     0
 43
0.0
 10
-4.25
 20
-1.302393144935465
 10
-4.246079148303392
 20
-1.286620618288066
 10
-4.234115223501504
 20
-1.269334196580296
 10
-4.217175378072733
 20
-1.253672620534366
 10
-4.194055832676248
 20
-1.237901273511145
  0
LWPOLYLINE
  5
228
330
17C
100
AcDbEntity
  8
AM_4
100
AcDbPolyline
 90
        5
 70
     0
 43
0.0
 10
4.194055832676247
 20
-1.237901273511145
 10
4.218878626468261
 20
-1.255035833216562
 10
4.237177371579002
 20
-1.272904219579103
 10
4.246672194451515
 20
-1.287915023262026
 10
4.25
 20
-1.302393144935465
  0
LINE
  5
229
330
17C
100
AcDbEntity
  8
AM_4
100
AcDbLine
 10
4.25
 20
1.375
 30
0.0
 11
-4.25
 21
1.375
 31
0.0
  0
LWPOLYLINE
  5
22A
330
17C
100
AcDbEntity
  8
AM_4
100
AcDbPolyline
 90
        5
 70
     0
 43
0.0
 10
-4.194055832676248
 20
1.237901273511145
 10
-4.218878626468262
 20
1.255035833216562
 10
-4.237177371579003
 20
1.272904219579103
 10
-4.246672194451515
 20
1.287915023262026
 10
-4.25
 20
1.302393144935464
  0
LWPOLYLINE
  5
22B
330
17C
100
AcDbEntity
  8
AM_4
100
AcDbPolyline
 90
        5
 70
     0
 43
0.0
 10
4.194055832676247
 20
-1.237901273511145
 10
4.125259298226683
 20
-1.191742036287869
 10
4.061173514797312
 20
-1.137702461974486
 10
4.000599711565749
 20
-1.073785171546543
 10
3.999962385133734
 20
-1.073053435987759
  0
LINE
  5
22C
330
17C
100
AcDbEntity
  8
AM_4
100
AcDbLine
 10
4.194055832676247
 20
-1.237901273511145
 30
0.0
 11
4.194055832676247
 21
1.237901273511144
 31
0.0
  0
LWPOLYLINE
  5
22D
330
17C
100
AcDbEntity
  8
AM_4
100
AcDbPolyline
 90
        6
 70
     0
 43
0.0
 10
3.999442010520438
 20
1.072437914263596
 10
4.024979048280419
 20
1.101255947544473
 10
4.063949404935157
 20
1.14030284819969
 10
4.105007361875633
 20
1.175962007073337
 10
4.14854551531135
 20
1.208599078702088
 10
4.194055832676247
 20
1.237901273511144
  0
LWPOLYLINE
  5
22E
330
17C
100
AcDbEntity
  8
AM_4
100
AcDbPolyline
 90
        6
 70
     0
 43
0.0
 10
-3.999442010520438
 20
-1.072437914263596
 10
-4.024979048280418
 20
-1.101255947544473
 10
-4.063949404935156
 20
-1.14030284819969
 10
-4.105007361875632
 20
-1.175962007073337
 10
-4.14854551531135
 20
-1.208599078702087
 10
-4.194055832676247
 20
-1.237901273511145
  0
LWPOLYLINE
  5
22F
330
17C
100
AcDbEntity
  8
AM_4
100
AcDbPolyline
 90
        5
 70
     0
 43
0.0
 10
-4.194055832676248
 20
1.237901273511145
 10
-4.125259298226681
 20
1.191742036287869
 10
-4.061173514797312
 20
1.137702461974485
 10
-4.000599711565749
 20
1.073785171546542
 10
-3.999962385133733
 20
1.073053435987759
  0
LINE
  5
230
330
17C
100
AcDbEntity
  8
AM_4
100
AcDbLine
 10
-4.194055832676247
 20
-1.237901273511145
 30
0.0
 11
-4.194055832676248
 21
1.237901273511145
 31
0.0
  0
LINE
  5
231
330
17C
100
AcDbEntity
  8
AM_4
100
AcDbLine
 10
2.125
 20
0.4568809849129203
 30
0.0
 11
2.125
 21
1.375
 31
0.0
  0
LINE
  5
232
330
17C
100
AcDbEntity
  8
AM_4
100
AcDbLine
 10
2.125
 20
-1.375
 30
0.0
 11
2.125
 21
-0.45688098491292
 31
0.0
  0
LINE
  5
233
330
17C
100
AcDbEntity
  8
AM_4
100
AcDbLine
 10
-2.124999999999999
 20
0.4568809849129205
 30
0.0
 11
-2.124999999999999
 21
1.375
 31
0.0
  0
LINE
  5
234
330
17C
100
AcDbEntity
  8
AM_4
100
AcDbLine
 10
-2.124999999999999
 20
-1.375
 30
0.0
 11
-2.124999999999999
 21
-0.4568809849129199
 31
0.0
  0
LWPOLYLINE
  5
235
330
17C
100
AcDbEntity
  8
AM_4
100
AcDbPolyline
 90
       11
 70
     0
 43
0.0
 10
-2.124999999999999
 20
-0.4568809849129196
 10
-2.14344044858791
 20
-0.4578724173971119
 10
-2.161305946085215
 20
-0.4607032555489161
 10
-2.178007381408461
 20
-0.465130950300579
 10
-2.193337506187221
 20
-0.4708194028018127
 10
-2.208207422022836
 20
-0.4780698631905739
 10
-2.221031556385583
 20
-0.4860412325697474
 10
-2.23327613203804
 20
-0.4958557575791034
 10
-2.242340302149293
 20
-0.5057541399817979
 10
-2.248036338393511
 20
-0.5154737194521093
 10
-2.25
 20
-0.5245440728623288
  0
LINE
  5
236
330
17C
100
AcDbEntity
  8
AM_4
100
AcDbLine
 10
2.125
 20
-0.45688098491292
 30
0.0
 11
-2.124999999999999
 21
-0.4568809849129199
 31
0.0
  0
LWPOLYLINE
  5
237
330
17C
100
AcDbEntity
  8
AM_4
100
AcDbPolyline
 90
       10
 70
     0
 43
0.0
 10
2.25
 20
-0.5245440728623286
 10
2.247895497648795
 20
-0.515137818163399
 10
2.241799786044628
 20
-0.5050483817096642
 10
2.23196855909847
 20
-0.4946639315002317
 10
2.218670815306962
 20
-0.4844281427893837
 10
2.201490920875918
 20
-0.4745683101628039
 10
2.181145276675429
 20
-0.4661579744969601
 10
2.16450252869172
 20
-0.4614225003101036
 10
2.146724438611255
 20
-0.4582411883457747
 10
2.125
 20
-0.4568809849129198
  0
LWPOLYLINE
  5
238
330
17C
100
AcDbEntity
  8
AM_4
100
AcDbPolyline
 90
       11
 70
     0
 43
0.0
 10
2.125
 20
0.4568809849129203
 10
2.143440448587911
 20
0.4578724173971128
 10
2.161305946085216
 20
0.4607032555489171
 10
2.178007381408462
 20
0.4651309503005802
 10
2.193337506187222
 20
0.4708194028018138
 10
2.208207422022836
 20
0.4780698631905751
 10
2.221031556385584
 20
0.4860412325697487
 10
2.23327613203804
 20
0.4958557575791044
 10
2.242340302149293
 20
0.5057541399817987
 10
2.248036338393511
 20
0.5154737194521101
 10
2.25
 20
0.5245440728623294
  0
LINE
  5
239
330
17C
100
AcDbEntity
  8
AM_4
100
AcDbLine
 10
-2.124999999999999
 20
0.4568809849129205
 30
0.0
 11
2.125
 21
0.4568809849129203
 31
0.0
  0
LWPOLYLINE
  5
23A
330
17C
100
AcDbEntity
  8
AM_4
100
AcDbPolyline
 90
       10
 70
     0
 43
0.0
 10
-2.25
 20
0.5245440728623291
 10
-2.247895497648795
 20
0.5151378181633995
 10
-2.241799786044629
 20
0.5050483817096647
 10
-2.231968559098471
 20
0.4946639315002322
 10
-2.218670815306962
 20
0.4844281427893842
 10
-2.201490920875918
 20
0.4745683101628045
 10
-2.18114527667543
 20
0.4661579744969605
 10
-2.16450252869172
 20
0.461422500310104
 10
-2.146724438611255
 20
0.458241188345775
 10
-2.124999999999999
 20
0.45688098491292
  0
LINE
  5
23B
330
17C
100
AcDbEntity
  8
AM_4
100
AcDbLine
 10
2.9375
 20
-0.5624999999999998
 30
0.0
 11
2.25
 21
-0.5624999999999998
 31
0.0
  0
LINE
  5
23C
330
17C
100
AcDbEntity
  8
AM_4
100
AcDbLine
 10
-2.25
 20
-0.5624999999999998
 30
0.0
 11
-2.9375
 21
-0.5624999999999998
 31
0.0
  0
LINE
  5
23D
330
17C
100
AcDbEntity
  8
AM_4
100
AcDbLine
 10
2.9375
 20
0.5625000000000003
 30
0.0
 11
2.25
 21
0.5625000000000003
 31
0.0
  0
LINE
  5
23E
330
17C
100
AcDbEntity
  8
AM_4
100
AcDbLine
 10
-2.25
 20
0.5625000000000003
 30
0.0
 11
-2.9375
 21
0.5625000000000003
 31
0.0
  0
LINE
  5
23F
330
17C
100
AcDbEntity
  8
AM_4
100
AcDbLine
 10
-2.25
 20
1.375
 30
0.0
 11
-2.25
 21
0.5245440728623291
 31
0.0
  0
LINE
  5
240
330
17C
100
AcDbEntity
  8
AM_4
100
AcDbLine
 10
-4.0
 20
-1.375
 30
0.0
 11
-4.0
 21
1.375
 31
0.0
  0
LINE
  5
241
330
17C
100
AcDbEntity
  8
AM_4
100
AcDbLine
 10
-2.25
 20
-0.5245440728623286
 30
0.0
 11
-2.25
 21
-1.375
 31
0.0
  0
LINE
  5
242
330
17C
100
AcDbEntity
  8
AM_4
100
AcDbLine
 10
2.25
 20
0.5245440728623292
 30
0.0
 11
2.25
 21
1.375
 31
0.0
  0
LINE
  5
243
330
17C
100
AcDbEntity
  8
AM_4
100
AcDbLine
 10
4.0
 20
1.375
 30
0.0
 11
4.0
 21
-1.375
 31
0.0
  0
LINE
  5
244
330
17C
100
AcDbEntity
  8
AM_4
100
AcDbLine
 10
2.25
 20
-1.375
 30
0.0
 11
2.25
 21
-0.5245440728623286
 31
0.0
  0
LINE
  5
245
330
17C
100
AcDbEntity
  8
AM_4
100
AcDbLine
 10
2.9375
 20
0.7656250000000002
 30
0.0
 11
4.0
 21
0.7656250000000002
 31
0.0
  0
LINE
  5
246
330
17C
100
AcDbEntity
  8
AM_4
100
AcDbLine
 10
2.9375
 20
0.7656250000000002
 30
0.0
 11
2.9375
 21
-0.7656249999999997
 31
0.0
  0
LINE
  5
247
330
17C
100
AcDbEntity
  8
AM_4
100
AcDbLine
 10
2.9375
 20
0.7187500000000003
 30
0.0
 11
2.25
 21
0.7187500000000003
 31
0.0
  0
LINE
  5
248
330
17C
100
AcDbEntity
  8
AM_4
100
AcDbLine
 10
4.0
 20
1.026785714285715
 30
0.0
 11
2.25
 21
1.026785714285715
 31
0.0
  0
LINE
  5
249
330
17C
100
AcDbEntity
  8
AM_4
100
AcDbLine
 10
2.25
 20
-0.7187499999999997
 30
0.0
 11
2.9375
 21
-0.7187499999999997
 31
0.0
  0
LINE
  5
24A
330
17C
100
AcDbEntity
  8
AM_4
100
AcDbLine
 10
4.0
 20
-0.7656249999999997
 30
0.0
 11
2.9375
 21
-0.7656249999999997
 31
0.0
  0
LINE
  5
24B
330
17C
100
AcDbEntity
  8
AM_4
100
AcDbLine
 10
4.0
 20
-1.026785714285714
 30
0.0
 11
2.25
 21
-1.026785714285714
 31
0.0
  0
LINE
  5
24C
330
17C
100
AcDbEntity
  8
AM_4
100
AcDbLine
 10
-2.9375
 20
0.7656250000000002
 30
0.0
 11
-4.0
 21
0.7656250000000002
 31
0.0
  0
LINE
  5
24D
330
17C
100
AcDbEntity
  8
AM_4
100
AcDbLine
 10
-2.9375
 20
0.7656250000000002
 30
0.0
 11
-2.9375
 21
-0.7656249999999997
 31
0.0
  0
LINE
  5
24E
330
17C
100
AcDbEntity
  8
AM_4
100
AcDbLine
 10
-2.25
 20
0.7187500000000001
 30
0.0
 11
-2.9375
 21
0.7187500000000002
 31
0.0
  0
LINE
  5
24F
330
17C
100
AcDbEntity
  8
AM_4
100
AcDbLine
 10
-2.25
 20
1.026785714285715
 30
0.0
 11
-4.0
 21
1.026785714285715
 31
0.0
  0
LINE
  5
250
330
17C
100
AcDbEntity
  8
AM_4
100
AcDbLine
 10
-4.0
 20
-0.7656249999999997
 30
0.0
 11
-2.9375
 21
-0.7656249999999997
 31
0.0
  0
LINE
  5
251
330
17C
100
AcDbEntity
  8
AM_4
100
AcDbLine
 10
-2.25
 20
-1.026785714285714
 30
0.0
 11
-4.0
 21
-1.026785714285714
 31
0.0
  0
LINE
  5
252
330
17C
100
AcDbEntity
  8
AM_4
100
AcDbLine
 10
-2.9375
 20
-0.7187499999999997
 30
0.0
 11
-2.25
 21
-0.7187499999999997
 31
0.0
  0
ENDBLK
  5
17F
330
17C
100
AcDbEntity
  8
0
100
AcDbBlockEnd
  0
ENDSEC
  0
SECTION
  2
ENTITIES
  0
INSERT
  5
6F
330
1F
100
AcDbEntity
  8
0
100
AcDbBlockReference
  2
1_070833_4
 10
0.0
 20
0.0
 30
0.0
  0
POINT
  5
254
330
1F
100
AcDbEntity
  8
ConnectionPoints
100
AcDbPoint
 10
0.0
 20
-2.40625
 30
0.0000000000000001
  0
POINT
  5
255
330
1F
100
AcDbEntity
  8
ConnectionPoints
100
AcDbPoint
 10
0.0
 20
-2.40625
 30
0.0000000000000001
  0
POINT
  5
256
330
1F
100
AcDbEntity
  8
ConnectionPoints
100
AcDbPoint
 10
0.0
 20
1.584
 30
-0.0000000000000001
  0
POINT
  5
257
330
1F
100
AcDbEntity
  8
ConnectionPoints
100
AcDbPoint
 10
0.0
 20
-2.40625
 30
0.0000000000000001
  0
POINT
  5
258
330
1F
100
AcDbEntity
  8
ConnectionPoints
100
AcDbPoint
 10
3.45
 20
0.0
 30
0.0
  0
POINT
  5
259
330
1F
100
AcDbEntity
  8
ConnectionPoints
100
AcDbPoint
 10
0.0
 20
-2.40625
 30
0.0000000000000001
  0
POINT
  5
25A
330
1F
100
AcDbEntity
  8
ConnectionPoints
100
AcDbPoint
 10
0.0
 20
-2.15625
 30
0.0000000000000001
  0
ENDSEC
  0
SECTION
  2
OBJECTS
  0
DICTIONARY
  5
C
330
0
100
AcDbDictionary
281
     1
  3
ACAD_DETAILVIEWSTYLE
350
262
  3
ACAD_GROUP
350
D
  3
ACAD_LAYOUT
350
1A
  3
ACAD_MATERIAL
350
43
  3
ACAD_MLEADERSTYLE
350
6B
  3
ACAD_MLINESTYLE
350
17
  3
ACAD_PLOTSETTINGS
350
19
  3
ACAD_PLOTSTYLENAME
350
E
  3
ACAD_SCALELIST
350
47
  3
ACAD_SECTIONVIEWSTYLE
350
263
  3
ACAD_TABLESTYLE
350
69
  3
ACAD_VISUALSTYLE
350
2A
  3
ACDB_RECOMPOSE_DATA
350
25F
  3
AcDbVariableDictionary
350
25B
  0
SUN
  5
6D
330
29
100
AcDbSun
 90
        1
290
     0
 63
     7
421
 16777215
 40
1.0
291
     1
 91
  2455826
 92
 54000000
292
     0
 70
     2
 71
   256
280
     1
  0
DICTIONARY
  5
262
102
{ACAD_REACTORS
330
C
102
}
330
C
100
AcDbDictionary
281
     1
  0
DICTIONARY
  5
D
102
{ACAD_REACTORS
330
C
102
}
330
C
100
AcDbDictionary
281
     1
  0
DICTIONARY
  5
1A
102
{ACAD_REACTORS
330
C
102
}
330
C
100
AcDbDictionary
281
     1
  3
Layout1
350
1E
  3
Layout2
350
26
  3
Model
350
22
  0
DICTIONARY
  5
43
102
{ACAD_REACTORS
330
C
102
}
330
C
100
AcDbDictionary
281
     1
  3
ByBlock
350
45
  3
ByLayer
350
44
  3
Global
350
46
  0
DICTIONARY
  5
6B
102
{ACAD_REACTORS
330
C
102
}
330
C
100
AcDbDictionary
281
     1
  3
Standard
350
6C
  0
DICTIONARY
  5
17
102
{ACAD_REACTORS
330
C
102
}
330
C
100
AcDbDictionary
281
     1
  3
Standard
350
18
  0
DICTIONARY
  5
19
102
{ACAD_REACTORS
330
C
102
}
330
C
100
AcDbDictionary
281
     1
  0
ACDBDICTIONARYWDFLT
  5
E
102
{ACAD_REACTORS
330
C
102
}
330
C
100
AcDbDictionary
281
     1
  3
Normal
350
F
100
AcDbDictionaryWithDefault
340
F
  0
DICTIONARY
  5
47
102
{ACAD_REACTORS
330
C
102
}
330
C
100
AcDbDictionary
281
     1
  3
A0
350
48
  3
A1
350
49
  3
A2
350
4A
  3
A3
350
4B
  3
A4
350
4C
  3
A5
350
4D
  3
A6
350
4E
  3
A7
350
4F
  3
A8
350
50
  3
A9
350
51
  3
B0
350
52
  3
B1
350
53
  3
B2
350
54
  3
B3
350
55
  3
B4
350
56
  3
B5
350
57
  3
B6
350
58
  3
B7
350
59
  3
B8
350
5A
  3
B9
350
5B
  3
C0
350
5C
  3
C1
350
5D
  3
C2
350
5E
  3
C3
350
5F
  3
C4
350
60
  3
C5
350
61
  3
C6
350
62
  3
C7
350
63
  3
C8
350
64
  3
C9
350
65
  3
D0
350
66
  3
D1
350
67
  3
D2
350
68
  0
DICTIONARY
  5
263
102
{ACAD_REACTORS
330
C
102
}
330
C
100
AcDbDictionary
281
     1
  0
DICTIONARY
  5
69
102
{ACAD_REACTORS
330
C
102
}
330
C
100
AcDbDictionary
281
     1
  3
Standard
350
6A
  0
DICTIONARY
  5
2A
102
{ACAD_REACTORS
330
C
102
}
330
C
100
AcDbDictionary
281
     1
  3
2dWireframe
350
2F
  3
Basic
350
32
  3
Brighten
350
36
  3
ColorChange
350
3A
  3
Conceptual
350
34
  3
Dim
350
35
  3
EdgeColorOff
350
3D
  3
Facepattern
350
39
  3
Flat
350
2B
  3
FlatWithEdges
350
2C
  3
Gouraud
350
2D
  3
GouraudWithEdges
350
2E
  3
Hidden
350
31
  3
JitterOff
350
3B
  3
Linepattern
350
38
  3
OverhangOff
350
3C
  3
Realistic
350
33
  3
Shaded
350
42
  3
Shaded with edges
350
41
  3
Shades of Gray
350
3E
  3
Sketchy
350
3F
  3
Thicken
350
37
  3
Wireframe
350
30
  3
X-Ray
350
40
  0
XRECORD
  5
25F
102
{ACAD_REACTORS
330
C
102
}
330
C
100
AcDbXrecord
280
     1
 90
        1
330
6A
  0
DICTIONARY
  5
25B
102
{ACAD_REACTORS
330
C
102
}
330
C
100
AcDbDictionary
281
     1
  3
CANNOSCALE
350
25C
  3
CMLEADERSTYLE
350
261
  3
CTABLESTYLE
350
260
  0
LAYOUT
  5
1E
102
{ACAD_REACTORS
330
1A
102
}
330
1A
100
AcDbPlotSettings
  1

  2
none_device
  4

  6

 40
0.0
 41
0.0
 42
0.0
 43
0.0
 44
0.0
 45
0.0
 46
0.0
 47
0.0
 48
0.0
 49
0.0
140
0.0
141
0.0
142
1.0
143
1.0
 70
   688
 72
     0
 73
     0
 74
     5
  7

 75
    16
 76
     0
 77
     2
 78
   300
147
1.0
148
0.0
149
0.0
100
AcDbLayout
  1
Layout1
 70
     1
 71
     1
 10
0.0
 20
0.0
 11
12.0
 21
9.0
 12
0.0
 22
0.0
 32
0.0
 14
1.000000000000000E+20
 24
1.000000000000000E+20
 34
1.000000000000000E+20
 15
-1.000000000000000E+20
 25
-1.000000000000000E+20
 35
-1.000000000000000E+20
146
0.0
 13
0.0
 23
0.0
 33
0.0
 16
1.0
 26
0.0
 36
0.0
 17
0.0
 27
1.0
 37
0.0
 76
     0
330
1B
  0
LAYOUT
  5
26
102
{ACAD_REACTORS
330
1A
102
}
330
1A
100
AcDbPlotSettings
  1

  2
none_device
  4

  6

 40
0.0
 41
0.0
 42
0.0
 43
0.0
 44
0.0
 45
0.0
 46
0.0
 47
0.0
 48
0.0
 49
0.0
140
0.0
141
0.0
142
1.0
143
1.0
 70
   688
 72
     0
 73
     0
 74
     5
  7

 75
    16
 76
     0
 77
     2
 78
   300
147
1.0
148
0.0
149
0.0
100
AcDbLayout
  1
Layout2
 70
     1
 71
     2
 10
0.0
 20
0.0
 11
0.0
 21
0.0
 12
0.0
 22
0.0
 32
0.0
 14
0.0
 24
0.0
 34
0.0
 15
0.0
 25
0.0
 35
0.0
146
0.0
 13
0.0
 23
0.0
 33
0.0
 16
1.0
 26
0.0
 36
0.0
 17
0.0
 27
1.0
 37
0.0
 76
     0
330
23
  0
LAYOUT
  5
22
102
{ACAD_REACTORS
330
1A
102
}
330
1A
100
AcDbPlotSettings
  1

  2
none_device
  4
Letter_(8.50_x_11.00_Inches)
  6

 40
6.35
 41
6.35
 42
6.35000508
 43
6.35000508
 44
215.9
 45
279.4
 46
0.0
 47
0.0
 48
0.0
 49
0.0
140
0.0
141
0.0
142
1.0
143
1.0
 70
  1712
 72
     0
 73
     0
 74
     0
  7

 75
     0
 76
     0
 77
     2
 78
   300
147
1.0
148
0.0
149
0.0
100
AcDbLayout
  1
Model
 70
     1
 71
     0
 10
0.0
 20
0.0
 11
12.0
 21
9.0
 12
0.0
 22
0.0
 32
0.0
 14
1.000000000000000E+20
 24
1.000000000000000E+20
 34
1.000000000000000E+20
 15
-1.000000000000000E+20
 25
-1.000000000000000E+20
 35
-1.000000000000000E+20
146
0.0
 13
0.0
 23
0.0
 33
0.0
 16
1.0
 26
0.0
 36
0.0
 17
0.0
 27
1.0
 37
0.0
 76
     0
330
1F
331
29
  0
MATERIAL
  5
45
102
{ACAD_REACTORS
330
43
102
}
330
43
100
AcDbMaterial
  1
ByBlock
 72
     1
 94
      127
  0
MATERIAL
  5
44
102
{ACAD_REACTORS
330
43
102
}
330
43
100
AcDbMaterial
  1
ByLayer
 72
     1
 94
      127
  0
MATERIAL
  5
46
102
{ACAD_REACTORS
330
43
102
}
330
43
100
AcDbMaterial
  1
Global
 72
     1
 94
      127
  0
MLEADERSTYLE
  5
6C
102
{ACAD_REACTORS
330
6B
102
}
330
6B
100
AcDbMLeaderStyle
179
     2
170
     2
171
     1
172
     0
 90
        2
 40
0.0
 41
0.0
173
     1
 91
-1056964608
340
14
 92
       -2
290
     1
 42
0.09
291
     1
 43
0.36
  3
Standard
341
0
 44
0.18
300

342
11
174
     1
178
     6
175
     1
176
     0
 93
-1056964608
 45
0.18
292
     0
297
     0
 46
0.18
343
0
 94
-1056964608
 47
1.0
 49
1.0
140
1.0
293
     1
141
0.0
294
     1
177
     0
142
1.0
295
     0
296
     0
143
0.125
271
     0
272
     9
273
     9
298
     0
  0
MLINESTYLE
  5
18
102
{ACAD_REACTORS
330
17
102
}
330
17
100
AcDbMlineStyle
  2
Standard
 70
     0
  3

 62
   256
 51
90.0
 52
90.0
 71
     2
 49
0.5
 62
   256
  6
BYLAYER
 49
-0.5
 62
   256
  6
BYLAYER
  0
ACDBPLACEHOLDER
  5
F
102
{ACAD_REACTORS
330
E
102
}
330
E
  0
SCALE
  5
48
102
{ACAD_REACTORS
330
47
102
}
330
47
100
AcDbScale
 70
     0
300
1:1
140
1.0
141
1.0
290
     1
  0
SCALE
  5
49
102
{ACAD_REACTORS
330
47
102
}
330
47
100
AcDbScale
 70
     0
300
1:2
140
1.0
141
2.0
290
     0
  0
SCALE
  5
4A
102
{ACAD_REACTORS
330
47
102
}
330
47
100
AcDbScale
 70
     0
300
1:4
140
1.0
141
4.0
290
     0
  0
SCALE
  5
4B
102
{ACAD_REACTORS
330
47
102
}
330
47
100
AcDbScale
 70
     0
300
1:5
140
1.0
141
5.0
290
     0
  0
SCALE
  5
4C
102
{ACAD_REACTORS
330
47
102
}
330
47
100
AcDbScale
 70
     0
300
1:8
140
1.0
141
8.0
290
     0
  0
SCALE
  5
4D
102
{ACAD_REACTORS
330
47
102
}
330
47
100
AcDbScale
 70
     0
300
1:10
140
1.0
141
10.0
290
     0
  0
SCALE
  5
4E
102
{ACAD_REACTORS
330
47
102
}
330
47
100
AcDbScale
 70
     0
300
1:16
140
1.0
141
16.0
290
     0
  0
SCALE
  5
4F
102
{ACAD_REACTORS
330
47
102
}
330
47
100
AcDbScale
 70
     0
300
1:20
140
1.0
141
20.0
290
     0
  0
SCALE
  5
50
102
{ACAD_REACTORS
330
47
102
}
330
47
100
AcDbScale
 70
     0
300
1:30
140
1.0
141
30.0
290
     0
  0
SCALE
  5
51
102
{ACAD_REACTORS
330
47
102
}
330
47
100
AcDbScale
 70
     0
300
1:40
140
1.0
141
40.0
290
     0
  0
SCALE
  5
52
102
{ACAD_REACTORS
330
47
102
}
330
47
100
AcDbScale
 70
     0
300
1:50
140
1.0
141
50.0
290
     0
  0
SCALE
  5
53
102
{ACAD_REACTORS
330
47
102
}
330
47
100
AcDbScale
 70
     0
300
1:100
140
1.0
141
100.0
290
     0
  0
SCALE
  5
54
102
{ACAD_REACTORS
330
47
102
}
330
47
100
AcDbScale
 70
     0
300
2:1
140
2.0
141
1.0
290
     0
  0
SCALE
  5
55
102
{ACAD_REACTORS
330
47
102
}
330
47
100
AcDbScale
 70
     0
300
4:1
140
4.0
141
1.0
290
     0
  0
SCALE
  5
56
102
{ACAD_REACTORS
330
47
102
}
330
47
100
AcDbScale
 70
     0
300
8:1
140
8.0
141
1.0
290
     0
  0
SCALE
  5
57
102
{ACAD_REACTORS
330
47
102
}
330
47
100
AcDbScale
 70
     0
300
10:1
140
10.0
141
1.0
290
     0
  0
SCALE
  5
58
102
{ACAD_REACTORS
330
47
102
}
330
47
100
AcDbScale
 70
     0
300
100:1
140
100.0
141
1.0
290
     0
  0
SCALE
  5
59
102
{ACAD_REACTORS
330
47
102
}
330
47
100
AcDbScale
 70
     0
300
1/128" = 1'-0"
140
0.0078125
141
12.0
290
     0
  0
SCALE
  5
5A
102
{ACAD_REACTORS
330
47
102
}
330
47
100
AcDbScale
 70
     0
300
1/64" = 1'-0"
140
0.015625
141
12.0
290
     0
  0
SCALE
  5
5B
102
{ACAD_REACTORS
330
47
102
}
330
47
100
AcDbScale
 70
     0
300
1/32" = 1'-0"
140
0.03125
141
12.0
290
     0
  0
SCALE
  5
5C
102
{ACAD_REACTORS
330
47
102
}
330
47
100
AcDbScale
 70
     0
300
1/16" = 1'-0"
140
0.0625
141
12.0
290
     0
  0
SCALE
  5
5D
102
{ACAD_REACTORS
330
47
102
}
330
47
100
AcDbScale
 70
     0
300
3/32" = 1'-0"
140
0.09375
141
12.0
290
     0
  0
SCALE
  5
5E
102
{ACAD_REACTORS
330
47
102
}
330
47
100
AcDbScale
 70
     0
300
1/8" = 1'-0"
140
0.125
141
12.0
290
     0
  0
SCALE
  5
5F
102
{ACAD_REACTORS
330
47
102
}
330
47
100
AcDbScale
 70
     0
300
3/16" = 1'-0"
140
0.1875
141
12.0
290
     0
  0
SCALE
  5
60
102
{ACAD_REACTORS
330
47
102
}
330
47
100
AcDbScale
 70
     0
300
1/4" = 1'-0"
140
0.25
141
12.0
290
     0
  0
SCALE
  5
61
102
{ACAD_REACTORS
330
47
102
}
330
47
100
AcDbScale
 70
     0
300
3/8" = 1'-0"
140
0.375
141
12.0
290
     0
  0
SCALE
  5
62
102
{ACAD_REACTORS
330
47
102
}
330
47
100
AcDbScale
 70
     0
300
1/2" = 1'-0"
140
0.5
141
12.0
290
     0
  0
SCALE
  5
63
102
{ACAD_REACTORS
330
47
102
}
330
47
100
AcDbScale
 70
     0
300
3/4" = 1'-0"
140
0.75
141
12.0
290
     0
  0
SCALE
  5
64
102
{ACAD_REACTORS
330
47
102
}
330
47
100
AcDbScale
 70
     0
300
1" = 1'-0"
140
1.0
141
12.0
290
     0
  0
SCALE
  5
65
102
{ACAD_REACTORS
330
47
102
}
330
47
100
AcDbScale
 70
     0
300
1-1/2" = 1'-0"
140
1.5
141
12.0
290
     0
  0
SCALE
  5
66
102
{ACAD_REACTORS
330
47
102
}
330
47
100
AcDbScale
 70
     0
300
3" = 1'-0"
140
3.0
141
12.0
290
     0
  0
SCALE
  5
67
102
{ACAD_REACTORS
330
47
102
}
330
47
100
AcDbScale
 70
     0
300
6" = 1'-0"
140
6.0
141
12.0
290
     0
  0
SCALE
  5
68
102
{ACAD_REACTORS
330
47
102
}
330
47
100
AcDbScale
 70
     0
300
1'-0" = 1'-0"
140
12.0
141
12.0
290
     0
  0
TABLESTYLE
  5
6A
102
{ACAD_REACTORS
330
69
102
}
102
{ACAD_XDICTIONARY
360
25D
102
}
330
69
100
AcDbTableStyle
  3
Standard
 70
     0
 71
     0
 40
0.06
 41
0.06
280
     0
281
     0
  7
Standard
140
0.18
170
     2
 62
     0
 63
   257
283
     0
 90
        4
 91
        0
  1

274
    -2
284
     1
 64
     0
275
    -2
285
     1
 65
     0
276
    -2
286
     1
 66
     0
277
    -2
287
     1
 67
     0
278
    -2
288
     1
 68
     0
279
    -2
289
     1
 69
     0
  7
Standard
140
0.25
170
     5
 62
     0
 63
   257
283
     0
 90
        4
 91
        0
  1

274
    -2
284
     1
 64
     0
275
    -2
285
     1
 65
     0
276
    -2
286
     1
 66
     0
277
    -2
287
     1
 67
     0
278
    -2
288
     1
 68
     0
279
    -2
289
     1
 69
     0
  7
Standard
140
0.18
170
     5
 62
     0
 63
   257
283
     0
 90
        4
 91
        0
  1

274
    -2
284
     1
 64
     0
275
    -2
285
     1
 65
     0
276
    -2
286
     1
 66
     0
277
    -2
287
     1
 67
     0
278
    -2
288
     1
 68
     0
279
    -2
289
     1
 69
     0
  0
VISUALSTYLE
  5
2F
102
{ACAD_REACTORS
330
2A
102
}
330
2A
100
AcDbVisualStyle
  2
2dWireframe
 70
     4
177
     3
291
     0
 70
    58
 90
        0
176
     1
 90
        2
176
     1
 90
        0
176
     1
 90
        0
176
     1
 40
0.6
176
     1
 40
30.0
176
     1
 62
     7
420
 16777215
176
     1
 90
        1
176
     1
 90
        4
176
     1
 62
     7
176
     1
 62
   257
176
     1
 90
        1
176
     1
 90
        1
176
     1
 40
1.0
176
     1
 90
        0
176
     1
 62
   257
176
     1
 40
1.0
176
     1
 90
        1
176
     1
 90
        6
176
     1
 90
        2
176
     1
 62
     7
176
     1
 90
        5
176
     1
 90
        0
176
     1
 90
        0
176
     1
290
     0
176
     1
 90
        1
176
     1
 40
0.0
176
     1
 90
        0
176
     1
290
     1
176
     1
290
     1
176
     1
290
     0
176
     1
290
     0
176
     1
290
     0
176
     1
290
     0
176
     1
290
     0
176
     1
290
     0
176
     1
290
     0
176
     1
 90
       50
176
     1
 40
0.0
176
     1
 40
1.0
176
     1
 90
        0
176
     1
 62
    18
420
        0
176
     1
 90
       50
176
     1
 90
        3
176
     1
 62
     5
420
      255
176
     1
290
     0
176
     1
 90
       50
176
     1
 90
       50
176
     1
 90
       50
176
     1
290
     0
176
     1
 90
       50
176
     1
 62
   256
176
     0
 40
1.0
176
     0
 90
        2
176
     1
  1
strokes_ogs.tif
176
     1
290
     0
176
     1
 40
1.0
176
     1
 40
1.0
176
     1
  0
VISUALSTYLE
  5
32
102
{ACAD_REACTORS
330
2A
102
}
330
2A
100
AcDbVisualStyle
  2
Basic
 70
     7
177
     3
291
     1
 70
    58
 90
        1
176
     1
 90
        0
176
     1
 90
        1
176
     1
 90
        0
176
     1
 40
0.6
176
     1
 40
30.0
176
     1
 62
     7
420
 16777215
176
     1
 90
        0
176
     1
 90
        4
176
     1
 62
     7
176
     1
 62
   257
176
     1
 90
        1
176
     1
 90
        1
176
     1
 40
1.0
176
     1
 90
        8
176
     1
 62
     7
176
     1
 40
1.0
176
     1
 90
        1
176
     1
 90
        6
176
     1
 90
        2
176
     1
 62
     7
176
     1
 90
        5
176
     1
 90
        0
176
     1
 90
        0
176
     1
290
     0
176
     1
 90
        1
176
     1
 40
0.0
176
     1
 90
        0
176
     1
290
     0
176
     1
290
     1
176
     1
290
     1
176
     1
290
     0
176
     1
290
     0
176
     1
290
     0
176
     1
290
     0
176
     1
290
     0
176
     1
290
     0
176
     1
 90
       50
176
     1
 40
0.0
176
     1
 40
1.0
176
     1
 90
        0
176
     1
 62
    18
420
        0
176
     1
 90
       50
176
     1
 90
        3
176
     1
 62
     5
420
      255
176
     1
290
     0
176
     1
 90
       50
176
     1
 90
       50
176
     1
 90
       50
176
     1
290
     0
176
     1
 90
       50
176
     1
 62
   256
176
     0
 40
1.0
176
     0
 90
        2
176
     1
  1
strokes_ogs.tif
176
     1
290
     0
176
     1
 40
1.0
176
     1
 40
1.0
176
     1
  0
VISUALSTYLE
  5
36
102
{ACAD_REACTORS
330
2A
102
}
330
2A
100
AcDbVisualStyle
  2
Brighten
 70
    12
177
     3
291
     1
 70
    58
 90
        2
176
     1
 90
        2
176
     1
 90
        0
176
     1
 90
        0
176
     1
 40
0.6
176
     1
 40
30.0
176
     1
 62
     7
420
 16777215
176
     1
 90
        1
176
     1
 90
        4
176
     1
 62
     7
176
     1
 62
   257
176
     1
 90
        1
176
     1
 90
        1
176
     1
 40
1.0
176
     1
 90
        8
176
     1
 62
     7
176
     1
 40
1.0
176
     1
 90
        1
176
     1
 90
        6
176
     1
 90
        2
176
     1
 62
     7
176
     1
 90
        5
176
     1
 90
        0
176
     1
 90
        0
176
     1
290
     0
176
     1
 90
        1
176
     1
 40
50.0
176
     1
 90
        0
176
     1
290
     0
176
     1
290
     1
176
     1
290
     1
176
     1
290
     0
176
     1
290
     0
176
     1
290
     0
176
     1
290
     0
176
     1
290
     0
176
     1
290
     0
176
     1
 90
       50
176
     1
 40
0.0
176
     1
 40
1.0
176
     1
 90
        0
176
     1
 62
    18
420
        0
176
     1
 90
       50
176
     1
 90
        3
176
     1
 62
     5
420
      255
176
     1
290
     0
176
     1
 90
       50
176
     1
 90
       50
176
     1
 90
       50
176
     1
290
     0
176
     1
 90
       50
176
     1
 62
   256
176
     0
 40
1.0
176
     0
 90
        2
176
     1
  1
strokes_ogs.tif
176
     1
290
     0
176
     1
 40
1.0
176
     1
 40
1.0
176
     1
  0
VISUALSTYLE
  5
3A
102
{ACAD_REACTORS
330
2A
102
}
330
2A
100
AcDbVisualStyle
  2
ColorChange
 70
    16
177
     3
291
     1
 70
    58
 90
        2
176
     1
 90
        2
176
     1
 90
        3
176
     1
 90
        0
176
     1
 40
0.6
176
     1
 40
30.0
176
     1
 62
     8
420
  8421504
176
     1
 90
        1
176
     1
 90
        4
176
     1
 62
     7
176
     1
 62
   257
176
     1
 90
        1
176
     1
 90
        1
176
     1
 40
1.0
176
     1
 90
        8
176
     1
 62
     8
420
  8421504
176
     1
 40
1.0
176
     1
 90
        1
176
     1
 90
        6
176
     1
 90
        2
176
     1
 62
     7
176
     1
 90
        5
176
     1
 90
        0
176
     1
 90
        0
176
     1
290
     0
176
     1
 90
        1
176
     1
 40
0.0
176
     1
 90
        0
176
     1
290
     0
176
     1
290
     1
176
     1
290
     1
176
     1
290
     0
176
     1
290
     0
176
     1
290
     0
176
     1
290
     0
176
     1
290
     0
176
     1
290
     0
176
     1
 90
       50
176
     1
 40
0.0
176
     1
 40
1.0
176
     1
 90
        0
176
     1
 62
    18
420
        0
176
     1
 90
       50
176
     1
 90
        3
176
     1
 62
     5
420
      255
176
     1
290
     0
176
     1
 90
       50
176
     1
 90
       50
176
     1
 90
       50
176
     1
290
     0
176
     1
 90
       50
176
     1
 62
   256
176
     0
 40
1.0
176
     0
 90
        2
176
     1
  1
strokes_ogs.tif
176
     1
290
     0
176
     1
 40
1.0
176
     1
 40
1.0
176
     1
  0
VISUALSTYLE
  5
34
102
{ACAD_REACTORS
330
2A
102
}
330
2A
100
AcDbVisualStyle
  2
Conceptual
 70
     9
177
     3
291
     0
 70
    58
 90
        3
176
     1
 90
        2
176
     1
 90
        0
176
     1
 90
        0
176
     1
 40
0.6
176
     1
 40
30.0
176
     1
 62
     7
420
 16777215
176
     1
 90
        2
176
     1
 90
        2
176
     1
 62
     7
176
     1
 62
   257
176
     1
 90
        1
176
     1
 90
        1
176
     1
 40
179.0
176
     1
 90
        8
176
     1
 62
     7
176
     1
 40
1.0
176
     1
 90
        1
176
     1
 90
        6
176
     1
 90
        2
176
     1
 62
     7
176
     1
 90
        3
176
     1
 90
        0
176
     1
 90
        0
176
     1
290
     0
176
     1
 90
        1
176
     1
 40
0.0
176
     1
 90
        0
176
     1
290
     0
176
     1
290
     1
176
     1
290
     1
176
     1
290
     0
176
     1
290
     0
176
     1
290
     0
176
     1
290
     0
176
     1
290
     0
176
     1
290
     0
176
     1
 90
       50
176
     1
 40
0.0
176
     1
 40
1.0
176
     1
 90
        0
176
     1
 62
    18
420
        0
176
     1
 90
       50
176
     1
 90
        3
176
     1
 62
     5
420
      255
176
     1
290
     0
176
     1
 90
       50
176
     1
 90
       50
176
     1
 90
       50
176
     1
290
     0
176
     1
 90
       50
176
     1
 62
   256
176
     0
 40
1.0
176
     0
 90
        2
176
     1
  1
strokes_ogs.tif
176
     1
290
     0
176
     1
 40
1.0
176
     1
 40
1.0
176
     1
  0
VISUALSTYLE
  5
35
102
{ACAD_REACTORS
330
2A
102
}
330
2A
100
AcDbVisualStyle
  2
Dim
 70
    11
177
     3
291
     1
 70
    58
 90
        2
176
     1
 90
        2
176
     1
 90
        0
176
     1
 90
        0
176
     1
 40
0.6
176
     1
 40
30.0
176
     1
 62
     7
420
 16777215
176
     1
 90
        1
176
     1
 90
        4
176
     1
 62
     7
176
     1
 62
   257
176
     1
 90
        1
176
     1
 90
        1
176
     1
 40
1.0
176
     1
 90
        8
176
     1
 62
     7
176
     1
 40
1.0
176
     1
 90
        1
176
     1
 90
        6
176
     1
 90
        2
176
     1
 62
     7
176
     1
 90
        5
176
     1
 90
        0
176
     1
 90
        0
176
     1
290
     0
176
     1
 90
        1
176
     1
 40
-50.0
176
     1
 90
        0
176
     1
290
     0
176
     1
290
     1
176
     1
290
     1
176
     1
290
     0
176
     1
290
     0
176
     1
290
     0
176
     1
290
     0
176
     1
290
     0
176
     1
290
     0
176
     1
 90
       50
176
     1
 40
0.0
176
     1
 40
1.0
176
     1
 90
        0
176
     1
 62
    18
420
        0
176
     1
 90
       50
176
     1
 90
        3
176
     1
 62
     5
420
      255
176
     1
290
     0
176
     1
 90
       50
176
     1
 90
       50
176
     1
 90
       50
176
     1
290
     0
176
     1
 90
       50
176
     1
 62
   256
176
     0
 40
1.0
176
     0
 90
        2
176
     1
  1
strokes_ogs.tif
176
     1
290
     0
176
     1
 40
1.0
176
     1
 40
1.0
176
     1
  0
VISUALSTYLE
  5
3D
102
{ACAD_REACTORS
330
2A
102
}
330
2A
100
AcDbVisualStyle
  2
EdgeColorOff
 70
    22
177
     3
291
     1
 70
    58
 90
        2
176
     0
 90
        2
176
     0
 90
        0
176
     0
 90
        0
176
     0
 40
0.6
176
     0
 40
30.0
176
     0
 62
     7
420
 16777215
176
     0
 90
        1
176
     0
 90
        4
176
     0
 62
     7
176
     0
 62
   257
176
     0
 90
        1
176
     0
 90
        1
176
     0
 40
1.0
176
     0
 90
        8
176
     2
 62
     7
176
     0
 40
1.0
176
     0
 90
        1
176
     0
 90
        6
176
     0
 90
        2
176
     0
 62
     7
176
     0
 90
        5
176
     0
 90
        0
176
     0
 90
        0
176
     0
290
     0
176
     0
 90
        1
176
     0
 40
0.0
176
     0
 90
        0
176
     0
290
     0
176
     0
290
     1
176
     0
290
     1
176
     0
290
     0
176
     0
290
     0
176
     0
290
     0
176
     0
290
     0
176
     0
290
     0
176
     0
290
     0
176
     0
 90
       50
176
     0
 40
0.0
176
     0
 40
1.0
176
     0
 90
        0
176
     0
 62
    18
420
        0
176
     0
 90
       50
176
     0
 90
        3
176
     0
 62
     5
420
      255
176
     0
290
     0
176
     0
 90
       50
176
     0
 90
       50
176
     0
 90
       50
176
     0
290
     0
176
     0
 90
       50
176
     0
 62
   256
176
     0
 40
1.0
176
     0
 90
        2
176
     0
  1
strokes_ogs.tif
176
     0
290
     0
176
     0
 40
1.0
176
     0
 40
1.0
176
     0
  0
VISUALSTYLE
  5
39
102
{ACAD_REACTORS
330
2A
102
}
330
2A
100
AcDbVisualStyle
  2
Facepattern
 70
    15
177
     3
291
     1
 70
    58
 90
        2
176
     1
 90
        2
176
     1
 90
        0
176
     1
 90
        0
176
     1
 40
0.6
176
     1
 40
30.0
176
     1
 62
     7
420
 16777215
176
     1
 90
        1
176
     1
 90
        4
176
     1
 62
     7
176
     1
 62
   257
176
     1
 90
        1
176
     1
 90
        1
176
     1
 40
1.0
176
     1
 90
        8
176
     1
 62
     7
176
     1
 40
1.0
176
     1
 90
        1
176
     1
 90
        6
176
     1
 90
        2
176
     1
 62
     7
176
     1
 90
        5
176
     1
 90
        0
176
     1
 90
        0
176
     1
290
     0
176
     1
 90
        1
176
     1
 40
0.0
176
     1
 90
        0
176
     1
290
     0
176
     1
290
     1
176
     1
290
     1
176
     1
290
     0
176
     1
290
     0
176
     1
290
     0
176
     1
290
     0
176
     1
290
     0
176
     1
290
     0
176
     1
 90
       50
176
     1
 40
0.0
176
     1
 40
1.0
176
     1
 90
        0
176
     1
 62
    18
420
        0
176
     1
 90
       50
176
     1
 90
        3
176
     1
 62
     5
420
      255
176
     1
290
     0
176
     1
 90
       50
176
     1
 90
       50
176
     1
 90
       50
176
     1
290
     0
176
     1
 90
       50
176
     1
 62
   256
176
     0
 40
1.0
176
     0
 90
        2
176
     1
  1
strokes_ogs.tif
176
     1
290
     0
176
     1
 40
1.0
176
     1
 40
1.0
176
     1
  0
VISUALSTYLE
  5
2B
102
{ACAD_REACTORS
330
2A
102
}
330
2A
100
AcDbVisualStyle
  2
Flat
 70
     0
177
     3
291
     1
 70
    58
 90
        2
176
     1
 90
        1
176
     1
 90
        1
176
     1
 90
        2
176
     1
 40
0.6
176
     1
 40
30.0
176
     1
 62
     7
420
 16777215
176
     1
 90
        0
176
     1
 90
        0
176
     1
 62
     7
176
     1
 62
   257
176
     1
 90
        1
176
     1
 90
        1
176
     1
 40
1.0
176
     1
 90
        8
176
     1
 62
     7
176
     1
 40
1.0
176
     1
 90
        1
176
     1
 90
        6
176
     1
 90
        2
176
     1
 62
     7
176
     1
 90
        5
176
     1
 90
        0
176
     1
 90
        0
176
     1
290
     0
176
     1
 90
       13
176
     1
 40
0.0
176
     1
 90
        0
176
     1
290
     0
176
     1
290
     1
176
     1
290
     1
176
     1
290
     0
176
     1
290
     0
176
     1
290
     0
176
     1
290
     0
176
     1
290
     0
176
     1
290
     0
176
     1
 90
       50
176
     1
 40
0.0
176
     1
 40
1.0
176
     1
 90
        0
176
     1
 62
    18
420
        0
176
     1
 90
       50
176
     1
 90
        3
176
     1
 62
     5
420
      255
176
     1
290
     0
176
     1
 90
       50
176
     1
 90
       50
176
     1
 90
       50
176
     1
290
     0
176
     1
 90
       50
176
     1
 62
   256
176
     0
 40
1.0
176
     0
 90
        2
176
     1
  1
strokes_ogs.tif
176
     1
290
     0
176
     1
 40
1.0
176
     1
 40
1.0
176
     1
  0
VISUALSTYLE
  5
2C
102
{ACAD_REACTORS
330
2A
102
}
330
2A
100
AcDbVisualStyle
  2
FlatWithEdges
 70
     1
177
     3
291
     1
 70
    58
 90
        2
176
     1
 90
        1
176
     1
 90
        1
176
     1
 90
        2
176
     1
 40
0.6
176
     1
 40
30.0
176
     1
 62
     7
420
 16777215
176
     1
 90
        1
176
     1
 90
        0
176
     1
 62
     7
176
     1
 62
   257
176
     1
 90
        1
176
     1
 90
        1
176
     1
 40
1.0
176
     1
 90
        0
176
     1
 62
   257
176
     1
 40
1.0
176
     1
 90
        1
176
     1
 90
        6
176
     1
 90
        2
176
     1
 62
     7
176
     1
 90
        5
176
     1
 90
        0
176
     1
 90
        0
176
     1
290
     0
176
     1
 90
       13
176
     1
 40
0.0
176
     1
 90
        0
176
     1
290
     0
176
     1
290
     1
176
     1
290
     1
176
     1
290
     0
176
     1
290
     0
176
     1
290
     0
176
     1
290
     0
176
     1
290
     0
176
     1
290
     0
176
     1
 90
       50
176
     1
 40
0.0
176
     1
 40
1.0
176
     1
 90
        0
176
     1
 62
    18
420
        0
176
     1
 90
       50
176
     1
 90
        3
176
     1
 62
     5
420
      255
176
     1
290
     0
176
     1
 90
       50
176
     1
 90
       50
176
     1
 90
       50
176
     1
290
     0
176
     1
 90
       50
176
     1
 62
   256
176
     0
 40
1.0
176
     0
 90
        2
176
     1
  1
strokes_ogs.tif
176
     1
290
     0
176
     1
 40
1.0
176
     1
 40
1.0
176
     1
  0
VISUALSTYLE
  5
2D
102
{ACAD_REACTORS
330
2A
102
}
330
2A
100
AcDbVisualStyle
  2
Gouraud
 70
     2
177
     3
291
     1
 70
    58
 90
        2
176
     1
 90
        2
176
     1
 90
        1
176
     1
 90
        2
176
     1
 40
0.6
176
     1
 40
30.0
176
     1
 62
     7
420
 16777215
176
     1
 90
        0
176
     1
 90
        0
176
     1
 62
     7
176
     1
 62
   257
176
     1
 90
        1
176
     1
 90
        1
176
     1
 40
1.0
176
     1
 90
        0
176
     1
 62
     7
176
     1
 40
1.0
176
     1
 90
        1
176
     1
 90
        6
176
     1
 90
        2
176
     1
 62
     7
176
     1
 90
        5
176
     1
 90
        0
176
     1
 90
        0
176
     1
290
     0
176
     1
 90
       13
176
     1
 40
0.0
176
     1
 90
        0
176
     1
290
     0
176
     1
290
     1
176
     1
290
     1
176
     1
290
     0
176
     1
290
     0
176
     1
290
     0
176
     1
290
     0
176
     1
290
     0
176
     1
290
     0
176
     1
 90
       50
176
     1
 40
0.0
176
     1
 40
1.0
176
     1
 90
        0
176
     1
 62
    18
420
        0
176
     1
 90
       50
176
     1
 90
        3
176
     1
 62
     5
420
      255
176
     1
290
     0
176
     1
 90
       50
176
     1
 90
       50
176
     1
 90
       50
176
     1
290
     0
176
     1
 90
       50
176
     1
 62
   256
176
     0
 40
1.0
176
     0
 90
        2
176
     1
  1
strokes_ogs.tif
176
     1
290
     0
176
     1
 40
1.0
176
     1
 40
1.0
176
     1
  0
VISUALSTYLE
  5
2E
102
{ACAD_REACTORS
330
2A
102
}
330
2A
100
AcDbVisualStyle
  2
GouraudWithEdges
 70
     3
177
     3
291
     1
 70
    58
 90
        2
176
     1
 90
        2
176
     1
 90
        1
176
     1
 90
        2
176
     1
 40
0.6
176
     1
 40
30.0
176
     1
 62
     7
420
 16777215
176
     1
 90
        1
176
     1
 90
        0
176
     1
 62
     7
176
     1
 62
   257
176
     1
 90
        1
176
     1
 90
        1
176
     1
 40
1.0
176
     1
 90
        0
176
     1
 62
   257
176
     1
 40
1.0
176
     1
 90
        1
176
     1
 90
        6
176
     1
 90
        2
176
     1
 62
     7
176
     1
 90
        5
176
     1
 90
        0
176
     1
 90
        0
176
     1
290
     0
176
     1
 90
       13
176
     1
 40
0.0
176
     1
 90
        0
176
     1
290
     0
176
     1
290
     1
176
     1
290
     1
176
     1
290
     0
176
     1
290
     0
176
     1
290
     0
176
     1
290
     0
176
     1
290
     0
176
     1
290
     0
176
     1
 90
       50
176
     1
 40
0.0
176
     1
 40
1.0
176
     1
 90
        0
176
     1
 62
    18
420
        0
176
     1
 90
       50
176
     1
 90
        3
176
     1
 62
     5
420
      255
176
     1
290
     0
176
     1
 90
       50
176
     1
 90
       50
176
     1
 90
       50
176
     1
290
     0
176
     1
 90
       50
176
     1
 62
   256
176
     0
 40
1.0
176
     0
 90
        2
176
     1
  1
strokes_ogs.tif
176
     1
290
     0
176
     1
 40
1.0
176
     1
 40
1.0
176
     1
  0
VISUALSTYLE
  5
31
102
{ACAD_REACTORS
330
2A
102
}
330
2A
100
AcDbVisualStyle
  2
Hidden
 70
     6
177
     3
291
     0
 70
    58
 90
        1
176
     1
 90
        2
176
     1
 90
        2
176
     1
 90
        0
176
     1
 40
0.6
176
     1
 40
30.0
176
     1
 62
     7
420
 16777215
176
     1
 90
        2
176
     1
 90
        2
176
     1
 62
     7
176
     1
 62
   257
176
     1
 90
        2
176
     1
 90
        1
176
     1
 40
40.0
176
     1
 90
        0
176
     1
 62
   257
176
     1
 40
1.0
176
     1
 90
        1
176
     1
 90
        6
176
     1
 90
        2
176
     1
 62
     7
176
     1
 90
        3
176
     1
 90
        0
176
     1
 90
        0
176
     1
290
     0
176
     1
 90
        1
176
     1
 40
0.0
176
     1
 90
        0
176
     1
290
     0
176
     1
290
     1
176
     1
290
     1
176
     1
290
     0
176
     1
290
     0
176
     1
290
     0
176
     1
290
     0
176
     1
290
     0
176
     1
290
     0
176
     1
 90
       50
176
     1
 40
0.0
176
     1
 40
1.0
176
     1
 90
        0
176
     1
 62
    18
420
        0
176
     1
 90
       50
176
     1
 90
        3
176
     1
 62
     5
420
      255
176
     1
290
     0
176
     1
 90
       50
176
     1
 90
       50
176
     1
 90
       50
176
     1
290
     0
176
     1
 90
       50
176
     1
 62
   256
176
     0
 40
1.0
176
     0
 90
        2
176
     1
  1
strokes_ogs.tif
176
     1
290
     0
176
     1
 40
1.0
176
     1
 40
1.0
176
     1
  0
VISUALSTYLE
  5
3B
102
{ACAD_REACTORS
330
2A
102
}
330
2A
100
AcDbVisualStyle
  2
JitterOff
 70
    20
177
     3
291
     1
 70
    58
 90
        2
176
     0
 90
        2
176
     0
 90
        0
176
     0
 90
        0
176
     0
 40
0.6
176
     0
 40
30.0
176
     0
 62
     7
420
 16777215
176
     0
 90
        1
176
     0
 90
        4
176
     0
 62
     7
176
     0
 62
   257
176
     0
 90
        1
176
     0
 90
        1
176
     0
 40
1.0
176
     0
 90
       10
176
     2
 62
     7
176
     0
 40
1.0
176
     0
 90
        1
176
     0
 90
        6
176
     0
 90
        2
176
     0
 62
     7
176
     0
 90
        5
176
     0
 90
        0
176
     0
 90
        0
176
     0
290
     0
176
     0
 90
        1
176
     0
 40
0.0
176
     0
 90
        0
176
     0
290
     0
176
     0
290
     1
176
     0
290
     1
176
     0
290
     0
176
     0
290
     0
176
     0
290
     0
176
     0
290
     0
176
     0
290
     0
176
     0
290
     0
176
     0
 90
       50
176
     0
 40
0.0
176
     0
 40
1.0
176
     0
 90
        0
176
     0
 62
    18
420
        0
176
     0
 90
       50
176
     0
 90
        3
176
     0
 62
     5
420
      255
176
     0
290
     0
176
     0
 90
       50
176
     0
 90
       50
176
     0
 90
       50
176
     0
290
     0
176
     0
 90
       50
176
     0
 62
   256
176
     0
 40
1.0
176
     0
 90
        2
176
     0
  1
strokes_ogs.tif
176
     0
290
     0
176
     0
 40
1.0
176
     0
 40
1.0
176
     0
  0
VISUALSTYLE
  5
38
102
{ACAD_REACTORS
330
2A
102
}
330
2A
100
AcDbVisualStyle
  2
Linepattern
 70
    14
177
     3
291
     1
 70
    58
 90
        2
176
     1
 90
        2
176
     1
 90
        0
176
     1
 90
        0
176
     1
 40
0.6
176
     1
 40
30.0
176
     1
 62
     7
420
 16777215
176
     1
 90
        1
176
     1
 90
        4
176
     1
 62
     7
176
     1
 62
   257
176
     1
 90
        7
176
     1
 90
        7
176
     1
 40
1.0
176
     1
 90
        8
176
     1
 62
     7
176
     1
 40
1.0
176
     1
 90
        1
176
     1
 90
        6
176
     1
 90
        2
176
     1
 62
     7
176
     1
 90
        5
176
     1
 90
        0
176
     1
 90
        0
176
     1
290
     0
176
     1
 90
        1
176
     1
 40
0.0
176
     1
 90
        0
176
     1
290
     0
176
     1
290
     1
176
     1
290
     1
176
     1
290
     0
176
     1
290
     0
176
     1
290
     0
176
     1
290
     0
176
     1
290
     0
176
     1
290
     0
176
     1
 90
       50
176
     1
 40
0.0
176
     1
 40
1.0
176
     1
 90
        0
176
     1
 62
    18
420
        0
176
     1
 90
       50
176
     1
 90
        3
176
     1
 62
     5
420
      255
176
     1
290
     0
176
     1
 90
       50
176
     1
 90
       50
176
     1
 90
       50
176
     1
290
     0
176
     1
 90
       50
176
     1
 62
   256
176
     0
 40
1.0
176
     0
 90
        2
176
     1
  1
strokes_ogs.tif
176
     1
290
     0
176
     1
 40
1.0
176
     1
 40
1.0
176
     1
  0
VISUALSTYLE
  5
3C
102
{ACAD_REACTORS
330
2A
102
}
330
2A
100
AcDbVisualStyle
  2
OverhangOff
 70
    21
177
     3
291
     1
 70
    58
 90
        2
176
     0
 90
        2
176
     0
 90
        0
176
     0
 90
        0
176
     0
 40
0.6
176
     0
 40
30.0
176
     0
 62
     7
420
 16777215
176
     0
 90
        1
176
     0
 90
        4
176
     0
 62
     7
176
     0
 62
   257
176
     0
 90
        1
176
     0
 90
        1
176
     0
 40
1.0
176
     0
 90
        9
176
     2
 62
     7
176
     0
 40
1.0
176
     0
 90
        1
176
     0
 90
        6
176
     0
 90
        2
176
     0
 62
     7
176
     0
 90
        5
176
     0
 90
        0
176
     0
 90
        0
176
     0
290
     0
176
     0
 90
        1
176
     0
 40
0.0
176
     0
 90
        0
176
     0
290
     0
176
     0
290
     1
176
     0
290
     1
176
     0
290
     0
176
     0
290
     0
176
     0
290
     0
176
     0
290
     0
176
     0
290
     0
176
     0
290
     0
176
     0
 90
       50
176
     0
 40
0.0
176
     0
 40
1.0
176
     0
 90
        0
176
     0
 62
    18
420
        0
176
     0
 90
       50
176
     0
 90
        3
176
     0
 62
     5
420
      255
176
     0
290
     0
176
     0
 90
       50
176
     0
 90
       50
176
     0
 90
       50
176
     0
290
     0
176
     0
 90
       50
176
     0
 62
   256
176
     0
 40
1.0
176
     0
 90
        2
176
     0
  1
strokes_ogs.tif
176
     0
290
     0
176
     0
 40
1.0
176
     0
 40
1.0
176
     0
  0
VISUALSTYLE
  5
33
102
{ACAD_REACTORS
330
2A
102
}
330
2A
100
AcDbVisualStyle
  2
Realistic
 70
     8
177
     3
291
     0
 70
    58
 90
        2
176
     1
 90
        3
176
     1
 90
        0
176
     1
 90
        2
176
     1
 40
0.6
176
     1
 40
30.0
176
     1
 62
     7
420
 16777215
176
     1
 90
        0
176
     1
 90
        0
176
     1
 62
     7
176
     1
 62
   257
176
     1
 90
        1
176
     1
 90
        1
176
     1
 40
1.0
176
     1
 90
        8
176
     1
 62
   257
176
     1
 40
1.0
176
     1
 90
        1
176
     1
 90
        6
176
     1
 90
        2
176
     1
 62
     7
176
     1
 90
        3
176
     1
 90
        0
176
     1
 90
        0
176
     1
290
     0
176
     1
 90
       13
176
     1
 40
0.0
176
     1
 90
        0
176
     1
290
     0
176
     1
290
     1
176
     1
290
     1
176
     1
290
     0
176
     1
290
     0
176
     1
290
     0
176
     1
290
     0
176
     1
290
     0
176
     1
290
     0
176
     1
 90
       50
176
     1
 40
0.0
176
     1
 40
1.0
176
     1
 90
        0
176
     1
 62
    18
420
        0
176
     1
 90
       50
176
     1
 90
        3
176
     1
 62
     5
420
      255
176
     1
290
     0
176
     1
 90
       50
176
     1
 90
       50
176
     1
 90
       50
176
     1
290
     0
176
     1
 90
       50
176
     1
 62
   256
176
     0
 40
1.0
176
     0
 90
        2
176
     1
  1
strokes_ogs.tif
176
     1
290
     0
176
     1
 40
1.0
176
     1
 40
1.0
176
     1
  0
VISUALSTYLE
  5
42
102
{ACAD_REACTORS
330
2A
102
}
330
2A
100
AcDbVisualStyle
  2
Shaded
 70
    27
177
     3
291
     0
 70
    58
 90
        2
176
     1
 90
        2
176
     1
 90
        1
176
     1
 90
        2
176
     1
 40
0.6
176
     1
 40
30.0
176
     1
 62
     7
420
 16777215
176
     1
 90
        0
176
     1
 90
        4
176
     1
 62
     7
176
     1
 62
   257
176
     1
 90
        1
176
     1
 90
        1
176
     1
 40
1.0
176
     1
 90
        8
176
     1
 62
   257
176
     1
 40
1.0
176
     1
 90
        1
176
     1
 90
        6
176
     1
 90
        2
176
     1
 62
     8
420
  7895160
176
     1
 90
        3
176
     1
 90
        0
176
     1
 90
        0
176
     1
290
     0
176
     1
 90
        5
176
     1
 40
0.0
176
     1
 90
        0
176
     1
290
     0
176
     1
290
     1
176
     1
290
     1
176
     1
290
     0
176
     1
290
     0
176
     1
290
     0
176
     1
290
     0
176
     1
290
     0
176
     1
290
     0
176
     1
 90
       50
176
     1
 40
0.0
176
     1
 40
1.0
176
     1
 90
        0
176
     1
 62
    18
420
        0
176
     1
 90
       50
176
     1
 90
        3
176
     1
 62
     5
420
      255
176
     1
290
     0
176
     1
 90
       50
176
     1
 90
       50
176
     1
 90
       50
176
     1
290
     0
176
     1
 90
       50
176
     1
 62
   256
176
     0
 40
1.0
176
     0
 90
        2
176
     1
  1
strokes_ogs.tif
176
     1
290
     0
176
     1
 40
1.0
176
     1
 40
1.0
176
     1
  0
VISUALSTYLE
  5
41
102
{ACAD_REACTORS
330
2A
102
}
330
2A
100
AcDbVisualStyle
  2
Shaded with edges
 70
    26
177
     3
291
     0
 70
    58
 90
        2
176
     1
 90
        2
176
     1
 90
        1
176
     1
 90
        2
176
     1
 40
0.6
176
     1
 40
30.0
176
     1
 62
     7
420
 16777215
176
     1
 90
        1
176
     1
 90
       10
176
     1
 62
     7
176
     1
 62
   257
176
     1
 90
        2
176
     1
 90
        1
176
     1
 40
1.0
176
     1
 90
        8
176
     1
 62
   257
176
     1
 40
1.0
176
     1
 90
        1
176
     1
 90
        6
176
     1
 90
        2
176
     1
 62
     7
176
     1
 90
        3
176
     1
 90
        0
176
     1
 90
        0
176
     1
290
     0
176
     1
 90
        5
176
     1
 40
0.0
176
     1
 90
        0
176
     1
290
     0
176
     1
290
     1
176
     1
290
     1
176
     1
290
     0
176
     1
290
     0
176
     1
290
     0
176
     1
290
     0
176
     1
290
     0
176
     1
290
     0
176
     1
 90
       50
176
     1
 40
0.0
176
     1
 40
1.0
176
     1
 90
        0
176
     1
 62
    18
420
        0
176
     1
 90
       50
176
     1
 90
        3
176
     1
 62
     5
420
      255
176
     1
290
     0
176
     1
 90
       50
176
     1
 90
       50
176
     1
 90
       50
176
     1
290
     0
176
     1
 90
       50
176
     1
 62
   256
176
     0
 40
1.0
176
     0
 90
        2
176
     1
  1
strokes_ogs.tif
176
     1
290
     0
176
     1
 40
1.0
176
     1
 40
1.0
176
     1
  0
VISUALSTYLE
  5
3E
102
{ACAD_REACTORS
330
2A
102
}
330
2A
100
AcDbVisualStyle
  2
Shades of Gray
 70
    23
177
     3
291
     0
 70
    58
 90
        2
176
     1
 90
        2
176
     1
 90
        3
176
     1
 90
        0
176
     1
 40
0.6
176
     1
 40
30.0
176
     1
 62
     7
420
 16777215
176
     1
 90
        2
176
     1
 90
        2
176
     1
 62
     7
176
     1
 62
     7
176
     1
 90
        1
176
     1
 90
        1
176
     1
 40
40.0
176
     1
 90
        8
176
     1
 62
     7
176
     1
 40
1.0
176
     1
 90
        1
176
     1
 90
        6
176
     1
 90
        2
176
     1
 62
     7
176
     1
 90
        3
176
     1
 90
        0
176
     1
 90
        0
176
     1
290
     0
176
     1
 90
        1
176
     1
 40
0.0
176
     1
 90
        0
176
     1
290
     0
176
     1
290
     1
176
     1
290
     1
176
     1
290
     0
176
     1
290
     0
176
     1
290
     0
176
     1
290
     0
176
     1
290
     0
176
     1
290
     0
176
     1
 90
       50
176
     1
 40
0.0
176
     1
 40
1.0
176
     1
 90
        0
176
     1
 62
    18
420
        0
176
     1
 90
       50
176
     1
 90
        3
176
     1
 62
     5
420
      255
176
     1
290
     0
176
     1
 90
       50
176
     1
 90
       50
176
     1
 90
       50
176
     1
290
     0
176
     1
 90
       50
176
     1
 62
   256
176
     0
 40
1.0
176
     0
 90
        2
176
     1
  1
strokes_ogs.tif
176
     1
290
     0
176
     1
 40
1.0
176
     1
 40
1.0
176
     1
  0
VISUALSTYLE
  5
3F
102
{ACAD_REACTORS
330
2A
102
}
330
2A
100
AcDbVisualStyle
  2
Sketchy
 70
    24
177
     3
291
     0
 70
    58
 90
        1
176
     1
 90
        2
176
     1
 90
        2
176
     1
 90
        0
176
     1
 40
0.6
176
     1
 40
30.0
176
     1
 62
     7
420
 16777215
176
     1
 90
        2
176
     1
 90
        2
176
     1
 62
     7
176
     1
 62
     7
176
     1
 90
        1
176
     1
 90
        1
176
     1
 40
40.0
176
     1
 90
       11
176
     1
 62
     7
176
     1
 40
1.0
176
     1
 90
        1
176
     1
 90
        6
176
     1
 90
        2
176
     1
 62
     7
176
     1
 90
        6
176
     1
 90
        0
176
     1
 90
        0
176
     1
290
     0
176
     1
 90
        1
176
     1
 40
0.0
176
     1
 90
        0
176
     1
290
     0
176
     1
290
     1
176
     1
290
     1
176
     1
290
     0
176
     1
290
     0
176
     1
290
     0
176
     1
290
     0
176
     1
290
     0
176
     1
290
     0
176
     1
 90
       50
176
     1
 40
0.0
176
     1
 40
1.0
176
     1
 90
        0
176
     1
 62
    18
420
        0
176
     1
 90
       50
176
     1
 90
        3
176
     1
 62
     5
420
      255
176
     1
290
     0
176
     1
 90
       50
176
     1
 90
       50
176
     1
 90
       50
176
     1
290
     0
176
     1
 90
       50
176
     1
 62
   256
176
     0
 40
1.0
176
     0
 90
        2
176
     1
  1
strokes_ogs.tif
176
     1
290
     0
176
     1
 40
1.0
176
     1
 40
1.0
176
     1
  0
VISUALSTYLE
  5
37
102
{ACAD_REACTORS
330
2A
102
}
330
2A
100
AcDbVisualStyle
  2
Thicken
 70
    13
177
     3
291
     1
 70
    58
 90
        2
176
     1
 90
        2
176
     1
 90
        0
176
     1
 90
        0
176
     1
 40
0.6
176
     1
 40
30.0
176
     1
 62
     7
420
 16777215
176
     1
 90
        1
176
     1
 90
        4
176
     1
 62
     7
176
     1
 62
   257
176
     1
 90
        1
176
     1
 90
        1
176
     1
 40
1.0
176
     1
 90
       12
176
     1
 62
     7
176
     1
 40
1.0
176
     1
 90
        1
176
     1
 90
        6
176
     1
 90
        2
176
     1
 62
     7
176
     1
 90
        5
176
     1
 90
        0
176
     1
 90
        0
176
     1
290
     0
176
     1
 90
        1
176
     1
 40
0.0
176
     1
 90
        0
176
     1
290
     0
176
     1
290
     1
176
     1
290
     1
176
     1
290
     0
176
     1
290
     0
176
     1
290
     0
176
     1
290
     0
176
     1
290
     0
176
     1
290
     0
176
     1
 90
       50
176
     1
 40
0.0
176
     1
 40
1.0
176
     1
 90
        0
176
     1
 62
    18
420
        0
176
     1
 90
       50
176
     1
 90
        3
176
     1
 62
     5
420
      255
176
     1
290
     0
176
     1
 90
       50
176
     1
 90
       50
176
     1
 90
       50
176
     1
290
     0
176
     1
 90
       50
176
     1
 62
   256
176
     0
 40
1.0
176
     0
 90
        2
176
     1
  1
strokes_ogs.tif
176
     1
290
     0
176
     1
 40
1.0
176
     1
 40
1.0
176
     1
  0
VISUALSTYLE
  5
30
102
{ACAD_REACTORS
330
2A
102
}
330
2A
100
AcDbVisualStyle
  2
Wireframe
 70
     5
177
     3
291
     0
 70
    58
 90
        0
176
     1
 90
        2
176
     1
 90
        0
176
     1
 90
        0
176
     1
 40
0.6
176
     1
 40
30.0
176
     1
 62
     7
420
 16777215
176
     1
 90
        1
176
     1
 90
        4
176
     1
 62
     7
176
     1
 62
   257
176
     1
 90
        1
176
     1
 90
        1
176
     1
 40
1.0
176
     1
 90
        0
176
     1
 62
   257
176
     1
 40
1.0
176
     1
 90
        1
176
     1
 90
        6
176
     1
 90
        2
176
     1
 62
     7
176
     1
 90
        3
176
     1
 90
        0
176
     1
 90
        0
176
     1
290
     0
176
     1
 90
        1
176
     1
 40
0.0
176
     1
 90
        0
176
     1
290
     0
176
     1
290
     1
176
     1
290
     1
176
     1
290
     0
176
     1
290
     0
176
     1
290
     0
176
     1
290
     0
176
     1
290
     0
176
     1
290
     0
176
     1
 90
       50
176
     1
 40
0.0
176
     1
 40
1.0
176
     1
 90
        0
176
     1
 62
    18
420
        0
176
     1
 90
       50
176
     1
 90
        3
176
     1
 62
     5
420
      255
176
     1
290
     0
176
     1
 90
       50
176
     1
 90
       50
176
     1
 90
       50
176
     1
290
     0
176
     1
 90
       50
176
     1
 62
   256
176
     0
 40
1.0
176
     0
 90
        2
176
     1
  1
strokes_ogs.tif
176
     1
290
     0
176
     1
 40
1.0
176
     1
 40
1.0
176
     1
  0
VISUALSTYLE
  5
40
102
{ACAD_REACTORS
330
2A
102
}
330
2A
100
AcDbVisualStyle
  2
X-Ray
 70
    25
177
     3
291
     0
 70
    58
 90
        2
176
     1
 90
        2
176
     1
 90
        1
176
     1
 90
        1
176
     1
 40
0.5
176
     1
 40
30.0
176
     1
 62
     7
420
 16777215
176
     1
 90
        1
176
     1
 90
        0
176
     1
 62
     7
176
     1
 62
   257
176
     1
 90
        1
176
     1
 90
        1
176
     1
 40
1.0
176
     1
 90
        8
176
     1
 62
     7
176
     1
 40
1.0
176
     1
 90
        1
176
     1
 90
        6
176
     1
 90
        2
176
     1
 62
     7
176
     1
 90
        3
176
     1
 90
        0
176
     1
 90
        0
176
     1
290
     0
176
     1
 90
       13
176
     1
 40
0.0
176
     1
 90
        0
176
     1
290
     0
176
     1
290
     1
176
     1
290
     1
176
     1
290
     0
176
     1
290
     0
176
     1
290
     0
176
     1
290
     0
176
     1
290
     0
176
     1
290
     0
176
     1
 90
       50
176
     1
 40
0.0
176
     1
 40
1.0
176
     1
 90
        0
176
     1
 62
    18
420
        0
176
     1
 90
       50
176
     1
 90
        3
176
     1
 62
     5
420
      255
176
     1
290
     0
176
     1
 90
       50
176
     1
 90
       50
176
     1
 90
       50
176
     1
290
     0
176
     1
 90
       50
176
     1
 62
   256
176
     0
 40
1.0
176
     0
 90
        2
176
     1
  1
strokes_ogs.tif
176
     1
290
     0
176
     1
 40
1.0
176
     1
 40
1.0
176
     1
  0
DICTIONARYVAR
  5
25C
102
{ACAD_REACTORS
330
25B
102
}
330
25B
100
DictionaryVariables
280
     0
  1
1:1
  0
DICTIONARYVAR
  5
261
102
{ACAD_REACTORS
330
25B
102
}
330
25B
100
DictionaryVariables
280
     0
  1
Standard
  0
DICTIONARYVAR
  5
260
102
{ACAD_REACTORS
330
25B
102
}
330
25B
100
DictionaryVariables
280
     0
  1
Standard
  0
DICTIONARY
  5
25D
330
6A
100
AcDbDictionary
280
     1
281
     1
  3
ACAD_ROUNDTRIP_2008_TABLESTYLE_CELLSTYLEMAP
360
25E
  0
CELLSTYLEMAP
  5
25E
102
{ACAD_REACTORS
330
25D
102
}
330
25D
100
AcDbCellStyleMap
 90
        3
300
CELLSTYLE
  1
TABLEFORMAT_BEGIN
 90
        5
170
     1
 91
        0
 92
    32768
 62
   257
 93
        1
300
CONTENTFORMAT
  1
CONTENTFORMAT_BEGIN
 90
        0
 91
        0
 92
        4
 93
        0
300

 40
0.0
140
1.0
 94
        5
 62
     0
340
11
144
0.25
309
CONTENTFORMAT_END
171
     1
301
MARGIN
  1
CELLMARGIN_BEGIN
 40
0.06
 40
0.06
 40
0.06
 40
0.06
 40
0.06
 40
0.06
309
CELLMARGIN_END
 94
        6
 95
        1
302
GRIDFORMAT
  1
GRIDFORMAT_BEGIN
 90
        0
 91
        1
 62
     0
 92
       -2
340
14
 93
        0
 40
0.045
309
GRIDFORMAT_END
 95
        2
302
GRIDFORMAT
  1
GRIDFORMAT_BEGIN
 90
        0
 91
        1
 62
     0
 92
       -2
340
14
 93
        0
 40
0.045
309
GRIDFORMAT_END
 95
        4
302
GRIDFORMAT
  1
GRIDFORMAT_BEGIN
 90
        0
 91
        1
 62
     0
 92
       -2
340
14
 93
        0
 40
0.045
309
GRIDFORMAT_END
 95
        8
302
GRIDFORMAT
  1
GRIDFORMAT_BEGIN
 90
        0
 91
        1
 62
     0
 92
       -2
340
14
 93
        0
 40
0.045
309
GRIDFORMAT_END
 95
       16
302
GRIDFORMAT
  1
GRIDFORMAT_BEGIN
 90
        0
 91
        1
 62
     0
 92
       -2
340
14
 93
        0
 40
0.045
309
GRIDFORMAT_END
 95
       32
302
GRIDFORMAT
  1
GRIDFORMAT_BEGIN
 90
        0
 91
        1
 62
     0
 92
       -2
340
14
 93
        0
 40
0.045
309
GRIDFORMAT_END
309
TABLEFORMAT_END
  1
CELLSTYLE_BEGIN
 90
        1
 91
        1
300
_TITLE
309
CELLSTYLE_END
300
CELLSTYLE
  1
TABLEFORMAT_BEGIN
 90
        5
170
     1
 91
        0
 92
        0
 62
   257
 93
        1
300
CONTENTFORMAT
  1
CONTENTFORMAT_BEGIN
 90
        0
 91
        0
 92
        4
 93
        0
300

 40
0.0
140
1.0
 94
        5
 62
     0
340
11
144
0.18
309
CONTENTFORMAT_END
171
     1
301
MARGIN
  1
CELLMARGIN_BEGIN
 40
0.06
 40
0.06
 40
0.06
 40
0.06
 40
0.06
 40
0.06
309
CELLMARGIN_END
 94
        6
 95
        1
302
GRIDFORMAT
  1
GRIDFORMAT_BEGIN
 90
        0
 91
        1
 62
     0
 92
       -2
340
14
 93
        0
 40
0.045
309
GRIDFORMAT_END
 95
        2
302
GRIDFORMAT
  1
GRIDFORMAT_BEGIN
 90
        0
 91
        1
 62
     0
 92
       -2
340
14
 93
        0
 40
0.045
309
GRIDFORMAT_END
 95
        4
302
GRIDFORMAT
  1
GRIDFORMAT_BEGIN
 90
        0
 91
        1
 62
     0
 92
       -2
340
14
 93
        0
 40
0.045
309
GRIDFORMAT_END
 95
        8
302
GRIDFORMAT
  1
GRIDFORMAT_BEGIN
 90
        0
 91
        1
 62
     0
 92
       -2
340
14
 93
        0
 40
0.045
309
GRIDFORMAT_END
 95
       16
302
GRIDFORMAT
  1
GRIDFORMAT_BEGIN
 90
        0
 91
        1
 62
     0
 92
       -2
340
14
 93
        0
 40
0.045
309
GRIDFORMAT_END
 95
       32
302
GRIDFORMAT
  1
GRIDFORMAT_BEGIN
 90
        0
 91
        1
 62
     0
 92
       -2
340
14
 93
        0
 40
0.045
309
GRIDFORMAT_END
309
TABLEFORMAT_END
  1
CELLSTYLE_BEGIN
 90
        2
 91
        1
300
_HEADER
309
CELLSTYLE_END
300
CELLSTYLE
  1
TABLEFORMAT_BEGIN
 90
        5
170
     1
 91
        0
 92
        0
 62
   257
 93
        1
300
CONTENTFORMAT
  1
CONTENTFORMAT_BEGIN
 90
        0
 91
        0
 92
        4
 93
        0
300

 40
0.0
140
1.0
 94
        2
 62
     0
340
11
144
0.18
309
CONTENTFORMAT_END
171
     1
301
MARGIN
  1
CELLMARGIN_BEGIN
 40
0.06
 40
0.06
 40
0.06
 40
0.06
 40
0.06
 40
0.06
309
CELLMARGIN_END
 94
        6
 95
        1
302
GRIDFORMAT
  1
GRIDFORMAT_BEGIN
 90
        0
 91
        1
 62
     0
 92
       -2
340
14
 93
        0
 40
0.045
309
GRIDFORMAT_END
 95
        2
302
GRIDFORMAT
  1
GRIDFORMAT_BEGIN
 90
        0
 91
        1
 62
     0
 92
       -2
340
14
 93
        0
 40
0.045
309
GRIDFORMAT_END
 95
        4
302
GRIDFORMAT
  1
GRIDFORMAT_BEGIN
 90
        0
 91
        1
 62
     0
 92
       -2
340
14
 93
        0
 40
0.045
309
GRIDFORMAT_END
 95
        8
302
GRIDFORMAT
  1
GRIDFORMAT_BEGIN
 90
        0
 91
        1
 62
     0
 92
       -2
340
14
 93
        0
 40
0.045
309
GRIDFORMAT_END
 95
       16
302
GRIDFORMAT
  1
GRIDFORMAT_BEGIN
 90
        0
 91
        1
 62
     0
 92
       -2
340
14
 93
        0
 40
0.045
309
GRIDFORMAT_END
 95
       32
302
GRIDFORMAT
  1
GRIDFORMAT_BEGIN
 90
        0
 91
        1
 62
     0
 92
       -2
340
14
 93
        0
 40
0.045
309
GRIDFORMAT_END
309
TABLEFORMAT_END
  1
CELLSTYLE_BEGIN
 90
        3
 91
        2
300
_DATA
309
CELLSTYLE_END
  0
ENDSEC
  0
EOF