0
SECTION
  2
HEADER
  9
$ACADVER
  1
AC1027
  9
$ACADMAINTVER
 70
     8
  9
$DWGCODEPAGE
  3
ANSI_1252
  9
$REQUIREDVERSIONS
160
                 0
  9
$COMMENTS
  1
File was created by Cadenas
  9
$CUSTOMPROPERTYTAG
  1
NN
  9
$CUSTOMPROPERTY
  1
TP Take-Up Trident Seal
  9
$CUSTOMPROPERTYTAG
  1
NT
  9
$CUSTOMPROPERTY
  1
S-2000 TPHU Take-Up Bearing -Inch
  9
$CUSTOMPROPERTYTAG
  1
NB
  9
$CUSTOMPROPERTY
  1
070821
  9
$CUSTOMPROPERTYTAG
  1
NBSYN
  9
$CUSTOMPROPERTY
  1
$PN.
  9
$CUSTOMPROPERTYTAG
  1
LINA
  9
$CUSTOMPROPERTY
  1
070821
  9
$CUSTOMPROPERTYTAG
  1
SS
  9
$CUSTOMPROPERTY
  1
3-7/16
  9
$CUSTOMPROPERTYTAG
  1
PN
  9
$CUSTOMPROPERTY
  1
070821
  9
$CUSTOMPROPERTYTAG
  1
DESCRIPTION
  9
$CUSTOMPROPERTY
  1
TPHU-S2-307R
  9
$CUSTOMPROPERTYTAG
  1
EF
  9
$CUSTOMPROPERTY
  1
Non-Expansion Type
  9
$CUSTOMPROPERTYTAG
  1
ST
  9
$CUSTOMPROPERTY
  1
Contact Seal
  9
$CUSTOMPROPERTYTAG
  1
A
  9
$CUSTOMPROPERTY
  1
4
  9
$CUSTOMPROPERTYTAG
  1
B
  9
$CUSTOMPROPERTY
  1
3-1/8
  9
$CUSTOMPROPERTYTAG
  1
C
  9
$CUSTOMPROPERTY
  1
13/16
  9
$CUSTOMPROPERTYTAG
  1
D
  9
$CUSTOMPROPERTY
  1
8-13/32
  9
$CUSTOMPROPERTYTAG
  1
E
  9
$CUSTOMPROPERTY
  1
4-3/32
  9
$CUSTOMPROPERTYTAG
  1
F
  9
$CUSTOMPROPERTY
  1
1-9/16
  9
$CUSTOMPROPERTYTAG
  1
G
  9
$CUSTOMPROPERTY
  1
11/16
  9
$CUSTOMPROPERTYTAG
  1
H
  9
$CUSTOMPROPERTY
  1
9-1/2
  9
$CUSTOMPROPERTYTAG
  1
J
  9
$CUSTOMPROPERTY
  1
10-1/16
  9
$CUSTOMPROPERTYTAG
  1
K
  9
$CUSTOMPROPERTY
  1
4-1/2
  9
$CUSTOMPROPERTYTAG
  1
L
  9
$CUSTOMPROPERTY
  1
5-1/2
  9
$CUSTOMPROPERTYTAG
  1
M
  9
$CUSTOMPROPERTY
  1
9
  9
$CUSTOMPROPERTYTAG
  1
N
  9
$CUSTOMPROPERTY
  1
2-17/32
  9
$CUSTOMPROPERTYTAG
  1
P
  9
$CUSTOMPROPERTY
  1
2-1/4
  9
$CUSTOMPROPERTYTAG
  1
Q
  9
$CUSTOMPROPERTY
  1
1-5/16
  9
$CUSTOMPROPERTYTAG
  1
R
  9
$CUSTOMPROPERTY
  1
4-7/32
  9
$CUSTOMPROPERTYTAG
  1
S
  9
$CUSTOMPROPERTY
  1
2-21/32
  9
$CUSTOMPROPERTYTAG
  1
T
  9
$CUSTOMPROPERTY
  1
5/16
  9
$CUSTOMPROPERTYTAG
  1
U
  9
$CUSTOMPROPERTY
  1
1-23/32
  9
$CUSTOMPROPERTYTAG
  1
V
  9
$CUSTOMPROPERTY
  1
3-1/8
  9
$CUSTOMPROPERTYTAG
  1
W
  9
$CUSTOMPROPERTY
  1
31/32
  9
$CUSTOMPROPERTYTAG
  1
X
  9
$CUSTOMPROPERTY
  1
1/4
  9
$CUSTOMPROPERTYTAG
  1
Y
  9
$CUSTOMPROPERTY
  1
0.025
  9
$CUSTOMPROPERTYTAG
  1
Z
  9
$CUSTOMPROPERTY
  1
4-3/64
  9
$CUSTOMPROPERTYTAG
  1
COMPANY
  9
$CUSTOMPROPERTY
  1
baldor
  9
$INSBASE
 10
0.0
 20
0.0
 30
0.0
  9
$EXTMIN
 10
1.000000000000000E+20
 20
1.000000000000000E+20
 30
1.000000000000000E+20
  9
$EXTMAX
 10
-1.000000000000000E+20
 20
-1.000000000000000E+20
 30
-1.000000000000000E+20
  9
$LIMMIN
 10
0.0
 20
0.0
  9
$LIMMAX
 10
12.0
 20
9.0
  9
$ORTHOMODE
 70
     0
  9
$REGENMODE
 70
     1
  9
$FILLMODE
 70
     1
  9
$QTEXTMODE
 70
     0
  9
$MIRRTEXT
 70
     1
  9
$LTSCALE
 40
1.0
  9
$ATTMODE
 70
     1
  9
$TEXTSIZE
 40
0.2
  9
$TRACEWID
 40
0.05
  9
$TEXTSTYLE
  7
Standard
  9
$CLAYER
  8
0
  9
$CELTYPE
  6
ByLayer
  9
$CECOLOR
 62
   256
  9
$CELTSCALE
 40
1.0
  9
$DISPSILH
 70
     0
  9
$DIMSCALE
 40
1.0
  9
$DIMASZ
 40
0.18
  9
$DIMEXO
 40
0.0625
  9
$DIMDLI
 40
0.38
  9
$DIMRND
 40
0.0
  9
$DIMDLE
 40
0.0
  9
$DIMEXE
 40
0.18
  9
$DIMTP
 40
0.0
  9
$DIMTM
 40
0.0
  9
$DIMTXT
 40
0.18
  9
$DIMCEN
 40
0.09
  9
$DIMTSZ
 40
0.0
  9
$DIMTOL
 70
     0
  9
$DIMLIM
 70
     0
  9
$DIMTIH
 70
     1
  9
$DIMTOH
 70
     1
  9
$DIMSE1
 70
     0
  9
$DIMSE2
 70
     0
  9
$DIMTAD
 70
     0
  9
$DIMZIN
 70
     0
  9
$DIMBLK
  1

  9
$DIMASO
 70
     1
  9
$DIMSHO
 70
     1
  9
$DIMPOST
  1

  9
$DIMAPOST
  1

  9
$DIMALT
 70
     0
  9
$DIMALTD
 70
     2
  9
$DIMALTF
 40
25.4
  9
$DIMLFAC
 40
1.0
  9
$DIMTOFL
 70
     0
  9
$DIMTVP
 40
0.0
  9
$DIMTIX
 70
     0
  9
$DIMSOXD
 70
     0
  9
$DIMSAH
 70
     0
  9
$DIMBLK1
  1

  9
$DIMBLK2
  1

  9
$DIMSTYLE
  2
Standard
  9
$DIMCLRD
 70
     0
  9
$DIMCLRE
 70
     0
  9
$DIMCLRT
 70
     0
  9
$DIMTFAC
 40
1.0
  9
$DIMGAP
 40
0.09
  9
$DIMJUST
 70
     0
  9
$DIMSD1
 70
     0
  9
$DIMSD2
 70
     0
  9
$DIMTOLJ
 70
     1
  9
$DIMTZIN
 70
     0
  9
$DIMALTZ
 70
     0
  9
$DIMALTTZ
 70
     0
  9
$DIMUPT
 70
     0
  9
$DIMDEC
 70
     4
  9
$DIMTDEC
 70
     4
  9
$DIMALTU
 70
     2
  9
$DIMALTTD
 70
     2
  9
$DIMTXSTY
  7
Standard
  9
$DIMAUNIT
 70
     0
  9
$DIMADEC
 70
     0
  9
$DIMALTRND
 40
0.0
  9
$DIMAZIN
 70
     0
  9
$DIMDSEP
 70
    46
  9
$DIMATFIT
 70
     3
  9
$DIMFRAC
 70
     0
  9
$DIMLDRBLK
  1

  9
$DIMLUNIT
 70
     2
  9
$DIMLWD
 70
    -2
  9
$DIMLWE
 70
    -2
  9
$DIMTMOVE
 70
     0
  9
$DIMFXL
 40
1.0
  9
$DIMFXLON
 70
     0
  9
$DIMJOGANG
 40
0.7853981633974483
  9
$DIMTFILL
 70
     0
  9
$DIMTFILLCLR
 70
     0
  9
$DIMARCSYM
 70
     0
  9
$DIMLTYPE
  6

  9
$DIMLTEX1
  6

  9
$DIMLTEX2
  6

  9
$DIMTXTDIRECTION
 70
     0
  9
$LUNITS
 70
     2
  9
$LUPREC
 70
     4
  9
$SKETCHINC
 40
0.1
  9
$FILLETRAD
 40
0.5
  9
$AUNITS
 70
     0
  9
$AUPREC
 70
     0
  9
$MENU
  1
.
  9
$ELEVATION
 40
0.0
  9
$PELEVATION
 40
0.0
  9
$THICKNESS
 40
0.0
  9
$LIMCHECK
 70
     0
  9
$CHAMFERA
 40
0.0
  9
$CHAMFERB
 40
0.0
  9
$CHAMFERC
 40
0.0
  9
$CHAMFERD
 40
0.0
  9
$SKPOLY
 70
     0
  9
$TDCREATE
 40
2458168.983987998
  9
$TDUCREATE
 40
2458168.942321331
  9
$TDUPDATE
 40
2458168.983988183
  9
$TDUUPDATE
 40
2458168.942321516
  9
$TDINDWG
 40
0.0000000116
  9
$TDUSRTIMER
 40
0.0000000116
  9
$USRTIMER
 70
     1
  9
$ANGBASE
 50
0.0
  9
$ANGDIR
 70
     0
  9
$PDMODE
 70
     0
  9
$PDSIZE
 40
0.0
  9
$PLINEWID
 40
0.0
  9
$SPLFRAME
 70
     0
  9
$SPLINETYPE
 70
     6
  9
$SPLINESEGS
 70
     8
  9
$HANDSEED
  5
24C
  9
$SURFTAB1
 70
     6
  9
$SURFTAB2
 70
     6
  9
$SURFTYPE
 70
     6
  9
$SURFU
 70
     6
  9
$SURFV
 70
     6
  9
$UCSBASE
  2

  9
$UCSNAME
  2

  9
$UCSORG
 10
0.0
 20
0.0
 30
0.0
  9
$UCSXDIR
 10
1.0
 20
0.0
 30
0.0
  9
$UCSYDIR
 10
0.0
 20
1.0
 30
0.0
  9
$UCSORTHOREF
  2

  9
$UCSORTHOVIEW
 70
     0
  9
$UCSORGTOP
 10
0.0
 20
0.0
 30
0.0
  9
$UCSORGBOTTOM
 10
0.0
 20
0.0
 30
0.0
  9
$UCSORGLEFT
 10
0.0
 20
0.0
 30
0.0
  9
$UCSORGRIGHT
 10
0.0
 20
0.0
 30
0.0
  9
$UCSORGFRONT
 10
0.0
 20
0.0
 30
0.0
  9
$UCSORGBACK
 10
0.0
 20
0.0
 30
0.0
  9
$PUCSBASE
  2

  9
$PUCSNAME
  2

  9
$PUCSORG
 10
0.0
 20
0.0
 30
0.0
  9
$PUCSXDIR
 10
1.0
 20
0.0
 30
0.0
  9
$PUCSYDIR
 10
0.0
 20
1.0
 30
0.0
  9
$PUCSORTHOREF
  2

  9
$PUCSORTHOVIEW
 70
     0
  9
$PUCSORGTOP
 10
0.0
 20
0.0
 30
0.0
  9
$PUCSORGBOTTOM
 10
0.0
 20
0.0
 30
0.0
  9
$PUCSORGLEFT
 10
0.0
 20
0.0
 30
0.0
  9
$PUCSORGRIGHT
 10
0.0
 20
0.0
 30
0.0
  9
$PUCSORGFRONT
 10
0.0
 20
0.0
 30
0.0
  9
$PUCSORGBACK
 10
0.0
 20
0.0
 30
0.0
  9
$USERI1
 70
     0
  9
$USERI2
 70
     0
  9
$USERI3
 70
     0
  9
$USERI4
 70
     0
  9
$USERI5
 70
     0
  9
$USERR1
 40
0.0
  9
$USERR2
 40
0.0
  9
$USERR3
 40
0.0
  9
$USERR4
 40
0.0
  9
$USERR5
 40
0.0
  9
$WORLDVIEW
 70
     1
  9
$SHADEDGE
 70
     3
  9
$SHADEDIF
 70
    70
  9
$TILEMODE
 70
     1
  9
$MAXACTVP
 70
    64
  9
$PINSBASE
 10
0.0
 20
0.0
 30
0.0
  9
$PLIMCHECK
 70
     0
  9
$PEXTMIN
 10
1.000000000000000E+20
 20
1.000000000000000E+20
 30
1.000000000000000E+20
  9
$PEXTMAX
 10
-1.000000000000000E+20
 20
-1.000000000000000E+20
 30
-1.000000000000000E+20
  9
$PLIMMIN
 10
0.0
 20
0.0
  9
$PLIMMAX
 10
12.0
 20
9.0
  9
$UNITMODE
 70
     0
  9
$VISRETAIN
 70
     1
  9
$PLINEGEN
 70
     0
  9
$PSLTSCALE
 70
     1
  9
$TREEDEPTH
 70
  3020
  9
$CMLSTYLE
  2
Standard
  9
$CMLJUST
 70
     0
  9
$CMLSCALE
 40
1.0
  9
$PROXYGRAPHICS
 70
     1
  9
$MEASUREMENT
 70
     0
  9
$CELWEIGHT
370
    -1
  9
$ENDCAPS
280
     0
  9
$JOINSTYLE
280
     0
  9
$LWDISPLAY
290
     0
  9
$INSUNITS
 70
     1
  9
$HYPERLINKBASE
  1

  9
$STYLESHEET
  1

  9
$XEDIT
290
     1
  9
$CEPSNTYPE
380
     0
  9
$PSTYLEMODE
290
     1
  9
$FINGERPRINTGUID
  2
{72AC9C8C-E182-41DB-90AA-5E1B83947D94}
  9
$VERSIONGUID
  2
{FAEB1C32-E019-11D5-929B-00C0DF256EC4}
  9
$EXTNAMES
290
     1
  9
$PSVPSCALE
 40
0.0
  9
$OLESTARTUP
290
     0
  9
$SORTENTS
280
   127
  9
$INDEXCTL
280
     0
  9
$HIDETEXT
280
     1
  9
$XCLIPFRAME
280
     2
  9
$HALOGAP
280
     0
  9
$OBSCOLOR
 70
   257
  9
$OBSLTYPE
280
     0
  9
$INTERSECTIONDISPLAY
280
     0
  9
$INTERSECTIONCOLOR
 70
   257
  9
$DIMASSOC
280
     2
  9
$PROJECTNAME
  1

  9
$CAMERADISPLAY
290
     0
  9
$LENSLENGTH
 40
50.0
  9
$CAMERAHEIGHT
 40
0.0
  9
$STEPSPERSEC
 40
2.0
  9
$STEPSIZE
 40
6.0
  9
$3DDWFPREC
 40
2.0
  9
$PSOLWIDTH
 40
0.25
  9
$PSOLHEIGHT
 40
4.0
  9
$LOFTANG1
 40
1.570796326794897
  9
$LOFTANG2
 40
1.570796326794897
  9
$LOFTMAG1
 40
0.0
  9
$LOFTMAG2
 40
0.0
  9
$LOFTPARAM
 70
     7
  9
$LOFTNORMALS
280
     1
  9
$LATITUDE
 40
37.795
  9
$LONGITUDE
 40
-122.394
  9
$NORTHDIRECTION
 40
0.0
  9
$TIMEZONE
 70
 -8000
  9
$LIGHTGLYPHDISPLAY
280
     1
  9
$TILEMODELIGHTSYNCH
280
     1
  9
$CMATERIAL
347
44
  9
$SOLIDHIST
280
     0
  9
$SHOWHIST
280
     1
  9
$DWFFRAME
280
     2
  9
$DGNFRAME
280
     2
  9
$REALWORLDSCALE
290
     1
  9
$INTERFERECOLOR
 62
   256
  9
$CSHADOW
280
     0
  9
$SHADOWPLANELOCATION
 40
0.0
  0
ENDSEC
  0
SECTION
  2
CLASSES
  0
CLASS
  1
ACDBDICTIONARYWDFLT
  2
AcDbDictionaryWithDefault
  3
ObjectDBX Classes
 90
        0
 91
        4
280
     0
281
     0
  0
CLASS
  1
VISUALSTYLE
  2
AcDbVisualStyle
  3
ObjectDBX Classes
 90
     4095
 91
        4
280
     0
281
     0
  0
CLASS
  1
MATERIAL
  2
AcDbMaterial
  3
ObjectDBX Classes
 90
     1153
 91
        4
280
     0
281
     0
  0
CLASS
  1
SCALE
  2
AcDbScale
  3
ObjectDBX Classes
 90
     1153
 91
        4
280
     0
281
     0
  0
CLASS
  1
TABLESTYLE
  2
AcDbTableStyle
  3
ObjectDBX Classes
 90
     4095
 91
        4
280
     0
281
     0
  0
CLASS
  1
MLEADERSTYLE
  2
AcDbMLeaderStyle
  3
ACDB_MLEADERSTYLE_CLASS
 90
     4095
 91
        4
280
     0
281
     0
  0
CLASS
  1
SUN
  2
AcDbSun
  3
SCENEOE
 90
     1153
 91
        4
280
     0
281
     0
  0
CLASS
  1
DICTIONARYVAR
  2
AcDbDictionaryVar
  3
ObjectDBX Classes
 90
        0
 91
        4
280
     0
281
     0
  0
CLASS
  1
CELLSTYLEMAP
  2
AcDbCellStyleMap
  3
ObjectDBX Classes
 90
     1152
 91
        4
280
     0
281
     0
  0
ENDSEC
  0
SECTION
  2
TABLES
  0
TABLE
  2
VPORT
  5
8
330
0
100
AcDbSymbolTable
 70
     1
  0
VPORT
  5
29
330
8
100
AcDbSymbolTableRecord
100
AcDbViewportTableRecord
  2
*Active
 70
     0
 10
0.0
 20
0.0
 11
1.0
 21
1.0
 12
-0.2642500000000005
 22
0.1771093749999988
 13
0.0
 23
0.0
 14
0.5
 24
0.5
 15
0.5
 25
0.5
 16
0.0
 26
0.0
 36
1.0
 17
0.0
 27
0.0
 37
0.0
 40
10.986196875
 41
0.490586511540191
 42
50.0
 43
0.0
 44
0.0
 50
0.0
 51
0.0
 71
     0
 72
   100
 73
     1
 74
     3
 75
     0
 76
     0
 77
     0
 78
     0
281
     0
 65
     1
110
0.0
120
0.0
130
0.0
111
1.0
121
0.0
131
0.0
112
0.0
122
1.0
132
0.0
 79
     0
146
0.0
348
2F
 60
     3
 61
     5
292
     1
282
     1
141
0.0
142
0.0
 63
   250
361
6D
  0
ENDTAB
  0
TABLE
  2
LTYPE
  5
5
330
0
100
AcDbSymbolTable
 70
     3
  0
LTYPE
  5
14
330
5
100
AcDbSymbolTableRecord
100
AcDbLinetypeTableRecord
  2
ByBlock
 70
     0
  3

 72
    65
 73
     0
 40
0.0
  0
LTYPE
  5
15
330
5
100
AcDbSymbolTableRecord
100
AcDbLinetypeTableRecord
  2
ByLayer
 70
     0
  3

 72
    65
 73
     0
 40
0.0
  0
LTYPE
  5
16
330
5
100
AcDbSymbolTableRecord
100
AcDbLinetypeTableRecord
  2
Continuous
 70
     0
  3
Solid line
 72
    65
 73
     0
 40
0.0
  0
LTYPE
  5
A7
330
5
100
AcDbSymbolTableRecord
100
AcDbLinetypeTableRecord
  2
Dashed
 70
     0
  3

 72
    65
 73
     2
 40
2.0
 49
1.0
 74
     0
 49
-1.0
 74
     0
  0
LTYPE
  5
1A6
330
5
100
AcDbSymbolTableRecord
100
AcDbLinetypeTableRecord
  2
Center
 70
     0
  3

 72
    65
 73
     4
 40
1.5
 49
0.45
 74
     0
 49
-0.5
 74
     0
 49
0.05
 74
     0
 49
-0.5
 74
     0
  0
ENDTAB
  0
TABLE
  2
LAYER
  5
2
330
0
100
AcDbSymbolTable
 70
     7
  0
LAYER
  5
10
330
2
100
AcDbSymbolTableRecord
100
AcDbLayerTableRecord
  2
0
 70
     0
 62
     7
  6
Continuous
370
    -3
390
F
347
46
348
0
  0
LAYER
  5
72
330
2
100
AcDbSymbolTableRecord
100
AcDbLayerTableRecord
  2
AM_6
 70
     0
 62
    -2
  6
Continuous
370
    35
390
F
347
46
348
0
  0
LAYER
  5
A8
330
2
100
AcDbSymbolTableRecord
100
AcDbLayerTableRecord
  2
AM_9
 70
     0
 62
     6
  6
Dashed
370
    25
390
F
347
46
348
0
  0
LAYER
  5
D1
330
2
100
AcDbSymbolTableRecord
100
AcDbLayerTableRecord
  2
AM_4
 70
     0
 62
     7
  6
Continuous
370
    50
390
F
347
46
348
0
  0
LAYER
  5
F9
330
2
100
AcDbSymbolTableRecord
100
AcDbLayerTableRecord
  2
AM_5
 70
     0
 62
     3
  6
Continuous
370
    25
390
F
347
46
348
0
  0
LAYER
  5
1A7
330
2
100
AcDbSymbolTableRecord
100
AcDbLayerTableRecord
  2
AM_7
 70
     0
 62
     7
  6
Center
370
    25
390
F
347
46
348
0
  0
LAYER
  5
23B
330
2
100
AcDbSymbolTableRecord
100
AcDbLayerTableRecord
  2
ConnectionPoints
 70
     0
 62
     7
  6
Continuous
370
    50
390
F
347
46
348
0
  0
ENDTAB
  0
TABLE
  2
STYLE
  5
3
330
0
100
AcDbSymbolTable
 70
     1
  0
STYLE
  5
11
330
3
100
AcDbSymbolTableRecord
100
AcDbTextStyleTableRecord
  2
Standard
 70
     0
 40
0.0
 41
1.0
 50
0.0
 71
     0
 42
0.2
  3
txt
  4

  0
ENDTAB
  0
TABLE
  2
VIEW
  5
6
330
0
100
AcDbSymbolTable
 70
     0
  0
ENDTAB
  0
TABLE
  2
UCS
  5
7
330
0
100
AcDbSymbolTable
 70
     0
  0
ENDTAB
  0
TABLE
  2
APPID
  5
9
330
0
100
AcDbSymbolTable
 70
     1
  0
APPID
  5
12
330
9
100
AcDbSymbolTableRecord
100
AcDbRegAppTableRecord
  2
ACAD
 70
     0
  0
ENDTAB
  0
TABLE
  2
DIMSTYLE
  5
A
330
0
100
AcDbSymbolTable
 70
     1
100
AcDbDimStyleTable
  0
DIMSTYLE
105
27
330
A
100
AcDbSymbolTableRecord
100
AcDbDimStyleTableRecord
  2
Standard
 70
     0
178
     0
340
11
  0
ENDTAB
  0
TABLE
  2
BLOCK_RECORD
  5
1
330
0
100
AcDbSymbolTable
 70
     6
  0
BLOCK_RECORD
  5
1F
330
1
100
AcDbSymbolTableRecord
100
AcDbBlockTableRecord
  2
*Model_Space
340
22
 70
     0
280
     1
281
     0
  0
BLOCK_RECORD
  5
1B
330
1
100
AcDbSymbolTableRecord
100
AcDbBlockTableRecord
  2
*Paper_Space
340
1E
 70
     0
280
     1
281
     0
  0
BLOCK_RECORD
  5
23
330
1
100
AcDbSymbolTableRecord
100
AcDbBlockTableRecord
  2
*Paper_Space0
340
26
 70
     0
280
     1
281
     0
  0
BLOCK_RECORD
  5
6E
330
1
100
AcDbSymbolTableRecord
100
AcDbBlockTableRecord
  2
1_070821_2
340
0
102
{BLKREFS
331
6F
102
}
 70
     0
280
     1
281
     0
  0
BLOCK_RECORD
  5
96
330
1
100
AcDbSymbolTableRecord
100
AcDbBlockTableRecord
  2
2_405016_Inch_0_in_070821_2
340
0
102
{BLKREFS
331
97
102
}
 70
     0
280
     1
281
     0
  0
BLOCK_RECORD
  5
FD
330
1
100
AcDbSymbolTableRecord
100
AcDbBlockTableRecord
  2
3_3_7_16CS2i_0_in_070821_2
340
0
102
{BLKREFS
331
FE
102
}
 70
     0
280
     1
281
     0
  0
BLOCK_RECORD
  5
149
330
1
100
AcDbSymbolTableRecord
100
AcDbBlockTableRecord
  2
4_070012i_0_in_070821_2
340
0
102
{BLKREFS
331
14A
102
}
 70
     0
280
     1
281
     0
  0
BLOCK_RECORD
  5
1AC
330
1
100
AcDbSymbolTableRecord
100
AcDbBlockTableRecord
  2
5_070821H_0_in_070821_2
340
0
102
{BLKREFS
331
1AD
102
}
 70
     0
280
     1
281
     0
  0
ENDTAB
  0
ENDSEC
  0
SECTION
  2
BLOCKS
  0
BLOCK
  5
20
330
1F
100
AcDbEntity
  8
0
100
AcDbBlockBegin
  2
*Model_Space
 70
     0
 10
0.0
 20
0.0
 30
0.0
  3
*Model_Space
  1

  0
ENDBLK
  5
21
330
1F
100
AcDbEntity
  8
0
100
AcDbBlockEnd
  0
BLOCK
  5
1C
330
1B
100
AcDbEntity
 67
     1
  8
0
100
AcDbBlockBegin
  2
*Paper_Space
 70
     0
 10
0.0
 20
0.0
 30
0.0
  3
*Paper_Space
  1

  0
ENDBLK
  5
1D
330
1B
100
AcDbEntity
 67
     1
  8
0
100
AcDbBlockEnd
  0
BLOCK
  5
24
330
23
100
AcDbEntity
  8
0
100
AcDbBlockBegin
  2
*Paper_Space0
 70
     0
 10
0.0
 20
0.0
 30
0.0
  3
*Paper_Space0
  1

  0
ENDBLK
  5
25
330
23
100
AcDbEntity
  8
0
100
AcDbBlockEnd
  0
BLOCK
  5
70
330
6E
100
AcDbEntity
  8
0
100
AcDbBlockBegin
  2
1_070821_2
 70
     2
 10
0.0
 20
0.0
 30
0.0
  3
1_070821_2
  1

  0
ATTDEF
  5
73
330
6E
100
AcDbEntity
  8
AM_6
100
AcDbText
 10
7.291666666666667
 20
5.562500000000001
 30
0.0
 40
0.5
  1
TP Take-Up Trident Seal
100
AcDbAttributeDefinition
  3

  2
NN
 70
     8
280
     0
  0
ATTDEF
  5
74
330
6E
100
AcDbEntity
  8
AM_6
100
AcDbText
 10
7.291666666666667
 20
5.062500000000001
 30
0.0
 40
0.5
  1
S-2000 TPHU Take-Up Bearing -Inch
100
AcDbAttributeDefinition
  3

  2
NT
 70
     8
280
     0
  0
ATTDEF
  5
75
330
6E
100
AcDbEntity
  8
AM_6
100
AcDbText
 10
7.291666666666667
 20
4.562500000000001
 30
0.0
 40
0.5
  1
070821
100
AcDbAttributeDefinition
  3

  2
NB
 70
     8
280
     0
  0
ATTDEF
  5
76
330
6E
100
AcDbEntity
  8
AM_6
100
AcDbText
 10
7.291666666666667
 20
4.062500000000001
 30
0.0
 40
0.5
  1
$PN.
100
AcDbAttributeDefinition
  3

  2
NBSYN
 70
     8
280
     0
  0
ATTDEF
  5
77
330
6E
100
AcDbEntity
  8
AM_6
100
AcDbText
 10
7.291666666666667
 20
3.562500000000001
 30
0.0
 40
0.5
  1
070821
100
AcDbAttributeDefinition
  3

  2
LINA
 70
     8
280
     0
  0
ATTDEF
  5
78
330
6E
100
AcDbEntity
  8
AM_6
100
AcDbText
 10
7.291666666666667
 20
3.062500000000001
 30
0.0
 40
0.5
  1
3-7/16
100
AcDbAttributeDefinition
  3

  2
SS
 70
     8
280
     0
  0
ATTDEF
  5
79
330
6E
100
AcDbEntity
  8
AM_6
100
AcDbText
 10
7.291666666666667
 20
2.562500000000001
 30
0.0
 40
0.5
  1
070821
100
AcDbAttributeDefinition
  3

  2
PN
 70
     8
280
     0
  0
ATTDEF
  5
7A
330
6E
100
AcDbEntity
  8
AM_6
100
AcDbText
 10
7.291666666666667
 20
2.062500000000001
 30
0.0
 40
0.5
  1
TPHU-S2-307R
100
AcDbAttributeDefinition
  3

  2
DESCRIPTION
 70
     8
280
     0
  0
ATTDEF
  5
7B
330
6E
100
AcDbEntity
  8
AM_6
100
AcDbText
 10
7.291666666666667
 20
1.562500000000001
 30
0.0
 40
0.5
  1
Non-Expansion Type
100
AcDbAttributeDefinition
  3

  2
EF
 70
     8
280
     0
  0
ATTDEF
  5
7C
330
6E
100
AcDbEntity
  8
AM_6
100
AcDbText
 10
7.291666666666667
 20
1.062500000000001
 30
0.0
 40
0.5
  1
Contact Seal
100
AcDbAttributeDefinition
  3

  2
ST
 70
     8
280
     0
  0
ATTDEF
  5
7D
330
6E
100
AcDbEntity
  8
AM_6
100
AcDbText
 10
7.291666666666667
 20
0.5625000000000009
 30
0.0
 40
0.5
  1
4
100
AcDbAttributeDefinition
  3

  2
A
 70
     8
280
     0
  0
ATTDEF
  5
7E
330
6E
100
AcDbEntity
  8
AM_6
100
AcDbText
 10
7.291666666666667
 20
0.0625000000000009
 30
0.0
 40
0.5
  1
3-1/8
100
AcDbAttributeDefinition
  3

  2
B
 70
     8
280
     0
  0
ATTDEF
  5
7F
330
6E
100
AcDbEntity
  8
AM_6
100
AcDbText
 10
7.291666666666667
 20
-0.4374999999999991
 30
0.0
 40
0.5
  1
13/16
100
AcDbAttributeDefinition
  3

  2
C
 70
     8
280
     0
  0
ATTDEF
  5
80
330
6E
100
AcDbEntity
  8
AM_6
100
AcDbText
 10
7.291666666666667
 20
-0.9374999999999991
 30
0.0
 40
0.5
  1
8-13/32
100
AcDbAttributeDefinition
  3

  2
D
 70
     8
280
     0
  0
ATTDEF
  5
81
330
6E
100
AcDbEntity
  8
AM_6
100
AcDbText
 10
7.291666666666667
 20
-1.437499999999999
 30
0.0
 40
0.5
  1
4-3/32
100
AcDbAttributeDefinition
  3

  2
E
 70
     8
280
     0
  0
ATTDEF
  5
82
330
6E
100
AcDbEntity
  8
AM_6
100
AcDbText
 10
7.291666666666667
 20
-1.937499999999999
 30
0.0
 40
0.5
  1
1-9/16
100
AcDbAttributeDefinition
  3

  2
F
 70
     8
280
     0
  0
ATTDEF
  5
83
330
6E
100
AcDbEntity
  8
AM_6
100
AcDbText
 10
7.291666666666667
 20
-2.437499999999999
 30
0.0
 40
0.5
  1
11/16
100
AcDbAttributeDefinition
  3

  2
G
 70
     8
280
     0
  0
ATTDEF
  5
84
330
6E
100
AcDbEntity
  8
AM_6
100
AcDbText
 10
7.291666666666667
 20
-2.937499999999999
 30
0.0
 40
0.5
  1
9-1/2
100
AcDbAttributeDefinition
  3

  2
H
 70
     8
280
     0
  0
ATTDEF
  5
85
330
6E
100
AcDbEntity
  8
AM_6
100
AcDbText
 10
7.291666666666667
 20
-3.437499999999999
 30
0.0
 40
0.5
  1
10-1/16
100
AcDbAttributeDefinition
  3

  2
J
 70
     8
280
     0
  0
ATTDEF
  5
86
330
6E
100
AcDbEntity
  8
AM_6
100
AcDbText
 10
7.291666666666667
 20
-3.937499999999999
 30
0.0
 40
0.5
  1
4-1/2
100
AcDbAttributeDefinition
  3

  2
K
 70
     8
280
     0
  0
ATTDEF
  5
87
330
6E
100
AcDbEntity
  8
AM_6
100
AcDbText
 10
7.291666666666667
 20
-4.437499999999999
 30
0.0
 40
0.5
  1
5-1/2
100
AcDbAttributeDefinition
  3

  2
L
 70
     8
280
     0
  0
ATTDEF
  5
88
330
6E
100
AcDbEntity
  8
AM_6
100
AcDbText
 10
7.291666666666667
 20
-4.937499999999999
 30
0.0
 40
0.5
  1
9
100
AcDbAttributeDefinition
  3

  2
M
 70
     8
280
     0
  0
ATTDEF
  5
89
330
6E
100
AcDbEntity
  8
AM_6
100
AcDbText
 10
7.291666666666667
 20
-5.437499999999999
 30
0.0
 40
0.5
  1
2-17/32
100
AcDbAttributeDefinition
  3

  2
N
 70
     8
280
     0
  0
ATTDEF
  5
8A
330
6E
100
AcDbEntity
  8
AM_6
100
AcDbText
 10
7.291666666666667
 20
-5.937499999999999
 30
0.0
 40
0.5
  1
2-1/4
100
AcDbAttributeDefinition
  3

  2
P
 70
     8
280
     0
  0
ATTDEF
  5
8B
330
6E
100
AcDbEntity
  8
AM_6
100
AcDbText
 10
7.291666666666667
 20
-6.437499999999999
 30
0.0
 40
0.5
  1
1-5/16
100
AcDbAttributeDefinition
  3

  2
Q
 70
     8
280
     0
  0
ATTDEF
  5
8C
330
6E
100
AcDbEntity
  8
AM_6
100
AcDbText
 10
7.291666666666667
 20
-6.937499999999999
 30
0.0
 40
0.5
  1
4-7/32
100
AcDbAttributeDefinition
  3

  2
R
 70
     8
280
     0
  0
ATTDEF
  5
8D
330
6E
100
AcDbEntity
  8
AM_6
100
AcDbText
 10
7.291666666666667
 20
-7.437499999999999
 30
0.0
 40
0.5
  1
2-21/32
100
AcDbAttributeDefinition
  3

  2
S
 70
     8
280
     0
  0
ATTDEF
  5
8E
330
6E
100
AcDbEntity
  8
AM_6
100
AcDbText
 10
7.291666666666667
 20
-7.937499999999999
 30
0.0
 40
0.5
  1
5/16
100
AcDbAttributeDefinition
  3

  2
T
 70
     8
280
     0
  0
ATTDEF
  5
8F
330
6E
100
AcDbEntity
  8
AM_6
100
AcDbText
 10
7.291666666666667
 20
-8.4375
 30
0.0
 40
0.5
  1
1-23/32
100
AcDbAttributeDefinition
  3

  2
U
 70
     8
280
     0
  0
ATTDEF
  5
90
330
6E
100
AcDbEntity
  8
AM_6
100
AcDbText
 10
7.291666666666667
 20
-8.9375
 30
0.0
 40
0.5
  1
3-1/8
100
AcDbAttributeDefinition
  3

  2
V
 70
     8
280
     0
  0
ATTDEF
  5
91
330
6E
100
AcDbEntity
  8
AM_6
100
AcDbText
 10
7.291666666666667
 20
-9.4375
 30
0.0
 40
0.5
  1
31/32
100
AcDbAttributeDefinition
  3

  2
W
 70
     8
280
     0
  0
ATTDEF
  5
92
330
6E
100
AcDbEntity
  8
AM_6
100
AcDbText
 10
7.291666666666667
 20
-9.9375
 30
0.0
 40
0.5
  1
1/4
100
AcDbAttributeDefinition
  3

  2
X
 70
     8
280
     0
  0
ATTDEF
  5
93
330
6E
100
AcDbEntity
  8
AM_6
100
AcDbText
 10
7.291666666666667
 20
-10.4375
 30
0.0
 40
0.5
  1
0.025
100
AcDbAttributeDefinition
  3

  2
Y
 70
     8
280
     0
  0
ATTDEF
  5
94
330
6E
100
AcDbEntity
  8
AM_6
100
AcDbText
 10
7.291666666666667
 20
-10.9375
 30
0.0
 40
0.5
  1
4-3/64
100
AcDbAttributeDefinition
  3

  2
Z
 70
     8
280
     0
  0
ATTDEF
  5
95
330
6E
100
AcDbEntity
  8
AM_6
100
AcDbText
 10
7.291666666666667
 20
-11.4375
 30
0.0
 40
0.5
  1
baldor
100
AcDbAttributeDefinition
  3

  2
COMPANY
 70
     8
280
     0
  0
INSERT
  5
97
330
6E
100
AcDbEntity
  8
0
100
AcDbBlockReference
  2
2_405016_Inch_0_in_070821_2
 10
0.0
 20
0.0
 30
0.0
  0
INSERT
  5
FE
330
6E
100
AcDbEntity
  8
0
100
AcDbBlockReference
  2
3_3_7_16CS2i_0_in_070821_2
 10
0.0
 20
0.0
 30
0.0
  0
INSERT
  5
14A
330
6E
100
AcDbEntity
  8
0
100
AcDbBlockReference
  2
4_070012i_0_in_070821_2
 10
0.0
 20
0.0
 30
0.0
  0
INSERT
  5
1AD
330
6E
100
AcDbEntity
  8
0
100
AcDbBlockReference
  2
5_070821H_0_in_070821_2
 10
0.0
 20
0.0
 30
0.0
  0
ENDBLK
  5
71
330
6E
100
AcDbEntity
  8
0
100
AcDbBlockEnd
  0
BLOCK
  5
98
330
96
100
AcDbEntity
  8
0
100
AcDbBlockBegin
  2
2_405016_Inch_0_in_070821_2
 70
     2
 10
0.0
 20
0.0
 30
0.0
  3
2_405016_Inch_0_in_070821_2
  1

  0
ATTDEF
  5
9A
330
96
100
AcDbEntity
  8
AM_6
100
AcDbText
 10
5.21875
 20
0.2525907427704612
 30
0.0
 40
0.5
  1
405016 -Inch
100
AcDbAttributeDefinition
  3

  2
NN
 70
     8
280
     0
  0
ATTDEF
  5
9B
330
96
100
AcDbEntity
  8
AM_6
100
AcDbText
 10
5.21875
 20
-0.2474092572295388
 30
0.0
 40
0.5
  1
Grease Fitting
100
AcDbAttributeDefinition
  3

  2
NT
 70
     8
280
     0
  0
ATTDEF
  5
9C
330
96
100
AcDbEntity
  8
AM_6
100
AcDbText
 10
5.21875
 20
-0.7474092572295388
 30
0.0
 40
0.5
  1
405016-Inch
100
AcDbAttributeDefinition
  3

  2
NB
 70
     8
280
     0
  0
ATTDEF
  5
9D
330
96
100
AcDbEntity
  8
AM_6
100
AcDbText
 10
5.21875
 20
-1.247409257229539
 30
0.0
 40
0.5
  1
$MN.-Inch
100
AcDbAttributeDefinition
  3

  2
NBSYN
 70
     8
280
     0
  0
ATTDEF
  5
9E
330
96
100
AcDbEntity
  8
AM_6
100
AcDbText
 10
5.21875
 20
-1.747409257229539
 30
0.0
 40
0.5
  1
405016
100
AcDbAttributeDefinition
  3

  2
LINA
 70
     8
280
     0
  0
ATTDEF
  5
9F
330
96
100
AcDbEntity
  8
AM_6
100
AcDbText
 10
5.21875
 20
-2.247409257229539
 30
0.0
 40
0.5
  1
405016
100
AcDbAttributeDefinition
  3

  2
MN
 70
     8
280
     0
  0
ATTDEF
  5
A0
330
96
100
AcDbEntity
  8
AM_6
100
AcDbText
 10
5.21875
 20
-2.747409257229539
 30
0.0
 40
0.5
  1
7/16 HEX
100
AcDbAttributeDefinition
  3

  2
H
 70
     8
280
     0
  0
ATTDEF
  5
A1
330
96
100
AcDbEntity
  8
AM_6
100
AcDbText
 10
5.21875
 20
-3.247409257229539
 30
0.0
 40
0.5
  1
0.383
100
AcDbAttributeDefinition
  3

  2
NDR
 70
     8
280
     0
  0
ATTDEF
  5
A2
330
96
100
AcDbEntity
  8
AM_6
100
AcDbText
 10
5.21875
 20
-3.747409257229539
 30
0.0
 40
0.5
  1
0.337
100
AcDbAttributeDefinition
  3

  2
KDR
 70
     8
280
     0
  0
ATTDEF
  5
A3
330
96
100
AcDbEntity
  8
AM_6
100
AcDbText
 10
5.21875
 20
-4.247409257229538
 30
0.0
 40
0.5
  1
0.1575
100
AcDbAttributeDefinition
  3

  2
BZE
 70
     8
280
     0
  0
ATTDEF
  5
A4
330
96
100
AcDbEntity
  8
AM_6
100
AcDbText
 10
5.21875
 20
-4.747409257229538
 30
0.0
 40
0.5
  1
0.4375
100
AcDbAttributeDefinition
  3

  2
HEX
 70
     8
280
     0
  0
ATTDEF
  5
A5
330
96
100
AcDbEntity
  8
AM_6
100
AcDbText
 10
5.21875
 20
-5.247409257229538
 30
0.0
 40
0.5
  1
0.281250
100
AcDbAttributeDefinition
  3

  2
HEX2
 70
     8
280
     0
  0
ATTDEF
  5
A6
330
96
100
AcDbEntity
  8
AM_6
100
AcDbText
 10
5.21875
 20
-5.747409257229538
 30
0.0
 40
0.5
  1
baldor
100
AcDbAttributeDefinition
  3

  2
COMPANY
 70
     8
280
     0
  0
CIRCLE
  5
A9
330
96
100
AcDbEntity
  8
AM_9
100
AcDbCircle
 10
0.0000000000000002
 20
0.0
 30
0.0
 40
0.1616637258772237
  0
CIRCLE
  5
AA
330
96
100
AcDbEntity
  8
AM_9
100
AcDbCircle
 10
0.0000000000000002
 20
0.0
 30
0.0
 40
0.1854172907249859
  0
ARC
  5
AB
330
96
100
AcDbEntity
  8
AM_9
100
AcDbCircle
 10
-0.0000000000000025
 20
-0.0000000000000013
 30
0.0
 40
0.199999999999997
100
AcDbArc
 50
195.0145834967366
 51
213.3670129692319
  0
ARC
  5
AC
330
96
100
AcDbEntity
  8
AM_9
100
AcDbCircle
 10
-0.0000000000000061
 20
-0.0000000000000445
 30
0.0
 40
0.2000000000000064
100
AcDbArc
 50
0.0
 51
163.619676924875
  0
LINE
  5
AD
330
96
100
AcDbEntity
  8
AM_9
100
AcDbLine
 10
-0.2187499999999998
 20
0.1262953713852306
 30
0.0
 11
-0.2187499999999998
 21
-0.1262953713852306
 31
0.0
  0
LINE
  5
AE
330
96
100
AcDbEntity
  8
AM_9
100
AcDbLine
 10
-0.1897043345002184
 20
0.1430648941803213
 30
0.0
 11
-0.2187499999999998
 21
0.1262953713852306
 31
0.0
  0
LINE
  5
AF
330
96
100
AcDbEntity
  8
AM_9
100
AcDbLine
 10
-0.2187499999999998
 20
-0.1262953713852306
 30
0.0
 11
-0.1901924455245477
 21
-0.1427830831490303
 31
0.0
  0
ARC
  5
B0
330
96
100
AcDbEntity
  8
AM_9
100
AcDbCircle
 10
0.0000000000000181
 20
0.0
 30
0.0
 40
0.2187500000000145
100
AcDbArc
 50
144.3010044912444
 51
215.7647964345402
  0
LINE
  5
B1
330
96
100
AcDbEntity
  8
AM_9
100
AcDbLine
 10
-0.2602304684431302
 20
0.01975639995327
 30
0.0
 11
-0.2602304684431205
 21
-0.0197563999532738
 31
0.0
  0
LINE
  5
B2
330
96
100
AcDbEntity
  8
AM_9
100
AcDbLine
 10
-0.2689146070947219
 20
0.0811898816047911
 30
0.0
 11
-0.2987675689889714
 21
0.0811898816047911
 31
0.0
  0
LINE
  5
B3
330
96
100
AcDbEntity
  8
AM_9
100
AcDbLine
 10
-0.2689146070947219
 20
-0.0811898816047911
 30
0.0
 11
-0.2987675689889714
 21
-0.0811898816047911
 31
0.0
  0
LWPOLYLINE
  5
B4
330
96
100
AcDbEntity
  8
AM_9
100
AcDbPolyline
 90
        3
 70
     0
 43
0.0
 10
-0.2602304684431205
 20
-0.0197563999532738
 10
-0.26169133825892
 20
-0.0370737721666024
 10
-0.2689146070947219
 20
-0.0811898816047911
  0
LINE
  5
B5
330
96
100
AcDbEntity
  8
AM_9
100
AcDbLine
 10
-0.2689146070947219
 20
0.0811898816047911
 30
0.0
 11
-0.2602304684431302
 21
0.01975639995327
 31
0.0
  0
ELLIPSE
  5
B6
330
96
100
AcDbEntity
  8
AM_9
100
AcDbEllipse
 10
-0.2013892028241875
 20
-0.0000000000000001
 30
0.0
 11
8.610797806504843E-18
 21
0.1406250000000002
 31
0.0
210
0.0
220
0.0
230
1.0
 40
0.4226182617407014
 41
0.6232286105021556
 42
1.42984006621291
  0
LWPOLYLINE
  5
B7
330
96
100
AcDbEntity
  8
AM_9
100
AcDbPolyline
 90
        3
 70
     0
 43
0.0
 10
-0.2360765106845273
 20
0.1141872583780656
 10
-0.2462091938631848
 20
0.1027100776026271
 10
-0.2689146070947219
 20
0.0811898816047911
  0
ELLIPSE
  5
B8
330
96
100
AcDbEntity
  8
AM_9
100
AcDbEllipse
 10
-0.201389202824184
 20
0.0000000000000047
 30
0.0
 11
8.610797806505253E-18
 21
0.1406250000000069
 31
0.0
210
0.0
220
0.0
230
1.0
 40
0.4226182617406294
 41
1.711752587376933
 42
2.518364043087533
  0
LWPOLYLINE
  5
B9
330
96
100
AcDbEntity
  8
AM_9
100
AcDbPolyline
 90
        3
 70
     0
 43
0.0
 10
-0.2689146070947219
 20
-0.0811898816047911
 10
-0.2512755937295757
 20
-0.0975167708288354
 10
-0.2360765106845271
 20
-0.114187258378066
  0
LINE
  5
BA
330
96
100
AcDbEntity
  8
AM_9
100
AcDbLine
 10
-0.2987675689889714
 20
0.0811898816047911
 30
0.0
 11
-0.2813919000363596
 21
0.1141872583780661
 31
0.0
  0
LINE
  5
BB
330
96
100
AcDbEntity
  8
AM_9
100
AcDbLine
 10
-0.3055458577949627
 20
0.0197563999532697
 30
0.0
 11
-0.2987675689889714
 21
0.0811898816047911
 31
0.0
  0
LINE
  5
BC
330
96
100
AcDbEntity
  8
AM_9
100
AcDbLine
 10
-0.2813919000363596
 20
-0.1141872583780661
 30
0.0
 11
-0.2987675689889714
 21
-0.0811898816047911
 31
0.0
  0
LINE
  5
BD
330
96
100
AcDbEntity
  8
AM_9
100
AcDbLine
 10
-0.2987675689889714
 20
-0.0811898816047911
 30
0.0
 11
-0.3055458577949627
 21
-0.0197563999532697
 31
0.0
  0
LWPOLYLINE
  5
BE
330
96
100
AcDbEntity
  8
AM_9
100
AcDbPolyline
 90
        3
 70
     0
 43
0.0
 10
-0.2258378743019623
 20
-0.1281745372222428
 10
-0.2189176876709011
 20
-0.14013919758686
 10
-0.209996266891705
 20
-0.1623797632095822
  0
LINE
  5
BF
330
96
100
AcDbEntity
  8
AM_9
100
AcDbLine
 10
-0.2360765106845271
 20
-0.114187258378066
 30
0.0
 11
-0.2258378743019623
 21
-0.1281745372222428
 31
0.0
  0
LWPOLYLINE
  5
C0
330
96
100
AcDbEntity
  8
AM_9
100
AcDbPolyline
 90
        3
 70
     0
 43
0.0
 10
-0.209996266891705
 20
0.1623797632095822
 10
-0.2163479371246909
 20
0.1454641154142716
 10
-0.2258378743019625
 20
0.1281745372222425
  0
LINE
  5
C1
330
96
100
AcDbEntity
  8
AM_9
100
AcDbLine
 10
-0.2258378743019625
 20
0.1281745372222425
 30
0.0
 11
-0.2360765106845273
 21
0.1141872583780656
 31
0.0
  0
LWPOLYLINE
  5
C2
330
96
100
AcDbEntity
  8
AM_9
100
AcDbPolyline
 90
        9
 70
     0
 43
0.0
 10
-0.1790373738501776
 20
0.0891382003679202
 10
-0.1842628795203937
 20
0.0777636883825141
 10
-0.193609895215972
 20
0.0501518541477802
 10
-0.1994144431868151
 20
0.0152931307616317
 10
-0.1988321115509049
 20
-0.0215822013754014
 10
-0.1920694300574954
 20
-0.0557614027566447
 10
-0.1870096431494149
 20
-0.0708827954963352
 10
-0.1815005947613927
 20
-0.0840091310588356
 10
-0.179037373850178
 20
-0.0891382003679202
  0
LINE
  5
C3
330
96
100
AcDbEntity
  8
AM_9
100
AcDbLine
 10
-0.1637474306578516
 20
0.1099999999999999
 30
0.0
 11
-0.2013892028241877
 21
0.1099999999999999
 31
0.0
  0
LINE
  5
C4
330
96
100
AcDbEntity
  8
AM_9
100
AcDbLine
 10
-0.2013892028241877
 20
-0.1099999999999999
 30
0.0
 11
-0.1646057144057122
 21
-0.1099999999999999
 31
0.0
  0
LWPOLYLINE
  5
C5
330
96
100
AcDbEntity
  8
AM_9
100
AcDbPolyline
 90
        3
 70
     0
 43
0.0
 10
-0.15574404565956
 20
-0.1099999563637608
 10
-0.1668493358980658
 20
-0.1056462146448629
 10
-0.1790373738502111
 20
-0.0891382003679049
  0
LWPOLYLINE
  5
C6
330
96
100
AcDbEntity
  8
AM_9
100
AcDbPolyline
 90
        3
 70
     0
 43
0.0
 10
-0.1790373738501775
 20
0.0891382003679202
 10
-0.1670729780242507
 20
0.1054645023299315
 10
-0.1557455384054938
 20
0.109999959962728
  0
ELLIPSE
  5
C7
330
96
100
AcDbEntity
  8
AM_9
100
AcDbEllipse
 10
-0.2013892028241877
 20
0.0000000000000004
 30
0.0
 11
8.610797806504812E-18
 21
0.1406249999999998
 31
0.0
210
0.0
220
0.0
230
1.0
 40
0.4226182617406999
 41
2.717623712895349
 42
6.707154247874037
  0
ELLIPSE
  5
C8
330
96
100
AcDbEntity
  8
AM_9
100
AcDbEllipse
 10
-0.2467045921763223
 20
0.000000000000299
 30
0.0
 11
8.610797806481456E-18
 21
0.1406249999996183
 31
0.0
210
0.0
220
0.0
230
1.0
 40
0.422618261739806
 41
0.6232286105002647
 42
1.429840066214597
  0
LINE
  5
C9
330
96
100
AcDbEntity
  8
AM_9
100
AcDbLine
 10
-0.3055458577949627
 20
-0.0197563999532697
 30
0.0
 11
-0.3055458577949627
 21
0.0197563999532697
 31
0.0
  0
ELLIPSE
  5
CA
330
96
100
AcDbEntity
  8
AM_9
100
AcDbEllipse
 10
-0.2467045921760173
 20
0.0000000000000027
 30
0.0
 11
8.610797806505077E-18
 21
0.1406250000000041
 31
0.0
210
0.0
220
0.0
230
1.0
 40
0.4226182617407072
 41
1.711752587376896
 42
2.445123269858269
  0
LWPOLYLINE
  5
CB
330
96
100
AcDbEntity
  8
AM_9
100
AcDbPolyline
 90
        3
 70
     0
 43
0.0
 10
-0.2809124313749535
 20
-0.1144533064247623
 10
-0.2826050451626667
 20
-0.111903875528517
 10
-0.2849122067131092
 20
-0.1077116111066678
  0
LWPOLYLINE
  5
CC
330
96
100
AcDbEntity
  8
AM_9
100
AcDbPolyline
 90
        3
 70
     0
 43
0.0
 10
-0.2847284017209821
 20
0.1080726815796913
 10
-0.2827884093455621
 20
0.1115985296404743
 10
-0.2810124402517436
 20
0.1143189939449197
  0
ELLIPSE
  5
CD
330
96
100
AcDbEntity
  8
AM_9
100
AcDbEllipse
 10
-0.3729962569746637
 20
0.0000000000000008
 30
0.0
 11
8.155773951865166E-18
 21
0.1331938965184661
 31
0.0
210
0.0
220
0.0
230
1.0
 40
0.4226182617406998
 41
5.748721251559977
 42
9.957236487860499
  0
ELLIPSE
  5
CE
330
96
100
AcDbEntity
  8
AM_9
100
AcDbEllipse
 10
-0.3994303217889757
 20
0.0
 30
0.0
 11
8.520391689943305E-18
 21
0.1391485560714409
 31
0.0
210
0.0
220
0.0
230
1.0
 40
0.4226182617406998
 41
0.2354519041356555
 42
2.922398804073377
  0
CIRCLE
  5
CF
330
96
100
AcDbEntity
  8
AM_9
100
AcDbCircle
 10
0.0000000000000002
 20
0.0
 30
0.0
 40
0.1915112338502295
  0
ELLIPSE
  5
D0
330
96
100
AcDbEntity
  8
AM_9
100
AcDbEllipse
 10
-0.2013892028241871
 20
0.0000000000000007
 30
0.0
 11
6.735557395310416E-18
 21
0.1099999999999996
 31
0.0
210
0.0
220
0.0
230
1.0
 40
0.4226182617406955
 41
0.0
 42
6.283185307179586
  0
LINE
  5
D2
330
96
100
AcDbEntity
  8
AM_4
100
AcDbLine
 10
0.0000000000000003
 20
-0.2525907427704612
 30
0.0
 11
0.2187500000000002
 21
-0.1262953713852306
 31
0.0
  0
LINE
  5
D3
330
96
100
AcDbEntity
  8
AM_4
100
AcDbLine
 10
0.2187500000000002
 20
-0.1262953713852306
 30
0.0
 11
0.2187500000000002
 21
0.1262953713852306
 31
0.0
  0
LINE
  5
D4
330
96
100
AcDbEntity
  8
AM_4
100
AcDbLine
 10
0.0000000000000003
 20
0.2525907427704612
 30
0.0
 11
-0.1897043345002184
 21
0.1430648941803213
 31
0.0
  0
LINE
  5
D5
330
96
100
AcDbEntity
  8
AM_4
100
AcDbLine
 10
-0.1901924455245477
 20
-0.1427830831490303
 30
0.0
 11
0.0000000000000003
 21
-0.2525907427704612
 31
0.0
  0
LINE
  5
D6
330
96
100
AcDbEntity
  8
AM_4
100
AcDbLine
 10
0.2187500000000002
 20
0.1262953713852306
 30
0.0
 11
0.0000000000000003
 21
0.2525907427704612
 31
0.0
  0
ARC
  5
D7
330
96
100
AcDbEntity
  8
AM_4
100
AcDbCircle
 10
0.0000000000000007
 20
0.0
 30
0.0
 40
0.2187500000000004
100
AcDbArc
 50
215.7647964345429
 51
144.3010044912417
  0
LINE
  5
D8
330
96
100
AcDbEntity
  8
AM_4
100
AcDbLine
 10
-0.1557830777397309
 20
0.1099999999999999
 30
0.0
 11
-0.1637474306578516
 21
0.1099999999999999
 31
0.0
  0
LINE
  5
D9
330
96
100
AcDbEntity
  8
AM_4
100
AcDbLine
 10
-0.1646057144057122
 20
-0.1099999999999999
 30
0.0
 11
-0.155783117176946
 21
-0.1099999999999999
 31
0.0
  0
LWPOLYLINE
  5
DA
330
96
100
AcDbEntity
  8
AM_4
100
AcDbPolyline
 90
       12
 70
     0
 43
0.0
 10
-0.1557455384054938
 20
0.109999959962728
 10
-0.1538031670974773
 20
0.1098642299902842
 10
-0.1407130262602573
 20
0.101829760403791
 10
-0.1293028157827814
 20
0.0822566453824391
 10
-0.1208880884981778
 20
0.0533912635798488
 10
-0.1164278875396124
 20
0.018541691433427
 10
-0.1164156227038164
 20
-0.0183436549788656
 10
-0.1208367673933808
 20
-0.0531364268189174
 10
-0.1291842652280559
 20
-0.0819658231771869
 10
-0.1405186270901956
 20
-0.1016091178663899
 10
-0.1535654953592162
 20
-0.109829591708451
 10
-0.15574404565956
 20
-0.1099999563637608
  0
ARC
  5
DB
330
96
100
AcDbEntity
  8
AM_4
100
AcDbCircle
 10
0.0000000000000003
 20
0.0
 30
0.0
 40
0.2
100
AcDbArc
 50
213.3670129692317
 51
145.8381585082649
  0
LWPOLYLINE
  5
DC
330
96
100
AcDbEntity
  8
AM_4
100
AcDbPolyline
 90
        4
 70
     0
 43
0.0
 10
-0.1510741298357567
 20
0.0811898816047911
 10
-0.1639940363880801
 20
0.1105606069314186
 10
-0.1876759562813854
 20
0.1412050309358237
 10
-0.209996266891705
 20
0.1623797632095822
  0
LINE
  5
DD
330
96
100
AcDbEntity
  8
AM_4
100
AcDbLine
 10
-0.209996266891705
 20
0.1623797632095822
 30
0.0
 11
-0.2389369657326273
 21
0.1623797632095822
 31
0.0
  0
LWPOLYLINE
  5
DE
330
96
100
AcDbEntity
  8
AM_4
100
AcDbPolyline
 90
        4
 70
     0
 43
0.0
 10
-0.209996266891705
 20
-0.1623797632095822
 10
-0.18054914203323
 20
-0.1333383958028655
 10
-0.1598729403210867
 20
-0.1030720446435313
 10
-0.1510741298357567
 20
-0.0811898816047911
  0
LINE
  5
DF
330
96
100
AcDbEntity
  8
AM_4
100
AcDbLine
 10
-0.209996266891705
 20
-0.1623797632095822
 30
0.0
 11
-0.2389369657326273
 21
-0.1623797632095822
 31
0.0
  0
LWPOLYLINE
  5
E0
330
96
100
AcDbEntity
  8
AM_4
100
AcDbPolyline
 90
        4
 70
     0
 43
0.0
 10
-0.1510741298357567
 20
-0.0811898816047911
 10
-0.1427138007556459
 20
-0.0226013472343071
 10
-0.1441228263802211
 20
0.0384818408139635
 10
-0.1510741298357567
 20
0.0811898816047911
  0
LINE
  5
E1
330
96
100
AcDbEntity
  8
AM_4
100
AcDbLine
 10
-0.1510741298357567
 20
0.0811898816047911
 30
0.0
 11
-0.1791093260592884
 21
0.0811898816047911
 31
0.0
  0
LINE
  5
E2
330
96
100
AcDbEntity
  8
AM_4
100
AcDbLine
 10
-0.1510741298357567
 20
-0.0811898816047911
 30
0.0
 11
-0.1791093260592884
 21
-0.0811898816047911
 31
0.0
  0
LWPOLYLINE
  5
E3
330
96
100
AcDbEntity
  8
AM_4
100
AcDbPolyline
 90
        5
 70
     0
 43
0.0
 10
-0.1791093260592884
 20
0.0811898816047911
 10
-0.1842540823997051
 20
0.0416203625313734
 10
-0.1862220679364948
 20
0.0014176687078843
 10
-0.1844124966919378
 20
-0.0398791041957931
 10
-0.1791093260592884
 20
-0.0811898816047911
  0
LWPOLYLINE
  5
E4
330
96
100
AcDbEntity
  8
AM_4
100
AcDbPolyline
 90
        5
 70
     0
 43
0.0
 10
-0.2389369657326273
 20
0.1623797632095822
 10
-0.2295338871417793
 20
0.1425944959554254
 10
-0.2166871171046317
 20
0.1224916336047983
 10
-0.1996402057054675
 20
0.1018412668053538
 10
-0.1791093260592884
 20
0.0811898816047911
  0
LINE
  5
E5
330
96
100
AcDbEntity
  8
AM_4
100
AcDbLine
 10
-0.2711532636537953
 20
0.1281745372222423
 30
0.0
 11
-0.2389369657326273
 21
0.1623797632095822
 31
0.0
  0
LINE
  5
E6
330
96
100
AcDbEntity
  8
AM_4
100
AcDbLine
 10
-0.2389369657326273
 20
-0.1623797632095822
 30
0.0
 11
-0.2711532636537953
 21
-0.1281745372222423
 31
0.0
  0
LWPOLYLINE
  5
E7
330
96
100
AcDbEntity
  8
AM_4
100
AcDbPolyline
 90
        5
 70
     0
 43
0.0
 10
-0.1791093260592884
 20
-0.0811898816047911
 10
-0.1988355121406935
 20
-0.1009664231904839
 10
-0.2156330920108721
 20
-0.121062844630589
 10
-0.2290462109660017
 20
-0.1417146509141334
 10
-0.2389369657326273
 20
-0.1623797632095822
  0
LINE
  5
E8
330
96
100
AcDbEntity
  8
AM_4
100
AcDbLine
 10
-0.2711532636537953
 20
-0.1281745372222423
 30
0.0
 11
-0.2813919000363596
 21
-0.1141872583780661
 31
0.0
  0
ELLIPSE
  5
E9
330
96
100
AcDbEntity
  8
AM_4
100
AcDbEllipse
 10
-0.2467045921760206
 20
-0.0000000000000005
 30
0.0
 11
8.610797806504814E-18
 21
0.1406249999999998
 31
0.0
210
0.0
220
0.0
230
1.0
 40
0.4226182617407005
 41
2.717623712895346
 42
6.707154247874032
  0
LINE
  5
EA
330
96
100
AcDbEntity
  8
AM_4
100
AcDbLine
 10
-0.2813919000363596
 20
0.1141872583780661
 30
0.0
 11
-0.2711532636537953
 21
0.1281745372222423
 31
0.0
  0
LWPOLYLINE
  5
EB
330
96
100
AcDbEntity
  8
AM_4
100
AcDbPolyline
 90
        9
 70
     0
 43
0.0
 10
-0.338704025375839
 20
-0.1103530669153754
 10
-0.3312536501005134
 20
-0.1067763209157795
 10
-0.3207173814235207
 20
-0.1040601968428749
 10
-0.3082312846452427
 20
-0.1036230078554492
 10
-0.296322672226608
 20
-0.1059309659768049
 10
-0.2876682624520299
 20
-0.1096327426245039
 10
-0.282745382263528
 20
-0.1128954322181753
 10
-0.2807646734636759
 20
-0.1146703836295878
 10
-0.2806053774633817
 20
-0.1148433556507742
  0
LINE
  5
EC
330
96
100
AcDbEntity
  8
AM_4
100
AcDbLine
 10
-0.3426021585509405
 20
-0.1130713286738862
 30
0.0
 11
-0.338704025375839
 21
-0.1103530669153754
 31
0.0
  0
LWPOLYLINE
  5
ED
330
96
100
AcDbEntity
  8
AM_4
100
AcDbPolyline
 90
        3
 70
     0
 43
0.0
 10
-0.3445077225583331
 20
-0.1148249434376713
 10
-0.3430050091642661
 20
-0.1134061735572228
 10
-0.3426021585509405
 20
-0.1130713286738862
  0
LWPOLYLINE
  5
EE
330
96
100
AcDbEntity
  8
AM_4
100
AcDbPolyline
 90
        3
 70
     0
 43
0.0
 10
-0.3426692906857908
 20
0.1131261872626509
 10
-0.3431167221012479
 20
0.1135015607243218
 10
-0.3445007897984627
 20
0.1148171791223066
  0
LWPOLYLINE
  5
EF
330
96
100
AcDbEntity
  8
AM_4
100
AcDbPolyline
 90
       10
 70
     0
 43
0.0
 10
-0.2806053774633817
 20
0.1148433556507742
 10
-0.2807588143932958
 20
0.1146765431304295
 10
-0.2829140299289335
 20
0.1127619308095094
 10
-0.2879731330928442
 20
0.1094647416864344
 10
-0.2962234909894983
 20
0.1059625096112414
 10
-0.3074085366158357
 20
0.1036942183840389
 10
-0.3200241521327561
 20
0.1039605058724807
 10
-0.3313238032791846
 20
0.1068026799274094
 10
-0.3390138795104578
 20
0.1105420172771777
 10
-0.3426692906857908
 20
0.1131261872626509
  0
ELLIPSE
  5
F0
330
96
100
AcDbEntity
  8
AM_4
100
AcDbEllipse
 10
-0.3729962569748766
 20
0.0000000000002411
 30
0.0
 11
8.155773951882544E-18
 21
0.1331938965187499
 31
0.0
210
0.0
220
0.0
230
1.0
 40
0.4226182617412841
 41
3.67405118068265
 42
3.740659456863443
  0
ELLIPSE
  5
F1
330
96
100
AcDbEntity
  8
AM_4
100
AcDbEllipse
 10
-0.3729962569746622
 20
0.0000000000000007
 30
0.0
 11
8.155773951865106E-18
 21
0.1331938965184651
 31
0.0
210
0.0
220
0.0
230
1.0
 40
0.4226182617406911
 41
3.74065945686197
 42
5.648517379446611
  0
LWPOLYLINE
  5
F2
330
96
100
AcDbEntity
  8
AM_4
100
AcDbPolyline
 90
        9
 70
     0
 43
0.0
 10
-0.3415534694028904
 20
0.1105035616010492
 10
-0.3455426199023395
 20
0.1162953971050335
 10
-0.3548175534058797
 20
0.1267211598672707
 10
-0.3647401467837111
 20
0.1342632563864101
 10
-0.3752545556039929
 20
0.13912628824383
 10
-0.3862652742134528
 20
0.1413500843139505
 10
-0.3982346476979894
 20
0.1407202964147465
 10
-0.4092721970810465
 20
0.1372555330796076
 10
-0.4137315754496074
 20
0.1349894125105204
  0
LINE
  5
F3
330
96
100
AcDbEntity
  8
AM_4
100
AcDbLine
 10
-0.3390329111592461
 20
0.1063386287053793
 30
0.0
 11
-0.3415534694028904
 21
0.1105035616010492
 31
0.0
  0
LWPOLYLINE
  5
F4
330
96
100
AcDbEntity
  8
AM_4
100
AcDbPolyline
 90
        9
 70
     0
 43
0.0
 10
-0.4144236530917542
 20
-0.1345887962069531
 10
-0.4121355138986895
 20
-0.1358622409434695
 10
-0.4014666066923734
 20
-0.1400040614189449
 10
-0.39036277066239
 20
-0.1414880443680949
 10
-0.3786052605706019
 20
-0.1400962757975346
 10
-0.3678436078844795
 20
-0.1360027585169032
 10
-0.3580492787169388
 20
-0.1295369064293526
 10
-0.348981999827524
 20
-0.120610474975649
 10
-0.340826968690538
 20
-0.1093463387146475
  0
ELLIPSE
  5
F5
330
96
100
AcDbEntity
  8
AM_4
100
AcDbEllipse
 10
-0.3729962569746311
 20
-0.0000000000001317
 30
0.0
 11
8.155773951874660E-18
 21
0.1331938965186212
 31
0.0
210
0.0
220
0.0
230
1.0
 40
0.4226182617404248
 41
-0.6346679277322407
 42
-0.534464055618888
  0
ELLIPSE
  5
F6
330
96
100
AcDbEntity
  8
AM_4
100
AcDbEllipse
 10
-0.399430321788976
 20
-0.0000000000000001
 30
0.0
 11
8.520391689943280E-18
 21
0.1391485560714405
 31
0.0
210
0.0
220
0.0
230
1.0
 40
0.4226182617407011
 41
2.922398804073382
 42
6.502379156695996
  0
LINE
  5
F7
330
96
100
AcDbEntity
  8
AM_4
100
AcDbLine
 10
-0.4782595695260257
 20
-0.101006617594416
 30
0.0
 11
-0.4122174217232456
 21
-0.1358191566576766
 31
0.0
  0
LINE
  5
F8
330
96
100
AcDbEntity
  8
AM_4
100
AcDbLine
 10
-0.4122174217232456
 20
0.1358191566576766
 30
0.0
 11
-0.4782595695260257
 21
0.101006617594416
 31
0.0
  0
ARC
  5
FA
330
96
100
AcDbEntity
  8
AM_5
100
AcDbCircle
 10
0.0000000000000002
 20
0.0
 30
0.0
 40
0.168500005
100
AcDbArc
 50
75.0
 51
14.99999999999994
  0
ARC
  5
FB
330
96
100
AcDbEntity
  8
AM_5
100
AcDbCircle
 10
0.0000000000000002
 20
0.0
 30
0.0
 40
0.168500005
100
AcDbArc
 50
15.0
 51
195.0
  0
ELLIPSE
  5
FC
330
96
100
AcDbEntity
  8
AM_4
100
AcDbEllipse
 10
-0.4687499999999994
 20
0.0000000000000008
 30
0.0
 11
6.336484236534180E-18
 21
0.1034826407245891
 31
0.0
210
0.0
220
0.0
230
1.0
 40
0.4226182617406986
 41
0.0
 42
6.283185307179586
  0
ENDBLK
  5
99
330
96
100
AcDbEntity
  8
0
100
AcDbBlockEnd
  0
BLOCK
  5
FF
330
FD
100
AcDbEntity
  8
0
100
AcDbBlockBegin
  2
3_3_7_16CS2i_0_in_070821_2
 70
     2
 10
0.0
 20
0.0
 30
0.0
  3
3_3_7_16CS2i_0_in_070821_2
  1

  0
ATTDEF
  5
101
330
FD
100
AcDbEntity
  8
AM_6
100
AcDbText
 10
3.22775
 20
2.75
 30
0.0
 40
0.5
  1
S-2000 Collar -Inch
100
AcDbAttributeDefinition
  3

  2
NN
 70
     8
280
     0
  0
ATTDEF
  5
102
330
FD
100
AcDbEntity
  8
AM_6
100
AcDbText
 10
3.22775
 20
2.25
 30
0.0
 40
0.5
  1
S-2000 Bearings
100
AcDbAttributeDefinition
  3

  2
NT
 70
     8
280
     0
  0
ATTDEF
  5
103
330
FD
100
AcDbEntity
  8
AM_6
100
AcDbText
 10
3.22775
 20
1.75
 30
0.0
 40
0.5
  1
3-7/16CS2i
100
AcDbAttributeDefinition
  3

  2
NB
 70
     8
280
     0
  0
ATTDEF
  5
104
330
FD
100
AcDbEntity
  8
AM_6
100
AcDbText
 10
3.22775
 20
1.25
 30
0.0
 40
0.5
  1
$BORE.CS2i
100
AcDbAttributeDefinition
  3

  2
NBSYN
 70
     8
280
     0
  0
ATTDEF
  5
105
330
FD
100
AcDbEntity
  8
AM_6
100
AcDbText
 10
3.22775
 20
0.75
 30
0.0
 40
0.5
  1
3-7/16CS2i
100
AcDbAttributeDefinition
  3

  2
LINA
 70
     8
280
     0
  0
ATTDEF
  5
106
330
FD
100
AcDbEntity
  8
AM_6
100
AcDbText
 10
3.22775
 20
0.25
 30
0.0
 40
0.5
  1
3-7/16
100
AcDbAttributeDefinition
  3

  2
BORE
 70
     8
280
     0
  0
ATTDEF
  5
107
330
FD
100
AcDbEntity
  8
AM_6
100
AcDbText
 10
3.22775
 20
-0.25
 30
0.0
 40
0.5
  1
3.437500
100
AcDbAttributeDefinition
  3

  2
BORE1
 70
     8
280
     0
  0
ATTDEF
  5
108
330
FD
100
AcDbEntity
  8
AM_6
100
AcDbText
 10
3.22775
 20
-0.75
 30
0.0
 40
0.5
  1
5-1/2
100
AcDbAttributeDefinition
  3

  2
L1
 70
     8
280
     0
  0
ATTDEF
  5
109
330
FD
100
AcDbEntity
  8
AM_6
100
AcDbText
 10
3.22775
 20
-1.25
 30
0.0
 40
0.5
  1
5.50000
100
AcDbAttributeDefinition
  3

  2
L
 70
     8
280
     0
  0
ATTDEF
  5
10A
330
FD
100
AcDbEntity
  8
AM_6
100
AcDbText
 10
3.22775
 20
-1.75
 30
0.0
 40
0.5
  1
5.50000
100
AcDbAttributeDefinition
  3

  2
L2
 70
     8
280
     0
  0
ATTDEF
  5
10B
330
FD
100
AcDbEntity
  8
AM_6
100
AcDbText
 10
3.22775
 20
-2.25
 30
0.0
 40
0.5
  1
5.00
100
AcDbAttributeDefinition
  3

  2
A
 70
     8
280
     0
  0
ATTDEF
  5
10C
330
FD
100
AcDbEntity
  8
AM_6
100
AcDbText
 10
3.22775
 20
-2.75
 30
0.0
 40
0.5
  1
2.25
100
AcDbAttributeDefinition
  3

  2
B
 70
     8
280
     0
  0
ATTDEF
  5
10D
330
FD
100
AcDbEntity
  8
AM_6
100
AcDbText
 10
3.22775
 20
-3.25
 30
0.0
 40
0.5
  1
4.24
100
AcDbAttributeDefinition
  3

  2
C
 70
     8
280
     0
  0
ATTDEF
  5
10E
330
FD
100
AcDbEntity
  8
AM_6
100
AcDbText
 10
3.22775
 20
-3.75
 30
0.0
 40
0.5
  1
5.84
100
AcDbAttributeDefinition
  3

  2
D
 70
     8
280
     0
  0
ATTDEF
  5
10F
330
FD
100
AcDbEntity
  8
AM_6
100
AcDbText
 10
3.22775
 20
-4.25
 30
0.0
 40
0.5
  1
0.54
100
AcDbAttributeDefinition
  3

  2
E
 70
     8
280
     0
  0
ATTDEF
  5
110
330
FD
100
AcDbEntity
  8
AM_6
100
AcDbText
 10
3.22775
 20
-4.75
 30
0.0
 40
0.5
  1
0.442
100
AcDbAttributeDefinition
  3

  2
F
 70
     8
280
     0
  0
ATTDEF
  5
111
330
FD
100
AcDbEntity
  8
AM_6
100
AcDbText
 10
3.22775
 20
-5.25
 30
0.0
 40
0.5
  1
1/2-13
100
AcDbAttributeDefinition
  3

  2
CS
 70
     8
280
     0
  0
ATTDEF
  5
112
330
FD
100
AcDbEntity
  8
AM_6
100
AcDbText
 10
3.22775
 20
-5.75
 30
0.0
 40
0.5
  1
0.5000
100
AcDbAttributeDefinition
  3

  2
NDM
 70
     8
280
     0
  0
ATTDEF
  5
113
330
FD
100
AcDbEntity
  8
AM_6
100
AcDbText
 10
3.22775
 20
-6.25
 30
0.0
 40
0.5
  1
0.4170
100
AcDbAttributeDefinition
  3

  2
KDM
 70
     8
280
     0
  0
ATTDEF
  5
114
330
FD
100
AcDbEntity
  8
AM_6
100
AcDbText
 10
3.22775
 20
-6.75
 30
0.0
 40
0.5
  1
2
100
AcDbAttributeDefinition
  3

  2
DD
 70
     8
280
     0
  0
ATTDEF
  5
115
330
FD
100
AcDbEntity
  8
AM_6
100
AcDbText
 10
3.22775
 20
-7.25
 30
0.0
 40
0.5
  1
baldor
100
AcDbAttributeDefinition
  3

  2
COMPANY
 70
     8
280
     0
  0
LINE
  5
116
330
FD
100
AcDbEntity
  8
AM_9
100
AcDbLine
 10
-2.0059
 20
2.128316666666673
 30
0.0
 11
-2.0059
 21
2.708349999999999
 31
0.0
  0
LINE
  5
117
330
FD
100
AcDbEntity
  8
AM_9
100
AcDbLine
 10
-2.4226
 20
2.708349999999999
 30
0.0
 11
-2.4226
 21
2.128316666666673
 31
0.0
  0
LINE
  5
118
330
FD
100
AcDbEntity
  8
AM_9
100
AcDbLine
 10
-2.4226
 20
2.128316666666673
 30
0.0
 11
-2.0059
 21
2.128316666666673
 31
0.0
  0
LINE
  5
119
330
FD
100
AcDbEntity
  8
AM_9
100
AcDbLine
 10
-2.4226
 20
2.128316666666673
 30
0.0
 11
-2.430576655122925
 21
2.120340011543747
 31
0.0
  0
LINE
  5
11A
330
FD
100
AcDbEntity
  8
AM_9
100
AcDbLine
 10
-1.997872808238076
 20
2.120289474904748
 30
0.0
 11
-2.0059
 21
2.128316666666673
 31
0.0
  0
LINE
  5
11B
330
FD
100
AcDbEntity
  8
AM_9
100
AcDbLine
 10
-2.4226
 20
2.708349999999999
 30
0.0
 11
-2.0059
 21
2.708349999999999
 31
0.0
  0
LINE
  5
11C
330
FD
100
AcDbEntity
  8
AM_9
100
AcDbLine
 10
-2.0059
 20
2.708349999999999
 30
0.0
 11
-1.988800484400175
 21
2.725449515599824
 31
0.0
  0
LINE
  5
11D
330
FD
100
AcDbEntity
  8
AM_9
100
AcDbLine
 10
-2.464029740518853
 20
2.749779740518854
 30
0.0
 11
-2.4226
 21
2.708349999999999
 31
0.0
  0
LWPOLYLINE
  5
11E
330
FD
100
AcDbEntity
  8
AM_9
100
AcDbPolyline
 90
       33
 70
     0
 43
0.0
 10
-2.002338301032041
 20
0.9389070061457301
 10
-2.00462164379955
 20
0.9480167304883548
 10
-2.017614645034806
 20
0.9820358871958423
 10
-2.036880222958651
 20
1.013322024561619
 10
-2.061579963640259
 20
1.040470903864968
 10
-2.09130484563242
 20
1.063256112503843
 10
-2.123743259689727
 20
1.080173263803241
 10
-2.159130521281622
 20
1.091808745021458
 10
-2.194200344360223
 20
1.097450383710989
 10
-2.229878263858184
 20
1.097806206079553
 10
-2.263762587883565
 20
1.093065402581921
 10
-2.296272607819823
 20
1.083575345219367
 10
-2.32676705315346
 20
1.069446891839834
 10
-2.35427086955672
 20
1.051221507161747
 10
-2.379148641905721
 20
1.028260155683471
 10
-2.399569014011173
 20
1.001973630145816
 10
-2.415784341330018
 20
0.9713080817300318
 10
-2.426261660168024
 20
0.9384603132853377
 10
-2.430774871196483
 20
0.9028705789295699
 10
-2.428775336237969
 20
0.8667826360174665
 10
-2.420042464651593
 20
0.8306666761628037
 10
-2.404831458022961
 20
0.7961441815955898
 10
-2.38361109334951
 20
0.7646092471893633
 10
-2.356858322870072
 20
0.7368045473401823
 10
-2.326380238998792
 20
0.714583459955738
 10
-2.292211439144592
 20
0.6977227203400433
 10
-2.257476657961342
 20
0.6875147685228941
 10
-2.221392861238746
 20
0.6832069106349862
 10
-2.186831780542765
 20
0.6848709731065843
 10
-2.153051935484982
 20
0.6919918567810888
 10
-2.121244881265919
 20
0.7042439095664885
 10
-2.091927427931414
 20
0.7211192011086255
 10
-2.052777269720321
 20
0.7553325821002977
  0
LWPOLYLINE
  5
11F
330
FD
100
AcDbEntity
  8
AM_9
100
AcDbPolyline
 90
        5
 70
     0
 43
0.0
 10
-2.052777269720321
 20
0.7553325821002977
 10
-2.033406530532239
 20
0.7801819617212913
 10
-2.017985721553152
 20
0.807191989725588
 10
-2.005231308949325
 20
0.8410753231475865
 10
-2.002268623843987
 20
0.8528592057308233
  0
LINE
  5
120
330
FD
100
AcDbEntity
  8
AM_9
100
AcDbLine
 10
-2.65625
 20
-2.12
 30
0.0
 11
-1.77225
 21
-2.12
 31
0.0
  0
LINE
  5
121
330
FD
100
AcDbEntity
  8
AM_9
100
AcDbLine
 10
-1.77225
 20
2.12
 30
0.0
 11
-1.998237010698908
 21
2.12
 31
0.0
  0
LINE
  5
122
330
FD
100
AcDbEntity
  8
AM_9
100
AcDbLine
 10
-2.430149334973036
 20
2.12
 30
0.0
 11
-2.65625
 21
2.12
 31
0.0
  0
LWPOLYLINE
  5
123
330
FD
100
AcDbEntity
  8
AM_9
100
AcDbPolyline
 90
       21
 70
     0
 43
0.0
 10
-2.430916666666601
 20
2.119999999999992
 10
-2.430432956173149
 20
2.119944996509076
 10
-2.424456316388953
 20
2.119275271596194
 10
-2.412111595767474
 20
2.117950007450867
 10
-2.392960338956812
 20
2.116049490654317
 10
-2.369013064002314
 20
2.113940558988845
 10
-2.339101475392249
 20
2.111726765405039
 10
-2.307386256702722
 20
2.109892892457725
 10
-2.271523549354083
 20
2.108459575893357
 10
-2.237022149730405
 20
2.107724895794852
 10
-2.20073409531838
 20
2.10763550093538
 10
-2.167243293924177
 20
2.108174829241165
 10
-2.134140231451794
 20
2.10929348643794
 10
-2.103886014858388
 20
2.110823294463101
 10
-2.075831632183131
 20
2.112672808573442
 10
-2.051022845840059
 20
2.114651870692609
 10
-2.030066305205835
 20
2.11657330240036
 10
-2.013703515472045
 20
2.118231574436285
 10
-2.002716031346456
 20
2.119422462789338
 10
-1.997816681920972
 20
2.119973450609591
 10
-1.997583333333559
 20
2.119999999999973
  0
LINE
  5
124
330
FD
100
AcDbEntity
  8
AM_9
100
AcDbLine
 10
-2.054209973597581
 20
2.114379646812576
 30
0.0
 11
-2.059314722724607
 21
2.113954659390663
 31
0.0
  0
LINE
  5
125
330
FD
100
AcDbEntity
  8
AM_9
100
AcDbLine
 10
-1.997583333333559
 20
2.119999999999973
 30
0.0
 11
-2.003639834351659
 21
2.11931994899069
 31
0.0
  0
LINE
  5
126
330
FD
100
AcDbEntity
  8
AM_9
100
AcDbLine
 10
-2.0059
 20
0.8994654901004289
 30
0.0
 11
-2.0059
 21
1.144598169185423
 31
0.0
  0
LINE
  5
127
330
FD
100
AcDbEntity
  8
AM_9
100
AcDbLine
 10
-2.4226
 20
1.144598169185423
 30
0.0
 11
-2.4226
 21
0.8994654901004289
 31
0.0
  0
ELLIPSE
  5
128
330
FD
100
AcDbEntity
  8
AM_9
100
AcDbEllipse
 10
-2.214250000000006
 20
0.8994654901004281
 30
0.0
 11
0.208350000000006
 21
0.0
 31
0.0
210
0.0
220
0.0
230
1.0
 40
0.9063077870366485
 41
2.435210810815655
 42
6.989567149953684
  0
LINE
  5
129
330
FD
100
AcDbEntity
  8
AM_9
100
AcDbLine
 10
-2.002974713177353
 20
1.044941912550958
 30
0.0
 11
-2.002974713177353
 21
1.276939649633282
 31
0.0
  0
LINE
  5
12A
330
FD
100
AcDbEntity
  8
AM_5
100
AcDbLine
 10
-2.46425
 20
2.75
 30
0.0
 11
-2.46425
 21
2.12
 31
0.0
  0
LINE
  5
12B
330
FD
100
AcDbEntity
  8
AM_5
100
AcDbLine
 10
-2.33925
 20
2.086666666666667
 30
0.0
 11
-2.46425
 21
2.086666666666667
 31
0.0
  0
LINE
  5
12C
330
FD
100
AcDbEntity
  8
AM_5
100
AcDbLine
 10
-1.96425
 20
2.682926829268293
 30
0.0
 11
-1.96425
 21
2.12
 31
0.0
  0
LINE
  5
12D
330
FD
100
AcDbEntity
  8
AM_5
100
AcDbLine
 10
-2.08925
 20
2.086666666666667
 30
0.0
 11
-1.96425
 21
2.086666666666667
 31
0.0
  0
ELLIPSE
  5
12E
330
FD
100
AcDbEntity
  8
AM_4
100
AcDbEllipse
 10
-2.21425
 20
0.8994654901004302
 30
0.0
 11
0.2083499999999985
 21
3.104656934738137E-9
 31
0.0
210
0.0
220
0.0
230
1.0
 40
0.9063077870366496
 41
0.7063818275697074
 42
2.435210795611283
  0
ELLIPSE
  5
12F
330
FD
100
AcDbEntity
  8
AM_4
100
AcDbEllipse
 10
-2.214249999999999
 20
1.144598169185423
 30
0.0
 11
0.2083500000000002
 21
3.104656934738163E-9
 31
0.0
210
0.0
220
0.0
230
1.0
 40
0.9063077870366494
 41
1.570796313289858
 42
6.283187037607677
  0
ELLIPSE
  5
130
330
FD
100
AcDbEntity
  8
AM_4
100
AcDbEllipse
 10
-2.214249999999999
 20
1.144598169185424
 30
0.0
 11
0.2083499999999993
 21
3.104656934738150E-9
 31
0.0
210
0.0
220
0.0
230
1.0
 40
0.90630778703665
 41
0.0000017304280906
 42
1.57079631328986
  0
LINE
  5
131
330
FD
100
AcDbEntity
  8
AM_4
100
AcDbLine
 10
-1.817037456445993
 20
-2.619047619047619
 30
0.0
 11
-1.77225
 21
-2.619047619047619
 31
0.0
  0
LINE
  5
132
330
FD
100
AcDbEntity
  8
AM_4
100
AcDbLine
 10
-1.77225
 20
2.619047619047619
 30
0.0
 11
-1.817037456445993
 21
2.619047619047619
 31
0.0
  0
LINE
  5
133
330
FD
100
AcDbEntity
  8
AM_4
100
AcDbLine
 10
-1.77225
 20
2.619047619047619
 30
0.0
 11
-1.77225
 21
-2.619047619047619
 31
0.0
  0
LINE
  5
134
330
FD
100
AcDbEntity
  8
AM_4
100
AcDbLine
 10
-1.96425
 20
-2.682926829268293
 30
0.0
 11
-1.880916666666667
 21
-2.682926829268293
 31
0.0
  0
LINE
  5
135
330
FD
100
AcDbEntity
  8
AM_4
100
AcDbLine
 10
-1.880916666666667
 20
2.682926829268293
 30
0.0
 11
-1.96425
 21
2.682926829268293
 31
0.0
  0
LINE
  5
136
330
FD
100
AcDbEntity
  8
AM_4
100
AcDbLine
 10
-1.817037456445993
 20
2.619047619047619
 30
0.0
 11
-1.880916666666667
 21
2.682926829268293
 31
0.0
  0
LINE
  5
137
330
FD
100
AcDbEntity
  8
AM_4
100
AcDbLine
 10
-1.880916666666667
 20
-2.682926829268293
 30
0.0
 11
-1.817037456445993
 21
-2.619047619047619
 31
0.0
  0
LINE
  5
138
330
FD
100
AcDbEntity
  8
AM_4
100
AcDbLine
 10
-1.880916666666667
 20
2.682926829268293
 30
0.0
 11
-1.880916666666667
 21
-2.682926829268293
 31
0.0
  0
LINE
  5
139
330
FD
100
AcDbEntity
  8
AM_4
100
AcDbLine
 10
-1.817037456445993
 20
2.619047619047619
 30
0.0
 11
-1.817037456445993
 21
-2.619047619047619
 31
0.0
  0
LWPOLYLINE
  5
13A
330
FD
100
AcDbEntity
  8
AM_4
100
AcDbPolyline
 90
        6
 70
     0
 43
0.0
 10
-2.002974713177352
 20
1.276939649633282
 10
-1.992923660914218
 20
1.21669624427342
 10
-1.988822560223108
 20
1.156381140400866
 10
-1.991259433751826
 20
1.10540408740976
 10
-1.999523649081679
 20
1.058019559575621
 10
-2.002974713177352
 20
1.044941912550958
  0
LINE
  5
13B
330
FD
100
AcDbEntity
  8
AM_4
100
AcDbLine
 10
-1.96425
 20
2.682926829268293
 30
0.0
 11
-1.988800484400175
 21
2.725449515599824
 31
0.0
  0
LINE
  5
13C
330
FD
100
AcDbEntity
  8
AM_4
100
AcDbLine
 10
-2.002974713177353
 20
-2.75
 30
0.0
 11
-1.96425
 21
-2.682926829268293
 31
0.0
  0
LINE
  5
13D
330
FD
100
AcDbEntity
  8
AM_4
100
AcDbLine
 10
-1.988800484400185
 20
2.72544951559984
 30
0.0
 11
-2.002974713177353
 21
2.747019914166474
 31
0.0
  0
LINE
  5
13E
330
FD
100
AcDbEntity
  8
AM_4
100
AcDbLine
 10
-1.96425
 20
2.682926829268293
 30
0.0
 11
-1.96425
 21
-2.682926829268293
 31
0.0
  0
LINE
  5
13F
330
FD
100
AcDbEntity
  8
AM_4
100
AcDbLine
 10
-2.65625
 20
2.602666666666666
 30
0.0
 11
-2.65625
 21
-2.602666666666666
 31
0.0
  0
ARC
  5
140
330
FD
100
AcDbEntity
  8
AM_4
100
AcDbCircle
 10
-2.508916666666665
 20
-2.602666666666665
 30
0.0
 40
0.1473333333333349
100
AcDbArc
 50
180.0
 51
270.0
  0
ARC
  5
141
330
FD
100
AcDbEntity
  8
AM_4
100
AcDbCircle
 10
-2.508916666666665
 20
2.602666666666665
 30
0.0
 40
0.1473333333333349
100
AcDbArc
 50
90.0
 51
180.0
  0
LWPOLYLINE
  5
142
330
FD
100
AcDbEntity
  8
AM_4
100
AcDbPolyline
 90
       33
 70
     0
 43
0.0
 10
-2.002974713177352
 20
1.044941912550958
 10
-2.016661962661572
 20
1.027602907798391
 10
-2.041700114642783
 20
1.002868510794355
 10
-2.070380835287552
 20
0.981744895143946
 10
-2.106536086837825
 20
0.962737575028906
 10
-2.145499007059648
 20
0.9493979373121324
 10
-2.18764653093247
 20
0.9419864504039788
 10
-2.230519122406342
 20
0.9411590280280068
 10
-2.273685470264919
 20
0.9471886324942883
 10
-2.315165159390213
 20
0.9599006656108766
 10
-2.353589231748956
 20
0.9789778095160157
 10
-2.387952435605901
 20
1.003839867048518
 10
-2.416402489959865
 20
1.033052977212303
 10
-2.438948409992957
 20
1.066242797302369
 10
-2.454145173868934
 20
1.100886140421256
 10
-2.462591657773876
 20
1.137196827187692
 10
-2.463934794299849
 20
1.172610722742452
 10
-2.458692123040672
 20
1.207495869573692
 10
-2.447157338701842
 20
1.240406484271447
 10
-2.429786707642081
 20
1.271001328437533
 10
-2.406571797502619
 20
1.29901505700733
 10
-2.378581146375685
 20
1.323249432380169
 10
-2.345214721624977
 20
1.34386659659699
 10
-2.308495543701406
 20
1.35947491530948
 10
-2.267800508483123
 20
1.370023650098408
 10
-2.225667706938266
 20
1.374668131757098
 10
-2.182211115066253
 20
1.37314563612111
 10
-2.139653232035851
 20
1.365375485807047
 10
-2.099091599987947
 20
1.35136379081831
 10
-2.061863926317129
 20
1.331485579040766
 10
-2.029745961986845
 20
1.306589872688161
 10
-2.003033425195949
 20
1.277018449182871
 10
-2.002974713177352
 20
1.276939649633282
  0
LINE
  5
143
330
FD
100
AcDbEntity
  8
AM_4
100
AcDbLine
 10
-2.002974713177353
 20
2.747019914166474
 30
0.0
 11
-2.002974713177352
 21
1.276939649633282
 31
0.0
  0
LWPOLYLINE
  5
144
330
FD
100
AcDbEntity
  8
AM_4
100
AcDbPolyline
 90
       18
 70
     0
 43
0.0
 10
-2.002974713177353
 20
2.747019914166474
 10
-2.003396436767927
 20
2.746990184524879
 10
-2.027472364772762
 20
2.745390565207143
 10
-2.05692328947817
 20
2.743695366171365
 10
-2.090796539952653
 20
2.742102670193587
 10
-2.128809799806417
 20
2.740771616950282
 10
-2.169491278780395
 20
2.739883106677369
 10
-2.212525474108165
 20
2.739547410119858
 10
-2.255335975827345
 20
2.739830201299746
 10
-2.298195890889933
 20
2.740729169332462
 10
-2.337511135590433
 20
2.742094720107782
 10
-2.374354348550008
 20
2.743842930569446
 10
-2.404810782021025
 20
2.745629200645077
 10
-2.430514044386284
 20
2.747376061130656
 10
-2.448389304565435
 20
2.748719655896724
 10
-2.460008643827456
 20
2.749649510888446
 10
-2.464186325303501
 20
2.749994694441653
 10
-2.46424999999993
 20
2.749999999999994
  0
LINE
  5
145
330
FD
100
AcDbEntity
  8
AM_4
100
AcDbLine
 10
-2.002974713177352
 20
1.044941912550958
 30
0.0
 11
-2.002974713177353
 21
-2.75
 31
0.0
  0
LINE
  5
146
330
FD
100
AcDbEntity
  8
AM_4
100
AcDbLine
 10
-2.508916666666666
 20
-2.75
 30
0.0
 11
-2.002974713177353
 21
-2.75
 31
0.0
  0
LINE
  5
147
330
FD
100
AcDbEntity
  8
AM_4
100
AcDbLine
 10
-2.463842546471252
 20
2.75
 30
0.0
 11
-2.508916666666666
 21
2.75
 31
0.0
  0
LINE
  5
148
330
FD
100
AcDbEntity
  8
AM_4
100
AcDbLine
 10
-2.508916666666666
 20
2.75
 30
0.0
 11
-2.508916666666666
 21
-2.75
 31
0.0
  0
ENDBLK
  5
100
330
FD
100
AcDbEntity
  8
0
100
AcDbBlockEnd
  0
BLOCK
  5
14B
330
149
100
AcDbEntity
  8
0
100
AcDbBlockBegin
  2
4_070012i_0_in_070821_2
 70
     2
 10
0.0
 20
0.0
 30
0.0
  3
4_070012i_0_in_070821_2
  1

  0
ATTDEF
  5
14D
330
149
100
AcDbEntity
  8
AM_6
100
AcDbText
 10
6.34375
 20
3.1496
 30
0.0
 40
0.5
  1
S-2000 Insert -Inch
100
AcDbAttributeDefinition
  3

  2
NN
 70
     8
280
     0
  0
ATTDEF
  5
14E
330
149
100
AcDbEntity
  8
AM_6
100
AcDbText
 10
6.34375
 20
2.6496
 30
0.0
 40
0.5
  1
S-2000 Bearings
100
AcDbAttributeDefinition
  3

  2
NT
 70
     8
280
     0
  0
ATTDEF
  5
14F
330
149
100
AcDbEntity
  8
AM_6
100
AcDbText
 10
6.34375
 20
2.1496
 30
0.0
 40
0.5
  1
070012i
100
AcDbAttributeDefinition
  3

  2
NB
 70
     8
280
     0
  0
ATTDEF
  5
150
330
149
100
AcDbEntity
  8
AM_6
100
AcDbText
 10
6.34375
 20
1.6496
 30
0.0
 40
0.5
  1
$PN.i
100
AcDbAttributeDefinition
  3

  2
NBSYN
 70
     8
280
     0
  0
ATTDEF
  5
151
330
149
100
AcDbEntity
  8
AM_6
100
AcDbText
 10
6.34375
 20
1.1496
 30
0.0
 40
0.5
  1
070012i
100
AcDbAttributeDefinition
  3

  2
LINA
 70
     8
280
     0
  0
ATTDEF
  5
152
330
149
100
AcDbEntity
  8
AM_6
100
AcDbText
 10
6.34375
 20
0.6495999999999995
 30
0.0
 40
0.5
  1
3-7/16
100
AcDbAttributeDefinition
  3

  2
SS
 70
     8
280
     0
  0
ATTDEF
  5
153
330
149
100
AcDbEntity
  8
AM_6
100
AcDbText
 10
6.34375
 20
0.1495999999999995
 30
0.0
 40
0.5
  1
4.24
100
AcDbAttributeDefinition
  3

  2
CC
 70
     8
280
     0
  0
ATTDEF
  5
154
330
149
100
AcDbEntity
  8
AM_6
100
AcDbText
 10
6.34375
 20
-0.3504000000000005
 30
0.0
 40
0.5
  1
3.437500
100
AcDbAttributeDefinition
  3

  2
SS1
 70
     8
280
     0
  0
ATTDEF
  5
155
330
149
100
AcDbEntity
  8
AM_6
100
AcDbText
 10
6.34375
 20
-0.8504000000000005
 30
0.0
 40
0.5
  1
070012
100
AcDbAttributeDefinition
  3

  2
PN
 70
     8
280
     0
  0
ATTDEF
  5
156
330
149
100
AcDbEntity
  8
AM_6
100
AcDbText
 10
6.34375
 20
-1.3504
 30
0.0
 40
0.5
  1
INS-S2-307R
100
AcDbAttributeDefinition
  3

  2
DESCRIPTION
 70
     8
280
     0
  0
ATTDEF
  5
157
330
149
100
AcDbEntity
  8
AM_6
100
AcDbText
 10
6.34375
 20
-1.8504
 30
0.0
 40
0.5
  1
Contact Seal
100
AcDbAttributeDefinition
  3

  2
ST
 70
     8
280
     0
  0
ATTDEF
  5
158
330
149
100
AcDbEntity
  8
AM_6
100
AcDbText
 10
6.34375
 20
-2.3504
 30
0.0
 40
0.5
  1
1
100
AcDbAttributeDefinition
  3

  2
ST1
 70
     8
280
     0
  0
ATTDEF
  5
159
330
149
100
AcDbEntity
  8
AM_6
100
AcDbText
 10
6.34375
 20
-2.8504
 30
0.0
 40
0.5
  1
6.2992
100
AcDbAttributeDefinition
  3

  2
A
 70
     8
280
     0
  0
ATTDEF
  5
15A
330
149
100
AcDbEntity
  8
AM_6
100
AcDbText
 10
6.34375
 20
-3.3504
 30
0.0
 40
0.5
  1
1-5/8
100
AcDbAttributeDefinition
  3

  2
B
 70
     8
280
     0
  0
ATTDEF
  5
15B
330
149
100
AcDbEntity
  8
AM_6
100
AcDbText
 10
6.34375
 20
-3.8504
 30
0.0
 40
0.5
  1
4
100
AcDbAttributeDefinition
  3

  2
C
 70
     8
280
     0
  0
ATTDEF
  5
15C
330
149
100
AcDbEntity
  8
AM_6
100
AcDbText
 10
6.34375
 20
-4.3504
 30
0.0
 40
0.5
  1
1.483
100
AcDbAttributeDefinition
  3

  2
D
 70
     8
280
     0
  0
ATTDEF
  5
15D
330
149
100
AcDbEntity
  8
AM_6
100
AcDbText
 10
6.34375
 20
-4.8504
 30
0.0
 40
0.5
  1
5-1/2
100
AcDbAttributeDefinition
  3

  2
E
 70
     8
280
     0
  0
ATTDEF
  5
15E
330
149
100
AcDbEntity
  8
AM_6
100
AcDbText
 10
6.34375
 20
-5.3504
 30
0.0
 40
0.5
  1
0.34375
100
AcDbAttributeDefinition
  3

  2
F
 70
     8
280
     0
  0
ATTDEF
  5
15F
330
149
100
AcDbEntity
  8
AM_6
100
AcDbText
 10
6.34375
 20
-5.8504
 30
0.0
 40
0.5
  1
2
100
AcDbAttributeDefinition
  3

  2
DD
 70
     8
280
     0
  0
ATTDEF
  5
160
330
149
100
AcDbEntity
  8
AM_6
100
AcDbText
 10
6.34375
 20
-6.3504
 30
0.0
 40
0.5
  1
baldor
100
AcDbAttributeDefinition
  3

  2
COMPANY
 70
     8
280
     0
  0
LINE
  5
161
330
149
100
AcDbEntity
  8
AM_9
100
AcDbLine
 10
-2.484249999999999
 20
2.119887205068237
 30
0.0
 11
-2.484249999999999
 21
1.71875
 31
0.0
  0
LINE
  5
162
330
149
100
AcDbEntity
  8
AM_9
100
AcDbLine
 10
-1.94425
 20
1.71875
 30
0.0
 11
-1.94425
 21
2.119994481033454
 31
0.0
  0
LINE
  5
163
330
149
100
AcDbEntity
  8
AM_9
100
AcDbLine
 10
-2.484249999999999
 20
0.8959507148902829
 30
0.0
 11
-2.484249999999999
 21
0.7263628634379331
 31
0.0
  0
LINE
  5
164
330
149
100
AcDbEntity
  8
AM_9
100
AcDbLine
 10
-1.94425
 20
0.7263156090741771
 30
0.0
 11
-1.94425
 21
0.8959507148902829
 31
0.0
  0
LWPOLYLINE
  5
165
330
149
100
AcDbEntity
  8
AM_9
100
AcDbPolyline
 90
        5
 70
     0
 43
0.0
 10
-2.46718479030518
 20
0.8108932318376569
 10
-2.468219299786925
 20
0.8084042038318122
 10
-2.479979167803696
 20
0.7692985897530739
 10
-2.484240005913609
 20
0.7284799005569292
 10
-2.484249999637359
 20
0.7263878200106415
  0
LWPOLYLINE
  5
166
330
149
100
AcDbEntity
  8
AM_9
100
AcDbPolyline
 90
        8
 70
     0
 43
0.0
 10
-2.247749785505574
 20
0.9603085583399162
 10
-2.272635712335089
 20
0.9566941169705465
 10
-2.315510800169434
 20
0.9454511188436127
 10
-2.355567665753095
 20
0.9283469548437282
 10
-2.391948055755114
 20
0.9054828135743924
 10
-2.423375260238623
 20
0.8775618075952639
 10
-2.449120321104039
 20
0.8448395911931642
 10
-2.46718479030518
 20
0.8108932318376569
  0
LWPOLYLINE
  5
167
330
149
100
AcDbEntity
  8
AM_9
100
AcDbPolyline
 90
        8
 70
     0
 43
0.0
 10
-1.960893034951716
 20
0.809888015833677
 10
-1.970353624181008
 20
0.8296937129765707
 10
-1.993031046500949
 20
0.8636767111771961
 10
-2.021808322826185
 20
0.89359211336246
 10
-2.056369370227869
 20
0.9189326588461402
 10
-2.095409349383278
 20
0.9388373786676762
 10
-2.137938120505064
 20
0.9527836230215389
 10
-2.175875232998804
 20
0.9597587920717302
  0
LWPOLYLINE
  5
168
330
149
100
AcDbEntity
  8
AM_9
100
AcDbPolyline
 90
        4
 70
     0
 43
0.0
 10
-1.944250000932964
 20
0.7263547947639083
 10
-1.94588504481094
 20
0.7531561732517942
 10
-1.954552998529208
 20
0.7925678397556787
 10
-1.960893034951716
 20
0.809888015833677
  0
LWPOLYLINE
  5
169
330
149
100
AcDbEntity
  8
AM_9
100
AcDbPolyline
 90
       11
 70
     0
 43
0.0
 10
-2.484249999637359
 20
0.7263878200106415
 10
-2.480839314616156
 20
0.6875324203435885
 10
-2.470073895034544
 20
0.647209925725698
 10
-2.452181332668399
 20
0.6087489250081003
 10
-2.427762139798466
 20
0.5732283550908106
 10
-2.397068810320536
 20
0.5414650004320332
 10
-2.361245831584019
 20
0.5147828216631569
 10
-2.320968791316354
 20
0.4940258325750631
 10
-2.277618542386313
 20
0.4799881715661061
 10
-2.24616221461102
 20
0.4745026755434244
 10
-2.21425
 20
0.4726534675249085
  0
LWPOLYLINE
  5
16A
330
149
100
AcDbEntity
  8
AM_9
100
AcDbPolyline
 90
        7
 70
     0
 43
0.0
 10
-2.025161629564021
 20
1.066915007867715
 10
-2.003910164087472
 20
1.046513394252286
 10
-1.978455749338025
 20
1.01338337986988
 10
-1.959665506013688
 20
0.9766451995084803
 10
-1.948206312213228
 20
0.9373262719416712
 10
-1.944250533557966
 20
0.8964371641452153
 10
-1.944250000025108
 20
0.8959540521073357
  0
LWPOLYLINE
  5
16B
330
149
100
AcDbEntity
  8
AM_9
100
AcDbPolyline
 90
       11
 70
     0
 43
0.0
 10
-2.403290697128728
 20
1.066955582998431
 10
-2.371131860238628
 20
1.090253266955972
 10
-2.331997335731764
 20
1.110254682574585
 10
-2.289442600984267
 20
1.124221452913873
 10
-2.244734654766668
 20
1.13188653693128
 10
-2.199458129285627
 20
1.132990279782632
 10
-2.15460100277207
 20
1.127669084950707
 10
-2.111604077188939
 20
1.116019269941661
 10
-2.071476163107391
 20
1.098392999280692
 10
-2.035187595018887
 20
1.0749877530829
 10
-2.025161629564021
 20
1.066915007867715
  0
LWPOLYLINE
  5
16C
330
149
100
AcDbEntity
  8
AM_9
100
AcDbPolyline
 90
        7
 70
     0
 43
0.0
 10
-2.484249998947692
 20
0.8959291103520814
 10
-2.482554267439844
 20
0.9232419234793589
 10
-2.473746683309979
 20
0.9628954837163608
 10
-2.457748960689548
 20
1.000318114378463
 10
-2.434851450434246
 20
1.034581188340918
 10
-2.405824295305774
 20
1.064770412110507
 10
-2.403290697128728
 20
1.066955582998431
  0
LWPOLYLINE
  5
16D
330
149
100
AcDbEntity
  8
AM_9
100
AcDbPolyline
 90
       11
 70
     0
 43
0.0
 10
-1.944250000025108
 20
0.8959540521073357
 10
-1.947971604390507
 20
0.8554106603145312
 10
-1.959097562523247
 20
0.815144453949638
 10
-1.977396476811262
 20
0.7768511634655715
 10
-2.002254024015004
 20
0.7416199883106783
 10
-2.033291916526437
 20
0.7103619953335842
 10
-2.069418206321805
 20
0.6842418298831974
 10
-2.109843915196048
 20
0.6641112482016288
 10
-2.153254913387995
 20
0.6506513485957608
 10
-2.183551068865182
 20
0.6456391696406742
 10
-2.21425
 20
0.6439516627973393
  0
LWPOLYLINE
  5
16E
330
149
100
AcDbEntity
  8
AM_9
100
AcDbPolyline
 90
       11
 70
     0
 43
0.0
 10
-2.21425
 20
0.4726534675249085
 10
-2.169239471823675
 20
0.4763585318873768
 10
-2.125505307521107
 20
0.4872289469943502
 10
-2.08432616799332
 20
0.504974377998617
 10
-2.046774914870443
 20
0.5288990692266473
 10
-2.013694296272952
 20
0.558549934533149
 10
-1.986234575255688
 20
0.5927484528817236
 10
-1.965154312243977
 20
0.6306943251777638
 10
-1.951137921678716
 20
0.6710037283790492
 10
-1.944734402172486
 20
0.7121223402383732
 10
-1.944250000932964
 20
0.7263547947639083
  0
LWPOLYLINE
  5
16F
330
149
100
AcDbEntity
  8
AM_9
100
AcDbPolyline
 90
       11
 70
     0
 43
0.0
 10
-2.21425
 20
1.697410251677538
 10
-2.169877653760553
 20
1.697990125887307
 10
-2.125505307521107
 20
1.699728561548336
 10
-2.084871247818061
 20
1.702333816857362
 10
-2.046774914870443
 20
1.705652211512989
 10
-2.014106741346013
 20
1.709169063166262
 10
-1.986234575255688
 20
1.712656590335998
 10
-1.965386627625451
 20
1.715556627048386
 10
-1.951137921678715
 20
1.717681439690883
 10
-1.944745622643141
 20
1.718672211887569
 10
-1.944250000000557
 20
1.718749999999912
  0
LINE
  5
170
330
149
100
AcDbEntity
  8
AM_9
100
AcDbLine
 10
1.34375
 20
1.71875
 30
0.0
 11
-1.94425
 21
1.71875
 31
0.0
  0
LINE
  5
171
330
149
100
AcDbEntity
  8
AM_9
100
AcDbLine
 10
-2.484249999999999
 20
1.71875
 30
0.0
 11
-2.65625
 21
1.71875
 31
0.0
  0
LINE
  5
172
330
149
100
AcDbEntity
  8
AM_9
100
AcDbLine
 10
-2.65625
 20
-1.71875
 30
0.0
 11
1.34375
 21
-1.71875
 31
0.0
  0
LINE
  5
173
330
149
100
AcDbEntity
  8
AM_9
100
AcDbLine
 10
-2.481290676754141
 20
1.718287602685101
 30
0.0
 11
-2.484249999999801
 21
1.718749999999969
 31
0.0
  0
LINE
  5
174
330
149
100
AcDbEntity
  8
AM_9
100
AcDbLine
 10
-2.198314615507041
 20
1.697485051179809
 30
0.0
 11
-2.222310744315632
 21
1.697429391196854
 31
0.0
  0
LWPOLYLINE
  5
175
330
149
100
AcDbEntity
  8
AM_9
100
AcDbPolyline
 90
       11
 70
     0
 43
0.0
 10
-2.484249999999801
 20
1.718749999999969
 10
-2.48096749098961
 20
1.718237405744559
 10
-2.470073895034543
 20
1.716580154775956
 10
-2.452501227543537
 20
1.714049360411188
 10
-2.427762139798466
 20
1.710786075563312
 10
-2.397559054547871
 20
1.707279640826082
 10
-2.361245831584019
 20
1.703763286669565
 10
-2.321591771338167
 20
1.700800934375924
 10
-2.277618542386313
 20
1.698592692396905
 10
-2.246391840214174
 20
1.69771454031364
 10
-2.21425
 20
1.697410251677538
  0
LWPOLYLINE
  5
176
330
149
100
AcDbEntity
  8
AM_9
100
AcDbPolyline
 90
       11
 70
     0
 43
0.0
 10
-2.21425
 20
0.6439516627973393
 10
-2.259368390831229
 20
0.6476249139438293
 10
-2.303210019928625
 20
0.6584103219105827
 10
-2.344496770506824
 20
0.6760384091664733
 10
-2.382134865365252
 20
0.6998362474154121
 10
-2.415182264453069
 20
0.7292862314649692
 10
-2.442586942289505
 20
0.7632879888944594
 10
-2.46355443801334
 20
0.8009870482314683
 10
-2.477466715408073
 20
0.841083711243266
 10
-2.483795046610922
 20
0.8821667555722522
 10
-2.484249998947692
 20
0.8959291103520814
  0
LWPOLYLINE
  5
177
330
149
100
AcDbEntity
  8
AM_9
100
AcDbPolyline
 90
       11
 70
     0
 43
0.0
 10
-2.21425
 20
2.102736312522329
 10
-2.258730009964312
 20
2.103206711497095
 10
-2.303210019928625
 20
2.104617277593649
 10
-2.343947313257162
 20
2.106732397117898
 10
-2.382134865365252
 20
2.109427725241779
 10
-2.414769208734502
 20
2.112275539097944
 10
-2.442586942289505
 20
2.11509757675955
 10
-2.463325117753342
 20
2.117436755675088
 10
-2.477466715408073
 20
2.119146771526271
 10
-2.483784958110078
 20
2.119940823146581
 10
-2.484249999999726
 20
2.119999999999965
  0
LINE
  5
178
330
149
100
AcDbEntity
  8
AM_9
100
AcDbLine
 10
-1.77225
 20
2.12
 30
0.0
 11
-1.944293895991558
 21
2.12
 31
0.0
  0
LINE
  5
179
330
149
100
AcDbEntity
  8
AM_9
100
AcDbLine
 10
-1.4285
 20
2.12
 30
0.0
 11
-1.5625
 21
2.12
 31
0.0
  0
LINE
  5
17A
330
149
100
AcDbEntity
  8
AM_9
100
AcDbLine
 10
-2.483361669167515
 20
2.12
 30
0.0
 11
-2.65625
 21
2.12
 31
0.0
  0
LINE
  5
17B
330
149
100
AcDbEntity
  8
AM_9
100
AcDbLine
 10
-1.5625
 20
-2.12
 30
0.0
 11
-1.4285
 21
-2.12
 31
0.0
  0
LINE
  5
17C
330
149
100
AcDbEntity
  8
AM_9
100
AcDbLine
 10
-2.65625
 20
-2.12
 30
0.0
 11
-1.77225
 21
-2.12
 31
0.0
  0
LINE
  5
17D
330
149
100
AcDbEntity
  8
AM_9
100
AcDbLine
 10
-1.947650642638429
 20
2.11956958303935
 30
0.0
 11
-1.944250000000006
 21
2.119999999999999
 31
0.0
  0
LINE
  5
17E
330
149
100
AcDbEntity
  8
AM_9
100
AcDbLine
 10
-2.229620258871108
 20
2.102792487350512
 30
0.0
 11
-2.205113552345543
 21
2.102756161487999
 31
0.0
  0
LWPOLYLINE
  5
17F
330
149
100
AcDbEntity
  8
AM_9
100
AcDbPolyline
 90
       11
 70
     0
 43
0.0
 10
-1.944250000000006
 20
2.119999999999999
 10
-1.947838667800408
 20
2.119545941451697
 10
-1.959097562523247
 20
2.11816023150996
 10
-1.977068089184131
 20
2.116070712149825
 10
-2.002254024015004
 20
2.113395915069827
 10
-2.032794781667061
 20
2.110551111975319
 10
-2.069418206321805
 20
2.107718256423293
 10
-2.10922306724373
 20
2.105357607772179
 10
-2.153254913387995
 20
2.103620783456658
 10
-2.183348333021195
 20
2.10296336464097
 10
-2.21425
 20
2.102736312522329
  0
LINE
  5
180
330
149
100
AcDbEntity
  8
AM_9
100
AcDbLine
 10
1.34375
 20
-2.120000000000001
 30
0.0
 11
1.34375
 21
2.120000000000001
 31
0.0
  0
LINE
  5
181
330
149
100
AcDbEntity
  8
AM_9
100
AcDbLine
 10
1.34375
 20
2.120000000000001
 30
0.0
 11
1.15
 21
2.120000000000001
 31
0.0
  0
LINE
  5
182
330
149
100
AcDbEntity
  8
AM_9
100
AcDbLine
 10
1.15
 20
-2.120000000000001
 30
0.0
 11
1.34375
 21
-2.120000000000001
 31
0.0
  0
LINE
  5
183
330
149
100
AcDbEntity
  8
AM_9
100
AcDbLine
 10
-1.4285
 20
-2.35718
 30
0.0
 11
-1.4285
 21
2.35718
 31
0.0
  0
ARC
  5
184
330
149
100
AcDbEntity
  8
AM_9
100
AcDbCircle
 10
-1.266
 20
2.35718
 30
0.0
 40
0.1624999999999996
100
AcDbArc
 50
90.0
 51
180.0
  0
ARC
  5
185
330
149
100
AcDbEntity
  8
AM_9
100
AcDbCircle
 10
-1.266
 20
-2.35718
 30
0.0
 40
0.1624999999999999
100
AcDbArc
 50
180.0
 51
270.0
  0
LINE
  5
186
330
149
100
AcDbEntity
  8
AM_9
100
AcDbLine
 10
-1.266
 20
-2.51968
 30
0.0
 11
-1.266
 21
2.51968
 31
0.0
  0
LINE
  5
187
330
149
100
AcDbEntity
  8
AM_9
100
AcDbLine
 10
-0.9517500000000003
 20
2.51968
 30
0.0
 11
-1.266
 21
2.51968
 31
0.0
  0
LINE
  5
188
330
149
100
AcDbEntity
  8
AM_9
100
AcDbLine
 10
-1.266
 20
-2.51968
 30
0.0
 11
-0.9517500000000003
 21
-2.51968
 31
0.0
  0
LINE
  5
189
330
149
100
AcDbEntity
  8
AM_9
100
AcDbLine
 10
0.9875
 20
2.51968
 30
0.0
 11
0.67325
 21
2.51968
 31
0.0
  0
LINE
  5
18A
330
149
100
AcDbEntity
  8
AM_9
100
AcDbLine
 10
0.67325
 20
-2.51968
 30
0.0
 11
0.9875
 21
-2.51968
 31
0.0
  0
LINE
  5
18B
330
149
100
AcDbEntity
  8
AM_9
100
AcDbLine
 10
1.15
 20
-2.357180000000001
 30
0.0
 11
1.15
 21
2.357180000000001
 31
0.0
  0
LINE
  5
18C
330
149
100
AcDbEntity
  8
AM_9
100
AcDbLine
 10
0.9875
 20
-2.51968
 30
0.0
 11
0.9875
 21
2.51968
 31
0.0
  0
ARC
  5
18D
330
149
100
AcDbEntity
  8
AM_9
100
AcDbCircle
 10
0.9875000000000008
 20
2.35718
 30
0.0
 40
0.1624999999999995
100
AcDbArc
 50
0.0000008537736463
 51
90.0
  0
ARC
  5
18E
330
149
100
AcDbEntity
  8
AM_9
100
AcDbCircle
 10
0.9875000000000008
 20
-2.35718
 30
0.0
 40
0.1624999999999996
100
AcDbArc
 50
270.0
 51
0.0000008537736463
  0
LINE
  5
18F
330
149
100
AcDbEntity
  8
AM_9
100
AcDbLine
 10
-0.0579999999999901
 20
3.023616
 30
0.0
 11
-0.22050000000001
 21
3.023616
 31
0.0
  0
LINE
  5
190
330
149
100
AcDbEntity
  8
AM_9
100
AcDbLine
 10
-0.22050000000001
 20
-3.023616
 30
0.0
 11
-0.0579999999999901
 21
-3.023616
 31
0.0
  0
LINE
  5
191
330
149
100
AcDbEntity
  8
AM_9
100
AcDbLine
 10
-0.9517500000000003
 20
-2.9871
 30
0.0
 11
-0.9517500000000003
 21
2.9871
 31
0.0
  0
ARC
  5
192
330
149
100
AcDbEntity
  8
AM_9
100
AcDbCircle
 10
-0.789249999999999
 20
2.987099999999998
 30
0.0
 40
0.1625000000000014
100
AcDbArc
 50
90.0
 51
180.0
  0
ARC
  5
193
330
149
100
AcDbEntity
  8
AM_9
100
AcDbCircle
 10
-0.7892500000000001
 20
-2.987099999999999
 30
0.0
 40
0.1625000000000002
100
AcDbArc
 50
180.0
 51
270.0
  0
LINE
  5
194
330
149
100
AcDbEntity
  8
AM_9
100
AcDbLine
 10
0.67325
 20
-2.9871
 30
0.0
 11
0.67325
 21
2.9871
 31
0.0
  0
ARC
  5
195
330
149
100
AcDbEntity
  8
AM_9
100
AcDbCircle
 10
0.5107500000000011
 20
2.987100000000001
 30
0.0
 40
0.1624999999999989
100
AcDbArc
 50
0.0
 51
90.0
  0
ARC
  5
196
330
149
100
AcDbEntity
  8
AM_9
100
AcDbCircle
 10
0.5107500000000011
 20
-2.987100000000001
 30
0.0
 40
0.1624999999999988
100
AcDbArc
 50
270.0
 51
0.0
  0
LINE
  5
197
330
149
100
AcDbEntity
  8
AM_9
100
AcDbLine
 10
-0.0579999999999901
 20
-3.023616
 30
0.0
 11
0.0147368963135957
 21
-3.1496
 31
0.0
  0
LINE
  5
198
330
149
100
AcDbEntity
  8
AM_9
100
AcDbLine
 10
0.0147368963135957
 20
3.1496
 30
0.0
 11
-0.0579999999999901
 21
3.023616
 31
0.0
  0
LINE
  5
199
330
149
100
AcDbEntity
  8
AM_9
100
AcDbLine
 10
-0.0579999999999901
 20
-3.023616
 30
0.0
 11
-0.0579999999999901
 21
3.023616
 31
0.0
  0
LINE
  5
19A
330
149
100
AcDbEntity
  8
AM_9
100
AcDbLine
 10
-0.2205000000000099
 20
0.1283038952221283
 30
0.0
 11
-0.22050000000001
 21
3.023616
 31
0.0
  0
LINE
  5
19B
330
149
100
AcDbEntity
  8
AM_9
100
AcDbLine
 10
-0.22050000000001
 20
3.023616
 30
0.0
 11
-0.293236896313596
 21
3.1496
 31
0.0
  0
LINE
  5
19C
330
149
100
AcDbEntity
  8
AM_9
100
AcDbLine
 10
-0.293236896313596
 20
-3.1496
 30
0.0
 11
-0.22050000000001
 21
-3.023616
 31
0.0
  0
LINE
  5
19D
330
149
100
AcDbEntity
  8
AM_9
100
AcDbLine
 10
-0.22050000000001
 20
-3.023616
 30
0.0
 11
-0.2205000000000099
 21
-0.1282977063263081
 31
0.0
  0
LINE
  5
19E
330
149
100
AcDbEntity
  8
AM_9
100
AcDbLine
 10
-0.293236896313596
 20
3.1496
 30
0.0
 11
-0.78925
 21
3.1496
 31
0.0
  0
LINE
  5
19F
330
149
100
AcDbEntity
  8
AM_9
100
AcDbLine
 10
-0.78925
 20
-3.1496
 30
0.0
 11
-0.293236896313596
 21
-3.1496
 31
0.0
  0
LINE
  5
1A0
330
149
100
AcDbEntity
  8
AM_9
100
AcDbLine
 10
-0.293236896313596
 20
-3.1496
 30
0.0
 11
-0.293236896313596
 21
3.1496
 31
0.0
  0
LINE
  5
1A1
330
149
100
AcDbEntity
  8
AM_9
100
AcDbLine
 10
-0.78925
 20
-3.1496
 30
0.0
 11
-0.78925
 21
3.1496
 31
0.0
  0
LINE
  5
1A2
330
149
100
AcDbEntity
  8
AM_9
100
AcDbLine
 10
0.5107499999999998
 20
3.1496
 30
0.0
 11
0.0147368963135957
 21
3.1496
 31
0.0
  0
LINE
  5
1A3
330
149
100
AcDbEntity
  8
AM_9
100
AcDbLine
 10
0.0147368963135957
 20
-3.1496
 30
0.0
 11
0.5107499999999998
 21
-3.1496
 31
0.0
  0
LINE
  5
1A4
330
149
100
AcDbEntity
  8
AM_9
100
AcDbLine
 10
0.5107499999999998
 20
-3.1496
 30
0.0
 11
0.5107499999999998
 21
3.1496
 31
0.0
  0
LINE
  5
1A5
330
149
100
AcDbEntity
  8
AM_9
100
AcDbLine
 10
0.0147368963135957
 20
-3.1496
 30
0.0
 11
0.0147368963135957
 21
3.1496
 31
0.0
  0
LINE
  5
1A8
330
149
100
AcDbEntity
  8
AM_7
100
AcDbLine
 10
-2.21425
 20
-0.1087179487179487
 30
0.0
 11
-2.21425
 21
2.783166666666667
 31
0.0
  0
LWPOLYLINE
  5
1A9
330
149
100
AcDbEntity
  8
AM_4
100
AcDbPolyline
 90
        4
 70
     0
 43
0.0
 10
-2.175875232998804
 20
0.9597587920717302
 10
-2.182670405253785
 20
0.960504280178186
 10
-2.22784647677939
 20
0.9617506767297002
 10
-2.247749785505574
 20
0.9603085583399162
  0
LINE
  5
1AA
330
149
100
AcDbEntity
  8
AM_4
100
AcDbLine
 10
-1.5625
 20
2.12
 30
0.0
 11
-1.77225
 21
2.12
 31
0.0
  0
LINE
  5
1AB
330
149
100
AcDbEntity
  8
AM_4
100
AcDbLine
 10
-1.77225
 20
-2.12
 30
0.0
 11
-1.5625
 21
-2.12
 31
0.0
  0
ENDBLK
  5
14C
330
149
100
AcDbEntity
  8
0
100
AcDbBlockEnd
  0
BLOCK
  5
1AE
330
1AC
100
AcDbEntity
  8
0
100
AcDbBlockBegin
  2
5_070821H_0_in_070821_2
 70
     2
 10
0.0
 20
0.0
 30
0.0
  3
5_070821H_0_in_070821_2
  1

  0
ATTDEF
  5
1B0
330
1AC
100
AcDbEntity
  8
AM_6
100
AcDbText
 10
7.291666666666667
 20
5.562500000000001
 30
0.0
 40
0.5
  1
TPHU-S2 -(Contact Seal)-Housing
100
AcDbAttributeDefinition
  3

  2
NN
 70
     8
280
     0
  0
ATTDEF
  5
1B1
330
1AC
100
AcDbEntity
  8
AM_6
100
AcDbText
 10
7.291666666666667
 20
5.062500000000001
 30
0.0
 40
0.5
  1
S-2000 TPHU Take-Up Bearing -Inch
100
AcDbAttributeDefinition
  3

  2
NT
 70
     8
280
     0
  0
ATTDEF
  5
1B2
330
1AC
100
AcDbEntity
  8
AM_6
100
AcDbText
 10
7.291666666666667
 20
4.562500000000001
 30
0.0
 40
0.5
  1
070821H
100
AcDbAttributeDefinition
  3

  2
NB
 70
     8
280
     0
  0
ATTDEF
  5
1B3
330
1AC
100
AcDbEntity
  8
AM_6
100
AcDbText
 10
7.291666666666667
 20
4.062500000000001
 30
0.0
 40
0.5
  1
$PN.H
100
AcDbAttributeDefinition
  3

  2
NBSYN
 70
     8
280
     0
  0
ATTDEF
  5
1B4
330
1AC
100
AcDbEntity
  8
AM_6
100
AcDbText
 10
7.291666666666667
 20
3.562500000000001
 30
0.0
 40
0.5
  1
070821
100
AcDbAttributeDefinition
  3

  2
LINA
 70
     8
280
     0
  0
ATTDEF
  5
1B5
330
1AC
100
AcDbEntity
  8
AM_6
100
AcDbText
 10
7.291666666666667
 20
3.062500000000001
 30
0.0
 40
0.5
  1
3-7/16
100
AcDbAttributeDefinition
  3

  2
SS
 70
     8
280
     0
  0
ATTDEF
  5
1B6
330
1AC
100
AcDbEntity
  8
AM_6
100
AcDbText
 10
7.291666666666667
 20
2.562500000000001
 30
0.0
 40
0.5
  1
6.2992
100
AcDbAttributeDefinition
  3

  2
BORE
 70
     8
280
     0
  0
ATTDEF
  5
1B7
330
1AC
100
AcDbEntity
  8
AM_6
100
AcDbText
 10
7.291666666666667
 20
2.062500000000001
 30
0.0
 40
0.5
  1
3.437500
100
AcDbAttributeDefinition
  3

  2
SS1
 70
     8
280
     0
  0
ATTDEF
  5
1B8
330
1AC
100
AcDbEntity
  8
AM_6
100
AcDbText
 10
7.291666666666667
 20
1.562500000000001
 30
0.0
 40
0.5
  1
070821
100
AcDbAttributeDefinition
  3

  2
PN
 70
     8
280
     0
  0
ATTDEF
  5
1B9
330
1AC
100
AcDbEntity
  8
AM_6
100
AcDbText
 10
7.291666666666667
 20
1.062500000000001
 30
0.0
 40
0.5
  1
TPHU-S2-307R
100
AcDbAttributeDefinition
  3

  2
DESCRIPTION
 70
     8
280
     0
  0
ATTDEF
  5
1BA
330
1AC
100
AcDbEntity
  8
AM_6
100
AcDbText
 10
7.291666666666667
 20
0.5625000000000009
 30
0.0
 40
0.5
  1
Non-Expansion Type
100
AcDbAttributeDefinition
  3

  2
EF
 70
     8
280
     0
  0
ATTDEF
  5
1BB
330
1AC
100
AcDbEntity
  8
AM_6
100
AcDbText
 10
7.291666666666667
 20
0.0625000000000009
 30
0.0
 40
0.5
  1
1
100
AcDbAttributeDefinition
  3

  2
EF1
 70
     8
280
     0
  0
ATTDEF
  5
1BC
330
1AC
100
AcDbEntity
  8
AM_6
100
AcDbText
 10
7.291666666666667
 20
-0.4374999999999991
 30
0.0
 40
0.5
  1
Contact Seal
100
AcDbAttributeDefinition
  3

  2
ST
 70
     8
280
     0
  0
ATTDEF
  5
1BD
330
1AC
100
AcDbEntity
  8
AM_6
100
AcDbText
 10
7.291666666666667
 20
-0.9374999999999991
 30
0.0
 40
0.5
  1
1
100
AcDbAttributeDefinition
  3

  2
ST1
 70
     8
280
     0
  0
ATTDEF
  5
1BE
330
1AC
100
AcDbEntity
  8
AM_6
100
AcDbText
 10
7.291666666666667
 20
-1.437499999999999
 30
0.0
 40
0.5
  1
4
100
AcDbAttributeDefinition
  3

  2
A
 70
     8
280
     0
  0
ATTDEF
  5
1BF
330
1AC
100
AcDbEntity
  8
AM_6
100
AcDbText
 10
7.291666666666667
 20
-1.937499999999999
 30
0.0
 40
0.5
  1
4.0000000
100
AcDbAttributeDefinition
  3

  2
A1
 70
     8
280
     0
  0
ATTDEF
  5
1C0
330
1AC
100
AcDbEntity
  8
AM_6
100
AcDbText
 10
7.291666666666667
 20
-2.437499999999999
 30
0.0
 40
0.5
  1
3-1/8
100
AcDbAttributeDefinition
  3

  2
B
 70
     8
280
     0
  0
ATTDEF
  5
1C1
330
1AC
100
AcDbEntity
  8
AM_6
100
AcDbText
 10
7.291666666666667
 20
-2.937499999999999
 30
0.0
 40
0.5
  1
3.125000
100
AcDbAttributeDefinition
  3

  2
B1
 70
     8
280
     0
  0
ATTDEF
  5
1C2
330
1AC
100
AcDbEntity
  8
AM_6
100
AcDbText
 10
7.291666666666667
 20
-3.437499999999999
 30
0.0
 40
0.5
  1
13/16
100
AcDbAttributeDefinition
  3

  2
C
 70
     8
280
     0
  0
ATTDEF
  5
1C3
330
1AC
100
AcDbEntity
  8
AM_6
100
AcDbText
 10
7.291666666666667
 20
-3.937499999999999
 30
0.0
 40
0.5
  1
0.812500
100
AcDbAttributeDefinition
  3

  2
C1
 70
     8
280
     0
  0
ATTDEF
  5
1C4
330
1AC
100
AcDbEntity
  8
AM_6
100
AcDbText
 10
7.291666666666667
 20
-4.437499999999999
 30
0.0
 40
0.5
  1
8-13/32
100
AcDbAttributeDefinition
  3

  2
D
 70
     8
280
     0
  0
ATTDEF
  5
1C5
330
1AC
100
AcDbEntity
  8
AM_6
100
AcDbText
 10
7.291666666666667
 20
-4.937499999999999
 30
0.0
 40
0.5
  1
8.406250
100
AcDbAttributeDefinition
  3

  2
D1
 70
     8
280
     0
  0
ATTDEF
  5
1C6
330
1AC
100
AcDbEntity
  8
AM_6
100
AcDbText
 10
7.291666666666667
 20
-5.437499999999999
 30
0.0
 40
0.5
  1
4-3/32
100
AcDbAttributeDefinition
  3

  2
E
 70
     8
280
     0
  0
ATTDEF
  5
1C7
330
1AC
100
AcDbEntity
  8
AM_6
100
AcDbText
 10
7.291666666666667
 20
-5.937499999999999
 30
0.0
 40
0.5
  1
4.093750
100
AcDbAttributeDefinition
  3

  2
E1
 70
     8
280
     0
  0
ATTDEF
  5
1C8
330
1AC
100
AcDbEntity
  8
AM_6
100
AcDbText
 10
7.291666666666667
 20
-6.437499999999999
 30
0.0
 40
0.5
  1
1-9/16
100
AcDbAttributeDefinition
  3

  2
F
 70
     8
280
     0
  0
ATTDEF
  5
1C9
330
1AC
100
AcDbEntity
  8
AM_6
100
AcDbText
 10
7.291666666666667
 20
-6.937499999999999
 30
0.0
 40
0.5
  1
1.562500
100
AcDbAttributeDefinition
  3

  2
F1
 70
     8
280
     0
  0
ATTDEF
  5
1CA
330
1AC
100
AcDbEntity
  8
AM_6
100
AcDbText
 10
7.291666666666667
 20
-7.437499999999999
 30
0.0
 40
0.5
  1
11/16
100
AcDbAttributeDefinition
  3

  2
G
 70
     8
280
     0
  0
ATTDEF
  5
1CB
330
1AC
100
AcDbEntity
  8
AM_6
100
AcDbText
 10
7.291666666666667
 20
-7.937499999999999
 30
0.0
 40
0.5
  1
0.687500
100
AcDbAttributeDefinition
  3

  2
G1
 70
     8
280
     0
  0
ATTDEF
  5
1CC
330
1AC
100
AcDbEntity
  8
AM_6
100
AcDbText
 10
7.291666666666667
 20
-8.4375
 30
0.0
 40
0.5
  1
9-1/2
100
AcDbAttributeDefinition
  3

  2
H
 70
     8
280
     0
  0
ATTDEF
  5
1CD
330
1AC
100
AcDbEntity
  8
AM_6
100
AcDbText
 10
7.291666666666667
 20
-8.9375
 30
0.0
 40
0.5
  1
9.500000
100
AcDbAttributeDefinition
  3

  2
H1
 70
     8
280
     0
  0
ATTDEF
  5
1CE
330
1AC
100
AcDbEntity
  8
AM_6
100
AcDbText
 10
7.291666666666667
 20
-9.4375
 30
0.0
 40
0.5
  1
10-1/16
100
AcDbAttributeDefinition
  3

  2
J
 70
     8
280
     0
  0
ATTDEF
  5
1CF
330
1AC
100
AcDbEntity
  8
AM_6
100
AcDbText
 10
7.291666666666667
 20
-9.9375
 30
0.0
 40
0.5
  1
10.062500
100
AcDbAttributeDefinition
  3

  2
J1
 70
     8
280
     0
  0
ATTDEF
  5
1D0
330
1AC
100
AcDbEntity
  8
AM_6
100
AcDbText
 10
7.291666666666667
 20
-10.4375
 30
0.0
 40
0.5
  1
4-1/2
100
AcDbAttributeDefinition
  3

  2
K
 70
     8
280
     0
  0
ATTDEF
  5
1D1
330
1AC
100
AcDbEntity
  8
AM_6
100
AcDbText
 10
7.291666666666667
 20
-10.9375
 30
0.0
 40
0.5
  1
4.500000
100
AcDbAttributeDefinition
  3

  2
K1
 70
     8
280
     0
  0
ATTDEF
  5
1D2
330
1AC
100
AcDbEntity
  8
AM_6
100
AcDbText
 10
7.291666666666667
 20
-11.4375
 30
0.0
 40
0.5
  1
5-1/2
100
AcDbAttributeDefinition
  3

  2
L
 70
     8
280
     0
  0
ATTDEF
  5
1D3
330
1AC
100
AcDbEntity
  8
AM_6
100
AcDbText
 10
7.291666666666667
 20
-11.9375
 30
0.0
 40
0.5
  1
5.5000000
100
AcDbAttributeDefinition
  3

  2
L1
 70
     8
280
     0
  0
ATTDEF
  5
1D4
330
1AC
100
AcDbEntity
  8
AM_6
100
AcDbText
 10
7.291666666666667
 20
-12.4375
 30
0.0
 40
0.5
  1
9
100
AcDbAttributeDefinition
  3

  2
M
 70
     8
280
     0
  0
ATTDEF
  5
1D5
330
1AC
100
AcDbEntity
  8
AM_6
100
AcDbText
 10
7.291666666666667
 20
-12.9375
 30
0.0
 40
0.5
  1
9.000000
100
AcDbAttributeDefinition
  3

  2
M1
 70
     8
280
     0
  0
ATTDEF
  5
1D6
330
1AC
100
AcDbEntity
  8
AM_6
100
AcDbText
 10
7.291666666666667
 20
-13.4375
 30
0.0
 40
0.5
  1
2-17/32
100
AcDbAttributeDefinition
  3

  2
N
 70
     8
280
     0
  0
ATTDEF
  5
1D7
330
1AC
100
AcDbEntity
  8
AM_6
100
AcDbText
 10
7.291666666666667
 20
-13.9375
 30
0.0
 40
0.5
  1
2.531250
100
AcDbAttributeDefinition
  3

  2
N1
 70
     8
280
     0
  0
ATTDEF
  5
1D8
330
1AC
100
AcDbEntity
  8
AM_6
100
AcDbText
 10
7.291666666666667
 20
-14.4375
 30
0.0
 40
0.5
  1
2-1/4
100
AcDbAttributeDefinition
  3

  2
P
 70
     8
280
     0
  0
ATTDEF
  5
1D9
330
1AC
100
AcDbEntity
  8
AM_6
100
AcDbText
 10
7.291666666666667
 20
-14.9375
 30
0.0
 40
0.5
  1
2.250000
100
AcDbAttributeDefinition
  3

  2
P1
 70
     8
280
     0
  0
ATTDEF
  5
1DA
330
1AC
100
AcDbEntity
  8
AM_6
100
AcDbText
 10
7.291666666666667
 20
-15.4375
 30
0.0
 40
0.5
  1
1-5/16
100
AcDbAttributeDefinition
  3

  2
Q
 70
     8
280
     0
  0
ATTDEF
  5
1DB
330
1AC
100
AcDbEntity
  8
AM_6
100
AcDbText
 10
7.291666666666667
 20
-15.9375
 30
0.0
 40
0.5
  1
1.312500
100
AcDbAttributeDefinition
  3

  2
Q1
 70
     8
280
     0
  0
ATTDEF
  5
1DC
330
1AC
100
AcDbEntity
  8
AM_6
100
AcDbText
 10
7.291666666666667
 20
-16.4375
 30
0.0
 40
0.5
  1
4-7/32
100
AcDbAttributeDefinition
  3

  2
R
 70
     8
280
     0
  0
ATTDEF
  5
1DD
330
1AC
100
AcDbEntity
  8
AM_6
100
AcDbText
 10
7.291666666666667
 20
-16.9375
 30
0.0
 40
0.5
  1
4.218750
100
AcDbAttributeDefinition
  3

  2
R1
 70
     8
280
     0
  0
ATTDEF
  5
1DE
330
1AC
100
AcDbEntity
  8
AM_6
100
AcDbText
 10
7.291666666666667
 20
-17.4375
 30
0.0
 40
0.5
  1
2-21/32
100
AcDbAttributeDefinition
  3

  2
S
 70
     8
280
     0
  0
ATTDEF
  5
1DF
330
1AC
100
AcDbEntity
  8
AM_6
100
AcDbText
 10
7.291666666666667
 20
-17.9375
 30
0.0
 40
0.5
  1
2.656250
100
AcDbAttributeDefinition
  3

  2
S1
 70
     8
280
     0
  0
ATTDEF
  5
1E0
330
1AC
100
AcDbEntity
  8
AM_6
100
AcDbText
 10
7.291666666666667
 20
-18.4375
 30
0.0
 40
0.5
  1
5/16
100
AcDbAttributeDefinition
  3

  2
T
 70
     8
280
     0
  0
ATTDEF
  5
1E1
330
1AC
100
AcDbEntity
  8
AM_6
100
AcDbText
 10
7.291666666666667
 20
-18.9375
 30
0.0
 40
0.5
  1
0.312500
100
AcDbAttributeDefinition
  3

  2
T1
 70
     8
280
     0
  0
ATTDEF
  5
1E2
330
1AC
100
AcDbEntity
  8
AM_6
100
AcDbText
 10
7.291666666666667
 20
-19.4375
 30
0.0
 40
0.5
  1
1-23/32
100
AcDbAttributeDefinition
  3

  2
U
 70
     8
280
     0
  0
ATTDEF
  5
1E3
330
1AC
100
AcDbEntity
  8
AM_6
100
AcDbText
 10
7.291666666666667
 20
-19.9375
 30
0.0
 40
0.5
  1
1.718750
100
AcDbAttributeDefinition
  3

  2
U1
 70
     8
280
     0
  0
ATTDEF
  5
1E4
330
1AC
100
AcDbEntity
  8
AM_6
100
AcDbText
 10
7.291666666666667
 20
-20.4375
 30
0.0
 40
0.5
  1
3-1/8
100
AcDbAttributeDefinition
  3

  2
V
 70
     8
280
     0
  0
ATTDEF
  5
1E5
330
1AC
100
AcDbEntity
  8
AM_6
100
AcDbText
 10
7.291666666666667
 20
-20.9375
 30
0.0
 40
0.5
  1
3.125000
100
AcDbAttributeDefinition
  3

  2
V1
 70
     8
280
     0
  0
ATTDEF
  5
1E6
330
1AC
100
AcDbEntity
  8
AM_6
100
AcDbText
 10
7.291666666666667
 20
-21.4375
 30
0.0
 40
0.5
  1
31/32
100
AcDbAttributeDefinition
  3

  2
W
 70
     8
280
     0
  0
ATTDEF
  5
1E7
330
1AC
100
AcDbEntity
  8
AM_6
100
AcDbText
 10
7.291666666666667
 20
-21.9375
 30
0.0
 40
0.5
  1
0.968750
100
AcDbAttributeDefinition
  3

  2
W1
 70
     8
280
     0
  0
ATTDEF
  5
1E8
330
1AC
100
AcDbEntity
  8
AM_6
100
AcDbText
 10
7.291666666666667
 20
-22.4375
 30
0.0
 40
0.5
  1
1/4
100
AcDbAttributeDefinition
  3

  2
X
 70
     8
280
     0
  0
ATTDEF
  5
1E9
330
1AC
100
AcDbEntity
  8
AM_6
100
AcDbText
 10
7.291666666666667
 20
-22.9375
 30
0.0
 40
0.5
  1
0.250000
100
AcDbAttributeDefinition
  3

  2
X1
 70
     8
280
     0
  0
ATTDEF
  5
1EA
330
1AC
100
AcDbEntity
  8
AM_6
100
AcDbText
 10
7.291666666666667
 20
-23.4375
 30
0.0
 40
0.5
  1
0.025
100
AcDbAttributeDefinition
  3

  2
Y
 70
     8
280
     0
  0
ATTDEF
  5
1EB
330
1AC
100
AcDbEntity
  8
AM_6
100
AcDbText
 10
7.291666666666667
 20
-23.9375
 30
0.0
 40
0.5
  1
4-3/64
100
AcDbAttributeDefinition
  3

  2
Z
 70
     8
280
     0
  0
ATTDEF
  5
1EC
330
1AC
100
AcDbEntity
  8
AM_6
100
AcDbText
 10
7.291666666666667
 20
-24.4375
 30
0.0
 40
0.5
  1
4.046875
100
AcDbAttributeDefinition
  3

  2
Z1
 70
     8
280
     0
  0
ATTDEF
  5
1ED
330
1AC
100
AcDbEntity
  8
AM_6
100
AcDbText
 10
7.291666666666667
 20
-24.9375
 30
0.0
 40
0.5
  1
baldor
100
AcDbAttributeDefinition
  3

  2
COMPANY
 70
     8
280
     0
  0
LINE
  5
1EE
330
1AC
100
AcDbEntity
  8
AM_9
100
AcDbLine
 10
-0.3906249999999999
 20
0.3121091305537217
 30
0.0
 11
-0.3906249999999999
 21
-0.3121091305537217
 31
0.0
  0
LINE
  5
1EF
330
1AC
100
AcDbEntity
  8
AM_9
100
AcDbLine
 10
0.390625
 20
-0.3121091305537216
 30
0.0
 11
0.390625
 21
0.3121091305537216
 31
0.0
  0
LWPOLYLINE
  5
1F0
330
1AC
100
AcDbEntity
  8
AM_9
100
AcDbPolyline
 90
        5
 70
     0
 43
0.0
 10
-1.360543317439572
 20
-3.544171859573967
 10
-1.378150339912654
 20
-3.576128863891344
 10
-1.402429751123792
 20
-3.623419145242843
 10
-1.421999242571153
 20
-3.664846624861084
 10
-1.4375
 20
-3.700127564304204
  0
LINE
  5
1F1
330
1AC
100
AcDbEntity
  8
AM_9
100
AcDbLine
 10
-0.8566244072168806
 20
-3.00574796730201
 30
0.0
 11
-0.879548361053546
 21
-3.021066327460825
 31
0.0
  0
LWPOLYLINE
  5
1F2
330
1AC
100
AcDbEntity
  8
AM_9
100
AcDbPolyline
 90
        3
 70
     0
 43
0.0
 10
-0.5894829033951694
 20
-2.86546297331243
 10
-0.6758718039816092
 20
-2.903906058716111
 10
-0.7593043590811082
 20
-2.946900080448
  0
LINE
  5
1F3
330
1AC
100
AcDbEntity
  8
AM_9
100
AcDbLine
 10
0.6735372471728976
 20
-2.902622761843871
 30
0.0
 11
0.5942389193029368
 21
-2.867409567955805
 31
0.0
  0
LINE
  5
1F4
330
1AC
100
AcDbEntity
  8
AM_9
100
AcDbLine
 10
0.9178313605938763
 20
-3.04798750757045
 30
0.0
 11
0.8572340358574223
 21
-3.006147804852155
 31
0.0
  0
LWPOLYLINE
  5
1F5
330
1AC
100
AcDbEntity
  8
AM_9
100
AcDbPolyline
 90
        6
 70
     0
 43
0.0
 10
1.4375
 20
-3.700127564304206
 10
1.420763892111602
 20
-3.661857950054691
 10
1.399286030555739
 20
-3.616291764004111
 10
1.372140720530829
 20
-3.563955967009845
 10
1.338402267235288
 20
-3.505377519929269
 10
1.32666530888975
 20
-3.487051389734974
  0
LINE
  5
1F6
330
1AC
100
AcDbEntity
  8
AM_9
100
AcDbLine
 10
-1.5625
 20
3.96875
 30
0.0
 11
-0.6760408641494977
 21
3.96875
 31
0.0
  0
LINE
  5
1F7
330
1AC
100
AcDbEntity
  8
AM_9
100
AcDbLine
 10
-1.5625
 20
3.84375
 30
0.0
 11
-0.6404344228724748
 21
3.84375
 31
0.0
  0
LINE
  5
1F8
330
1AC
100
AcDbEntity
  8
AM_9
100
AcDbLine
 10
0.6404344228724751
 20
3.84375
 30
0.0
 11
1.5625
 21
3.84375
 31
0.0
  0
LINE
  5
1F9
330
1AC
100
AcDbEntity
  8
AM_9
100
AcDbLine
 10
0.676040864149498
 20
3.96875
 30
0.0
 11
1.562499999999999
 21
3.96875
 31
0.0
  0
LINE
  5
1FA
330
1AC
100
AcDbEntity
  8
AM_9
100
AcDbLine
 10
-0.8531249999999999
 20
-4.3125
 30
0.0
 11
-0.8531249999999999
 21
-4.5
 31
0.0
  0
LINE
  5
1FB
330
1AC
100
AcDbEntity
  8
AM_9
100
AcDbLine
 10
0.8531250000000002
 20
-4.5
 30
0.0
 11
0.8531250000000002
 21
-4.3125
 31
0.0
  0
ARC
  5
1FC
330
1AC
100
AcDbEntity
  8
AM_9
100
AcDbCircle
 10
0.0000000000000003
 20
-4.312500000000002
 30
0.0
 40
0.8531249999999999
100
AcDbArc
 50
0.0000008537736463
 51
180.0
  0
LINE
  5
1FD
330
1AC
100
AcDbEntity
  8
AM_9
100
AcDbLine
 10
-1.5625
 20
-3.1496
 30
0.0
 11
1.562500000000002
 21
-3.1496
 31
0.0
  0
LINE
  5
1FE
330
1AC
100
AcDbEntity
  8
AM_9
100
AcDbLine
 10
1.562500000000001
 20
3.1496
 30
0.0
 11
-1.5625
 21
3.1496
 31
0.0
  0
LWPOLYLINE
  5
1FF
330
1AC
100
AcDbEntity
  8
AM_9
100
AcDbPolyline
 90
        6
 70
     0
 43
0.0
 10
-1.468039678069554
 20
-3.777461913866459
 10
-1.467848136506048
 20
-3.776881521107125
 10
-1.465483272513202
 20
-3.770443859322858
 10
-1.460353307098588
 20
-3.756825213415061
 10
-1.451205354410492
 20
-3.733354707927001
 10
-1.4375
 20
-3.700127564304204
  0
ARC
  5
200
330
1AC
100
AcDbEntity
  8
AM_9
100
AcDbCircle
 10
0.0000000000000049
 20
0.0
 30
0.0
 40
0.5000000000000046
100
AcDbArc
 50
169.9655946544133
 51
190.0344053455867
  0
ARC
  5
201
330
1AC
100
AcDbEntity
  8
AM_9
100
AcDbCircle
 10
0.0000000000000002
 20
0.0
 30
0.0
 40
0.4500000000000003
100
AcDbArc
 50
163.8351258292455
 51
196.1648741707545
  0
LINE
  5
202
330
1AC
100
AcDbEntity
  8
AM_7
100
AcDbLine
 10
2.291666666666667
 20
0.0
 30
0.0
 11
-2.85625
 21
0.0
 31
0.0
  0
LINE
  5
203
330
1AC
100
AcDbEntity
  8
AM_7
100
AcDbLine
 10
-1.115625
 20
4.09375
 30
0.0
 11
1.115625000000001
 21
4.09375
 31
0.0
  0
LINE
  5
204
330
1AC
100
AcDbEntity
  8
AM_7
100
AcDbLine
 10
0.0000000000000004
 20
2.978125
 30
0.0
 11
0.0000000000000004
 21
5.209375
 31
0.0
  0
LINE
  5
205
330
1AC
100
AcDbEntity
  8
AM_7
100
AcDbLine
 10
0.0000000000000002
 20
-0.5249999999999999
 30
0.0
 11
0.0000000000000002
 21
0.5249999999999999
 31
0.0
  0
LINE
  5
206
330
1AC
100
AcDbEntity
  8
AM_7
100
AcDbLine
 10
-0.8957812500000006
 20
-4.312500000000002
 30
0.0
 11
0.8957812500000011
 21
-4.312500000000002
 31
0.0
  0
LINE
  5
207
330
1AC
100
AcDbEntity
  8
AM_7
100
AcDbLine
 10
0.0000000000000003
 20
-5.208281250000002
 30
0.0
 11
0.0000000000000003
 21
-3.416718750000001
 31
0.0
  0
LINE
  5
208
330
1AC
100
AcDbEntity
  8
AM_4
100
AcDbLine
 10
1.116071428571429
 20
5.562499999999999
 30
0.0
 11
0.7812499999999999
 21
5.562499999999999
 31
0.0
  0
LINE
  5
209
330
1AC
100
AcDbEntity
  8
AM_4
100
AcDbLine
 10
-0.7812499999999999
 20
5.562499999999999
 30
0.0
 11
-1.116071428571428
 21
5.562499999999999
 31
0.0
  0
LINE
  5
20A
330
1AC
100
AcDbEntity
  8
AM_4
100
AcDbLine
 10
0.6875000000000001
 20
4.09375
 30
0.0
 11
0.6875000000000001
 21
5.250000000000004
 31
0.0
  0
LINE
  5
20B
330
1AC
100
AcDbEntity
  8
AM_4
100
AcDbLine
 10
0.7812500000000002
 20
5.250000000000004
 30
0.0
 11
0.7812499999999999
 21
5.562499999999999
 31
0.0
  0
LINE
  5
20C
330
1AC
100
AcDbEntity
  8
AM_4
100
AcDbLine
 10
-0.7812499999999999
 20
5.562499999999999
 30
0.0
 11
-0.7812499999999999
 21
5.250000000000002
 31
0.0
  0
LINE
  5
20D
330
1AC
100
AcDbEntity
  8
AM_4
100
AcDbLine
 10
0.6875000000000001
 20
5.250000000000004
 30
0.0
 11
0.7812500000000002
 21
5.250000000000004
 31
0.0
  0
LINE
  5
20E
330
1AC
100
AcDbEntity
  8
AM_4
100
AcDbLine
 10
-0.6874999999999999
 20
5.250000000000002
 30
0.0
 11
-0.6874999999999999
 21
4.09375
 31
0.0
  0
LINE
  5
20F
330
1AC
100
AcDbEntity
  8
AM_4
100
AcDbLine
 10
-0.7812499999999999
 20
5.250000000000002
 30
0.0
 11
-0.6874999999999999
 21
5.250000000000002
 31
0.0
  0
ARC
  5
210
330
1AC
100
AcDbEntity
  8
AM_4
100
AcDbCircle
 10
0.0000000000000001
 20
4.09375
 30
0.0
 40
0.6875
100
AcDbArc
 50
180.0
 51
0.0
  0
LINE
  5
211
330
1AC
100
AcDbEntity
  8
AM_4
100
AcDbLine
 10
-1.5625
 20
5.116071428571429
 30
0.0
 11
-1.5625
 21
-3.65625
 31
0.0
  0
ARC
  5
212
330
1AC
100
AcDbEntity
  8
AM_4
100
AcDbCircle
 10
-1.4375
 20
-3.65625
 30
0.0
 40
0.125
100
AcDbArc
 50
180.0
 51
255.9552187036296
  0
LINE
  5
213
330
1AC
100
AcDbEntity
  8
AM_4
100
AcDbLine
 10
-1.437499999999999
 20
2.864583333333333
 30
0.0
 11
-1.4375
 21
-3.700127564304204
 31
0.0
  0
LINE
  5
214
330
1AC
100
AcDbEntity
  8
AM_4
100
AcDbLine
 10
1.5625
 20
5.116071428571429
 30
0.0
 11
1.5625
 21
-3.656249999999999
 31
0.0
  0
LINE
  5
215
330
1AC
100
AcDbEntity
  8
AM_4
100
AcDbLine
 10
1.4375
 20
2.864583333333333
 30
0.0
 11
1.4375
 21
-3.700127564304206
 31
0.0
  0
ARC
  5
216
330
1AC
100
AcDbEntity
  8
AM_4
100
AcDbCircle
 10
1.4375
 20
-3.65625
 30
0.0
 40
0.1250000000000001
100
AcDbArc
 50
284.103102863548
 51
0.0
  0
ARC
  5
217
330
1AC
100
AcDbEntity
  8
AM_4
100
AcDbCircle
 10
0.0000000000000002
 20
0.0
 30
0.0
 40
0.5
100
AcDbArc
 50
190.0344053455868
 51
169.9655946544132
  0
ARC
  5
218
330
1AC
100
AcDbEntity
  8
AM_4
100
AcDbCircle
 10
0.0000000000000003
 20
0.0
 30
0.0
 40
0.4500000000000005
100
AcDbArc
 50
196.1648741707544
 51
163.8351258292456
  0
LINE
  5
219
330
1AC
100
AcDbEntity
  8
AM_4
100
AcDbLine
 10
0.5156250000000002
 20
2.729166666666667
 30
0.0
 11
1.302083333333334
 21
2.729166666666667
 31
0.0
  0
LINE
  5
21A
330
1AC
100
AcDbEntity
  8
AM_4
100
AcDbLine
 10
-0.3906249999999994
 20
2.604166666666665
 30
0.0
 11
-0.3906249999999997
 21
0.3121091305537217
 31
0.0
  0
ARC
  5
21B
330
1AC
100
AcDbEntity
  8
AM_4
100
AcDbCircle
 10
-0.5156250000000007
 20
2.604166666666665
 30
0.0
 40
0.1250000000000012
100
AcDbArc
 50
0.0
 51
90.0
  0
LINE
  5
21C
330
1AC
100
AcDbEntity
  8
AM_4
100
AcDbLine
 10
-1.116071428571428
 20
5.562499999999999
 30
0.0
 11
-1.5625
 21
5.116071428571429
 31
0.0
  0
LINE
  5
21D
330
1AC
100
AcDbEntity
  8
AM_4
100
AcDbLine
 10
1.302083333333334
 20
2.729166666666667
 30
0.0
 11
1.562500000000001
 21
2.989583333333333
 31
0.0
  0
LINE
  5
21E
330
1AC
100
AcDbEntity
  8
AM_4
100
AcDbLine
 10
0.3906250000000001
 20
0.3121091305537216
 30
0.0
 11
0.3906250000000003
 21
2.604166666666666
 31
0.0
  0
LINE
  5
21F
330
1AC
100
AcDbEntity
  8
AM_4
100
AcDbLine
 10
-1.302083333333333
 20
2.729166666666667
 30
0.0
 11
-0.5156249999999998
 21
2.729166666666667
 31
0.0
  0
ARC
  5
220
330
1AC
100
AcDbEntity
  8
AM_4
100
AcDbCircle
 10
0.5156249999999999
 20
2.604166666666667
 30
0.0
 40
0.1249999999999996
100
AcDbArc
 50
90.0
 51
180.0
  0
LINE
  5
221
330
1AC
100
AcDbEntity
  8
AM_4
100
AcDbLine
 10
1.5625
 20
5.116071428571429
 30
0.0
 11
1.116071428571429
 21
5.562499999999999
 31
0.0
  0
LINE
  5
222
330
1AC
100
AcDbEntity
  8
AM_4
100
AcDbLine
 10
1.0625
 20
4.09375
 30
0.0
 11
1.0625
 21
5.562499999999998
 31
0.0
  0
ARC
  5
223
330
1AC
100
AcDbEntity
  8
AM_4
100
AcDbCircle
 10
0.0000000000000003
 20
4.09375
 30
0.0
 40
1.0625
100
AcDbArc
 50
180.0
 51
0.0
  0
LINE
  5
224
330
1AC
100
AcDbEntity
  8
AM_4
100
AcDbLine
 10
-1.5625
 20
2.989583333333333
 30
0.0
 11
-1.302083333333333
 21
2.729166666666667
 31
0.0
  0
LINE
  5
225
330
1AC
100
AcDbEntity
  8
AM_4
100
AcDbLine
 10
-1.0625
 20
5.562500000000001
 30
0.0
 11
-1.0625
 21
4.09375
 31
0.0
  0
LINE
  5
226
330
1AC
100
AcDbEntity
  8
AM_4
100
AcDbLine
 10
-0.3906249999999996
 20
2.460583948126897
 30
0.0
 11
0.3906250000000002
 21
2.460583948126897
 31
0.0
  0
LINE
  5
227
330
1AC
100
AcDbEntity
  8
AM_4
100
AcDbLine
 10
-0.3906249999999996
 20
2.344802170357573
 30
0.0
 11
0.3906250000000002
 21
2.344802170357573
 31
0.0
  0
LWPOLYLINE
  5
228
330
1AC
100
AcDbEntity
  8
AM_4
100
AcDbPolyline
 90
        3
 70
     0
 43
0.0
 10
0.477430555555556
 20
-2.824727734287968
 10
0.5474736639849928
 20
-2.849052413906515
 10
0.6160399862693574
 20
-2.876567903653779
  0
LWPOLYLINE
  5
229
330
1AC
100
AcDbEntity
  8
AM_4
100
AcDbPolyline
 90
        3
 70
     0
 43
0.0
 10
-0.6160399862693579
 20
-2.87656790365378
 10
-0.5476830424654614
 20
-2.849130759173962
 10
-0.4774305555555554
 20
-2.824727734287968
  0
LINE
  5
22A
330
1AC
100
AcDbEntity
  8
AM_4
100
AcDbLine
 10
0.3906250000000001
 20
-0.3121091305537216
 30
0.0
 11
0.3906250000000006
 21
-2.705705953031007
 31
0.0
  0
LINE
  5
22B
330
1AC
100
AcDbEntity
  8
AM_4
100
AcDbLine
 10
-0.3906249999999996
 20
-2.705705953031006
 30
0.0
 11
-0.3906249999999997
 21
-0.3121091305537217
 31
0.0
  0
LWPOLYLINE
  5
22C
330
1AC
100
AcDbEntity
  8
AM_4
100
AcDbPolyline
 90
        8
 70
     0
 43
0.0
 10
-0.3906249999999997
 20
-2.705705953031006
 10
-0.3936722073099735
 20
-2.733054946318462
 10
-0.4027011690236712
 20
-2.75930827012299
 10
-0.415594658556616
 20
-2.780636973678434
 10
-0.4329369720908232
 20
-2.79944863296118
 10
-0.4483523587768246
 20
-2.811047579999528
 10
-0.4657774947135811
 20
-2.820336778801042
 10
-0.4774305555555552
 20
-2.824727734287968
  0
LWPOLYLINE
  5
22D
330
1AC
100
AcDbEntity
  8
AM_4
100
AcDbPolyline
 90
        8
 70
     0
 43
0.0
 10
0.4774305555555559
 20
-2.824727734287968
 10
0.4585747044493071
 20
-2.816912748044584
 10
0.4415921971549222
 20
-2.806424094906746
 10
0.4269378162831776
 20
-2.793784902182538
 10
0.4146564900117035
 20
-2.779396929349299
 10
0.403899636592699
 20
-2.761749749459638
 10
0.3962852887367328
 20
-2.742895108918172
 10
0.3906250000000006
 20
-2.705705953031008
  0
LWPOLYLINE
  5
22E
330
1AC
100
AcDbEntity
  8
AM_4
100
AcDbPolyline
 90
        6
 70
     0
 43
0.0
 10
0.8661901450145446
 20
-3.012068962735939
 10
0.8134796740051587
 20
-2.978462118236344
 10
0.7593794044271515
 20
-2.946941810052803
 10
0.703607226356827
 20
-2.917385982789058
 10
0.6469620638354564
 20
-2.890231973938186
 10
0.6160399862693576
 20
-2.876567903653779
  0
LWPOLYLINE
  5
22F
330
1AC
100
AcDbEntity
  8
AM_4
100
AcDbPolyline
 90
        5
 70
     0
 43
0.0
 10
-0.6160399862693579
 20
-2.87656790365378
 10
-0.6791251322627496
 20
-2.905305875250646
 10
-0.7417722646308313
 20
-2.937298139390276
 10
-0.8044444755252248
 20
-2.972994368881957
 10
-0.8661901450145446
 20
-3.012068962735938
  0
LINE
  5
230
330
1AC
100
AcDbEntity
  8
AM_4
100
AcDbLine
 10
-0.6160399862693579
 20
-2.87656790365378
 30
0.0
 11
0.6160399862693574
 21
-2.87656790365378
 31
0.0
  0
ARC
  5
231
330
1AC
100
AcDbEntity
  8
AM_4
100
AcDbCircle
 10
-0.0000000000000009
 20
-4.312500000000002
 30
0.0
 40
1.562500000000001
100
AcDbArc
 50
0.0
 51
56.33323898364898
  0
LINE
  5
232
330
1AC
100
AcDbEntity
  8
AM_4
100
AcDbLine
 10
1.5625
 20
-4.5
 30
0.0
 11
1.5625
 21
-4.3125
 31
0.0
  0
LINE
  5
233
330
1AC
100
AcDbEntity
  8
AM_4
100
AcDbLine
 10
-1.5625
 20
-4.3125
 30
0.0
 11
-1.5625
 21
-4.5
 31
0.0
  0
LINE
  5
234
330
1AC
100
AcDbEntity
  8
AM_4
100
AcDbLine
 10
0.8124999999999993
 20
-4.5
 30
0.0
 11
0.8125000000000003
 21
-4.3125
 31
0.0
  0
ARC
  5
235
330
1AC
100
AcDbEntity
  8
AM_4
100
AcDbCircle
 10
-0.0000000000000002
 20
-4.3125
 30
0.0
 40
1.5625
100
AcDbArc
 50
123.6667610163511
 51
180.0
  0
LINE
  5
236
330
1AC
100
AcDbEntity
  8
AM_4
100
AcDbLine
 10
-0.8124999999999998
 20
-4.3125
 30
0.0
 11
-0.8124999999999999
 21
-4.5
 31
0.0
  0
ARC
  5
237
330
1AC
100
AcDbEntity
  8
AM_4
100
AcDbCircle
 10
0.0000000000000003
 20
-4.3125
 30
0.0
 40
0.8125
100
AcDbArc
 50
0.0
 51
180.0
  0
LINE
  5
238
330
1AC
100
AcDbEntity
  8
AM_4
100
AcDbLine
 10
0.8124999999999993
 20
-4.5
 30
0.0
 11
1.5625
 21
-4.5
 31
0.0
  0
LINE
  5
239
330
1AC
100
AcDbEntity
  8
AM_4
100
AcDbLine
 10
-0.8661901450145453
 20
-3.012068962735939
 30
0.0
 11
0.8661901450145446
 21
-3.012068962735939
 31
0.0
  0
LINE
  5
23A
330
1AC
100
AcDbEntity
  8
AM_4
100
AcDbLine
 10
-1.5625
 20
-4.5
 30
0.0
 11
-0.8124999999999999
 21
-4.5
 31
0.0
  0
ENDBLK
  5
1AF
330
1AC
100
AcDbEntity
  8
0
100
AcDbBlockEnd
  0
ENDSEC
  0
SECTION
  2
ENTITIES
  0
INSERT
  5
6F
330
1F
100
AcDbEntity
  8
0
100
AcDbBlockReference
  2
1_070821_2
 10
0.0
 20
0.0
 30
0.0
  0
POINT
  5
23C
330
1F
100
AcDbEntity
  8
ConnectionPoints
100
AcDbPoint
 10
-2.65625
 20
0.0
 30
0.0000000000000002
  0
POINT
  5
23D
330
1F
100
AcDbEntity
  8
ConnectionPoints
100
AcDbPoint
 10
-2.65625
 20
0.0
 30
0.0000000000000002
  0
POINT
  5
23E
330
1F
100
AcDbEntity
  8
ConnectionPoints
100
AcDbPoint
 10
2.37775
 20
0.0
 30
-0.0000000000000001
  0
POINT
  5
23F
330
1F
100
AcDbEntity
  8
ConnectionPoints
100
AcDbPoint
 10
-2.65625
 20
0.0
 30
0.0000000000000002
  0
POINT
  5
240
330
1F
100
AcDbEntity
  8
ConnectionPoints
100
AcDbPoint
 10
0.0000000000000002
 20
0.0
 30
3.98125
  0
POINT
  5
241
330
1F
100
AcDbEntity
  8
ConnectionPoints
100
AcDbPoint
 10
-2.90625
 20
0.0
 30
0.0000000000000002
  0
POINT
  5
242
330
1F
100
AcDbEntity
  8
ConnectionPoints
100
AcDbPoint
 10
-2.65625
 20
0.0
 30
0.0000000000000002
  0
ENDSEC
  0
SECTION
  2
OBJECTS
  0
DICTIONARY
  5
C
330
0
100
AcDbDictionary
281
     1
  3
ACAD_DETAILVIEWSTYLE
350
24A
  3
ACAD_GROUP
350
D
  3
ACAD_LAYOUT
350
1A
  3
ACAD_MATERIAL
350
43
  3
ACAD_MLEADERSTYLE
350
6B
  3
ACAD_MLINESTYLE
350
17
  3
ACAD_PLOTSETTINGS
350
19
  3
ACAD_PLOTSTYLENAME
350
E
  3
ACAD_SCALELIST
350
47
  3
ACAD_SECTIONVIEWSTYLE
350
24B
  3
ACAD_TABLESTYLE
350
69
  3
ACAD_VISUALSTYLE
350
2A
  3
ACDB_RECOMPOSE_DATA
350
247
  3
AcDbVariableDictionary
350
243
  0
SUN
  5
6D
330
29
100
AcDbSun
 90
        1
290
     0
 63
     7
421
 16777215
 40
1.0
291
     1
 91
  2455826
 92
 54000000
292
     0
 70
     2
 71
   256
280
     1
  0
DICTIONARY
  5
24A
102
{ACAD_REACTORS
330
C
102
}
330
C
100
AcDbDictionary
281
     1
  0
DICTIONARY
  5
D
102
{ACAD_REACTORS
330
C
102
}
330
C
100
AcDbDictionary
281
     1
  0
DICTIONARY
  5
1A
102
{ACAD_REACTORS
330
C
102
}
330
C
100
AcDbDictionary
281
     1
  3
Layout1
350
1E
  3
Layout2
350
26
  3
Model
350
22
  0
DICTIONARY
  5
43
102
{ACAD_REACTORS
330
C
102
}
330
C
100
AcDbDictionary
281
     1
  3
ByBlock
350
45
  3
ByLayer
350
44
  3
Global
350
46
  0
DICTIONARY
  5
6B
102
{ACAD_REACTORS
330
C
102
}
330
C
100
AcDbDictionary
281
     1
  3
Standard
350
6C
  0
DICTIONARY
  5
17
102
{ACAD_REACTORS
330
C
102
}
330
C
100
AcDbDictionary
281
     1
  3
Standard
350
18
  0
DICTIONARY
  5
19
102
{ACAD_REACTORS
330
C
102
}
330
C
100
AcDbDictionary
281
     1
  0
ACDBDICTIONARYWDFLT
  5
E
102
{ACAD_REACTORS
330
C
102
}
330
C
100
AcDbDictionary
281
     1
  3
Normal
350
F
100
AcDbDictionaryWithDefault
340
F
  0
DICTIONARY
  5
47
102
{ACAD_REACTORS
330
C
102
}
330
C
100
AcDbDictionary
281
     1
  3
A0
350
48
  3
A1
350
49
  3
A2
350
4A
  3
A3
350
4B
  3
A4
350
4C
  3
A5
350
4D
  3
A6
350
4E
  3
A7
350
4F
  3
A8
350
50
  3
A9
350
51
  3
B0
350
52
  3
B1
350
53
  3
B2
350
54
  3
B3
350
55
  3
B4
350
56
  3
B5
350
57
  3
B6
350
58
  3
B7
350
59
  3
B8
350
5A
  3
B9
350
5B
  3
C0
350
5C
  3
C1
350
5D
  3
C2
350
5E
  3
C3
350
5F
  3
C4
350
60
  3
C5
350
61
  3
C6
350
62
  3
C7
350
63
  3
C8
350
64
  3
C9
350
65
  3
D0
350
66
  3
D1
350
67
  3
D2
350
68
  0
DICTIONARY
  5
24B
102
{ACAD_REACTORS
330
C
102
}
330
C
100
AcDbDictionary
281
     1
  0
DICTIONARY
  5
69
102
{ACAD_REACTORS
330
C
102
}
330
C
100
AcDbDictionary
281
     1
  3
Standard
350
6A
  0
DICTIONARY
  5
2A
102
{ACAD_REACTORS
330
C
102
}
330
C
100
AcDbDictionary
281
     1
  3
2dWireframe
350
2F
  3
Basic
350
32
  3
Brighten
350
36
  3
ColorChange
350
3A
  3
Conceptual
350
34
  3
Dim
350
35
  3
EdgeColorOff
350
3D
  3
Facepattern
350
39
  3
Flat
350
2B
  3
FlatWithEdges
350
2C
  3
Gouraud
350
2D
  3
GouraudWithEdges
350
2E
  3
Hidden
350
31
  3
JitterOff
350
3B
  3
Linepattern
350
38
  3
OverhangOff
350
3C
  3
Realistic
350
33
  3
Shaded
350
42
  3
Shaded with edges
350
41
  3
Shades of Gray
350
3E
  3
Sketchy
350
3F
  3
Thicken
350
37
  3
Wireframe
350
30
  3
X-Ray
350
40
  0
XRECORD
  5
247
102
{ACAD_REACTORS
330
C
102
}
330
C
100
AcDbXrecord
280
     1
 90
        1
330
6A
  0
DICTIONARY
  5
243
102
{ACAD_REACTORS
330
C
102
}
330
C
100
AcDbDictionary
281
     1
  3
CANNOSCALE
350
244
  3
CMLEADERSTYLE
350
249
  3
CTABLESTYLE
350
248
  0
LAYOUT
  5
1E
102
{ACAD_REACTORS
330
1A
102
}
330
1A
100
AcDbPlotSettings
  1

  2
none_device
  4

  6

 40
0.0
 41
0.0
 42
0.0
 43
0.0
 44
0.0
 45
0.0
 46
0.0
 47
0.0
 48
0.0
 49
0.0
140
0.0
141
0.0
142
1.0
143
1.0
 70
   688
 72
     0
 73
     0
 74
     5
  7

 75
    16
 76
     0
 77
     2
 78
   300
147
1.0
148
0.0
149
0.0
100
AcDbLayout
  1
Layout1
 70
     1
 71
     1
 10
0.0
 20
0.0
 11
12.0
 21
9.0
 12
0.0
 22
0.0
 32
0.0
 14
1.000000000000000E+20
 24
1.000000000000000E+20
 34
1.000000000000000E+20
 15
-1.000000000000000E+20
 25
-1.000000000000000E+20
 35
-1.000000000000000E+20
146
0.0
 13
0.0
 23
0.0
 33
0.0
 16
1.0
 26
0.0
 36
0.0
 17
0.0
 27
1.0
 37
0.0
 76
     0
330
1B
  0
LAYOUT
  5
26
102
{ACAD_REACTORS
330
1A
102
}
330
1A
100
AcDbPlotSettings
  1

  2
none_device
  4

  6

 40
0.0
 41
0.0
 42
0.0
 43
0.0
 44
0.0
 45
0.0
 46
0.0
 47
0.0
 48
0.0
 49
0.0
140
0.0
141
0.0
142
1.0
143
1.0
 70
   688
 72
     0
 73
     0
 74
     5
  7

 75
    16
 76
     0
 77
     2
 78
   300
147
1.0
148
0.0
149
0.0
100
AcDbLayout
  1
Layout2
 70
     1
 71
     2
 10
0.0
 20
0.0
 11
0.0
 21
0.0
 12
0.0
 22
0.0
 32
0.0
 14
0.0
 24
0.0
 34
0.0
 15
0.0
 25
0.0
 35
0.0
146
0.0
 13
0.0
 23
0.0
 33
0.0
 16
1.0
 26
0.0
 36
0.0
 17
0.0
 27
1.0
 37
0.0
 76
     0
330
23
  0
LAYOUT
  5
22
102
{ACAD_REACTORS
330
1A
102
}
330
1A
100
AcDbPlotSettings
  1

  2
none_device
  4
Letter_(8.50_x_11.00_Inches)
  6

 40
6.35
 41
6.35
 42
6.35000508
 43
6.35000508
 44
215.9
 45
279.4
 46
0.0
 47
0.0
 48
0.0
 49
0.0
140
0.0
141
0.0
142
1.0
143
1.0
 70
  1712
 72
     0
 73
     0
 74
     0
  7

 75
     0
 76
     0
 77
     2
 78
   300
147
1.0
148
0.0
149
0.0
100
AcDbLayout
  1
Model
 70
     1
 71
     0
 10
0.0
 20
0.0
 11
12.0
 21
9.0
 12
0.0
 22
0.0
 32
0.0
 14
1.000000000000000E+20
 24
1.000000000000000E+20
 34
1.000000000000000E+20
 15
-1.000000000000000E+20
 25
-1.000000000000000E+20
 35
-1.000000000000000E+20
146
0.0
 13
0.0
 23
0.0
 33
0.0
 16
1.0
 26
0.0
 36
0.0
 17
0.0
 27
1.0
 37
0.0
 76
     0
330
1F
331
29
  0
MATERIAL
  5
45
102
{ACAD_REACTORS
330
43
102
}
330
43
100
AcDbMaterial
  1
ByBlock
 72
     1
 94
      127
  0
MATERIAL
  5
44
102
{ACAD_REACTORS
330
43
102
}
330
43
100
AcDbMaterial
  1
ByLayer
 72
     1
 94
      127
  0
MATERIAL
  5
46
102
{ACAD_REACTORS
330
43
102
}
330
43
100
AcDbMaterial
  1
Global
 72
     1
 94
      127
  0
MLEADERSTYLE
  5
6C
102
{ACAD_REACTORS
330
6B
102
}
330
6B
100
AcDbMLeaderStyle
179
     2
170
     2
171
     1
172
     0
 90
        2
 40
0.0
 41
0.0
173
     1
 91
-1056964608
340
14
 92
       -2
290
     1
 42
0.09
291
     1
 43
0.36
  3
Standard
341
0
 44
0.18
300

342
11
174
     1
178
     6
175
     1
176
     0
 93
-1056964608
 45
0.18
292
     0
297
     0
 46
0.18
343
0
 94
-1056964608
 47
1.0
 49
1.0
140
1.0
293
     1
141
0.0
294
     1
177
     0
142
1.0
295
     0
296
     0
143
0.125
271
     0
272
     9
273
     9
298
     0
  0
MLINESTYLE
  5
18
102
{ACAD_REACTORS
330
17
102
}
330
17
100
AcDbMlineStyle
  2
Standard
 70
     0
  3

 62
   256
 51
90.0
 52
90.0
 71
     2
 49
0.5
 62
   256
  6
BYLAYER
 49
-0.5
 62
   256
  6
BYLAYER
  0
ACDBPLACEHOLDER
  5
F
102
{ACAD_REACTORS
330
E
102
}
330
E
  0
SCALE
  5
48
102
{ACAD_REACTORS
330
47
102
}
330
47
100
AcDbScale
 70
     0
300
1:1
140
1.0
141
1.0
290
     1
  0
SCALE
  5
49
102
{ACAD_REACTORS
330
47
102
}
330
47
100
AcDbScale
 70
     0
300
1:2
140
1.0
141
2.0
290
     0
  0
SCALE
  5
4A
102
{ACAD_REACTORS
330
47
102
}
330
47
100
AcDbScale
 70
     0
300
1:4
140
1.0
141
4.0
290
     0
  0
SCALE
  5
4B
102
{ACAD_REACTORS
330
47
102
}
330
47
100
AcDbScale
 70
     0
300
1:5
140
1.0
141
5.0
290
     0
  0
SCALE
  5
4C
102
{ACAD_REACTORS
330
47
102
}
330
47
100
AcDbScale
 70
     0
300
1:8
140
1.0
141
8.0
290
     0
  0
SCALE
  5
4D
102
{ACAD_REACTORS
330
47
102
}
330
47
100
AcDbScale
 70
     0
300
1:10
140
1.0
141
10.0
290
     0
  0
SCALE
  5
4E
102
{ACAD_REACTORS
330
47
102
}
330
47
100
AcDbScale
 70
     0
300
1:16
140
1.0
141
16.0
290
     0
  0
SCALE
  5
4F
102
{ACAD_REACTORS
330
47
102
}
330
47
100
AcDbScale
 70
     0
300
1:20
140
1.0
141
20.0
290
     0
  0
SCALE
  5
50
102
{ACAD_REACTORS
330
47
102
}
330
47
100
AcDbScale
 70
     0
300
1:30
140
1.0
141
30.0
290
     0
  0
SCALE
  5
51
102
{ACAD_REACTORS
330
47
102
}
330
47
100
AcDbScale
 70
     0
300
1:40
140
1.0
141
40.0
290
     0
  0
SCALE
  5
52
102
{ACAD_REACTORS
330
47
102
}
330
47
100
AcDbScale
 70
     0
300
1:50
140
1.0
141
50.0
290
     0
  0
SCALE
  5
53
102
{ACAD_REACTORS
330
47
102
}
330
47
100
AcDbScale
 70
     0
300
1:100
140
1.0
141
100.0
290
     0
  0
SCALE
  5
54
102
{ACAD_REACTORS
330
47
102
}
330
47
100
AcDbScale
 70
     0
300
2:1
140
2.0
141
1.0
290
     0
  0
SCALE
  5
55
102
{ACAD_REACTORS
330
47
102
}
330
47
100
AcDbScale
 70
     0
300
4:1
140
4.0
141
1.0
290
     0
  0
SCALE
  5
56
102
{ACAD_REACTORS
330
47
102
}
330
47
100
AcDbScale
 70
     0
300
8:1
140
8.0
141
1.0
290
     0
  0
SCALE
  5
57
102
{ACAD_REACTORS
330
47
102
}
330
47
100
AcDbScale
 70
     0
300
10:1
140
10.0
141
1.0
290
     0
  0
SCALE
  5
58
102
{ACAD_REACTORS
330
47
102
}
330
47
100
AcDbScale
 70
     0
300
100:1
140
100.0
141
1.0
290
     0
  0
SCALE
  5
59
102
{ACAD_REACTORS
330
47
102
}
330
47
100
AcDbScale
 70
     0
300
1/128" = 1'-0"
140
0.0078125
141
12.0
290
     0
  0
SCALE
  5
5A
102
{ACAD_REACTORS
330
47
102
}
330
47
100
AcDbScale
 70
     0
300
1/64" = 1'-0"
140
0.015625
141
12.0
290
     0
  0
SCALE
  5
5B
102
{ACAD_REACTORS
330
47
102
}
330
47
100
AcDbScale
 70
     0
300
1/32" = 1'-0"
140
0.03125
141
12.0
290
     0
  0
SCALE
  5
5C
102
{ACAD_REACTORS
330
47
102
}
330
47
100
AcDbScale
 70
     0
300
1/16" = 1'-0"
140
0.0625
141
12.0
290
     0
  0
SCALE
  5
5D
102
{ACAD_REACTORS
330
47
102
}
330
47
100
AcDbScale
 70
     0
300
3/32" = 1'-0"
140
0.09375
141
12.0
290
     0
  0
SCALE
  5
5E
102
{ACAD_REACTORS
330
47
102
}
330
47
100
AcDbScale
 70
     0
300
1/8" = 1'-0"
140
0.125
141
12.0
290
     0
  0
SCALE
  5
5F
102
{ACAD_REACTORS
330
47
102
}
330
47
100
AcDbScale
 70
     0
300
3/16" = 1'-0"
140
0.1875
141
12.0
290
     0
  0
SCALE
  5
60
102
{ACAD_REACTORS
330
47
102
}
330
47
100
AcDbScale
 70
     0
300
1/4" = 1'-0"
140
0.25
141
12.0
290
     0
  0
SCALE
  5
61
102
{ACAD_REACTORS
330
47
102
}
330
47
100
AcDbScale
 70
     0
300
3/8" = 1'-0"
140
0.375
141
12.0
290
     0
  0
SCALE
  5
62
102
{ACAD_REACTORS
330
47
102
}
330
47
100
AcDbScale
 70
     0
300
1/2" = 1'-0"
140
0.5
141
12.0
290
     0
  0
SCALE
  5
63
102
{ACAD_REACTORS
330
47
102
}
330
47
100
AcDbScale
 70
     0
300
3/4" = 1'-0"
140
0.75
141
12.0
290
     0
  0
SCALE
  5
64
102
{ACAD_REACTORS
330
47
102
}
330
47
100
AcDbScale
 70
     0
300
1" = 1'-0"
140
1.0
141
12.0
290
     0
  0
SCALE
  5
65
102
{ACAD_REACTORS
330
47
102
}
330
47
100
AcDbScale
 70
     0
300
1-1/2" = 1'-0"
140
1.5
141
12.0
290
     0
  0
SCALE
  5
66
102
{ACAD_REACTORS
330
47
102
}
330
47
100
AcDbScale
 70
     0
300
3" = 1'-0"
140
3.0
141
12.0
290
     0
  0
SCALE
  5
67
102
{ACAD_REACTORS
330
47
102
}
330
47
100
AcDbScale
 70
     0
300
6" = 1'-0"
140
6.0
141
12.0
290
     0
  0
SCALE
  5
68
102
{ACAD_REACTORS
330
47
102
}
330
47
100
AcDbScale
 70
     0
300
1'-0" = 1'-0"
140
12.0
141
12.0
290
     0
  0
TABLESTYLE
  5
6A
102
{ACAD_REACTORS
330
69
102
}
102
{ACAD_XDICTIONARY
360
245
102
}
330
69
100
AcDbTableStyle
  3
Standard
 70
     0
 71
     0
 40
0.06
 41
0.06
280
     0
281
     0
  7
Standard
140
0.18
170
     2
 62
     0
 63
   257
283
     0
 90
        4
 91
        0
  1

274
    -2
284
     1
 64
     0
275
    -2
285
     1
 65
     0
276
    -2
286
     1
 66
     0
277
    -2
287
     1
 67
     0
278
    -2
288
     1
 68
     0
279
    -2
289
     1
 69
     0
  7
Standard
140
0.25
170
     5
 62
     0
 63
   257
283
     0
 90
        4
 91
        0
  1

274
    -2
284
     1
 64
     0
275
    -2
285
     1
 65
     0
276
    -2
286
     1
 66
     0
277
    -2
287
     1
 67
     0
278
    -2
288
     1
 68
     0
279
    -2
289
     1
 69
     0
  7
Standard
140
0.18
170
     5
 62
     0
 63
   257
283
     0
 90
        4
 91
        0
  1

274
    -2
284
     1
 64
     0
275
    -2
285
     1
 65
     0
276
    -2
286
     1
 66
     0
277
    -2
287
     1
 67
     0
278
    -2
288
     1
 68
     0
279
    -2
289
     1
 69
     0
  0
VISUALSTYLE
  5
2F
102
{ACAD_REACTORS
330
2A
102
}
330
2A
100
AcDbVisualStyle
  2
2dWireframe
 70
     4
177
     3
291
     0
 70
    58
 90
        0
176
     1
 90
        2
176
     1
 90
        0
176
     1
 90
        0
176
     1
 40
0.6
176
     1
 40
30.0
176
     1
 62
     7
420
 16777215
176
     1
 90
        1
176
     1
 90
        4
176
     1
 62
     7
176
     1
 62
   257
176
     1
 90
        1
176
     1
 90
        1
176
     1
 40
1.0
176
     1
 90
        0
176
     1
 62
   257
176
     1
 40
1.0
176
     1
 90
        1
176
     1
 90
        6
176
     1
 90
        2
176
     1
 62
     7
176
     1
 90
        5
176
     1
 90
        0
176
     1
 90
        0
176
     1
290
     0
176
     1
 90
        1
176
     1
 40
0.0
176
     1
 90
        0
176
     1
290
     1
176
     1
290
     1
176
     1
290
     0
176
     1
290
     0
176
     1
290
     0
176
     1
290
     0
176
     1
290
     0
176
     1
290
     0
176
     1
290
     0
176
     1
 90
       50
176
     1
 40
0.0
176
     1
 40
1.0
176
     1
 90
        0
176
     1
 62
    18
420
        0
176
     1
 90
       50
176
     1
 90
        3
176
     1
 62
     5
420
      255
176
     1
290
     0
176
     1
 90
       50
176
     1
 90
       50
176
     1
 90
       50
176
     1
290
     0
176
     1
 90
       50
176
     1
 62
   256
176
     0
 40
1.0
176
     0
 90
        2
176
     1
  1
strokes_ogs.tif
176
     1
290
     0
176
     1
 40
1.0
176
     1
 40
1.0
176
     1
  0
VISUALSTYLE
  5
32
102
{ACAD_REACTORS
330
2A
102
}
330
2A
100
AcDbVisualStyle
  2
Basic
 70
     7
177
     3
291
     1
 70
    58
 90
        1
176
     1
 90
        0
176
     1
 90
        1
176
     1
 90
        0
176
     1
 40
0.6
176
     1
 40
30.0
176
     1
 62
     7
420
 16777215
176
     1
 90
        0
176
     1
 90
        4
176
     1
 62
     7
176
     1
 62
   257
176
     1
 90
        1
176
     1
 90
        1
176
     1
 40
1.0
176
     1
 90
        8
176
     1
 62
     7
176
     1
 40
1.0
176
     1
 90
        1
176
     1
 90
        6
176
     1
 90
        2
176
     1
 62
     7
176
     1
 90
        5
176
     1
 90
        0
176
     1
 90
        0
176
     1
290
     0
176
     1
 90
        1
176
     1
 40
0.0
176
     1
 90
        0
176
     1
290
     0
176
     1
290
     1
176
     1
290
     1
176
     1
290
     0
176
     1
290
     0
176
     1
290
     0
176
     1
290
     0
176
     1
290
     0
176
     1
290
     0
176
     1
 90
       50
176
     1
 40
0.0
176
     1
 40
1.0
176
     1
 90
        0
176
     1
 62
    18
420
        0
176
     1
 90
       50
176
     1
 90
        3
176
     1
 62
     5
420
      255
176
     1
290
     0
176
     1
 90
       50
176
     1
 90
       50
176
     1
 90
       50
176
     1
290
     0
176
     1
 90
       50
176
     1
 62
   256
176
     0
 40
1.0
176
     0
 90
        2
176
     1
  1
strokes_ogs.tif
176
     1
290
     0
176
     1
 40
1.0
176
     1
 40
1.0
176
     1
  0
VISUALSTYLE
  5
36
102
{ACAD_REACTORS
330
2A
102
}
330
2A
100
AcDbVisualStyle
  2
Brighten
 70
    12
177
     3
291
     1
 70
    58
 90
        2
176
     1
 90
        2
176
     1
 90
        0
176
     1
 90
        0
176
     1
 40
0.6
176
     1
 40
30.0
176
     1
 62
     7
420
 16777215
176
     1
 90
        1
176
     1
 90
        4
176
     1
 62
     7
176
     1
 62
   257
176
     1
 90
        1
176
     1
 90
        1
176
     1
 40
1.0
176
     1
 90
        8
176
     1
 62
     7
176
     1
 40
1.0
176
     1
 90
        1
176
     1
 90
        6
176
     1
 90
        2
176
     1
 62
     7
176
     1
 90
        5
176
     1
 90
        0
176
     1
 90
        0
176
     1
290
     0
176
     1
 90
        1
176
     1
 40
50.0
176
     1
 90
        0
176
     1
290
     0
176
     1
290
     1
176
     1
290
     1
176
     1
290
     0
176
     1
290
     0
176
     1
290
     0
176
     1
290
     0
176
     1
290
     0
176
     1
290
     0
176
     1
 90
       50
176
     1
 40
0.0
176
     1
 40
1.0
176
     1
 90
        0
176
     1
 62
    18
420
        0
176
     1
 90
       50
176
     1
 90
        3
176
     1
 62
     5
420
      255
176
     1
290
     0
176
     1
 90
       50
176
     1
 90
       50
176
     1
 90
       50
176
     1
290
     0
176
     1
 90
       50
176
     1
 62
   256
176
     0
 40
1.0
176
     0
 90
        2
176
     1
  1
strokes_ogs.tif
176
     1
290
     0
176
     1
 40
1.0
176
     1
 40
1.0
176
     1
  0
VISUALSTYLE
  5
3A
102
{ACAD_REACTORS
330
2A
102
}
330
2A
100
AcDbVisualStyle
  2
ColorChange
 70
    16
177
     3
291
     1
 70
    58
 90
        2
176
     1
 90
        2
176
     1
 90
        3
176
     1
 90
        0
176
     1
 40
0.6
176
     1
 40
30.0
176
     1
 62
     8
420
  8421504
176
     1
 90
        1
176
     1
 90
        4
176
     1
 62
     7
176
     1
 62
   257
176
     1
 90
        1
176
     1
 90
        1
176
     1
 40
1.0
176
     1
 90
        8
176
     1
 62
     8
420
  8421504
176
     1
 40
1.0
176
     1
 90
        1
176
     1
 90
        6
176
     1
 90
        2
176
     1
 62
     7
176
     1
 90
        5
176
     1
 90
        0
176
     1
 90
        0
176
     1
290
     0
176
     1
 90
        1
176
     1
 40
0.0
176
     1
 90
        0
176
     1
290
     0
176
     1
290
     1
176
     1
290
     1
176
     1
290
     0
176
     1
290
     0
176
     1
290
     0
176
     1
290
     0
176
     1
290
     0
176
     1
290
     0
176
     1
 90
       50
176
     1
 40
0.0
176
     1
 40
1.0
176
     1
 90
        0
176
     1
 62
    18
420
        0
176
     1
 90
       50
176
     1
 90
        3
176
     1
 62
     5
420
      255
176
     1
290
     0
176
     1
 90
       50
176
     1
 90
       50
176
     1
 90
       50
176
     1
290
     0
176
     1
 90
       50
176
     1
 62
   256
176
     0
 40
1.0
176
     0
 90
        2
176
     1
  1
strokes_ogs.tif
176
     1
290
     0
176
     1
 40
1.0
176
     1
 40
1.0
176
     1
  0
VISUALSTYLE
  5
34
102
{ACAD_REACTORS
330
2A
102
}
330
2A
100
AcDbVisualStyle
  2
Conceptual
 70
     9
177
     3
291
     0
 70
    58
 90
        3
176
     1
 90
        2
176
     1
 90
        0
176
     1
 90
        0
176
     1
 40
0.6
176
     1
 40
30.0
176
     1
 62
     7
420
 16777215
176
     1
 90
        2
176
     1
 90
        2
176
     1
 62
     7
176
     1
 62
   257
176
     1
 90
        1
176
     1
 90
        1
176
     1
 40
179.0
176
     1
 90
        8
176
     1
 62
     7
176
     1
 40
1.0
176
     1
 90
        1
176
     1
 90
        6
176
     1
 90
        2
176
     1
 62
     7
176
     1
 90
        3
176
     1
 90
        0
176
     1
 90
        0
176
     1
290
     0
176
     1
 90
        1
176
     1
 40
0.0
176
     1
 90
        0
176
     1
290
     0
176
     1
290
     1
176
     1
290
     1
176
     1
290
     0
176
     1
290
     0
176
     1
290
     0
176
     1
290
     0
176
     1
290
     0
176
     1
290
     0
176
     1
 90
       50
176
     1
 40
0.0
176
     1
 40
1.0
176
     1
 90
        0
176
     1
 62
    18
420
        0
176
     1
 90
       50
176
     1
 90
        3
176
     1
 62
     5
420
      255
176
     1
290
     0
176
     1
 90
       50
176
     1
 90
       50
176
     1
 90
       50
176
     1
290
     0
176
     1
 90
       50
176
     1
 62
   256
176
     0
 40
1.0
176
     0
 90
        2
176
     1
  1
strokes_ogs.tif
176
     1
290
     0
176
     1
 40
1.0
176
     1
 40
1.0
176
     1
  0
VISUALSTYLE
  5
35
102
{ACAD_REACTORS
330
2A
102
}
330
2A
100
AcDbVisualStyle
  2
Dim
 70
    11
177
     3
291
     1
 70
    58
 90
        2
176
     1
 90
        2
176
     1
 90
        0
176
     1
 90
        0
176
     1
 40
0.6
176
     1
 40
30.0
176
     1
 62
     7
420
 16777215
176
     1
 90
        1
176
     1
 90
        4
176
     1
 62
     7
176
     1
 62
   257
176
     1
 90
        1
176
     1
 90
        1
176
     1
 40
1.0
176
     1
 90
        8
176
     1
 62
     7
176
     1
 40
1.0
176
     1
 90
        1
176
     1
 90
        6
176
     1
 90
        2
176
     1
 62
     7
176
     1
 90
        5
176
     1
 90
        0
176
     1
 90
        0
176
     1
290
     0
176
     1
 90
        1
176
     1
 40
-50.0
176
     1
 90
        0
176
     1
290
     0
176
     1
290
     1
176
     1
290
     1
176
     1
290
     0
176
     1
290
     0
176
     1
290
     0
176
     1
290
     0
176
     1
290
     0
176
     1
290
     0
176
     1
 90
       50
176
     1
 40
0.0
176
     1
 40
1.0
176
     1
 90
        0
176
     1
 62
    18
420
        0
176
     1
 90
       50
176
     1
 90
        3
176
     1
 62
     5
420
      255
176
     1
290
     0
176
     1
 90
       50
176
     1
 90
       50
176
     1
 90
       50
176
     1
290
     0
176
     1
 90
       50
176
     1
 62
   256
176
     0
 40
1.0
176
     0
 90
        2
176
     1
  1
strokes_ogs.tif
176
     1
290
     0
176
     1
 40
1.0
176
     1
 40
1.0
176
     1
  0
VISUALSTYLE
  5
3D
102
{ACAD_REACTORS
330
2A
102
}
330
2A
100
AcDbVisualStyle
  2
EdgeColorOff
 70
    22
177
     3
291
     1
 70
    58
 90
        2
176
     0
 90
        2
176
     0
 90
        0
176
     0
 90
        0
176
     0
 40
0.6
176
     0
 40
30.0
176
     0
 62
     7
420
 16777215
176
     0
 90
        1
176
     0
 90
        4
176
     0
 62
     7
176
     0
 62
   257
176
     0
 90
        1
176
     0
 90
        1
176
     0
 40
1.0
176
     0
 90
        8
176
     2
 62
     7
176
     0
 40
1.0
176
     0
 90
        1
176
     0
 90
        6
176
     0
 90
        2
176
     0
 62
     7
176
     0
 90
        5
176
     0
 90
        0
176
     0
 90
        0
176
     0
290
     0
176
     0
 90
        1
176
     0
 40
0.0
176
     0
 90
        0
176
     0
290
     0
176
     0
290
     1
176
     0
290
     1
176
     0
290
     0
176
     0
290
     0
176
     0
290
     0
176
     0
290
     0
176
     0
290
     0
176
     0
290
     0
176
     0
 90
       50
176
     0
 40
0.0
176
     0
 40
1.0
176
     0
 90
        0
176
     0
 62
    18
420
        0
176
     0
 90
       50
176
     0
 90
        3
176
     0
 62
     5
420
      255
176
     0
290
     0
176
     0
 90
       50
176
     0
 90
       50
176
     0
 90
       50
176
     0
290
     0
176
     0
 90
       50
176
     0
 62
   256
176
     0
 40
1.0
176
     0
 90
        2
176
     0
  1
strokes_ogs.tif
176
     0
290
     0
176
     0
 40
1.0
176
     0
 40
1.0
176
     0
  0
VISUALSTYLE
  5
39
102
{ACAD_REACTORS
330
2A
102
}
330
2A
100
AcDbVisualStyle
  2
Facepattern
 70
    15
177
     3
291
     1
 70
    58
 90
        2
176
     1
 90
        2
176
     1
 90
        0
176
     1
 90
        0
176
     1
 40
0.6
176
     1
 40
30.0
176
     1
 62
     7
420
 16777215
176
     1
 90
        1
176
     1
 90
        4
176
     1
 62
     7
176
     1
 62
   257
176
     1
 90
        1
176
     1
 90
        1
176
     1
 40
1.0
176
     1
 90
        8
176
     1
 62
     7
176
     1
 40
1.0
176
     1
 90
        1
176
     1
 90
        6
176
     1
 90
        2
176
     1
 62
     7
176
     1
 90
        5
176
     1
 90
        0
176
     1
 90
        0
176
     1
290
     0
176
     1
 90
        1
176
     1
 40
0.0
176
     1
 90
        0
176
     1
290
     0
176
     1
290
     1
176
     1
290
     1
176
     1
290
     0
176
     1
290
     0
176
     1
290
     0
176
     1
290
     0
176
     1
290
     0
176
     1
290
     0
176
     1
 90
       50
176
     1
 40
0.0
176
     1
 40
1.0
176
     1
 90
        0
176
     1
 62
    18
420
        0
176
     1
 90
       50
176
     1
 90
        3
176
     1
 62
     5
420
      255
176
     1
290
     0
176
     1
 90
       50
176
     1
 90
       50
176
     1
 90
       50
176
     1
290
     0
176
     1
 90
       50
176
     1
 62
   256
176
     0
 40
1.0
176
     0
 90
        2
176
     1
  1
strokes_ogs.tif
176
     1
290
     0
176
     1
 40
1.0
176
     1
 40
1.0
176
     1
  0
VISUALSTYLE
  5
2B
102
{ACAD_REACTORS
330
2A
102
}
330
2A
100
AcDbVisualStyle
  2
Flat
 70
     0
177
     3
291
     1
 70
    58
 90
        2
176
     1
 90
        1
176
     1
 90
        1
176
     1
 90
        2
176
     1
 40
0.6
176
     1
 40
30.0
176
     1
 62
     7
420
 16777215
176
     1
 90
        0
176
     1
 90
        0
176
     1
 62
     7
176
     1
 62
   257
176
     1
 90
        1
176
     1
 90
        1
176
     1
 40
1.0
176
     1
 90
        8
176
     1
 62
     7
176
     1
 40
1.0
176
     1
 90
        1
176
     1
 90
        6
176
     1
 90
        2
176
     1
 62
     7
176
     1
 90
        5
176
     1
 90
        0
176
     1
 90
        0
176
     1
290
     0
176
     1
 90
       13
176
     1
 40
0.0
176
     1
 90
        0
176
     1
290
     0
176
     1
290
     1
176
     1
290
     1
176
     1
290
     0
176
     1
290
     0
176
     1
290
     0
176
     1
290
     0
176
     1
290
     0
176
     1
290
     0
176
     1
 90
       50
176
     1
 40
0.0
176
     1
 40
1.0
176
     1
 90
        0
176
     1
 62
    18
420
        0
176
     1
 90
       50
176
     1
 90
        3
176
     1
 62
     5
420
      255
176
     1
290
     0
176
     1
 90
       50
176
     1
 90
       50
176
     1
 90
       50
176
     1
290
     0
176
     1
 90
       50
176
     1
 62
   256
176
     0
 40
1.0
176
     0
 90
        2
176
     1
  1
strokes_ogs.tif
176
     1
290
     0
176
     1
 40
1.0
176
     1
 40
1.0
176
     1
  0
VISUALSTYLE
  5
2C
102
{ACAD_REACTORS
330
2A
102
}
330
2A
100
AcDbVisualStyle
  2
FlatWithEdges
 70
     1
177
     3
291
     1
 70
    58
 90
        2
176
     1
 90
        1
176
     1
 90
        1
176
     1
 90
        2
176
     1
 40
0.6
176
     1
 40
30.0
176
     1
 62
     7
420
 16777215
176
     1
 90
        1
176
     1
 90
        0
176
     1
 62
     7
176
     1
 62
   257
176
     1
 90
        1
176
     1
 90
        1
176
     1
 40
1.0
176
     1
 90
        0
176
     1
 62
   257
176
     1
 40
1.0
176
     1
 90
        1
176
     1
 90
        6
176
     1
 90
        2
176
     1
 62
     7
176
     1
 90
        5
176
     1
 90
        0
176
     1
 90
        0
176
     1
290
     0
176
     1
 90
       13
176
     1
 40
0.0
176
     1
 90
        0
176
     1
290
     0
176
     1
290
     1
176
     1
290
     1
176
     1
290
     0
176
     1
290
     0
176
     1
290
     0
176
     1
290
     0
176
     1
290
     0
176
     1
290
     0
176
     1
 90
       50
176
     1
 40
0.0
176
     1
 40
1.0
176
     1
 90
        0
176
     1
 62
    18
420
        0
176
     1
 90
       50
176
     1
 90
        3
176
     1
 62
     5
420
      255
176
     1
290
     0
176
     1
 90
       50
176
     1
 90
       50
176
     1
 90
       50
176
     1
290
     0
176
     1
 90
       50
176
     1
 62
   256
176
     0
 40
1.0
176
     0
 90
        2
176
     1
  1
strokes_ogs.tif
176
     1
290
     0
176
     1
 40
1.0
176
     1
 40
1.0
176
     1
  0
VISUALSTYLE
  5
2D
102
{ACAD_REACTORS
330
2A
102
}
330
2A
100
AcDbVisualStyle
  2
Gouraud
 70
     2
177
     3
291
     1
 70
    58
 90
        2
176
     1
 90
        2
176
     1
 90
        1
176
     1
 90
        2
176
     1
 40
0.6
176
     1
 40
30.0
176
     1
 62
     7
420
 16777215
176
     1
 90
        0
176
     1
 90
        0
176
     1
 62
     7
176
     1
 62
   257
176
     1
 90
        1
176
     1
 90
        1
176
     1
 40
1.0
176
     1
 90
        0
176
     1
 62
     7
176
     1
 40
1.0
176
     1
 90
        1
176
     1
 90
        6
176
     1
 90
        2
176
     1
 62
     7
176
     1
 90
        5
176
     1
 90
        0
176
     1
 90
        0
176
     1
290
     0
176
     1
 90
       13
176
     1
 40
0.0
176
     1
 90
        0
176
     1
290
     0
176
     1
290
     1
176
     1
290
     1
176
     1
290
     0
176
     1
290
     0
176
     1
290
     0
176
     1
290
     0
176
     1
290
     0
176
     1
290
     0
176
     1
 90
       50
176
     1
 40
0.0
176
     1
 40
1.0
176
     1
 90
        0
176
     1
 62
    18
420
        0
176
     1
 90
       50
176
     1
 90
        3
176
     1
 62
     5
420
      255
176
     1
290
     0
176
     1
 90
       50
176
     1
 90
       50
176
     1
 90
       50
176
     1
290
     0
176
     1
 90
       50
176
     1
 62
   256
176
     0
 40
1.0
176
     0
 90
        2
176
     1
  1
strokes_ogs.tif
176
     1
290
     0
176
     1
 40
1.0
176
     1
 40
1.0
176
     1
  0
VISUALSTYLE
  5
2E
102
{ACAD_REACTORS
330
2A
102
}
330
2A
100
AcDbVisualStyle
  2
GouraudWithEdges
 70
     3
177
     3
291
     1
 70
    58
 90
        2
176
     1
 90
        2
176
     1
 90
        1
176
     1
 90
        2
176
     1
 40
0.6
176
     1
 40
30.0
176
     1
 62
     7
420
 16777215
176
     1
 90
        1
176
     1
 90
        0
176
     1
 62
     7
176
     1
 62
   257
176
     1
 90
        1
176
     1
 90
        1
176
     1
 40
1.0
176
     1
 90
        0
176
     1
 62
   257
176
     1
 40
1.0
176
     1
 90
        1
176
     1
 90
        6
176
     1
 90
        2
176
     1
 62
     7
176
     1
 90
        5
176
     1
 90
        0
176
     1
 90
        0
176
     1
290
     0
176
     1
 90
       13
176
     1
 40
0.0
176
     1
 90
        0
176
     1
290
     0
176
     1
290
     1
176
     1
290
     1
176
     1
290
     0
176
     1
290
     0
176
     1
290
     0
176
     1
290
     0
176
     1
290
     0
176
     1
290
     0
176
     1
 90
       50
176
     1
 40
0.0
176
     1
 40
1.0
176
     1
 90
        0
176
     1
 62
    18
420
        0
176
     1
 90
       50
176
     1
 90
        3
176
     1
 62
     5
420
      255
176
     1
290
     0
176
     1
 90
       50
176
     1
 90
       50
176
     1
 90
       50
176
     1
290
     0
176
     1
 90
       50
176
     1
 62
   256
176
     0
 40
1.0
176
     0
 90
        2
176
     1
  1
strokes_ogs.tif
176
     1
290
     0
176
     1
 40
1.0
176
     1
 40
1.0
176
     1
  0
VISUALSTYLE
  5
31
102
{ACAD_REACTORS
330
2A
102
}
330
2A
100
AcDbVisualStyle
  2
Hidden
 70
     6
177
     3
291
     0
 70
    58
 90
        1
176
     1
 90
        2
176
     1
 90
        2
176
     1
 90
        0
176
     1
 40
0.6
176
     1
 40
30.0
176
     1
 62
     7
420
 16777215
176
     1
 90
        2
176
     1
 90
        2
176
     1
 62
     7
176
     1
 62
   257
176
     1
 90
        2
176
     1
 90
        1
176
     1
 40
40.0
176
     1
 90
        0
176
     1
 62
   257
176
     1
 40
1.0
176
     1
 90
        1
176
     1
 90
        6
176
     1
 90
        2
176
     1
 62
     7
176
     1
 90
        3
176
     1
 90
        0
176
     1
 90
        0
176
     1
290
     0
176
     1
 90
        1
176
     1
 40
0.0
176
     1
 90
        0
176
     1
290
     0
176
     1
290
     1
176
     1
290
     1
176
     1
290
     0
176
     1
290
     0
176
     1
290
     0
176
     1
290
     0
176
     1
290
     0
176
     1
290
     0
176
     1
 90
       50
176
     1
 40
0.0
176
     1
 40
1.0
176
     1
 90
        0
176
     1
 62
    18
420
        0
176
     1
 90
       50
176
     1
 90
        3
176
     1
 62
     5
420
      255
176
     1
290
     0
176
     1
 90
       50
176
     1
 90
       50
176
     1
 90
       50
176
     1
290
     0
176
     1
 90
       50
176
     1
 62
   256
176
     0
 40
1.0
176
     0
 90
        2
176
     1
  1
strokes_ogs.tif
176
     1
290
     0
176
     1
 40
1.0
176
     1
 40
1.0
176
     1
  0
VISUALSTYLE
  5
3B
102
{ACAD_REACTORS
330
2A
102
}
330
2A
100
AcDbVisualStyle
  2
JitterOff
 70
    20
177
     3
291
     1
 70
    58
 90
        2
176
     0
 90
        2
176
     0
 90
        0
176
     0
 90
        0
176
     0
 40
0.6
176
     0
 40
30.0
176
     0
 62
     7
420
 16777215
176
     0
 90
        1
176
     0
 90
        4
176
     0
 62
     7
176
     0
 62
   257
176
     0
 90
        1
176
     0
 90
        1
176
     0
 40
1.0
176
     0
 90
       10
176
     2
 62
     7
176
     0
 40
1.0
176
     0
 90
        1
176
     0
 90
        6
176
     0
 90
        2
176
     0
 62
     7
176
     0
 90
        5
176
     0
 90
        0
176
     0
 90
        0
176
     0
290
     0
176
     0
 90
        1
176
     0
 40
0.0
176
     0
 90
        0
176
     0
290
     0
176
     0
290
     1
176
     0
290
     1
176
     0
290
     0
176
     0
290
     0
176
     0
290
     0
176
     0
290
     0
176
     0
290
     0
176
     0
290
     0
176
     0
 90
       50
176
     0
 40
0.0
176
     0
 40
1.0
176
     0
 90
        0
176
     0
 62
    18
420
        0
176
     0
 90
       50
176
     0
 90
        3
176
     0
 62
     5
420
      255
176
     0
290
     0
176
     0
 90
       50
176
     0
 90
       50
176
     0
 90
       50
176
     0
290
     0
176
     0
 90
       50
176
     0
 62
   256
176
     0
 40
1.0
176
     0
 90
        2
176
     0
  1
strokes_ogs.tif
176
     0
290
     0
176
     0
 40
1.0
176
     0
 40
1.0
176
     0
  0
VISUALSTYLE
  5
38
102
{ACAD_REACTORS
330
2A
102
}
330
2A
100
AcDbVisualStyle
  2
Linepattern
 70
    14
177
     3
291
     1
 70
    58
 90
        2
176
     1
 90
        2
176
     1
 90
        0
176
     1
 90
        0
176
     1
 40
0.6
176
     1
 40
30.0
176
     1
 62
     7
420
 16777215
176
     1
 90
        1
176
     1
 90
        4
176
     1
 62
     7
176
     1
 62
   257
176
     1
 90
        7
176
     1
 90
        7
176
     1
 40
1.0
176
     1
 90
        8
176
     1
 62
     7
176
     1
 40
1.0
176
     1
 90
        1
176
     1
 90
        6
176
     1
 90
        2
176
     1
 62
     7
176
     1
 90
        5
176
     1
 90
        0
176
     1
 90
        0
176
     1
290
     0
176
     1
 90
        1
176
     1
 40
0.0
176
     1
 90
        0
176
     1
290
     0
176
     1
290
     1
176
     1
290
     1
176
     1
290
     0
176
     1
290
     0
176
     1
290
     0
176
     1
290
     0
176
     1
290
     0
176
     1
290
     0
176
     1
 90
       50
176
     1
 40
0.0
176
     1
 40
1.0
176
     1
 90
        0
176
     1
 62
    18
420
        0
176
     1
 90
       50
176
     1
 90
        3
176
     1
 62
     5
420
      255
176
     1
290
     0
176
     1
 90
       50
176
     1
 90
       50
176
     1
 90
       50
176
     1
290
     0
176
     1
 90
       50
176
     1
 62
   256
176
     0
 40
1.0
176
     0
 90
        2
176
     1
  1
strokes_ogs.tif
176
     1
290
     0
176
     1
 40
1.0
176
     1
 40
1.0
176
     1
  0
VISUALSTYLE
  5
3C
102
{ACAD_REACTORS
330
2A
102
}
330
2A
100
AcDbVisualStyle
  2
OverhangOff
 70
    21
177
     3
291
     1
 70
    58
 90
        2
176
     0
 90
        2
176
     0
 90
        0
176
     0
 90
        0
176
     0
 40
0.6
176
     0
 40
30.0
176
     0
 62
     7
420
 16777215
176
     0
 90
        1
176
     0
 90
        4
176
     0
 62
     7
176
     0
 62
   257
176
     0
 90
        1
176
     0
 90
        1
176
     0
 40
1.0
176
     0
 90
        9
176
     2
 62
     7
176
     0
 40
1.0
176
     0
 90
        1
176
     0
 90
        6
176
     0
 90
        2
176
     0
 62
     7
176
     0
 90
        5
176
     0
 90
        0
176
     0
 90
        0
176
     0
290
     0
176
     0
 90
        1
176
     0
 40
0.0
176
     0
 90
        0
176
     0
290
     0
176
     0
290
     1
176
     0
290
     1
176
     0
290
     0
176
     0
290
     0
176
     0
290
     0
176
     0
290
     0
176
     0
290
     0
176
     0
290
     0
176
     0
 90
       50
176
     0
 40
0.0
176
     0
 40
1.0
176
     0
 90
        0
176
     0
 62
    18
420
        0
176
     0
 90
       50
176
     0
 90
        3
176
     0
 62
     5
420
      255
176
     0
290
     0
176
     0
 90
       50
176
     0
 90
       50
176
     0
 90
       50
176
     0
290
     0
176
     0
 90
       50
176
     0
 62
   256
176
     0
 40
1.0
176
     0
 90
        2
176
     0
  1
strokes_ogs.tif
176
     0
290
     0
176
     0
 40
1.0
176
     0
 40
1.0
176
     0
  0
VISUALSTYLE
  5
33
102
{ACAD_REACTORS
330
2A
102
}
330
2A
100
AcDbVisualStyle
  2
Realistic
 70
     8
177
     3
291
     0
 70
    58
 90
        2
176
     1
 90
        3
176
     1
 90
        0
176
     1
 90
        2
176
     1
 40
0.6
176
     1
 40
30.0
176
     1
 62
     7
420
 16777215
176
     1
 90
        0
176
     1
 90
        0
176
     1
 62
     7
176
     1
 62
   257
176
     1
 90
        1
176
     1
 90
        1
176
     1
 40
1.0
176
     1
 90
        8
176
     1
 62
   257
176
     1
 40
1.0
176
     1
 90
        1
176
     1
 90
        6
176
     1
 90
        2
176
     1
 62
     7
176
     1
 90
        3
176
     1
 90
        0
176
     1
 90
        0
176
     1
290
     0
176
     1
 90
       13
176
     1
 40
0.0
176
     1
 90
        0
176
     1
290
     0
176
     1
290
     1
176
     1
290
     1
176
     1
290
     0
176
     1
290
     0
176
     1
290
     0
176
     1
290
     0
176
     1
290
     0
176
     1
290
     0
176
     1
 90
       50
176
     1
 40
0.0
176
     1
 40
1.0
176
     1
 90
        0
176
     1
 62
    18
420
        0
176
     1
 90
       50
176
     1
 90
        3
176
     1
 62
     5
420
      255
176
     1
290
     0
176
     1
 90
       50
176
     1
 90
       50
176
     1
 90
       50
176
     1
290
     0
176
     1
 90
       50
176
     1
 62
   256
176
     0
 40
1.0
176
     0
 90
        2
176
     1
  1
strokes_ogs.tif
176
     1
290
     0
176
     1
 40
1.0
176
     1
 40
1.0
176
     1
  0
VISUALSTYLE
  5
42
102
{ACAD_REACTORS
330
2A
102
}
330
2A
100
AcDbVisualStyle
  2
Shaded
 70
    27
177
     3
291
     0
 70
    58
 90
        2
176
     1
 90
        2
176
     1
 90
        1
176
     1
 90
        2
176
     1
 40
0.6
176
     1
 40
30.0
176
     1
 62
     7
420
 16777215
176
     1
 90
        0
176
     1
 90
        4
176
     1
 62
     7
176
     1
 62
   257
176
     1
 90
        1
176
     1
 90
        1
176
     1
 40
1.0
176
     1
 90
        8
176
     1
 62
   257
176
     1
 40
1.0
176
     1
 90
        1
176
     1
 90
        6
176
     1
 90
        2
176
     1
 62
     8
420
  7895160
176
     1
 90
        3
176
     1
 90
        0
176
     1
 90
        0
176
     1
290
     0
176
     1
 90
        5
176
     1
 40
0.0
176
     1
 90
        0
176
     1
290
     0
176
     1
290
     1
176
     1
290
     1
176
     1
290
     0
176
     1
290
     0
176
     1
290
     0
176
     1
290
     0
176
     1
290
     0
176
     1
290
     0
176
     1
 90
       50
176
     1
 40
0.0
176
     1
 40
1.0
176
     1
 90
        0
176
     1
 62
    18
420
        0
176
     1
 90
       50
176
     1
 90
        3
176
     1
 62
     5
420
      255
176
     1
290
     0
176
     1
 90
       50
176
     1
 90
       50
176
     1
 90
       50
176
     1
290
     0
176
     1
 90
       50
176
     1
 62
   256
176
     0
 40
1.0
176
     0
 90
        2
176
     1
  1
strokes_ogs.tif
176
     1
290
     0
176
     1
 40
1.0
176
     1
 40
1.0
176
     1
  0
VISUALSTYLE
  5
41
102
{ACAD_REACTORS
330
2A
102
}
330
2A
100
AcDbVisualStyle
  2
Shaded with edges
 70
    26
177
     3
291
     0
 70
    58
 90
        2
176
     1
 90
        2
176
     1
 90
        1
176
     1
 90
        2
176
     1
 40
0.6
176
     1
 40
30.0
176
     1
 62
     7
420
 16777215
176
     1
 90
        1
176
     1
 90
       10
176
     1
 62
     7
176
     1
 62
   257
176
     1
 90
        2
176
     1
 90
        1
176
     1
 40
1.0
176
     1
 90
        8
176
     1
 62
   257
176
     1
 40
1.0
176
     1
 90
        1
176
     1
 90
        6
176
     1
 90
        2
176
     1
 62
     7
176
     1
 90
        3
176
     1
 90
        0
176
     1
 90
        0
176
     1
290
     0
176
     1
 90
        5
176
     1
 40
0.0
176
     1
 90
        0
176
     1
290
     0
176
     1
290
     1
176
     1
290
     1
176
     1
290
     0
176
     1
290
     0
176
     1
290
     0
176
     1
290
     0
176
     1
290
     0
176
     1
290
     0
176
     1
 90
       50
176
     1
 40
0.0
176
     1
 40
1.0
176
     1
 90
        0
176
     1
 62
    18
420
        0
176
     1
 90
       50
176
     1
 90
        3
176
     1
 62
     5
420
      255
176
     1
290
     0
176
     1
 90
       50
176
     1
 90
       50
176
     1
 90
       50
176
     1
290
     0
176
     1
 90
       50
176
     1
 62
   256
176
     0
 40
1.0
176
     0
 90
        2
176
     1
  1
strokes_ogs.tif
176
     1
290
     0
176
     1
 40
1.0
176
     1
 40
1.0
176
     1
  0
VISUALSTYLE
  5
3E
102
{ACAD_REACTORS
330
2A
102
}
330
2A
100
AcDbVisualStyle
  2
Shades of Gray
 70
    23
177
     3
291
     0
 70
    58
 90
        2
176
     1
 90
        2
176
     1
 90
        3
176
     1
 90
        0
176
     1
 40
0.6
176
     1
 40
30.0
176
     1
 62
     7
420
 16777215
176
     1
 90
        2
176
     1
 90
        2
176
     1
 62
     7
176
     1
 62
     7
176
     1
 90
        1
176
     1
 90
        1
176
     1
 40
40.0
176
     1
 90
        8
176
     1
 62
     7
176
     1
 40
1.0
176
     1
 90
        1
176
     1
 90
        6
176
     1
 90
        2
176
     1
 62
     7
176
     1
 90
        3
176
     1
 90
        0
176
     1
 90
        0
176
     1
290
     0
176
     1
 90
        1
176
     1
 40
0.0
176
     1
 90
        0
176
     1
290
     0
176
     1
290
     1
176
     1
290
     1
176
     1
290
     0
176
     1
290
     0
176
     1
290
     0
176
     1
290
     0
176
     1
290
     0
176
     1
290
     0
176
     1
 90
       50
176
     1
 40
0.0
176
     1
 40
1.0
176
     1
 90
        0
176
     1
 62
    18
420
        0
176
     1
 90
       50
176
     1
 90
        3
176
     1
 62
     5
420
      255
176
     1
290
     0
176
     1
 90
       50
176
     1
 90
       50
176
     1
 90
       50
176
     1
290
     0
176
     1
 90
       50
176
     1
 62
   256
176
     0
 40
1.0
176
     0
 90
        2
176
     1
  1
strokes_ogs.tif
176
     1
290
     0
176
     1
 40
1.0
176
     1
 40
1.0
176
     1
  0
VISUALSTYLE
  5
3F
102
{ACAD_REACTORS
330
2A
102
}
330
2A
100
AcDbVisualStyle
  2
Sketchy
 70
    24
177
     3
291
     0
 70
    58
 90
        1
176
     1
 90
        2
176
     1
 90
        2
176
     1
 90
        0
176
     1
 40
0.6
176
     1
 40
30.0
176
     1
 62
     7
420
 16777215
176
     1
 90
        2
176
     1
 90
        2
176
     1
 62
     7
176
     1
 62
     7
176
     1
 90
        1
176
     1
 90
        1
176
     1
 40
40.0
176
     1
 90
       11
176
     1
 62
     7
176
     1
 40
1.0
176
     1
 90
        1
176
     1
 90
        6
176
     1
 90
        2
176
     1
 62
     7
176
     1
 90
        6
176
     1
 90
        0
176
     1
 90
        0
176
     1
290
     0
176
     1
 90
        1
176
     1
 40
0.0
176
     1
 90
        0
176
     1
290
     0
176
     1
290
     1
176
     1
290
     1
176
     1
290
     0
176
     1
290
     0
176
     1
290
     0
176
     1
290
     0
176
     1
290
     0
176
     1
290
     0
176
     1
 90
       50
176
     1
 40
0.0
176
     1
 40
1.0
176
     1
 90
        0
176
     1
 62
    18
420
        0
176
     1
 90
       50
176
     1
 90
        3
176
     1
 62
     5
420
      255
176
     1
290
     0
176
     1
 90
       50
176
     1
 90
       50
176
     1
 90
       50
176
     1
290
     0
176
     1
 90
       50
176
     1
 62
   256
176
     0
 40
1.0
176
     0
 90
        2
176
     1
  1
strokes_ogs.tif
176
     1
290
     0
176
     1
 40
1.0
176
     1
 40
1.0
176
     1
  0
VISUALSTYLE
  5
37
102
{ACAD_REACTORS
330
2A
102
}
330
2A
100
AcDbVisualStyle
  2
Thicken
 70
    13
177
     3
291
     1
 70
    58
 90
        2
176
     1
 90
        2
176
     1
 90
        0
176
     1
 90
        0
176
     1
 40
0.6
176
     1
 40
30.0
176
     1
 62
     7
420
 16777215
176
     1
 90
        1
176
     1
 90
        4
176
     1
 62
     7
176
     1
 62
   257
176
     1
 90
        1
176
     1
 90
        1
176
     1
 40
1.0
176
     1
 90
       12
176
     1
 62
     7
176
     1
 40
1.0
176
     1
 90
        1
176
     1
 90
        6
176
     1
 90
        2
176
     1
 62
     7
176
     1
 90
        5
176
     1
 90
        0
176
     1
 90
        0
176
     1
290
     0
176
     1
 90
        1
176
     1
 40
0.0
176
     1
 90
        0
176
     1
290
     0
176
     1
290
     1
176
     1
290
     1
176
     1
290
     0
176
     1
290
     0
176
     1
290
     0
176
     1
290
     0
176
     1
290
     0
176
     1
290
     0
176
     1
 90
       50
176
     1
 40
0.0
176
     1
 40
1.0
176
     1
 90
        0
176
     1
 62
    18
420
        0
176
     1
 90
       50
176
     1
 90
        3
176
     1
 62
     5
420
      255
176
     1
290
     0
176
     1
 90
       50
176
     1
 90
       50
176
     1
 90
       50
176
     1
290
     0
176
     1
 90
       50
176
     1
 62
   256
176
     0
 40
1.0
176
     0
 90
        2
176
     1
  1
strokes_ogs.tif
176
     1
290
     0
176
     1
 40
1.0
176
     1
 40
1.0
176
     1
  0
VISUALSTYLE
  5
30
102
{ACAD_REACTORS
330
2A
102
}
330
2A
100
AcDbVisualStyle
  2
Wireframe
 70
     5
177
     3
291
     0
 70
    58
 90
        0
176
     1
 90
        2
176
     1
 90
        0
176
     1
 90
        0
176
     1
 40
0.6
176
     1
 40
30.0
176
     1
 62
     7
420
 16777215
176
     1
 90
        1
176
     1
 90
        4
176
     1
 62
     7
176
     1
 62
   257
176
     1
 90
        1
176
     1
 90
        1
176
     1
 40
1.0
176
     1
 90
        0
176
     1
 62
   257
176
     1
 40
1.0
176
     1
 90
        1
176
     1
 90
        6
176
     1
 90
        2
176
     1
 62
     7
176
     1
 90
        3
176
     1
 90
        0
176
     1
 90
        0
176
     1
290
     0
176
     1
 90
        1
176
     1
 40
0.0
176
     1
 90
        0
176
     1
290
     0
176
     1
290
     1
176
     1
290
     1
176
     1
290
     0
176
     1
290
     0
176
     1
290
     0
176
     1
290
     0
176
     1
290
     0
176
     1
290
     0
176
     1
 90
       50
176
     1
 40
0.0
176
     1
 40
1.0
176
     1
 90
        0
176
     1
 62
    18
420
        0
176
     1
 90
       50
176
     1
 90
        3
176
     1
 62
     5
420
      255
176
     1
290
     0
176
     1
 90
       50
176
     1
 90
       50
176
     1
 90
       50
176
     1
290
     0
176
     1
 90
       50
176
     1
 62
   256
176
     0
 40
1.0
176
     0
 90
        2
176
     1
  1
strokes_ogs.tif
176
     1
290
     0
176
     1
 40
1.0
176
     1
 40
1.0
176
     1
  0
VISUALSTYLE
  5
40
102
{ACAD_REACTORS
330
2A
102
}
330
2A
100
AcDbVisualStyle
  2
X-Ray
 70
    25
177
     3
291
     0
 70
    58
 90
        2
176
     1
 90
        2
176
     1
 90
        1
176
     1
 90
        1
176
     1
 40
0.5
176
     1
 40
30.0
176
     1
 62
     7
420
 16777215
176
     1
 90
        1
176
     1
 90
        0
176
     1
 62
     7
176
     1
 62
   257
176
     1
 90
        1
176
     1
 90
        1
176
     1
 40
1.0
176
     1
 90
        8
176
     1
 62
     7
176
     1
 40
1.0
176
     1
 90
        1
176
     1
 90
        6
176
     1
 90
        2
176
     1
 62
     7
176
     1
 90
        3
176
     1
 90
        0
176
     1
 90
        0
176
     1
290
     0
176
     1
 90
       13
176
     1
 40
0.0
176
     1
 90
        0
176
     1
290
     0
176
     1
290
     1
176
     1
290
     1
176
     1
290
     0
176
     1
290
     0
176
     1
290
     0
176
     1
290
     0
176
     1
290
     0
176
     1
290
     0
176
     1
 90
       50
176
     1
 40
0.0
176
     1
 40
1.0
176
     1
 90
        0
176
     1
 62
    18
420
        0
176
     1
 90
       50
176
     1
 90
        3
176
     1
 62
     5
420
      255
176
     1
290
     0
176
     1
 90
       50
176
     1
 90
       50
176
     1
 90
       50
176
     1
290
     0
176
     1
 90
       50
176
     1
 62
   256
176
     0
 40
1.0
176
     0
 90
        2
176
     1
  1
strokes_ogs.tif
176
     1
290
     0
176
     1
 40
1.0
176
     1
 40
1.0
176
     1
  0
DICTIONARYVAR
  5
244
102
{ACAD_REACTORS
330
243
102
}
330
243
100
DictionaryVariables
280
     0
  1
1:1
  0
DICTIONARYVAR
  5
249
102
{ACAD_REACTORS
330
243
102
}
330
243
100
DictionaryVariables
280
     0
  1
Standard
  0
DICTIONARYVAR
  5
248
102
{ACAD_REACTORS
330
243
102
}
330
243
100
DictionaryVariables
280
     0
  1
Standard
  0
DICTIONARY
  5
245
330
6A
100
AcDbDictionary
280
     1
281
     1
  3
ACAD_ROUNDTRIP_2008_TABLESTYLE_CELLSTYLEMAP
360
246
  0
CELLSTYLEMAP
  5
246
102
{ACAD_REACTORS
330
245
102
}
330
245
100
AcDbCellStyleMap
 90
        3
300
CELLSTYLE
  1
TABLEFORMAT_BEGIN
 90
        5
170
     1
 91
        0
 92
    32768
 62
   257
 93
        1
300
CONTENTFORMAT
  1
CONTENTFORMAT_BEGIN
 90
        0
 91
        0
 92
        4
 93
        0
300

 40
0.0
140
1.0
 94
        5
 62
     0
340
11
144
0.25
309
CONTENTFORMAT_END
171
     1
301
MARGIN
  1
CELLMARGIN_BEGIN
 40
0.06
 40
0.06
 40
0.06
 40
0.06
 40
0.06
 40
0.06
309
CELLMARGIN_END
 94
        6
 95
        1
302
GRIDFORMAT
  1
GRIDFORMAT_BEGIN
 90
        0
 91
        1
 62
     0
 92
       -2
340
14
 93
        0
 40
0.045
309
GRIDFORMAT_END
 95
        2
302
GRIDFORMAT
  1
GRIDFORMAT_BEGIN
 90
        0
 91
        1
 62
     0
 92
       -2
340
14
 93
        0
 40
0.045
309
GRIDFORMAT_END
 95
        4
302
GRIDFORMAT
  1
GRIDFORMAT_BEGIN
 90
        0
 91
        1
 62
     0
 92
       -2
340
14
 93
        0
 40
0.045
309
GRIDFORMAT_END
 95
        8
302
GRIDFORMAT
  1
GRIDFORMAT_BEGIN
 90
        0
 91
        1
 62
     0
 92
       -2
340
14
 93
        0
 40
0.045
309
GRIDFORMAT_END
 95
       16
302
GRIDFORMAT
  1
GRIDFORMAT_BEGIN
 90
        0
 91
        1
 62
     0
 92
       -2
340
14
 93
        0
 40
0.045
309
GRIDFORMAT_END
 95
       32
302
GRIDFORMAT
  1
GRIDFORMAT_BEGIN
 90
        0
 91
        1
 62
     0
 92
       -2
340
14
 93
        0
 40
0.045
309
GRIDFORMAT_END
309
TABLEFORMAT_END
  1
CELLSTYLE_BEGIN
 90
        1
 91
        1
300
_TITLE
309
CELLSTYLE_END
300
CELLSTYLE
  1
TABLEFORMAT_BEGIN
 90
        5
170
     1
 91
        0
 92
        0
 62
   257
 93
        1
300
CONTENTFORMAT
  1
CONTENTFORMAT_BEGIN
 90
        0
 91
        0
 92
        4
 93
        0
300

 40
0.0
140
1.0
 94
        5
 62
     0
340
11
144
0.18
309
CONTENTFORMAT_END
171
     1
301
MARGIN
  1
CELLMARGIN_BEGIN
 40
0.06
 40
0.06
 40
0.06
 40
0.06
 40
0.06
 40
0.06
309
CELLMARGIN_END
 94
        6
 95
        1
302
GRIDFORMAT
  1
GRIDFORMAT_BEGIN
 90
        0
 91
        1
 62
     0
 92
       -2
340
14
 93
        0
 40
0.045
309
GRIDFORMAT_END
 95
        2
302
GRIDFORMAT
  1
GRIDFORMAT_BEGIN
 90
        0
 91
        1
 62
     0
 92
       -2
340
14
 93
        0
 40
0.045
309
GRIDFORMAT_END
 95
        4
302
GRIDFORMAT
  1
GRIDFORMAT_BEGIN
 90
        0
 91
        1
 62
     0
 92
       -2
340
14
 93
        0
 40
0.045
309
GRIDFORMAT_END
 95
        8
302
GRIDFORMAT
  1
GRIDFORMAT_BEGIN
 90
        0
 91
        1
 62
     0
 92
       -2
340
14
 93
        0
 40
0.045
309
GRIDFORMAT_END
 95
       16
302
GRIDFORMAT
  1
GRIDFORMAT_BEGIN
 90
        0
 91
        1
 62
     0
 92
       -2
340
14
 93
        0
 40
0.045
309
GRIDFORMAT_END
 95
       32
302
GRIDFORMAT
  1
GRIDFORMAT_BEGIN
 90
        0
 91
        1
 62
     0
 92
       -2
340
14
 93
        0
 40
0.045
309
GRIDFORMAT_END
309
TABLEFORMAT_END
  1
CELLSTYLE_BEGIN
 90
        2
 91
        1
300
_HEADER
309
CELLSTYLE_END
300
CELLSTYLE
  1
TABLEFORMAT_BEGIN
 90
        5
170
     1
 91
        0
 92
        0
 62
   257
 93
        1
300
CONTENTFORMAT
  1
CONTENTFORMAT_BEGIN
 90
        0
 91
        0
 92
        4
 93
        0
300

 40
0.0
140
1.0
 94
        2
 62
     0
340
11
144
0.18
309
CONTENTFORMAT_END
171
     1
301
MARGIN
  1
CELLMARGIN_BEGIN
 40
0.06
 40
0.06
 40
0.06
 40
0.06
 40
0.06
 40
0.06
309
CELLMARGIN_END
 94
        6
 95
        1
302
GRIDFORMAT
  1
GRIDFORMAT_BEGIN
 90
        0
 91
        1
 62
     0
 92
       -2
340
14
 93
        0
 40
0.045
309
GRIDFORMAT_END
 95
        2
302
GRIDFORMAT
  1
GRIDFORMAT_BEGIN
 90
        0
 91
        1
 62
     0
 92
       -2
340
14
 93
        0
 40
0.045
309
GRIDFORMAT_END
 95
        4
302
GRIDFORMAT
  1
GRIDFORMAT_BEGIN
 90
        0
 91
        1
 62
     0
 92
       -2
340
14
 93
        0
 40
0.045
309
GRIDFORMAT_END
 95
        8
302
GRIDFORMAT
  1
GRIDFORMAT_BEGIN
 90
        0
 91
        1
 62
     0
 92
       -2
340
14
 93
        0
 40
0.045
309
GRIDFORMAT_END
 95
       16
302
GRIDFORMAT
  1
GRIDFORMAT_BEGIN
 90
        0
 91
        1
 62
     0
 92
       -2
340
14
 93
        0
 40
0.045
309
GRIDFORMAT_END
 95
       32
302
GRIDFORMAT
  1
GRIDFORMAT_BEGIN
 90
        0
 91
        1
 62
     0
 92
       -2
340
14
 93
        0
 40
0.045
309
GRIDFORMAT_END
309
TABLEFORMAT_END
  1
CELLSTYLE_BEGIN
 90
        3
 91
        2
300
_DATA
309
CELLSTYLE_END
  0
ENDSEC
  0
EOF