0
SECTION
  2
HEADER
  9
$ACADVER
  1
AC1027
  9
$ACADMAINTVER
 70
     8
  9
$DWGCODEPAGE
  3
ANSI_1252
  9
$REQUIREDVERSIONS
160
                 0
  9
$COMMENTS
  1
File was created by Cadenas
  9
$CUSTOMPROPERTYTAG
  1
NN
  9
$CUSTOMPROPERTY
  1
TP Take-Up Trident Seal
  9
$CUSTOMPROPERTYTAG
  1
NT
  9
$CUSTOMPROPERTY
  1
S-2000 TPHU Take-Up Bearing -Inch
  9
$CUSTOMPROPERTYTAG
  1
NB
  9
$CUSTOMPROPERTY
  1
070819
  9
$CUSTOMPROPERTYTAG
  1
NBSYN
  9
$CUSTOMPROPERTY
  1
$PN.
  9
$CUSTOMPROPERTYTAG
  1
LINA
  9
$CUSTOMPROPERTY
  1
070819
  9
$CUSTOMPROPERTYTAG
  1
SS
  9
$CUSTOMPROPERTY
  1
3
  9
$CUSTOMPROPERTYTAG
  1
PN
  9
$CUSTOMPROPERTY
  1
070819
  9
$CUSTOMPROPERTYTAG
  1
DESCRIPTION
  9
$CUSTOMPROPERTY
  1
TPHU-S2-300R
  9
$CUSTOMPROPERTYTAG
  1
EF
  9
$CUSTOMPROPERTY
  1
Non-Expansion Type
  9
$CUSTOMPROPERTYTAG
  1
ST
  9
$CUSTOMPROPERTY
  1
Contact Seal
  9
$CUSTOMPROPERTYTAG
  1
A
  9
$CUSTOMPROPERTY
  1
3-19/32
  9
$CUSTOMPROPERTYTAG
  1
B
  9
$CUSTOMPROPERTY
  1
2-3/4
  9
$CUSTOMPROPERTYTAG
  1
C
  9
$CUSTOMPROPERTY
  1
13/16
  9
$CUSTOMPROPERTYTAG
  1
D
  9
$CUSTOMPROPERTY
  1
7-1/8
  9
$CUSTOMPROPERTYTAG
  1
E
  9
$CUSTOMPROPERTY
  1
3-5/16
  9
$CUSTOMPROPERTYTAG
  1
F
  9
$CUSTOMPROPERTY
  1
1-7/16
  9
$CUSTOMPROPERTYTAG
  1
G
  9
$CUSTOMPROPERTY
  1
9/16
  9
$CUSTOMPROPERTYTAG
  1
H
  9
$CUSTOMPROPERTY
  1
8-1/2
  9
$CUSTOMPROPERTYTAG
  1
J
  9
$CUSTOMPROPERTY
  1
8-1/2
  9
$CUSTOMPROPERTYTAG
  1
K
  9
$CUSTOMPROPERTY
  1
4
  9
$CUSTOMPROPERTYTAG
  1
L
  9
$CUSTOMPROPERTY
  1
4-45/64
  9
$CUSTOMPROPERTYTAG
  1
M
  9
$CUSTOMPROPERTY
  1
8
  9
$CUSTOMPROPERTYTAG
  1
N
  9
$CUSTOMPROPERTY
  1
1-15/16
  9
$CUSTOMPROPERTYTAG
  1
P
  9
$CUSTOMPROPERTY
  1
1-3/4
  9
$CUSTOMPROPERTYTAG
  1
Q
  9
$CUSTOMPROPERTY
  1
1-1/16
  9
$CUSTOMPROPERTYTAG
  1
R
  9
$CUSTOMPROPERTY
  1
3-53/64
  9
$CUSTOMPROPERTYTAG
  1
S
  9
$CUSTOMPROPERTY
  1
2-29/64
  9
$CUSTOMPROPERTYTAG
  1
T
  9
$CUSTOMPROPERTY
  1
5/16
  9
$CUSTOMPROPERTYTAG
  1
U
  9
$CUSTOMPROPERTY
  1
1-1/2
  9
$CUSTOMPROPERTYTAG
  1
V
  9
$CUSTOMPROPERTY
  1
2-3/4
  9
$CUSTOMPROPERTYTAG
  1
W
  9
$CUSTOMPROPERTY
  1
1
  9
$CUSTOMPROPERTYTAG
  1
X
  9
$CUSTOMPROPERTY
  1
1/4
  9
$CUSTOMPROPERTYTAG
  1
Y
  9
$CUSTOMPROPERTY
  1
0.025
  9
$CUSTOMPROPERTYTAG
  1
Z
  9
$CUSTOMPROPERTY
  1
3-15/32
  9
$CUSTOMPROPERTYTAG
  1
COMPANY
  9
$CUSTOMPROPERTY
  1
baldor
  9
$INSBASE
 10
0.0
 20
0.0
 30
0.0
  9
$EXTMIN
 10
1.000000000000000E+20
 20
1.000000000000000E+20
 30
1.000000000000000E+20
  9
$EXTMAX
 10
-1.000000000000000E+20
 20
-1.000000000000000E+20
 30
-1.000000000000000E+20
  9
$LIMMIN
 10
0.0
 20
0.0
  9
$LIMMAX
 10
12.0
 20
9.0
  9
$ORTHOMODE
 70
     0
  9
$REGENMODE
 70
     1
  9
$FILLMODE
 70
     1
  9
$QTEXTMODE
 70
     0
  9
$MIRRTEXT
 70
     1
  9
$LTSCALE
 40
1.0
  9
$ATTMODE
 70
     1
  9
$TEXTSIZE
 40
0.2
  9
$TRACEWID
 40
0.05
  9
$TEXTSTYLE
  7
Standard
  9
$CLAYER
  8
0
  9
$CELTYPE
  6
ByLayer
  9
$CECOLOR
 62
   256
  9
$CELTSCALE
 40
1.0
  9
$DISPSILH
 70
     0
  9
$DIMSCALE
 40
1.0
  9
$DIMASZ
 40
0.18
  9
$DIMEXO
 40
0.0625
  9
$DIMDLI
 40
0.38
  9
$DIMRND
 40
0.0
  9
$DIMDLE
 40
0.0
  9
$DIMEXE
 40
0.18
  9
$DIMTP
 40
0.0
  9
$DIMTM
 40
0.0
  9
$DIMTXT
 40
0.18
  9
$DIMCEN
 40
0.09
  9
$DIMTSZ
 40
0.0
  9
$DIMTOL
 70
     0
  9
$DIMLIM
 70
     0
  9
$DIMTIH
 70
     1
  9
$DIMTOH
 70
     1
  9
$DIMSE1
 70
     0
  9
$DIMSE2
 70
     0
  9
$DIMTAD
 70
     0
  9
$DIMZIN
 70
     0
  9
$DIMBLK
  1

  9
$DIMASO
 70
     1
  9
$DIMSHO
 70
     1
  9
$DIMPOST
  1

  9
$DIMAPOST
  1

  9
$DIMALT
 70
     0
  9
$DIMALTD
 70
     2
  9
$DIMALTF
 40
25.4
  9
$DIMLFAC
 40
1.0
  9
$DIMTOFL
 70
     0
  9
$DIMTVP
 40
0.0
  9
$DIMTIX
 70
     0
  9
$DIMSOXD
 70
     0
  9
$DIMSAH
 70
     0
  9
$DIMBLK1
  1

  9
$DIMBLK2
  1

  9
$DIMSTYLE
  2
Standard
  9
$DIMCLRD
 70
     0
  9
$DIMCLRE
 70
     0
  9
$DIMCLRT
 70
     0
  9
$DIMTFAC
 40
1.0
  9
$DIMGAP
 40
0.09
  9
$DIMJUST
 70
     0
  9
$DIMSD1
 70
     0
  9
$DIMSD2
 70
     0
  9
$DIMTOLJ
 70
     1
  9
$DIMTZIN
 70
     0
  9
$DIMALTZ
 70
     0
  9
$DIMALTTZ
 70
     0
  9
$DIMUPT
 70
     0
  9
$DIMDEC
 70
     4
  9
$DIMTDEC
 70
     4
  9
$DIMALTU
 70
     2
  9
$DIMALTTD
 70
     2
  9
$DIMTXSTY
  7
Standard
  9
$DIMAUNIT
 70
     0
  9
$DIMADEC
 70
     0
  9
$DIMALTRND
 40
0.0
  9
$DIMAZIN
 70
     0
  9
$DIMDSEP
 70
    46
  9
$DIMATFIT
 70
     3
  9
$DIMFRAC
 70
     0
  9
$DIMLDRBLK
  1

  9
$DIMLUNIT
 70
     2
  9
$DIMLWD
 70
    -2
  9
$DIMLWE
 70
    -2
  9
$DIMTMOVE
 70
     0
  9
$DIMFXL
 40
1.0
  9
$DIMFXLON
 70
     0
  9
$DIMJOGANG
 40
0.7853981633974483
  9
$DIMTFILL
 70
     0
  9
$DIMTFILLCLR
 70
     0
  9
$DIMARCSYM
 70
     0
  9
$DIMLTYPE
  6

  9
$DIMLTEX1
  6

  9
$DIMLTEX2
  6

  9
$DIMTXTDIRECTION
 70
     0
  9
$LUNITS
 70
     2
  9
$LUPREC
 70
     4
  9
$SKETCHINC
 40
0.1
  9
$FILLETRAD
 40
0.5
  9
$AUNITS
 70
     0
  9
$AUPREC
 70
     0
  9
$MENU
  1
.
  9
$ELEVATION
 40
0.0
  9
$PELEVATION
 40
0.0
  9
$THICKNESS
 40
0.0
  9
$LIMCHECK
 70
     0
  9
$CHAMFERA
 40
0.0
  9
$CHAMFERB
 40
0.0
  9
$CHAMFERC
 40
0.0
  9
$CHAMFERD
 40
0.0
  9
$SKPOLY
 70
     0
  9
$TDCREATE
 40
2458168.961179364
  9
$TDUCREATE
 40
2458168.919512697
  9
$TDUPDATE
 40
2458168.961179548
  9
$TDUUPDATE
 40
2458168.919512882
  9
$TDINDWG
 40
0.0000000116
  9
$TDUSRTIMER
 40
0.0000000116
  9
$USRTIMER
 70
     1
  9
$ANGBASE
 50
0.0
  9
$ANGDIR
 70
     0
  9
$PDMODE
 70
     0
  9
$PDSIZE
 40
0.0
  9
$PLINEWID
 40
0.0
  9
$SPLFRAME
 70
     0
  9
$SPLINETYPE
 70
     6
  9
$SPLINESEGS
 70
     8
  9
$HANDSEED
  5
206
  9
$SURFTAB1
 70
     6
  9
$SURFTAB2
 70
     6
  9
$SURFTYPE
 70
     6
  9
$SURFU
 70
     6
  9
$SURFV
 70
     6
  9
$UCSBASE
  2

  9
$UCSNAME
  2

  9
$UCSORG
 10
0.0
 20
0.0
 30
0.0
  9
$UCSXDIR
 10
1.0
 20
0.0
 30
0.0
  9
$UCSYDIR
 10
0.0
 20
1.0
 30
0.0
  9
$UCSORTHOREF
  2

  9
$UCSORTHOVIEW
 70
     0
  9
$UCSORGTOP
 10
0.0
 20
0.0
 30
0.0
  9
$UCSORGBOTTOM
 10
0.0
 20
0.0
 30
0.0
  9
$UCSORGLEFT
 10
0.0
 20
0.0
 30
0.0
  9
$UCSORGRIGHT
 10
0.0
 20
0.0
 30
0.0
  9
$UCSORGFRONT
 10
0.0
 20
0.0
 30
0.0
  9
$UCSORGBACK
 10
0.0
 20
0.0
 30
0.0
  9
$PUCSBASE
  2

  9
$PUCSNAME
  2

  9
$PUCSORG
 10
0.0
 20
0.0
 30
0.0
  9
$PUCSXDIR
 10
1.0
 20
0.0
 30
0.0
  9
$PUCSYDIR
 10
0.0
 20
1.0
 30
0.0
  9
$PUCSORTHOREF
  2

  9
$PUCSORTHOVIEW
 70
     0
  9
$PUCSORGTOP
 10
0.0
 20
0.0
 30
0.0
  9
$PUCSORGBOTTOM
 10
0.0
 20
0.0
 30
0.0
  9
$PUCSORGLEFT
 10
0.0
 20
0.0
 30
0.0
  9
$PUCSORGRIGHT
 10
0.0
 20
0.0
 30
0.0
  9
$PUCSORGFRONT
 10
0.0
 20
0.0
 30
0.0
  9
$PUCSORGBACK
 10
0.0
 20
0.0
 30
0.0
  9
$USERI1
 70
     0
  9
$USERI2
 70
     0
  9
$USERI3
 70
     0
  9
$USERI4
 70
     0
  9
$USERI5
 70
     0
  9
$USERR1
 40
0.0
  9
$USERR2
 40
0.0
  9
$USERR3
 40
0.0
  9
$USERR4
 40
0.0
  9
$USERR5
 40
0.0
  9
$WORLDVIEW
 70
     1
  9
$SHADEDGE
 70
     3
  9
$SHADEDIF
 70
    70
  9
$TILEMODE
 70
     1
  9
$MAXACTVP
 70
    64
  9
$PINSBASE
 10
0.0
 20
0.0
 30
0.0
  9
$PLIMCHECK
 70
     0
  9
$PEXTMIN
 10
1.000000000000000E+20
 20
1.000000000000000E+20
 30
1.000000000000000E+20
  9
$PEXTMAX
 10
-1.000000000000000E+20
 20
-1.000000000000000E+20
 30
-1.000000000000000E+20
  9
$PLIMMIN
 10
0.0
 20
0.0
  9
$PLIMMAX
 10
12.0
 20
9.0
  9
$UNITMODE
 70
     0
  9
$VISRETAIN
 70
     1
  9
$PLINEGEN
 70
     0
  9
$PSLTSCALE
 70
     1
  9
$TREEDEPTH
 70
  3020
  9
$CMLSTYLE
  2
Standard
  9
$CMLJUST
 70
     0
  9
$CMLSCALE
 40
1.0
  9
$PROXYGRAPHICS
 70
     1
  9
$MEASUREMENT
 70
     0
  9
$CELWEIGHT
370
    -1
  9
$ENDCAPS
280
     0
  9
$JOINSTYLE
280
     0
  9
$LWDISPLAY
290
     0
  9
$INSUNITS
 70
     1
  9
$HYPERLINKBASE
  1

  9
$STYLESHEET
  1

  9
$XEDIT
290
     1
  9
$CEPSNTYPE
380
     0
  9
$PSTYLEMODE
290
     1
  9
$FINGERPRINTGUID
  2
{11488834-5528-4E78-A032-E387DAC807EE}
  9
$VERSIONGUID
  2
{FAEB1C32-E019-11D5-929B-00C0DF256EC4}
  9
$EXTNAMES
290
     1
  9
$PSVPSCALE
 40
0.0
  9
$OLESTARTUP
290
     0
  9
$SORTENTS
280
   127
  9
$INDEXCTL
280
     0
  9
$HIDETEXT
280
     1
  9
$XCLIPFRAME
280
     2
  9
$HALOGAP
280
     0
  9
$OBSCOLOR
 70
   257
  9
$OBSLTYPE
280
     0
  9
$INTERSECTIONDISPLAY
280
     0
  9
$INTERSECTIONCOLOR
 70
   257
  9
$DIMASSOC
280
     2
  9
$PROJECTNAME
  1

  9
$CAMERADISPLAY
290
     0
  9
$LENSLENGTH
 40
50.0
  9
$CAMERAHEIGHT
 40
0.0
  9
$STEPSPERSEC
 40
2.0
  9
$STEPSIZE
 40
6.0
  9
$3DDWFPREC
 40
2.0
  9
$PSOLWIDTH
 40
0.25
  9
$PSOLHEIGHT
 40
4.0
  9
$LOFTANG1
 40
1.570796326794897
  9
$LOFTANG2
 40
1.570796326794897
  9
$LOFTMAG1
 40
0.0
  9
$LOFTMAG2
 40
0.0
  9
$LOFTPARAM
 70
     7
  9
$LOFTNORMALS
280
     1
  9
$LATITUDE
 40
37.795
  9
$LONGITUDE
 40
-122.394
  9
$NORTHDIRECTION
 40
0.0
  9
$TIMEZONE
 70
 -8000
  9
$LIGHTGLYPHDISPLAY
280
     1
  9
$TILEMODELIGHTSYNCH
280
     1
  9
$CMATERIAL
347
44
  9
$SOLIDHIST
280
     0
  9
$SHOWHIST
280
     1
  9
$DWFFRAME
280
     2
  9
$DGNFRAME
280
     2
  9
$REALWORLDSCALE
290
     1
  9
$INTERFERECOLOR
 62
   256
  9
$CSHADOW
280
     0
  9
$SHADOWPLANELOCATION
 40
0.0
  0
ENDSEC
  0
SECTION
  2
CLASSES
  0
CLASS
  1
ACDBDICTIONARYWDFLT
  2
AcDbDictionaryWithDefault
  3
ObjectDBX Classes
 90
        0
 91
        4
280
     0
281
     0
  0
CLASS
  1
VISUALSTYLE
  2
AcDbVisualStyle
  3
ObjectDBX Classes
 90
     4095
 91
        4
280
     0
281
     0
  0
CLASS
  1
MATERIAL
  2
AcDbMaterial
  3
ObjectDBX Classes
 90
     1153
 91
        4
280
     0
281
     0
  0
CLASS
  1
SCALE
  2
AcDbScale
  3
ObjectDBX Classes
 90
     1153
 91
        4
280
     0
281
     0
  0
CLASS
  1
TABLESTYLE
  2
AcDbTableStyle
  3
ObjectDBX Classes
 90
     4095
 91
        4
280
     0
281
     0
  0
CLASS
  1
MLEADERSTYLE
  2
AcDbMLeaderStyle
  3
ACDB_MLEADERSTYLE_CLASS
 90
     4095
 91
        4
280
     0
281
     0
  0
CLASS
  1
SUN
  2
AcDbSun
  3
SCENEOE
 90
     1153
 91
        4
280
     0
281
     0
  0
CLASS
  1
DICTIONARYVAR
  2
AcDbDictionaryVar
  3
ObjectDBX Classes
 90
        0
 91
        4
280
     0
281
     0
  0
CLASS
  1
CELLSTYLEMAP
  2
AcDbCellStyleMap
  3
ObjectDBX Classes
 90
     1152
 91
        4
280
     0
281
     0
  0
ENDSEC
  0
SECTION
  2
TABLES
  0
TABLE
  2
VPORT
  5
8
330
0
100
AcDbSymbolTable
 70
     1
  0
VPORT
  5
29
330
8
100
AcDbSymbolTableRecord
100
AcDbViewportTableRecord
  2
*Active
 70
     0
 10
0.0
 20
0.0
 11
1.0
 21
1.0
 12
0.0
 22
0.25
 13
0.0
 23
0.0
 14
0.5
 24
0.5
 15
0.5
 25
0.5
 16
0.0
 26
0.0
 36
1.0
 17
0.0
 27
0.0
 37
0.0
 40
8.67
 41
1.0
 42
50.0
 43
0.0
 44
0.0
 50
0.0
 51
0.0
 71
     0
 72
   100
 73
     1
 74
     3
 75
     0
 76
     0
 77
     0
 78
     0
281
     0
 65
     1
110
0.0
120
0.0
130
0.0
111
1.0
121
0.0
131
0.0
112
0.0
122
1.0
132
0.0
 79
     0
146
0.0
348
2F
 60
     3
 61
     5
292
     1
282
     1
141
0.0
142
0.0
 63
   250
361
6D
  0
ENDTAB
  0
TABLE
  2
LTYPE
  5
5
330
0
100
AcDbSymbolTable
 70
     3
  0
LTYPE
  5
14
330
5
100
AcDbSymbolTableRecord
100
AcDbLinetypeTableRecord
  2
ByBlock
 70
     0
  3

 72
    65
 73
     0
 40
0.0
  0
LTYPE
  5
15
330
5
100
AcDbSymbolTableRecord
100
AcDbLinetypeTableRecord
  2
ByLayer
 70
     0
  3

 72
    65
 73
     0
 40
0.0
  0
LTYPE
  5
16
330
5
100
AcDbSymbolTableRecord
100
AcDbLinetypeTableRecord
  2
Continuous
 70
     0
  3
Solid line
 72
    65
 73
     0
 40
0.0
  0
LTYPE
  5
A7
330
5
100
AcDbSymbolTableRecord
100
AcDbLinetypeTableRecord
  2
Dashed
 70
     0
  3

 72
    65
 73
     2
 40
2.0
 49
1.0
 74
     0
 49
-1.0
 74
     0
  0
LTYPE
  5
D1
330
5
100
AcDbSymbolTableRecord
100
AcDbLinetypeTableRecord
  2
Center
 70
     0
  3

 72
    65
 73
     4
 40
1.5
 49
0.45
 74
     0
 49
-0.5
 74
     0
 49
0.05
 74
     0
 49
-0.5
 74
     0
  0
ENDTAB
  0
TABLE
  2
LAYER
  5
2
330
0
100
AcDbSymbolTable
 70
     7
  0
LAYER
  5
10
330
2
100
AcDbSymbolTableRecord
100
AcDbLayerTableRecord
  2
0
 70
     0
 62
     7
  6
Continuous
370
    -3
390
F
347
46
348
0
  0
LAYER
  5
72
330
2
100
AcDbSymbolTableRecord
100
AcDbLayerTableRecord
  2
AM_6
 70
     0
 62
    -2
  6
Continuous
370
    35
390
F
347
46
348
0
  0
LAYER
  5
A8
330
2
100
AcDbSymbolTableRecord
100
AcDbLayerTableRecord
  2
AM_9
 70
     0
 62
     6
  6
Dashed
370
    25
390
F
347
46
348
0
  0
LAYER
  5
CA
330
2
100
AcDbSymbolTableRecord
100
AcDbLayerTableRecord
  2
AM_5
 70
     0
 62
     3
  6
Continuous
370
    25
390
F
347
46
348
0
  0
LAYER
  5
D2
330
2
100
AcDbSymbolTableRecord
100
AcDbLayerTableRecord
  2
AM_7
 70
     0
 62
     7
  6
Center
370
    25
390
F
347
46
348
0
  0
LAYER
  5
D4
330
2
100
AcDbSymbolTableRecord
100
AcDbLayerTableRecord
  2
AM_4
 70
     0
 62
     7
  6
Continuous
370
    50
390
F
347
46
348
0
  0
LAYER
  5
1F5
330
2
100
AcDbSymbolTableRecord
100
AcDbLayerTableRecord
  2
ConnectionPoints
 70
     0
 62
     7
  6
Continuous
370
    50
390
F
347
46
348
0
  0
ENDTAB
  0
TABLE
  2
STYLE
  5
3
330
0
100
AcDbSymbolTable
 70
     1
  0
STYLE
  5
11
330
3
100
AcDbSymbolTableRecord
100
AcDbTextStyleTableRecord
  2
Standard
 70
     0
 40
0.0
 41
1.0
 50
0.0
 71
     0
 42
0.2
  3
txt
  4

  0
ENDTAB
  0
TABLE
  2
VIEW
  5
6
330
0
100
AcDbSymbolTable
 70
     0
  0
ENDTAB
  0
TABLE
  2
UCS
  5
7
330
0
100
AcDbSymbolTable
 70
     0
  0
ENDTAB
  0
TABLE
  2
APPID
  5
9
330
0
100
AcDbSymbolTable
 70
     1
  0
APPID
  5
12
330
9
100
AcDbSymbolTableRecord
100
AcDbRegAppTableRecord
  2
ACAD
 70
     0
  0
ENDTAB
  0
TABLE
  2
DIMSTYLE
  5
A
330
0
100
AcDbSymbolTable
 70
     1
100
AcDbDimStyleTable
  0
DIMSTYLE
105
27
330
A
100
AcDbSymbolTableRecord
100
AcDbDimStyleTableRecord
  2
Standard
 70
     0
178
     0
340
11
  0
ENDTAB
  0
TABLE
  2
BLOCK_RECORD
  5
1
330
0
100
AcDbSymbolTable
 70
     6
  0
BLOCK_RECORD
  5
1F
330
1
100
AcDbSymbolTableRecord
100
AcDbBlockTableRecord
  2
*Model_Space
340
22
 70
     0
280
     1
281
     0
  0
BLOCK_RECORD
  5
1B
330
1
100
AcDbSymbolTableRecord
100
AcDbBlockTableRecord
  2
*Paper_Space
340
1E
 70
     0
280
     1
281
     0
  0
BLOCK_RECORD
  5
23
330
1
100
AcDbSymbolTableRecord
100
AcDbBlockTableRecord
  2
*Paper_Space0
340
26
 70
     0
280
     1
281
     0
  0
BLOCK_RECORD
  5
6E
330
1
100
AcDbSymbolTableRecord
100
AcDbBlockTableRecord
  2
1_070819_0
340
0
102
{BLKREFS
331
6F
102
}
 70
     0
280
     1
281
     0
  0
BLOCK_RECORD
  5
96
330
1
100
AcDbSymbolTableRecord
100
AcDbBlockTableRecord
  2
2_405016_Inch_0_in_070819_0
340
0
102
{BLKREFS
331
97
102
}
 70
     0
280
     1
281
     0
  0
BLOCK_RECORD
  5
116
330
1
100
AcDbSymbolTableRecord
100
AcDbBlockTableRecord
  2
3_3CS2i_0_in_070819_0
340
0
102
{BLKREFS
331
117
102
}
 70
     0
280
     1
281
     0
  0
BLOCK_RECORD
  5
148
330
1
100
AcDbSymbolTableRecord
100
AcDbBlockTableRecord
  2
4_070011i_0_in_070819_0
340
0
102
{BLKREFS
331
149
102
}
 70
     0
280
     1
281
     0
  0
BLOCK_RECORD
  5
16B
330
1
100
AcDbSymbolTableRecord
100
AcDbBlockTableRecord
  2
5_070819H_0_in_070819_0
340
0
102
{BLKREFS
331
16C
102
}
 70
     0
280
     1
281
     0
  0
ENDTAB
  0
ENDSEC
  0
SECTION
  2
BLOCKS
  0
BLOCK
  5
20
330
1F
100
AcDbEntity
  8
0
100
AcDbBlockBegin
  2
*Model_Space
 70
     0
 10
0.0
 20
0.0
 30
0.0
  3
*Model_Space
  1

  0
ENDBLK
  5
21
330
1F
100
AcDbEntity
  8
0
100
AcDbBlockEnd
  0
BLOCK
  5
1C
330
1B
100
AcDbEntity
 67
     1
  8
0
100
AcDbBlockBegin
  2
*Paper_Space
 70
     0
 10
0.0
 20
0.0
 30
0.0
  3
*Paper_Space
  1

  0
ENDBLK
  5
1D
330
1B
100
AcDbEntity
 67
     1
  8
0
100
AcDbBlockEnd
  0
BLOCK
  5
24
330
23
100
AcDbEntity
  8
0
100
AcDbBlockBegin
  2
*Paper_Space0
 70
     0
 10
0.0
 20
0.0
 30
0.0
  3
*Paper_Space0
  1

  0
ENDBLK
  5
25
330
23
100
AcDbEntity
  8
0
100
AcDbBlockEnd
  0
BLOCK
  5
70
330
6E
100
AcDbEntity
  8
0
100
AcDbBlockBegin
  2
1_070819_0
 70
     2
 10
0.0
 20
0.0
 30
0.0
  3
1_070819_0
  1

  0
ATTDEF
  5
73
330
6E
100
AcDbEntity
  8
AM_6
100
AcDbText
 10
9.25
 20
4.5
 30
0.0
 40
0.5
  1
TP Take-Up Trident Seal
100
AcDbAttributeDefinition
  3

  2
NN
 70
     8
280
     0
  0
ATTDEF
  5
74
330
6E
100
AcDbEntity
  8
AM_6
100
AcDbText
 10
9.25
 20
4.0
 30
0.0
 40
0.5
  1
S-2000 TPHU Take-Up Bearing -Inch
100
AcDbAttributeDefinition
  3

  2
NT
 70
     8
280
     0
  0
ATTDEF
  5
75
330
6E
100
AcDbEntity
  8
AM_6
100
AcDbText
 10
9.25
 20
3.5
 30
0.0
 40
0.5
  1
070819
100
AcDbAttributeDefinition
  3

  2
NB
 70
     8
280
     0
  0
ATTDEF
  5
76
330
6E
100
AcDbEntity
  8
AM_6
100
AcDbText
 10
9.25
 20
3.0
 30
0.0
 40
0.5
  1
$PN.
100
AcDbAttributeDefinition
  3

  2
NBSYN
 70
     8
280
     0
  0
ATTDEF
  5
77
330
6E
100
AcDbEntity
  8
AM_6
100
AcDbText
 10
9.25
 20
2.5
 30
0.0
 40
0.5
  1
070819
100
AcDbAttributeDefinition
  3

  2
LINA
 70
     8
280
     0
  0
ATTDEF
  5
78
330
6E
100
AcDbEntity
  8
AM_6
100
AcDbText
 10
9.25
 20
2.0
 30
0.0
 40
0.5
  1
3
100
AcDbAttributeDefinition
  3

  2
SS
 70
     8
280
     0
  0
ATTDEF
  5
79
330
6E
100
AcDbEntity
  8
AM_6
100
AcDbText
 10
9.25
 20
1.5
 30
0.0
 40
0.5
  1
070819
100
AcDbAttributeDefinition
  3

  2
PN
 70
     8
280
     0
  0
ATTDEF
  5
7A
330
6E
100
AcDbEntity
  8
AM_6
100
AcDbText
 10
9.25
 20
1.0
 30
0.0
 40
0.5
  1
TPHU-S2-300R
100
AcDbAttributeDefinition
  3

  2
DESCRIPTION
 70
     8
280
     0
  0
ATTDEF
  5
7B
330
6E
100
AcDbEntity
  8
AM_6
100
AcDbText
 10
9.25
 20
0.5
 30
0.0
 40
0.5
  1
Non-Expansion Type
100
AcDbAttributeDefinition
  3

  2
EF
 70
     8
280
     0
  0
ATTDEF
  5
7C
330
6E
100
AcDbEntity
  8
AM_6
100
AcDbText
 10
9.25
 20
0.0
 30
0.0
 40
0.5
  1
Contact Seal
100
AcDbAttributeDefinition
  3

  2
ST
 70
     8
280
     0
  0
ATTDEF
  5
7D
330
6E
100
AcDbEntity
  8
AM_6
100
AcDbText
 10
9.25
 20
-0.5
 30
0.0
 40
0.5
  1
3-19/32
100
AcDbAttributeDefinition
  3

  2
A
 70
     8
280
     0
  0
ATTDEF
  5
7E
330
6E
100
AcDbEntity
  8
AM_6
100
AcDbText
 10
9.25
 20
-1.0
 30
0.0
 40
0.5
  1
2-3/4
100
AcDbAttributeDefinition
  3

  2
B
 70
     8
280
     0
  0
ATTDEF
  5
7F
330
6E
100
AcDbEntity
  8
AM_6
100
AcDbText
 10
9.25
 20
-1.5
 30
0.0
 40
0.5
  1
13/16
100
AcDbAttributeDefinition
  3

  2
C
 70
     8
280
     0
  0
ATTDEF
  5
80
330
6E
100
AcDbEntity
  8
AM_6
100
AcDbText
 10
9.25
 20
-2.0
 30
0.0
 40
0.5
  1
7-1/8
100
AcDbAttributeDefinition
  3

  2
D
 70
     8
280
     0
  0
ATTDEF
  5
81
330
6E
100
AcDbEntity
  8
AM_6
100
AcDbText
 10
9.25
 20
-2.5
 30
0.0
 40
0.5
  1
3-5/16
100
AcDbAttributeDefinition
  3

  2
E
 70
     8
280
     0
  0
ATTDEF
  5
82
330
6E
100
AcDbEntity
  8
AM_6
100
AcDbText
 10
9.25
 20
-3.0
 30
0.0
 40
0.5
  1
1-7/16
100
AcDbAttributeDefinition
  3

  2
F
 70
     8
280
     0
  0
ATTDEF
  5
83
330
6E
100
AcDbEntity
  8
AM_6
100
AcDbText
 10
9.25
 20
-3.5
 30
0.0
 40
0.5
  1
9/16
100
AcDbAttributeDefinition
  3

  2
G
 70
     8
280
     0
  0
ATTDEF
  5
84
330
6E
100
AcDbEntity
  8
AM_6
100
AcDbText
 10
9.25
 20
-4.0
 30
0.0
 40
0.5
  1
8-1/2
100
AcDbAttributeDefinition
  3

  2
H
 70
     8
280
     0
  0
ATTDEF
  5
85
330
6E
100
AcDbEntity
  8
AM_6
100
AcDbText
 10
9.25
 20
-4.5
 30
0.0
 40
0.5
  1
8-1/2
100
AcDbAttributeDefinition
  3

  2
J
 70
     8
280
     0
  0
ATTDEF
  5
86
330
6E
100
AcDbEntity
  8
AM_6
100
AcDbText
 10
9.25
 20
-5.0
 30
0.0
 40
0.5
  1
4
100
AcDbAttributeDefinition
  3

  2
K
 70
     8
280
     0
  0
ATTDEF
  5
87
330
6E
100
AcDbEntity
  8
AM_6
100
AcDbText
 10
9.25
 20
-5.5
 30
0.0
 40
0.5
  1
4-45/64
100
AcDbAttributeDefinition
  3

  2
L
 70
     8
280
     0
  0
ATTDEF
  5
88
330
6E
100
AcDbEntity
  8
AM_6
100
AcDbText
 10
9.25
 20
-6.0
 30
0.0
 40
0.5
  1
8
100
AcDbAttributeDefinition
  3

  2
M
 70
     8
280
     0
  0
ATTDEF
  5
89
330
6E
100
AcDbEntity
  8
AM_6
100
AcDbText
 10
9.25
 20
-6.5
 30
0.0
 40
0.5
  1
1-15/16
100
AcDbAttributeDefinition
  3

  2
N
 70
     8
280
     0
  0
ATTDEF
  5
8A
330
6E
100
AcDbEntity
  8
AM_6
100
AcDbText
 10
9.25
 20
-7.0
 30
0.0
 40
0.5
  1
1-3/4
100
AcDbAttributeDefinition
  3

  2
P
 70
     8
280
     0
  0
ATTDEF
  5
8B
330
6E
100
AcDbEntity
  8
AM_6
100
AcDbText
 10
9.25
 20
-7.5
 30
0.0
 40
0.5
  1
1-1/16
100
AcDbAttributeDefinition
  3

  2
Q
 70
     8
280
     0
  0
ATTDEF
  5
8C
330
6E
100
AcDbEntity
  8
AM_6
100
AcDbText
 10
9.25
 20
-8.0
 30
0.0
 40
0.5
  1
3-53/64
100
AcDbAttributeDefinition
  3

  2
R
 70
     8
280
     0
  0
ATTDEF
  5
8D
330
6E
100
AcDbEntity
  8
AM_6
100
AcDbText
 10
9.25
 20
-8.5
 30
0.0
 40
0.5
  1
2-29/64
100
AcDbAttributeDefinition
  3

  2
S
 70
     8
280
     0
  0
ATTDEF
  5
8E
330
6E
100
AcDbEntity
  8
AM_6
100
AcDbText
 10
9.25
 20
-9.0
 30
0.0
 40
0.5
  1
5/16
100
AcDbAttributeDefinition
  3

  2
T
 70
     8
280
     0
  0
ATTDEF
  5
8F
330
6E
100
AcDbEntity
  8
AM_6
100
AcDbText
 10
9.25
 20
-9.5
 30
0.0
 40
0.5
  1
1-1/2
100
AcDbAttributeDefinition
  3

  2
U
 70
     8
280
     0
  0
ATTDEF
  5
90
330
6E
100
AcDbEntity
  8
AM_6
100
AcDbText
 10
9.25
 20
-10.0
 30
0.0
 40
0.5
  1
2-3/4
100
AcDbAttributeDefinition
  3

  2
V
 70
     8
280
     0
  0
ATTDEF
  5
91
330
6E
100
AcDbEntity
  8
AM_6
100
AcDbText
 10
9.25
 20
-10.5
 30
0.0
 40
0.5
  1
1
100
AcDbAttributeDefinition
  3

  2
W
 70
     8
280
     0
  0
ATTDEF
  5
92
330
6E
100
AcDbEntity
  8
AM_6
100
AcDbText
 10
9.25
 20
-11.0
 30
0.0
 40
0.5
  1
1/4
100
AcDbAttributeDefinition
  3

  2
X
 70
     8
280
     0
  0
ATTDEF
  5
93
330
6E
100
AcDbEntity
  8
AM_6
100
AcDbText
 10
9.25
 20
-11.5
 30
0.0
 40
0.5
  1
0.025
100
AcDbAttributeDefinition
  3

  2
Y
 70
     8
280
     0
  0
ATTDEF
  5
94
330
6E
100
AcDbEntity
  8
AM_6
100
AcDbText
 10
9.25
 20
-12.0
 30
0.0
 40
0.5
  1
3-15/32
100
AcDbAttributeDefinition
  3

  2
Z
 70
     8
280
     0
  0
ATTDEF
  5
95
330
6E
100
AcDbEntity
  8
AM_6
100
AcDbText
 10
9.25
 20
-12.5
 30
0.0
 40
0.5
  1
baldor
100
AcDbAttributeDefinition
  3

  2
COMPANY
 70
     8
280
     0
  0
INSERT
  5
97
330
6E
100
AcDbEntity
  8
0
100
AcDbBlockReference
  2
2_405016_Inch_0_in_070819_0
 10
0.0
 20
0.0
 30
0.0
  0
INSERT
  5
117
330
6E
100
AcDbEntity
  8
0
100
AcDbBlockReference
  2
3_3CS2i_0_in_070819_0
 10
0.0
 20
0.0
 30
0.0
  0
INSERT
  5
149
330
6E
100
AcDbEntity
  8
0
100
AcDbBlockReference
  2
4_070011i_0_in_070819_0
 10
0.0
 20
0.0
 30
0.0
  0
INSERT
  5
16C
330
6E
100
AcDbEntity
  8
0
100
AcDbBlockReference
  2
5_070819H_0_in_070819_0
 10
0.0
 20
0.0
 30
0.0
  0
ENDBLK
  5
71
330
6E
100
AcDbEntity
  8
0
100
AcDbBlockEnd
  0
BLOCK
  5
98
330
96
100
AcDbEntity
  8
0
100
AcDbBlockBegin
  2
2_405016_Inch_0_in_070819_0
 70
     2
 10
0.0
 20
0.0
 30
0.0
  3
2_405016_Inch_0_in_070819_0
  1

  0
ATTDEF
  5
9A
330
96
100
AcDbEntity
  8
AM_6
100
AcDbText
 10
9.075
 20
0.2525907427704612
 30
0.0
 40
0.5
  1
405016 -Inch
100
AcDbAttributeDefinition
  3

  2
NN
 70
     8
280
     0
  0
ATTDEF
  5
9B
330
96
100
AcDbEntity
  8
AM_6
100
AcDbText
 10
9.075
 20
-0.2474092572295388
 30
0.0
 40
0.5
  1
Grease Fitting
100
AcDbAttributeDefinition
  3

  2
NT
 70
     8
280
     0
  0
ATTDEF
  5
9C
330
96
100
AcDbEntity
  8
AM_6
100
AcDbText
 10
9.075
 20
-0.7474092572295388
 30
0.0
 40
0.5
  1
405016-Inch
100
AcDbAttributeDefinition
  3

  2
NB
 70
     8
280
     0
  0
ATTDEF
  5
9D
330
96
100
AcDbEntity
  8
AM_6
100
AcDbText
 10
9.075
 20
-1.247409257229539
 30
0.0
 40
0.5
  1
$MN.-Inch
100
AcDbAttributeDefinition
  3

  2
NBSYN
 70
     8
280
     0
  0
ATTDEF
  5
9E
330
96
100
AcDbEntity
  8
AM_6
100
AcDbText
 10
9.075
 20
-1.747409257229539
 30
0.0
 40
0.5
  1
405016
100
AcDbAttributeDefinition
  3

  2
LINA
 70
     8
280
     0
  0
ATTDEF
  5
9F
330
96
100
AcDbEntity
  8
AM_6
100
AcDbText
 10
9.075
 20
-2.247409257229539
 30
0.0
 40
0.5
  1
405016
100
AcDbAttributeDefinition
  3

  2
MN
 70
     8
280
     0
  0
ATTDEF
  5
A0
330
96
100
AcDbEntity
  8
AM_6
100
AcDbText
 10
9.075
 20
-2.747409257229539
 30
0.0
 40
0.5
  1
7/16 HEX
100
AcDbAttributeDefinition
  3

  2
H
 70
     8
280
     0
  0
ATTDEF
  5
A1
330
96
100
AcDbEntity
  8
AM_6
100
AcDbText
 10
9.075
 20
-3.247409257229539
 30
0.0
 40
0.5
  1
0.383
100
AcDbAttributeDefinition
  3

  2
NDR
 70
     8
280
     0
  0
ATTDEF
  5
A2
330
96
100
AcDbEntity
  8
AM_6
100
AcDbText
 10
9.075
 20
-3.747409257229539
 30
0.0
 40
0.5
  1
0.337
100
AcDbAttributeDefinition
  3

  2
KDR
 70
     8
280
     0
  0
ATTDEF
  5
A3
330
96
100
AcDbEntity
  8
AM_6
100
AcDbText
 10
9.075
 20
-4.247409257229538
 30
0.0
 40
0.5
  1
0.1575
100
AcDbAttributeDefinition
  3

  2
BZE
 70
     8
280
     0
  0
ATTDEF
  5
A4
330
96
100
AcDbEntity
  8
AM_6
100
AcDbText
 10
9.075
 20
-4.747409257229538
 30
0.0
 40
0.5
  1
0.4375
100
AcDbAttributeDefinition
  3

  2
HEX
 70
     8
280
     0
  0
ATTDEF
  5
A5
330
96
100
AcDbEntity
  8
AM_6
100
AcDbText
 10
9.075
 20
-5.247409257229538
 30
0.0
 40
0.5
  1
0.281250
100
AcDbAttributeDefinition
  3

  2
HEX2
 70
     8
280
     0
  0
ATTDEF
  5
A6
330
96
100
AcDbEntity
  8
AM_6
100
AcDbText
 10
9.075
 20
-5.747409257229538
 30
0.0
 40
0.5
  1
baldor
100
AcDbAttributeDefinition
  3

  2
COMPANY
 70
     8
280
     0
  0
LINE
  5
A9
330
96
100
AcDbEntity
  8
AM_9
100
AcDbLine
 10
3.23125
 20
0.1616637258772237
 30
0.0
 11
3.23125
 21
-0.1616637258772237
 31
0.0
  0
LINE
  5
AA
330
96
100
AcDbEntity
  8
AM_9
100
AcDbLine
 10
3.23125
 20
-0.1616637258772237
 30
0.0
 11
3.255003564847762
 21
-0.1854172907249859
 31
0.0
  0
LINE
  5
AB
330
96
100
AcDbEntity
  8
AM_9
100
AcDbLine
 10
3.255003564847762
 20
0.1854172907249859
 30
0.0
 11
3.23125
 21
0.1616637258772237
 31
0.0
  0
ARC
  5
AC
330
96
100
AcDbEntity
  8
AM_9
100
AcDbCircle
 10
3.774999999999999
 20
-0.0000000000000001
 30
0.0
 40
0.2000000000000006
100
AcDbArc
 50
316.17786219428
 51
45.36511467703839
  0
LINE
  5
AD
330
96
100
AcDbEntity
  8
AM_9
100
AcDbLine
 10
3.255003564847762
 20
0.1854172907249859
 30
0.0
 11
3.255003564847762
 21
-0.1854172907249859
 31
0.0
  0
LINE
  5
AE
330
96
100
AcDbEntity
  8
AM_9
100
AcDbLine
 10
3.255003564847762
 20
-0.1854172907249859
 30
0.0
 11
3.45
 21
-0.1915112338502295
 31
0.0
  0
LINE
  5
AF
330
96
100
AcDbEntity
  8
AM_9
100
AcDbLine
 10
3.45
 20
0.1915112338502295
 30
0.0
 11
3.255003564847762
 21
0.1854172907249859
 31
0.0
  0
LINE
  5
B0
330
96
100
AcDbEntity
  8
AM_9
100
AcDbLine
 10
3.989779591422741
 20
0.0811898816047911
 30
0.0
 11
4.002852618119651
 21
0.0811898816047911
 31
0.0
  0
LINE
  5
B1
330
96
100
AcDbEntity
  8
AM_9
100
AcDbLine
 10
3.989779591422741
 20
-0.0811898816047911
 30
0.0
 11
4.002852618119651
 21
-0.0811898816047911
 31
0.0
  0
LWPOLYLINE
  5
B2
330
96
100
AcDbEntity
  8
AM_9
100
AcDbPolyline
 90
        6
 70
     0
 43
0.0
 10
3.989779591422741
 20
-0.0811898816047911
 10
3.987356513600045
 20
-0.052155091529337
 10
3.98588110594799
 20
-0.0226013472343071
 10
3.985571407949478
 20
0.0078295722246356
 10
3.986538145387265
 20
0.0384818408139635
 10
3.989779591422741
 20
0.0811898816047911
  0
LINE
  5
B3
330
96
100
AcDbEntity
  8
AM_9
100
AcDbLine
 10
3.775
 20
0.1098605687937735
 30
0.0
 11
3.775
 21
-0.1111781028022383
 31
0.0
  0
ELLIPSE
  5
B4
330
96
100
AcDbEntity
  8
AM_9
100
AcDbEllipse
 10
3.856540489674682
 20
-0.0000000000000002
 30
0.0
 11
-2.583239341951445E-17
 21
-0.1406249999999998
 31
0.0
210
0.0
220
0.0
230
1.0
 40
0.9063077870366493
 41
5.859216366485143
 42
9.848746901463826
  0
LWPOLYLINE
  5
B5
330
96
100
AcDbEntity
  8
AM_9
100
AcDbPolyline
 90
        3
 70
     0
 43
0.0
 10
3.900621412242073
 20
0.1354939839593213
 10
3.89215195447448
 20
0.1412050309358237
 10
3.862092915312688
 20
0.1623797632095822
  0
LINE
  5
B6
330
96
100
AcDbEntity
  8
AM_9
100
AcDbLine
 10
3.989779591422741
 20
0.0811898816047911
 30
0.0
 11
3.972191805324704
 21
0.0912453202686588
 31
0.0
  0
LWPOLYLINE
  5
B7
330
96
100
AcDbEntity
  8
AM_9
100
AcDbPolyline
 90
        7
 70
     0
 43
0.0
 10
3.862092915312688
 20
-0.1623797632095822
 10
3.882306587605158
 20
-0.1479869285061356
 10
3.903862644857368
 20
-0.1333383958028655
 10
3.927249911565336
 20
-0.1182584107681147
 10
3.952063397587892
 20
-0.1030720446435313
 10
3.970726021984325
 20
-0.0920941102676196
 10
3.989779591422741
 20
-0.0811898816047911
  0
LWPOLYLINE
  5
B8
330
96
100
AcDbEntity
  8
AM_9
100
AcDbPolyline
 90
        5
 70
     0
 43
0.0
 10
3.775
 20
0.0891382003679202
 10
3.789657042179781
 20
0.0985900119595949
 10
3.806046074830932
 20
0.1054645023299315
 10
3.822794262523285
 20
0.1091871113029
 10
3.835283468496278
 20
0.1099999993542103
  0
LWPOLYLINE
  5
B9
330
96
100
AcDbEntity
  8
AM_9
100
AcDbPolyline
 90
        7
 70
     0
 43
0.0
 10
3.735991743356642
 20
-0.0194519290463004
 10
3.736335561919609
 20
-0.0215822013754014
 10
3.740608214630344
 20
-0.0389783932252771
 10
3.747573282368483
 20
-0.0557614027566447
 10
3.75687339411971
 20
-0.0706790964090853
 10
3.768915057581919
 20
-0.0840091310588356
 10
3.775
 20
-0.0891382003679202
  0
LWPOLYLINE
  5
BA
330
96
100
AcDbEntity
  8
AM_9
100
AcDbPolyline
 90
        4
 70
     0
 43
0.0
 10
3.735962690898258
 20
0.0192606588450141
 10
3.735426786929245
 20
0.0152931307616317
 10
3.73455397092387
 20
-0.0029208065448306
 10
3.735991743356642
 20
-0.0194519290463004
  0
LWPOLYLINE
  5
BB
330
96
100
AcDbEntity
  8
AM_9
100
AcDbPolyline
 90
        6
 70
     0
 43
0.0
 10
3.775
 20
0.0891382003679202
 10
3.762711773328742
 20
0.0777636883825141
 10
3.752857912812704
 20
0.0649120702515246
 10
3.744890090732852
 20
0.0501518541477802
 10
3.738950819230624
 20
0.0334336602406979
 10
3.735962690898258
 20
0.0192606588450141
  0
LINE
  5
BC
330
96
100
AcDbEntity
  8
AM_9
100
AcDbLine
 10
3.83527216509036
 20
-0.1099999999999999
 30
0.0
 11
3.856540489674682
 21
-0.1099999999999999
 31
0.0
  0
LINE
  5
BD
330
96
100
AcDbEntity
  8
AM_9
100
AcDbLine
 10
3.856540489674682
 20
0.1099999999999999
 30
0.0
 11
3.835272247488456
 21
0.1099999999999999
 31
0.0
  0
LWPOLYLINE
  5
BE
330
96
100
AcDbEntity
  8
AM_9
100
AcDbPolyline
 90
        3
 70
     0
 43
0.0
 10
3.853130226607291
 20
-0.1083278474517662
 10
3.840993177073341
 20
-0.109829591708451
 10
3.83528104543067
 20
-0.1099999996045751
  0
LWPOLYLINE
  5
BF
330
96
100
AcDbEntity
  8
AM_9
100
AcDbPolyline
 90
       20
 70
     0
 43
0.0
 10
3.835283468496278
 20
0.1099999993542103
 10
3.840379176802918
 20
0.1098642299902842
 10
3.857339210795638
 20
0.1074361169500106
 10
3.87414910053443
 20
0.101829760403791
 10
3.889390657856984
 20
0.0935179578124376
 10
3.903509245274694
 20
0.0822566453824391
 10
3.915297360709332
 20
0.0690147372405694
 10
3.925118096952378
 20
0.0533912635798488
 10
3.932129916994595
 20
0.0367379904268302
 10
3.936557273689088
 20
0.018541691433427
 10
3.938026090783048
 20
0.0003663009477912
 10
3.936588715919457
 20
-0.0183436549788656
 10
3.932370026835885
 20
-0.0360039211946314
 10
3.925249778005945
 20
-0.0531364268189174
 10
3.915819606430528
 20
-0.0683147951973784
 10
3.903813933440344
 20
-0.0819658231771869
 10
3.890214205451827
 20
-0.0929661484870866
 10
3.874649900186104
 20
-0.1016091178663899
 10
3.858387916268129
 20
-0.1071833219201679
 10
3.853130226607291
 20
-0.1083278474517662
  0
LWPOLYLINE
  5
C0
330
96
100
AcDbEntity
  8
AM_9
100
AcDbPolyline
 90
        5
 70
     0
 43
0.0
 10
3.83528104543067
 20
-0.1099999996045751
 10
3.823893329756504
 20
-0.1093244165839199
 10
3.806625566265061
 20
-0.1056462146448629
 10
3.790387530306544
 20
-0.0989726456321526
 10
3.774999999999989
 20
-0.0891382003679049
  0
ELLIPSE
  5
C1
330
96
100
AcDbEntity
  8
AM_9
100
AcDbEllipse
 10
3.856540489674686
 20
-0.0000000000000028
 30
0.0
 11
-2.583239341951551E-17
 21
-0.1406250000000056
 31
0.0
210
0.0
220
0.0
230
1.0
 40
0.9063077870366434
 41
3.764821264091964
 42
4.571432719802687
  0
ELLIPSE
  5
C2
330
96
100
AcDbEntity
  8
AM_9
100
AcDbEllipse
 10
3.856540489674683
 20
0.0000000000000006
 30
0.0
 11
-2.583239341951458E-17
 21
-0.1406250000000006
 31
0.0
210
0.0
220
0.0
230
1.0
 40
0.9063077870366918
 41
4.853345240966707
 42
5.659956696677455
  0
LWPOLYLINE
  5
C3
330
96
100
AcDbEntity
  8
AM_9
100
AcDbPolyline
 90
        5
 70
     0
 43
0.0
 10
4.002852618119651
 20
0.0811898816047911
 10
4.00525165740053
 20
0.0416203625313734
 10
4.006169344127473
 20
0.0014176687078843
 10
4.005325527198159
 20
-0.0398791041957931
 10
4.002852618119651
 20
-0.0811898816047911
  0
LWPOLYLINE
  5
C4
330
96
100
AcDbEntity
  8
AM_9
100
AcDbPolyline
 90
        4
 70
     0
 43
0.0
 10
3.91651473405871
 20
0.1380365926720914
 10
3.941443378377863
 20
0.1224916336047983
 10
3.972959325649376
 20
0.1018412668053538
 10
4.002852618119651
 20
0.0811898816047911
  0
LWPOLYLINE
  5
C5
330
96
100
AcDbEntity
  8
AM_9
100
AcDbPolyline
 90
        4
 70
     0
 43
0.0
 10
4.002852618119651
 20
-0.0811898816047911
 10
3.974256010297641
 20
-0.1009664231904839
 10
3.943682446465653
 20
-0.121062844630589
 10
3.917861399511124
 20
-0.137212749219874
  0
ELLIPSE
  5
C6
330
96
100
AcDbEntity
  8
AM_9
100
AcDbEllipse
 10
3.877671402761718
 20
-0.0000000000000001
 30
0.0
 11
-2.583239341951439E-17
 21
-0.1406249999999995
 31
0.0
210
0.0
220
0.0
230
1.0
 40
0.9063077870366512
 41
0.2277055514715336
 42
2.913593688018735
  0
LWPOLYLINE
  5
C7
330
96
100
AcDbEntity
  8
AM_9
100
AcDbPolyline
 90
       14
 70
     0
 43
0.0
 10
3.827774024350834
 20
0.0338004032405554
 10
3.831437049194854
 20
0.0444969736018552
 10
3.841920244901647
 20
0.0645792155378725
 10
3.855594329702545
 20
0.0810115176799938
 10
3.871599161703495
 20
0.0931834395495224
 10
3.889268314423959
 20
0.1007727958867058
 10
3.908310370680127
 20
0.1034522701941923
 10
3.928498179222272
 20
0.1004808289273472
 10
3.946043970428119
 20
0.0926609943830444
 10
3.961684101805053
 20
0.0805147567291177
 10
3.976053615872313
 20
0.0627179718045781
 10
3.986475446512197
 20
0.0414921307330214
 10
3.992417712106076
 20
0.0180380175909032
 10
3.993745779294296
 20
0.0
  0
LWPOLYLINE
  5
C8
330
96
100
AcDbEntity
  8
AM_9
100
AcDbPolyline
 90
       14
 70
     0
 43
0.0
 10
3.993745779294296
 20
0.0
 10
3.99330411813318
 20
-0.010428021354984
 10
3.988936613733676
 20
-0.0339874628895455
 10
3.98025599195223
 20
-0.0554805100426101
 10
3.967982512521306
 20
-0.0737381633813173
 10
3.952979559187173
 20
-0.0879799475412151
 10
3.93603703728413
 20
-0.0977682315154941
 10
3.917630501881756
 20
-0.1028306207335512
 10
3.897918372696917
 20
-0.1026557803295298
 10
3.877579683616884
 20
-0.0963553372208829
 10
3.861121441537662
 20
-0.0858991508620075
 10
3.845463516248698
 20
-0.069578766121749
 10
3.833544366522027
 20
-0.0494462236990908
 10
3.830972083155816
 20
-0.0433097179264273
  0
ELLIPSE
  5
C9
330
96
100
AcDbEntity
  8
AM_9
100
AcDbEllipse
 10
3.936562173218468
 20
0.0
 30
0.0
 11
8.155773951865168E-18
 21
0.1331938965184661
 31
0.0
210
0.0
220
0.0
230
1.0
 40
0.9063077870366469
 41
0.0
 42
6.283185307179586
  0
LINE
  5
CB
330
96
100
AcDbEntity
  8
AM_5
100
AcDbLine
 10
3.407862509955051
 20
-0.1671831426298035
 30
0.0
 11
3.231250000000001
 21
-0.1616637258772237
 31
0.0
  0
LINE
  5
CC
330
96
100
AcDbEntity
  8
AM_5
100
AcDbLine
 10
3.45
 20
-0.1915112338502292
 30
0.0
 11
3.407862509955052
 21
-0.1671831426298035
 31
0.0
  0
LINE
  5
CD
330
96
100
AcDbEntity
  8
AM_5
100
AcDbLine
 10
3.407862509955052
 20
-0.190194371480033
 30
0.0
 11
3.407862509955052
 21
0.1901943714800331
 31
0.0
  0
LINE
  5
CE
330
96
100
AcDbEntity
  8
AM_5
100
AcDbLine
 10
3.407862509955051
 20
0.1671831426298035
 30
0.0
 11
3.231250000000001
 21
0.1616637258772237
 31
0.0
  0
LINE
  5
CF
330
96
100
AcDbEntity
  8
AM_5
100
AcDbLine
 10
3.45
 20
0.1915112338502292
 30
0.0
 11
3.407862509955052
 21
0.1671831426298035
 31
0.0
  0
ELLIPSE
  5
D0
330
96
100
AcDbEntity
  8
AM_9
100
AcDbEllipse
 10
3.856540489674682
 20
0.0
 30
0.0
 11
-2.020667218593132E-17
 21
-0.11
 31
0.0
210
0.0
220
0.0
230
1.0
 40
0.9063077870366502
 41
0.0
 42
6.283185307179586
  0
LINE
  5
D3
330
96
100
AcDbEntity
  8
AM_7
100
AcDbLine
 10
4.0121875
 20
0.0
 30
0.0
 11
-3.281249999999999
 21
-0.0000000000000003
 31
0.0
  0
LINE
  5
D5
330
96
100
AcDbEntity
  8
AM_4
100
AcDbLine
 10
3.628125
 20
0.21875
 30
0.0
 11
3.628125
 21
-0.21875
 31
0.0
  0
LINE
  5
D6
330
96
100
AcDbEntity
  8
AM_4
100
AcDbLine
 10
3.619057400303385
 20
-0.2525907427704612
 30
0.0
 11
3.628125
 21
-0.21875
 31
0.0
  0
LINE
  5
D7
330
96
100
AcDbEntity
  8
AM_4
100
AcDbLine
 10
3.628125
 20
0.21875
 30
0.0
 11
3.619057400303385
 21
0.2525907427704612
 31
0.0
  0
LINE
  5
D8
330
96
100
AcDbEntity
  8
AM_4
100
AcDbLine
 10
3.528125
 20
0.21875
 30
0.0
 11
3.528125
 21
-0.21875
 31
0.0
  0
LINE
  5
D9
330
96
100
AcDbEntity
  8
AM_4
100
AcDbLine
 10
3.528125
 20
-0.21875
 30
0.0
 11
3.537192599696614
 21
-0.2525907427704612
 31
0.0
  0
LINE
  5
DA
330
96
100
AcDbEntity
  8
AM_4
100
AcDbLine
 10
3.537192599696614
 20
0.2525907427704612
 30
0.0
 11
3.528125
 21
0.21875
 31
0.0
  0
ARC
  5
DB
330
96
100
AcDbEntity
  8
AM_4
100
AcDbCircle
 10
3.775
 20
-0.0000000000000007
 30
0.0
 40
0.2000000000000006
100
AcDbArc
 50
45.3651146770386
 51
90.0
  0
ARC
  5
DC
330
96
100
AcDbEntity
  8
AM_4
100
AcDbCircle
 10
3.775
 20
0.0000000000000006
 30
0.0
 40
0.2000000000000004
100
AcDbArc
 50
270.0
 51
316.1778621942798
  0
LINE
  5
DD
330
96
100
AcDbEntity
  8
AM_4
100
AcDbLine
 10
3.45
 20
-0.2
 30
0.0
 11
3.528125
 21
-0.2
 31
0.0
  0
LINE
  5
DE
330
96
100
AcDbEntity
  8
AM_4
100
AcDbLine
 10
3.528125
 20
0.2
 30
0.0
 11
3.45
 21
0.2
 31
0.0
  0
LINE
  5
DF
330
96
100
AcDbEntity
  8
AM_4
100
AcDbLine
 10
3.775
 20
-0.1111781028022383
 30
0.0
 11
3.775
 21
-0.2
 31
0.0
  0
LINE
  5
E0
330
96
100
AcDbEntity
  8
AM_4
100
AcDbLine
 10
3.628125
 20
-0.2
 30
0.0
 11
3.775
 21
-0.2
 31
0.0
  0
LINE
  5
E1
330
96
100
AcDbEntity
  8
AM_4
100
AcDbLine
 10
3.775
 20
0.2
 30
0.0
 11
3.628125
 21
0.2
 31
0.0
  0
LINE
  5
E2
330
96
100
AcDbEntity
  8
AM_4
100
AcDbLine
 10
3.775
 20
0.2
 30
0.0
 11
3.775
 21
0.1098605687937735
 31
0.0
  0
LWPOLYLINE
  5
E3
330
96
100
AcDbEntity
  8
AM_4
100
AcDbPolyline
 90
        3
 70
     0
 43
0.0
 10
3.619057400303385
 20
0.2525907427704612
 10
3.62571047505038
 20
0.2211588644235643
 10
3.628125
 20
0.1894430570778459
  0
LINE
  5
E4
330
96
100
AcDbEntity
  8
AM_4
100
AcDbLine
 10
3.619057400303385
 20
0.2525907427704612
 30
0.0
 11
3.537192599696614
 21
0.2525907427704612
 31
0.0
  0
LWPOLYLINE
  5
E5
330
96
100
AcDbEntity
  8
AM_4
100
AcDbPolyline
 90
        3
 70
     0
 43
0.0
 10
3.528125
 20
0.1894430570778459
 10
3.530518380785035
 20
0.2210168999241536
 10
3.537192599696614
 20
0.2525907427704612
  0
LWPOLYLINE
  5
E6
330
96
100
AcDbEntity
  8
AM_4
100
AcDbPolyline
 90
        3
 70
     0
 43
0.0
 10
3.537192599696614
 20
0.1262953713852306
 10
3.53053952494962
 20
0.1577272497321276
 10
3.528125
 20
0.1894430570778459
  0
LINE
  5
E7
330
96
100
AcDbEntity
  8
AM_4
100
AcDbLine
 10
3.619057400303385
 20
-0.2525907427704612
 30
0.0
 11
3.537192599696614
 21
-0.2525907427704612
 31
0.0
  0
LWPOLYLINE
  5
E8
330
96
100
AcDbEntity
  8
AM_4
100
AcDbPolyline
 90
        3
 70
     0
 43
0.0
 10
3.628125
 20
-0.1894430570778459
 10
3.625731619214966
 20
-0.2210168999241536
 10
3.619057400303385
 20
-0.2525907427704612
  0
LWPOLYLINE
  5
E9
330
96
100
AcDbEntity
  8
AM_4
100
AcDbPolyline
 90
        3
 70
     0
 43
0.0
 10
3.528125
 20
-0.1894430570778459
 10
3.530518380785035
 20
-0.1578692142315383
 10
3.537192599696614
 20
-0.1262953713852306
  0
LWPOLYLINE
  5
EA
330
96
100
AcDbEntity
  8
AM_4
100
AcDbPolyline
 90
        3
 70
     0
 43
0.0
 10
3.537192599696614
 20
-0.2525907427704612
 10
3.53053952494962
 20
-0.2211588644235643
 10
3.528125
 20
-0.1894430570778459
  0
LINE
  5
EB
330
96
100
AcDbEntity
  8
AM_4
100
AcDbLine
 10
3.619057400303385
 20
-0.1262953713852306
 30
0.0
 11
3.537192599696614
 21
-0.1262953713852306
 31
0.0
  0
LINE
  5
EC
330
96
100
AcDbEntity
  8
AM_4
100
AcDbLine
 10
3.619057400303385
 20
0.1262953713852306
 30
0.0
 11
3.537192599696614
 21
0.1262953713852306
 31
0.0
  0
LWPOLYLINE
  5
ED
330
96
100
AcDbEntity
  8
AM_4
100
AcDbPolyline
 90
        3
 70
     0
 43
0.0
 10
3.528125
 20
0.0
 10
3.530518380785035
 20
0.0631476856926153
 10
3.537192599696614
 20
0.1262953713852306
  0
LWPOLYLINE
  5
EE
330
96
100
AcDbEntity
  8
AM_4
100
AcDbPolyline
 90
        4
 70
     0
 43
0.0
 10
3.537192599696614
 20
-0.1262953713852306
 10
3.533607412517844
 20
-0.0967996321117978
 10
3.529550828243072
 20
-0.0485424412477544
 10
3.528125
 20
0.0
  0
LWPOLYLINE
  5
EF
330
96
100
AcDbEntity
  8
AM_4
100
AcDbPolyline
 90
        4
 70
     0
 43
0.0
 10
3.628125
 20
0.0
 10
3.626707439282863
 20
-0.0483998160558989
 10
3.622642587482157
 20
-0.0967996321117978
 10
3.619057400303385
 20
-0.1262953713852306
  0
LWPOLYLINE
  5
F0
330
96
100
AcDbEntity
  8
AM_4
100
AcDbPolyline
 90
        3
 70
     0
 43
0.0
 10
3.619057400303385
 20
-0.1262953713852306
 10
3.625710475050381
 20
-0.1577272497321276
 10
3.628125
 20
-0.1894430570778459
  0
LWPOLYLINE
  5
F1
330
96
100
AcDbEntity
  8
AM_4
100
AcDbPolyline
 90
        3
 70
     0
 43
0.0
 10
3.628125
 20
0.1894430570778459
 10
3.625731619214966
 20
0.1578692142315383
 10
3.619057400303385
 20
0.1262953713852306
  0
LWPOLYLINE
  5
F2
330
96
100
AcDbEntity
  8
AM_4
100
AcDbPolyline
 90
        3
 70
     0
 43
0.0
 10
3.619057400303385
 20
0.1262953713852306
 10
3.62571047505038
 20
0.0634316146914367
 10
3.628125
 20
0.0
  0
LINE
  5
F3
330
96
100
AcDbEntity
  8
AM_4
100
AcDbLine
 10
3.875588184814567
 20
0.1623797632095822
 30
0.0
 11
3.91651473405871
 21
0.1380365926720914
 31
0.0
  0
LINE
  5
F4
330
96
100
AcDbEntity
  8
AM_4
100
AcDbLine
 10
3.917861399511124
 20
-0.137212749219874
 30
0.0
 11
3.875588184814567
 21
-0.1623797632095822
 31
0.0
  0
LWPOLYLINE
  5
F5
330
96
100
AcDbEntity
  8
AM_4
100
AcDbPolyline
 90
        3
 70
     0
 43
0.0
 10
3.862092915312688
 20
0.1623797632095822
 10
3.832727141375751
 20
0.1454641154142716
 10
3.804110144493329
 20
0.1281745372222425
  0
LINE
  5
F6
330
96
100
AcDbEntity
  8
AM_4
100
AcDbLine
 10
3.804110144493329
 20
0.1281745372222425
 30
0.0
 11
3.782153317914338
 21
0.1141872583780656
 31
0.0
  0
LWPOLYLINE
  5
F7
330
96
100
AcDbEntity
  8
AM_4
100
AcDbPolyline
 90
        4
 70
     0
 43
0.0
 10
3.782153317914338
 20
0.1141872583780656
 10
3.764944149569911
 20
0.1027100776026271
 10
3.7493684432055
 20
0.0919147043736669
 10
3.734404468701036
 20
0.0811898816047911
  0
LWPOLYLINE
  5
F8
330
96
100
AcDbEntity
  8
AM_4
100
AcDbPolyline
 90
        3
 70
     0
 43
0.0
 10
3.825241057580364
 20
0.1281745372222423
 10
3.850988571746168
 20
0.1453001843968683
 10
3.875588184814567
 20
0.1623797632095822
  0
LINE
  5
F9
330
96
100
AcDbEntity
  8
AM_4
100
AcDbLine
 10
3.862092915312688
 20
0.1623797632095822
 30
0.0
 11
3.875588184814567
 21
0.1623797632095822
 31
0.0
  0
LWPOLYLINE
  5
FA
330
96
100
AcDbEntity
  8
AM_4
100
AcDbPolyline
 90
        3
 70
     0
 43
0.0
 10
3.734404468701036
 20
-0.0811898816047911
 10
3.757381687694689
 20
-0.0975167708288354
 10
3.782153317914339
 20
-0.114187258378066
  0
LINE
  5
FB
330
96
100
AcDbEntity
  8
AM_4
100
AcDbLine
 10
3.782153317914339
 20
-0.114187258378066
 30
0.0
 11
3.80411014449333
 21
-0.1281745372222428
 31
0.0
  0
LWPOLYLINE
  5
FC
330
96
100
AcDbEntity
  8
AM_4
100
AcDbPolyline
 90
        4
 70
     0
 43
0.0
 10
3.80411014449333
 20
-0.1281745372222428
 10
3.823748950047543
 20
-0.14013919758686
 10
3.842716863386578
 20
-0.1512975476914571
 10
3.862092915312688
 20
-0.1623797632095822
  0
LINE
  5
FD
330
96
100
AcDbEntity
  8
AM_4
100
AcDbLine
 10
3.862092915312688
 20
-0.1623797632095822
 30
0.0
 11
3.875588184814567
 21
-0.1623797632095822
 31
0.0
  0
LWPOLYLINE
  5
FE
330
96
100
AcDbEntity
  8
AM_4
100
AcDbPolyline
 90
        3
 70
     0
 43
0.0
 10
3.875588184814567
 20
-0.1623797632095822
 10
3.85112440520354
 20
-0.1453926299734447
 10
3.825241057580364
 20
-0.1281745372222423
  0
LWPOLYLINE
  5
FF
330
96
100
AcDbEntity
  8
AM_4
100
AcDbPolyline
 90
        3
 70
     0
 43
0.0
 10
3.803284231001374
 20
-0.1141872583780661
 10
3.776275322186756
 20
-0.0976669589939311
 10
3.748325133450933
 20
-0.0811898816047911
  0
LWPOLYLINE
  5
100
330
96
100
AcDbEntity
  8
AM_4
100
AcDbPolyline
 90
        3
 70
     0
 43
0.0
 10
3.748325133450933
 20
0.0811898816047911
 10
3.776134483864593
 20
0.0975825203205425
 10
3.803284231001374
 20
0.1141872583780661
  0
LWPOLYLINE
  5
101
330
96
100
AcDbEntity
  8
AM_4
100
AcDbPolyline
 90
        3
 70
     0
 43
0.0
 10
3.734404468701036
 20
0.0811898816047911
 10
3.731847350026098
 20
0.0507690464395923
 10
3.730354988343318
 20
0.01975639995327
  0
LINE
  5
102
330
96
100
AcDbEntity
  8
AM_4
100
AcDbLine
 10
3.730354988343318
 20
0.01975639995327
 30
0.0
 11
3.730354988343314
 21
-0.0197563999532738
 31
0.0
  0
LWPOLYLINE
  5
103
330
96
100
AcDbEntity
  8
AM_4
100
AcDbPolyline
 90
        4
 70
     0
 43
0.0
 10
3.730354988343314
 20
-0.0197563999532738
 10
3.731036203125989
 20
-0.0370737721666024
 10
3.732457914170935
 20
-0.0592063313023435
 10
3.734404468701036
 20
-0.0811898816047911
  0
LINE
  5
104
330
96
100
AcDbEntity
  8
AM_4
100
AcDbLine
 10
3.734404468701036
 20
-0.0811898816047911
 30
0.0
 11
3.748325133450933
 21
-0.0811898816047911
 31
0.0
  0
LWPOLYLINE
  5
105
330
96
100
AcDbEntity
  8
AM_4
100
AcDbPolyline
 90
        3
 70
     0
 43
0.0
 10
3.748325133450933
 20
-0.0811898816047911
 10
3.750327009572709
 20
-0.0506559994506374
 10
3.751485901430354
 20
-0.0197563999532697
  0
LWPOLYLINE
  5
106
330
96
100
AcDbEntity
  8
AM_4
100
AcDbPolyline
 90
        3
 70
     0
 43
0.0
 10
3.751485901430354
 20
0.0197563999532697
 10
3.750333892676474
 20
0.0505249714987418
 10
3.748325133450933
 20
0.0811898816047911
  0
LINE
  5
107
330
96
100
AcDbEntity
  8
AM_4
100
AcDbLine
 10
3.734404468701036
 20
0.0811898816047911
 30
0.0
 11
3.748325133450933
 21
0.0811898816047911
 31
0.0
  0
LINE
  5
108
330
96
100
AcDbEntity
  8
AM_4
100
AcDbLine
 10
3.825241057580364
 20
-0.1281745372222423
 30
0.0
 11
3.803284231001374
 21
-0.1141872583780661
 31
0.0
  0
ELLIPSE
  5
109
330
96
100
AcDbEntity
  8
AM_4
100
AcDbEllipse
 10
3.877671402761717
 20
0.0000000000000006
 30
0.0
 11
-2.583239341951434E-17
 21
-0.1406249999999993
 31
0.0
210
0.0
220
0.0
230
1.0
 40
0.9063077870366465
 41
2.913593688018726
 42
3.565561594284245
  0
ELLIPSE
  5
10A
330
96
100
AcDbEntity
  8
AM_4
100
AcDbEllipse
 10
3.877671402761717
 20
0.000000000000001
 30
0.0
 11
-2.583239341951463E-17
 21
-0.1406250000000008
 31
0.0
210
0.0
220
0.0
230
1.0
 40
0.9063077870366489
 41
5.859216366485138
 42
6.510890858651125
  0
LINE
  5
10B
330
96
100
AcDbEntity
  8
AM_4
100
AcDbLine
 10
3.803284231001374
 20
0.1141872583780661
 30
0.0
 11
3.825241057580364
 21
0.1281745372222423
 31
0.0
  0
ELLIPSE
  5
10C
330
96
100
AcDbEntity
  8
AM_4
100
AcDbEllipse
 10
3.877671402761716
 20
0.000000000000001
 30
0.0
 11
-2.583239341951415E-17
 21
-0.1406249999999982
 31
0.0
210
0.0
220
0.0
230
1.0
 40
0.9063077870366533
 41
3.764821264091937
 42
4.57143271980271
  0
LWPOLYLINE
  5
10D
330
96
100
AcDbEntity
  8
AM_4
100
AcDbPolyline
 90
        3
 70
     0
 43
0.0
 10
3.751485901430354
 20
-0.0197563999532697
 10
3.751919989312451
 20
-0.0001041399139094
 10
3.751485901430354
 20
0.0197563999532697
  0
ELLIPSE
  5
10E
330
96
100
AcDbEntity
  8
AM_4
100
AcDbEllipse
 10
3.877671402761716
 20
-0.0000000000000009
 30
0.0
 11
-2.583239341951421E-17
 21
-0.1406249999999986
 31
0.0
210
0.0
220
0.0
230
1.0
 40
0.9063077870366542
 41
4.853345240966668
 42
5.659956696677441
  0
LINE
  5
10F
330
96
100
AcDbEntity
  8
AM_4
100
AcDbLine
 10
4.046313632498937
 20
-0.088526230447917
 30
0.0
 11
4.048605572676318
 21
-0.0853353682061409
 31
0.0
  0
LWPOLYLINE
  5
110
330
96
100
AcDbEntity
  8
AM_4
100
AcDbPolyline
 90
        4
 70
     0
 43
0.0
 10
4.008742602068264
 20
-0.1231570242320586
 10
4.022620778569573
 20
-0.1133430216522104
 10
4.042489616464204
 20
-0.093460901386718
 10
4.046313632498937
 20
-0.088526230447917
  0
LWPOLYLINE
  5
111
330
96
100
AcDbEntity
  8
AM_4
100
AcDbPolyline
 90
       23
 70
     0
 43
0.0
 10
4.035544957324409
 20
0.1013792259098238
 10
4.019322860892601
 20
0.1159276230292774
 10
3.995264990395037
 20
0.1303397307229435
 10
3.969021633326686
 20
0.1389612825427391
 10
3.941801773410728
 20
0.1414623832849379
 10
3.914807655660415
 20
0.1378088375923938
 10
3.889189414794203
 20
0.1282259914289895
 10
3.865996018786636
 20
0.1131563071021325
 10
3.846167472123348
 20
0.0932265430680492
 10
3.830535448600476
 20
0.0692495507906327
 10
3.81978783004159
 20
0.0422204528544255
 10
3.814423096607687
 20
0.0132873485766938
 10
3.81471498490242
 20
-0.016299832455598
 10
3.820694462585438
 20
-0.0452466897656175
 10
3.832139658583237
 20
-0.0722622152853266
 10
3.848576980160766
 20
-0.0961271385629221
 10
3.869284581292045
 20
-0.1157456598800771
 10
3.893312995602214
 20
-0.1302163318450975
 10
3.919539444219471
 20
-0.1389016113991051
 10
3.946755332884945
 20
-0.1414683306958582
 10
3.973757956144751
 20
-0.137879353722147
 10
3.999396540282917
 20
-0.1283574428091949
 10
4.008742602068264
 20
-0.1231570242320586
  0
LWPOLYLINE
  5
112
330
96
100
AcDbEntity
  8
AM_4
100
AcDbPolyline
 90
        6
 70
     0
 43
0.0
 10
4.075
 20
0.0
 10
4.074094032794473
 20
0.0166499962234006
 10
4.068058959875999
 20
0.0455459039075025
 10
4.056557909237039
 20
0.0725340717311839
 10
4.040071053839627
 20
0.0963594070401829
 10
4.035544957324409
 20
0.1013792259098238
  0
ELLIPSE
  5
113
330
96
100
AcDbEntity
  8
AM_4
100
AcDbEllipse
 10
3.948888580077551
 20
-0.0000000000000016
 30
0.0
 11
-2.556117506982903E-17
 21
-0.1391485560714361
 31
0.0
210
0.0
220
0.0
230
1.0
 40
0.9063077870366582
 41
0.9144000507342929
 42
1.570796326794897
  0
ELLIPSE
  5
114
330
96
100
AcDbEntity
  8
AM_4
100
AcDbEllipse
 10
3.948888580077548
 20
-0.0000000000000002
 30
0.0
 11
-2.556117506982983E-17
 21
-0.1391485560714404
 31
0.0
210
0.0
220
0.0
230
1.0
 40
0.9063077870366519
 41
1.570796326794897
 42
7.197585357913889
  0
ELLIPSE
  5
115
330
96
100
AcDbEntity
  8
AM_4
100
AcDbEllipse
 10
3.981212876888188
 20
0.0
 30
0.0
 11
6.336484236534234E-18
 21
0.10348264072459
 31
0.0
210
0.0
220
0.0
230
1.0
 40
0.9063077870366482
 41
0.0
 42
6.283185307179586
  0
ENDBLK
  5
99
330
96
100
AcDbEntity
  8
0
100
AcDbBlockEnd
  0
BLOCK
  5
118
330
116
100
AcDbEntity
  8
0
100
AcDbBlockBegin
  2
3_3CS2i_0_in_070819_0
 70
     2
 10
0.0
 20
0.0
 30
0.0
  3
3_3CS2i_0_in_070819_0
  1

  0
ATTDEF
  5
11A
330
116
100
AcDbEntity
  8
AM_6
100
AcDbText
 10
7.3125
 20
2.3125
 30
0.0
 40
0.5
  1
S-2000 Collar -Inch
100
AcDbAttributeDefinition
  3

  2
NN
 70
     8
280
     0
  0
ATTDEF
  5
11B
330
116
100
AcDbEntity
  8
AM_6
100
AcDbText
 10
7.3125
 20
1.8125
 30
0.0
 40
0.5
  1
S-2000 Bearings
100
AcDbAttributeDefinition
  3

  2
NT
 70
     8
280
     0
  0
ATTDEF
  5
11C
330
116
100
AcDbEntity
  8
AM_6
100
AcDbText
 10
7.3125
 20
1.3125
 30
0.0
 40
0.5
  1
3CS2i
100
AcDbAttributeDefinition
  3

  2
NB
 70
     8
280
     0
  0
ATTDEF
  5
11D
330
116
100
AcDbEntity
  8
AM_6
100
AcDbText
 10
7.3125
 20
0.8125
 30
0.0
 40
0.5
  1
$BORE.CS2i
100
AcDbAttributeDefinition
  3

  2
NBSYN
 70
     8
280
     0
  0
ATTDEF
  5
11E
330
116
100
AcDbEntity
  8
AM_6
100
AcDbText
 10
7.3125
 20
0.3125
 30
0.0
 40
0.5
  1
3CS2i
100
AcDbAttributeDefinition
  3

  2
LINA
 70
     8
280
     0
  0
ATTDEF
  5
11F
330
116
100
AcDbEntity
  8
AM_6
100
AcDbText
 10
7.3125
 20
-0.1875
 30
0.0
 40
0.5
  1
3
100
AcDbAttributeDefinition
  3

  2
BORE
 70
     8
280
     0
  0
ATTDEF
  5
120
330
116
100
AcDbEntity
  8
AM_6
100
AcDbText
 10
7.3125
 20
-0.6875
 30
0.0
 40
0.5
  1
3.000000
100
AcDbAttributeDefinition
  3

  2
BORE1
 70
     8
280
     0
  0
ATTDEF
  5
121
330
116
100
AcDbEntity
  8
AM_6
100
AcDbText
 10
7.3125
 20
-1.1875
 30
0.0
 40
0.5
  1
4-45/64
100
AcDbAttributeDefinition
  3

  2
L1
 70
     8
280
     0
  0
ATTDEF
  5
122
330
116
100
AcDbEntity
  8
AM_6
100
AcDbText
 10
7.3125
 20
-1.6875
 30
0.0
 40
0.5
  1
4.70313
100
AcDbAttributeDefinition
  3

  2
L
 70
     8
280
     0
  0
ATTDEF
  5
123
330
116
100
AcDbEntity
  8
AM_6
100
AcDbText
 10
7.3125
 20
-2.1875
 30
0.0
 40
0.5
  1
4.62500
100
AcDbAttributeDefinition
  3

  2
L2
 70
     8
280
     0
  0
ATTDEF
  5
124
330
116
100
AcDbEntity
  8
AM_6
100
AcDbText
 10
7.3125
 20
-2.6875
 30
0.0
 40
0.5
  1
4.50
100
AcDbAttributeDefinition
  3

  2
A
 70
     8
280
     0
  0
ATTDEF
  5
125
330
116
100
AcDbEntity
  8
AM_6
100
AcDbText
 10
7.3125
 20
-3.1875
 30
0.0
 40
0.5
  1
1.94
100
AcDbAttributeDefinition
  3

  2
B
 70
     8
280
     0
  0
ATTDEF
  5
126
330
116
100
AcDbEntity
  8
AM_6
100
AcDbText
 10
7.3125
 20
-3.6875
 30
0.0
 40
0.5
  1
3.47
100
AcDbAttributeDefinition
  3

  2
C
 70
     8
280
     0
  0
ATTDEF
  5
127
330
116
100
AcDbEntity
  8
AM_6
100
AcDbText
 10
7.3125
 20
-4.1875
 30
0.0
 40
0.5
  1
4.78
100
AcDbAttributeDefinition
  3

  2
D
 70
     8
280
     0
  0
ATTDEF
  5
128
330
116
100
AcDbEntity
  8
AM_6
100
AcDbText
 10
7.3125
 20
-4.6875
 30
0.0
 40
0.5
  1
0.54
100
AcDbAttributeDefinition
  3

  2
E
 70
     8
280
     0
  0
ATTDEF
  5
129
330
116
100
AcDbEntity
  8
AM_6
100
AcDbText
 10
7.3125
 20
-5.1875
 30
0.0
 40
0.5
  1
0.442
100
AcDbAttributeDefinition
  3

  2
F
 70
     8
280
     0
  0
ATTDEF
  5
12A
330
116
100
AcDbEntity
  8
AM_6
100
AcDbText
 10
7.3125
 20
-5.6875
 30
0.0
 40
0.5
  1
1/2-13
100
AcDbAttributeDefinition
  3

  2
CS
 70
     8
280
     0
  0
ATTDEF
  5
12B
330
116
100
AcDbEntity
  8
AM_6
100
AcDbText
 10
7.3125
 20
-6.1875
 30
0.0
 40
0.5
  1
0.5000
100
AcDbAttributeDefinition
  3

  2
NDM
 70
     8
280
     0
  0
ATTDEF
  5
12C
330
116
100
AcDbEntity
  8
AM_6
100
AcDbText
 10
7.3125
 20
-6.6875
 30
0.0
 40
0.5
  1
0.4170
100
AcDbAttributeDefinition
  3

  2
KDM
 70
     8
280
     0
  0
ATTDEF
  5
12D
330
116
100
AcDbEntity
  8
AM_6
100
AcDbText
 10
7.3125
 20
-7.1875
 30
0.0
 40
0.5
  1
2
100
AcDbAttributeDefinition
  3

  2
DD
 70
     8
280
     0
  0
ATTDEF
  5
12E
330
116
100
AcDbEntity
  8
AM_6
100
AcDbText
 10
7.3125
 20
-7.6875
 30
0.0
 40
0.5
  1
baldor
100
AcDbAttributeDefinition
  3

  2
COMPANY
 70
     8
280
     0
  0
CIRCLE
  5
12F
330
116
100
AcDbEntity
  8
AM_9
100
AcDbCircle
 10
0.0
 20
0.0
 30
0.0
 40
2.202380952380952
  0
CIRCLE
  5
130
330
116
100
AcDbEntity
  8
AM_9
100
AcDbCircle
 10
0.0
 20
0.0
 30
0.0
 40
2.25609756097561
  0
LINE
  5
131
330
116
100
AcDbEntity
  8
AM_9
100
AcDbLine
 10
2.047297034190511
 20
1.075281871787458
 30
0.0
 11
2.139690869595015
 21
0.8771426523500776
 31
0.0
  0
LINE
  5
132
330
116
100
AcDbEntity
  8
AM_9
100
AcDbLine
 10
1.668033985104457
 20
0.5479282319011737
 30
0.0
 11
2.175380893805344
 21
0.7845079807696628
 31
0.0
  0
LINE
  5
133
330
116
100
AcDbEntity
  8
AM_9
100
AcDbLine
 10
1.999275864137995
 20
1.162166435627835
 30
0.0
 11
1.491928955437107
 21
0.9255866867593459
 31
0.0
  0
LINE
  5
134
330
116
100
AcDbEntity
  8
AM_9
100
AcDbLine
 10
-0.1093112198038348
 20
2.309915
 30
0.0
 11
0.1093112198038347
 21
2.309915
 31
0.0
  0
LINE
  5
135
330
116
100
AcDbEntity
  8
AM_9
100
AcDbLine
 10
0.20835
 20
1.743316666666673
 30
0.0
 11
0.20835
 21
2.303112042981112
 31
0.0
  0
LINE
  5
136
330
116
100
AcDbEntity
  8
AM_9
100
AcDbLine
 10
-0.20835
 20
2.303112042981112
 30
0.0
 11
-0.20835
 21
1.743316666666673
 31
0.0
  0
LINE
  5
137
330
116
100
AcDbEntity
  8
AM_9
100
AcDbLine
 10
1.491928955437107
 20
0.9255866867593459
 30
0.0
 11
1.668033985104457
 21
0.5479282319011739
 31
0.0
  0
LINE
  5
138
330
116
100
AcDbEntity
  8
AM_9
100
AcDbLine
 10
1.491928955437107
 20
0.9255866867593459
 30
0.0
 11
1.461818353301704
 21
0.9365460496724626
 31
0.0
  0
LINE
  5
139
330
116
100
AcDbEntity
  8
AM_9
100
AcDbLine
 10
1.656716799087248
 20
0.5168345188671335
 30
0.0
 11
1.668033985104457
 21
0.5479282319011739
 31
0.0
  0
LINE
  5
13A
330
116
100
AcDbEntity
  8
AM_9
100
AcDbLine
 10
-0.20835
 20
1.743316666666673
 30
0.0
 11
0.20835
 21
1.743316666666673
 31
0.0
  0
LINE
  5
13B
330
116
100
AcDbEntity
  8
AM_9
100
AcDbLine
 10
-0.20835
 20
1.743316666666673
 30
0.0
 11
-0.2322594748778105
 21
1.719407191788859
 31
0.0
  0
LINE
  5
13C
330
116
100
AcDbEntity
  8
AM_9
100
AcDbLine
 10
0.2318729098835108
 20
1.719793756783159
 30
0.0
 11
0.20835
 21
1.743316666666673
 31
0.0
  0
LINE
  5
13D
330
116
100
AcDbEntity
  8
AM_5
100
AcDbLine
 10
-0.25
 20
2.29894676971869
 30
0.0
 11
-0.25
 21
1.716893997892706
 31
0.0
  0
LINE
  5
13E
330
116
100
AcDbEntity
  8
AM_5
100
AcDbLine
 10
-0.125
 20
1.701666666666667
 30
0.0
 11
-0.25
 21
1.701666666666667
 31
0.0
  0
LINE
  5
13F
330
116
100
AcDbEntity
  8
AM_5
100
AcDbLine
 10
0.25
 20
2.29894676971869
 30
0.0
 11
0.25
 21
1.716893997892706
 31
0.0
  0
LINE
  5
140
330
116
100
AcDbEntity
  8
AM_5
100
AcDbLine
 10
0.125
 20
1.701666666666667
 30
0.0
 11
0.25
 21
1.701666666666667
 31
0.0
  0
LINE
  5
141
330
116
100
AcDbEntity
  8
AM_5
100
AcDbLine
 10
2.189207924813976
 20
0.7449999408937464
 30
0.0
 11
1.661688965241821
 21
0.4990138102232931
 31
0.0
  0
LINE
  5
142
330
116
100
AcDbEntity
  8
AM_5
100
AcDbLine
 10
1.595061033658287
 20
0.6058669353491756
 30
0.0
 11
1.647888316375874
 21
0.4925784619695943
 31
0.0
  0
LINE
  5
143
330
116
100
AcDbEntity
  8
AM_5
100
AcDbLine
 10
1.977898793943626
 20
1.198153834412071
 30
0.0
 11
1.450379834371471
 21
0.9521677037416179
 31
0.0
  0
LINE
  5
144
330
116
100
AcDbEntity
  8
AM_5
100
AcDbLine
 10
1.489406468223112
 20
0.832443882108338
 30
0.0
 11
1.436579185505525
 21
0.9457323554879192
 31
0.0
  0
CIRCLE
  5
145
330
116
100
AcDbEntity
  8
AM_4
100
AcDbCircle
 10
0.0
 20
0.0
 30
0.0
 40
1.735
  0
CIRCLE
  5
146
330
116
100
AcDbEntity
  8
AM_4
100
AcDbCircle
 10
0.0
 20
0.0
 30
0.0
 40
2.165166666666666
  0
CIRCLE
  5
147
330
116
100
AcDbEntity
  8
AM_4
100
AcDbCircle
 10
-0.0000000000000002
 20
-0.0000000000000002
 30
0.0
 40
2.3125
  0
ENDBLK
  5
119
330
116
100
AcDbEntity
  8
0
100
AcDbBlockEnd
  0
BLOCK
  5
14A
330
148
100
AcDbEntity
  8
0
100
AcDbBlockBegin
  2
4_070011i_0_in_070819_0
 70
     2
 10
0.0
 20
0.0
 30
0.0
  3
4_070011i_0_in_070819_0
  1

  0
ATTDEF
  5
14C
330
148
100
AcDbEntity
  8
AM_6
100
AcDbText
 10
7.456688
 20
2.456688
 30
0.0
 40
0.5
  1
S-2000 Insert -Inch
100
AcDbAttributeDefinition
  3

  2
NN
 70
     8
280
     0
  0
ATTDEF
  5
14D
330
148
100
AcDbEntity
  8
AM_6
100
AcDbText
 10
7.456688
 20
1.956688
 30
0.0
 40
0.5
  1
S-2000 Bearings
100
AcDbAttributeDefinition
  3

  2
NT
 70
     8
280
     0
  0
ATTDEF
  5
14E
330
148
100
AcDbEntity
  8
AM_6
100
AcDbText
 10
7.456688
 20
1.456688
 30
0.0
 40
0.5
  1
070011i
100
AcDbAttributeDefinition
  3

  2
NB
 70
     8
280
     0
  0
ATTDEF
  5
14F
330
148
100
AcDbEntity
  8
AM_6
100
AcDbText
 10
7.456688
 20
0.9566880000000002
 30
0.0
 40
0.5
  1
$PN.i
100
AcDbAttributeDefinition
  3

  2
NBSYN
 70
     8
280
     0
  0
ATTDEF
  5
150
330
148
100
AcDbEntity
  8
AM_6
100
AcDbText
 10
7.456688
 20
0.4566880000000002
 30
0.0
 40
0.5
  1
070011i
100
AcDbAttributeDefinition
  3

  2
LINA
 70
     8
280
     0
  0
ATTDEF
  5
151
330
148
100
AcDbEntity
  8
AM_6
100
AcDbText
 10
7.456688
 20
-0.0433119999999998
 30
0.0
 40
0.5
  1
3
100
AcDbAttributeDefinition
  3

  2
SS
 70
     8
280
     0
  0
ATTDEF
  5
152
330
148
100
AcDbEntity
  8
AM_6
100
AcDbText
 10
7.456688
 20
-0.5433119999999998
 30
0.0
 40
0.5
  1
3.47
100
AcDbAttributeDefinition
  3

  2
CC
 70
     8
280
     0
  0
ATTDEF
  5
153
330
148
100
AcDbEntity
  8
AM_6
100
AcDbText
 10
7.456688
 20
-1.043312
 30
0.0
 40
0.5
  1
3.000000
100
AcDbAttributeDefinition
  3

  2
SS1
 70
     8
280
     0
  0
ATTDEF
  5
154
330
148
100
AcDbEntity
  8
AM_6
100
AcDbText
 10
7.456688
 20
-1.543312
 30
0.0
 40
0.5
  1
070011
100
AcDbAttributeDefinition
  3

  2
PN
 70
     8
280
     0
  0
ATTDEF
  5
155
330
148
100
AcDbEntity
  8
AM_6
100
AcDbText
 10
7.456688
 20
-2.043312
 30
0.0
 40
0.5
  1
INS-S2-300R
100
AcDbAttributeDefinition
  3

  2
DESCRIPTION
 70
     8
280
     0
  0
ATTDEF
  5
156
330
148
100
AcDbEntity
  8
AM_6
100
AcDbText
 10
7.456688
 20
-2.543312
 30
0.0
 40
0.5
  1
Contact Seal
100
AcDbAttributeDefinition
  3

  2
ST
 70
     8
280
     0
  0
ATTDEF
  5
157
330
148
100
AcDbEntity
  8
AM_6
100
AcDbText
 10
7.456688
 20
-3.043312
 30
0.0
 40
0.5
  1
1
100
AcDbAttributeDefinition
  3

  2
ST1
 70
     8
280
     0
  0
ATTDEF
  5
158
330
148
100
AcDbEntity
  8
AM_6
100
AcDbText
 10
7.456688
 20
-3.543312
 30
0.0
 40
0.5
  1
5.1181
100
AcDbAttributeDefinition
  3

  2
A
 70
     8
280
     0
  0
ATTDEF
  5
159
330
148
100
AcDbEntity
  8
AM_6
100
AcDbText
 10
7.456688
 20
-4.043312
 30
0.0
 40
0.5
  1
1-9/32
100
AcDbAttributeDefinition
  3

  2
B
 70
     8
280
     0
  0
ATTDEF
  5
15A
330
148
100
AcDbEntity
  8
AM_6
100
AcDbText
 10
7.456688
 20
-4.543312
 30
0.0
 40
0.5
  1
3-19/32
100
AcDbAttributeDefinition
  3

  2
C
 70
     8
280
     0
  0
ATTDEF
  5
15B
330
148
100
AcDbEntity
  8
AM_6
100
AcDbText
 10
7.456688
 20
-5.043312
 30
0.0
 40
0.5
  1
1.219
100
AcDbAttributeDefinition
  3

  2
D
 70
     8
280
     0
  0
ATTDEF
  5
15C
330
148
100
AcDbEntity
  8
AM_6
100
AcDbText
 10
7.456688
 20
-5.543312
 30
0.0
 40
0.5
  1
4-5/8
100
AcDbAttributeDefinition
  3

  2
E
 70
     8
280
     0
  0
ATTDEF
  5
15D
330
148
100
AcDbEntity
  8
AM_6
100
AcDbText
 10
7.456688
 20
-6.043312
 30
0.0
 40
0.5
  1
0.53125
100
AcDbAttributeDefinition
  3

  2
F
 70
     8
280
     0
  0
ATTDEF
  5
15E
330
148
100
AcDbEntity
  8
AM_6
100
AcDbText
 10
7.456688
 20
-6.543312
 30
0.0
 40
0.5
  1
2
100
AcDbAttributeDefinition
  3

  2
DD
 70
     8
280
     0
  0
ATTDEF
  5
15F
330
148
100
AcDbEntity
  8
AM_6
100
AcDbText
 10
7.456688
 20
-7.043312
 30
0.0
 40
0.5
  1
baldor
100
AcDbAttributeDefinition
  3

  2
COMPANY
 70
     8
280
     0
  0
CIRCLE
  5
160
330
148
100
AcDbEntity
  8
AM_9
100
AcDbCircle
 10
0.0
 20
0.0
 30
0.0
 40
2.456688
  0
CIRCLE
  5
161
330
148
100
AcDbEntity
  8
AM_9
100
AcDbCircle
 10
0.0
 20
0.0
 30
0.0
 40
2.04724
  0
CIRCLE
  5
162
330
148
100
AcDbEntity
  8
AM_9
100
AcDbCircle
 10
0.0
 20
0.0
 30
0.0
 40
1.919115
  0
LINE
  5
163
330
148
100
AcDbEntity
  8
AM_9
100
AcDbLine
 10
1.439299218785825
 20
0.9690682862162098
 30
0.0
 11
1.223281662920272
 21
0.868337645620177
 31
0.0
  0
LINE
  5
164
330
148
100
AcDbEntity
  8
AM_9
100
AcDbLine
 10
1.451363993662846
 20
0.3788701068955351
 30
0.0
 11
1.667393947872946
 21
0.4796065289345783
 31
0.0
  0
LINE
  5
165
330
148
100
AcDbEntity
  8
AM_9
100
AcDbLine
 10
-0.2699999999999999
 20
1.713982065241755
 30
0.0
 11
-0.2699999999999999
 21
1.475630598630314
 31
0.0
  0
LINE
  5
166
330
148
100
AcDbEntity
  8
AM_9
100
AcDbLine
 10
0.2700000000000001
 20
1.475499915282952
 30
0.0
 11
0.27
 21
1.713862596592854
 31
0.0
  0
LINE
  5
167
330
148
100
AcDbEntity
  8
AM_7
100
AcDbLine
 10
-0.0806381543850558
 20
-0.0376021889292366
 30
0.0
 11
2.160692067236947
 21
1.007547257867343
 31
0.0
  0
CIRCLE
  5
168
330
148
100
AcDbEntity
  8
AM_4
100
AcDbCircle
 10
0.0
 20
0.0
 30
0.0
 40
2.430925
  0
CIRCLE
  5
169
330
148
100
AcDbEntity
  8
AM_4
100
AcDbCircle
 10
0.0
 20
0.0
 30
0.0
 40
1.735
  0
CIRCLE
  5
16A
330
148
100
AcDbEntity
  8
AM_4
100
AcDbCircle
 10
0.0
 20
0.0
 30
0.0
 40
1.5
  0
ENDBLK
  5
14B
330
148
100
AcDbEntity
  8
0
100
AcDbBlockEnd
  0
BLOCK
  5
16D
330
16B
100
AcDbEntity
  8
0
100
AcDbBlockBegin
  2
5_070819H_0_in_070819_0
 70
     2
 10
0.0
 20
0.0
 30
0.0
  3
5_070819H_0_in_070819_0
  1

  0
ATTDEF
  5
16F
330
16B
100
AcDbEntity
  8
AM_6
100
AcDbText
 10
9.25
 20
4.5
 30
0.0
 40
0.5
  1
TPHU-S2 -(Contact Seal)-Housing
100
AcDbAttributeDefinition
  3

  2
NN
 70
     8
280
     0
  0
ATTDEF
  5
170
330
16B
100
AcDbEntity
  8
AM_6
100
AcDbText
 10
9.25
 20
4.0
 30
0.0
 40
0.5
  1
S-2000 TPHU Take-Up Bearing -Inch
100
AcDbAttributeDefinition
  3

  2
NT
 70
     8
280
     0
  0
ATTDEF
  5
171
330
16B
100
AcDbEntity
  8
AM_6
100
AcDbText
 10
9.25
 20
3.5
 30
0.0
 40
0.5
  1
070819H
100
AcDbAttributeDefinition
  3

  2
NB
 70
     8
280
     0
  0
ATTDEF
  5
172
330
16B
100
AcDbEntity
  8
AM_6
100
AcDbText
 10
9.25
 20
3.0
 30
0.0
 40
0.5
  1
$PN.H
100
AcDbAttributeDefinition
  3

  2
NBSYN
 70
     8
280
     0
  0
ATTDEF
  5
173
330
16B
100
AcDbEntity
  8
AM_6
100
AcDbText
 10
9.25
 20
2.5
 30
0.0
 40
0.5
  1
070819
100
AcDbAttributeDefinition
  3

  2
LINA
 70
     8
280
     0
  0
ATTDEF
  5
174
330
16B
100
AcDbEntity
  8
AM_6
100
AcDbText
 10
9.25
 20
2.0
 30
0.0
 40
0.5
  1
3
100
AcDbAttributeDefinition
  3

  2
SS
 70
     8
280
     0
  0
ATTDEF
  5
175
330
16B
100
AcDbEntity
  8
AM_6
100
AcDbText
 10
9.25
 20
1.5
 30
0.0
 40
0.5
  1
5.1181
100
AcDbAttributeDefinition
  3

  2
BORE
 70
     8
280
     0
  0
ATTDEF
  5
176
330
16B
100
AcDbEntity
  8
AM_6
100
AcDbText
 10
9.25
 20
1.0
 30
0.0
 40
0.5
  1
3.000000
100
AcDbAttributeDefinition
  3

  2
SS1
 70
     8
280
     0
  0
ATTDEF
  5
177
330
16B
100
AcDbEntity
  8
AM_6
100
AcDbText
 10
9.25
 20
0.5
 30
0.0
 40
0.5
  1
070819
100
AcDbAttributeDefinition
  3

  2
PN
 70
     8
280
     0
  0
ATTDEF
  5
178
330
16B
100
AcDbEntity
  8
AM_6
100
AcDbText
 10
9.25
 20
0.0
 30
0.0
 40
0.5
  1
TPHU-S2-300R
100
AcDbAttributeDefinition
  3

  2
DESCRIPTION
 70
     8
280
     0
  0
ATTDEF
  5
179
330
16B
100
AcDbEntity
  8
AM_6
100
AcDbText
 10
9.25
 20
-0.5
 30
0.0
 40
0.5
  1
Non-Expansion Type
100
AcDbAttributeDefinition
  3

  2
EF
 70
     8
280
     0
  0
ATTDEF
  5
17A
330
16B
100
AcDbEntity
  8
AM_6
100
AcDbText
 10
9.25
 20
-1.0
 30
0.0
 40
0.5
  1
1
100
AcDbAttributeDefinition
  3

  2
EF1
 70
     8
280
     0
  0
ATTDEF
  5
17B
330
16B
100
AcDbEntity
  8
AM_6
100
AcDbText
 10
9.25
 20
-1.5
 30
0.0
 40
0.5
  1
Contact Seal
100
AcDbAttributeDefinition
  3

  2
ST
 70
     8
280
     0
  0
ATTDEF
  5
17C
330
16B
100
AcDbEntity
  8
AM_6
100
AcDbText
 10
9.25
 20
-2.0
 30
0.0
 40
0.5
  1
1
100
AcDbAttributeDefinition
  3

  2
ST1
 70
     8
280
     0
  0
ATTDEF
  5
17D
330
16B
100
AcDbEntity
  8
AM_6
100
AcDbText
 10
9.25
 20
-2.5
 30
0.0
 40
0.5
  1
3-19/32
100
AcDbAttributeDefinition
  3

  2
A
 70
     8
280
     0
  0
ATTDEF
  5
17E
330
16B
100
AcDbEntity
  8
AM_6
100
AcDbText
 10
9.25
 20
-3.0
 30
0.0
 40
0.5
  1
3.5937500
100
AcDbAttributeDefinition
  3

  2
A1
 70
     8
280
     0
  0
ATTDEF
  5
17F
330
16B
100
AcDbEntity
  8
AM_6
100
AcDbText
 10
9.25
 20
-3.5
 30
0.0
 40
0.5
  1
2-3/4
100
AcDbAttributeDefinition
  3

  2
B
 70
     8
280
     0
  0
ATTDEF
  5
180
330
16B
100
AcDbEntity
  8
AM_6
100
AcDbText
 10
9.25
 20
-4.0
 30
0.0
 40
0.5
  1
2.750000
100
AcDbAttributeDefinition
  3

  2
B1
 70
     8
280
     0
  0
ATTDEF
  5
181
330
16B
100
AcDbEntity
  8
AM_6
100
AcDbText
 10
9.25
 20
-4.5
 30
0.0
 40
0.5
  1
13/16
100
AcDbAttributeDefinition
  3

  2
C
 70
     8
280
     0
  0
ATTDEF
  5
182
330
16B
100
AcDbEntity
  8
AM_6
100
AcDbText
 10
9.25
 20
-5.0
 30
0.0
 40
0.5
  1
0.812500
100
AcDbAttributeDefinition
  3

  2
C1
 70
     8
280
     0
  0
ATTDEF
  5
183
330
16B
100
AcDbEntity
  8
AM_6
100
AcDbText
 10
9.25
 20
-5.5
 30
0.0
 40
0.5
  1
7-1/8
100
AcDbAttributeDefinition
  3

  2
D
 70
     8
280
     0
  0
ATTDEF
  5
184
330
16B
100
AcDbEntity
  8
AM_6
100
AcDbText
 10
9.25
 20
-6.0
 30
0.0
 40
0.5
  1
7.125000
100
AcDbAttributeDefinition
  3

  2
D1
 70
     8
280
     0
  0
ATTDEF
  5
185
330
16B
100
AcDbEntity
  8
AM_6
100
AcDbText
 10
9.25
 20
-6.5
 30
0.0
 40
0.5
  1
3-5/16
100
AcDbAttributeDefinition
  3

  2
E
 70
     8
280
     0
  0
ATTDEF
  5
186
330
16B
100
AcDbEntity
  8
AM_6
100
AcDbText
 10
9.25
 20
-7.0
 30
0.0
 40
0.5
  1
3.312500
100
AcDbAttributeDefinition
  3

  2
E1
 70
     8
280
     0
  0
ATTDEF
  5
187
330
16B
100
AcDbEntity
  8
AM_6
100
AcDbText
 10
9.25
 20
-7.5
 30
0.0
 40
0.5
  1
1-7/16
100
AcDbAttributeDefinition
  3

  2
F
 70
     8
280
     0
  0
ATTDEF
  5
188
330
16B
100
AcDbEntity
  8
AM_6
100
AcDbText
 10
9.25
 20
-8.0
 30
0.0
 40
0.5
  1
1.437500
100
AcDbAttributeDefinition
  3

  2
F1
 70
     8
280
     0
  0
ATTDEF
  5
189
330
16B
100
AcDbEntity
  8
AM_6
100
AcDbText
 10
9.25
 20
-8.5
 30
0.0
 40
0.5
  1
9/16
100
AcDbAttributeDefinition
  3

  2
G
 70
     8
280
     0
  0
ATTDEF
  5
18A
330
16B
100
AcDbEntity
  8
AM_6
100
AcDbText
 10
9.25
 20
-9.0
 30
0.0
 40
0.5
  1
0.562500
100
AcDbAttributeDefinition
  3

  2
G1
 70
     8
280
     0
  0
ATTDEF
  5
18B
330
16B
100
AcDbEntity
  8
AM_6
100
AcDbText
 10
9.25
 20
-9.5
 30
0.0
 40
0.5
  1
8-1/2
100
AcDbAttributeDefinition
  3

  2
H
 70
     8
280
     0
  0
ATTDEF
  5
18C
330
16B
100
AcDbEntity
  8
AM_6
100
AcDbText
 10
9.25
 20
-10.0
 30
0.0
 40
0.5
  1
8.500000
100
AcDbAttributeDefinition
  3

  2
H1
 70
     8
280
     0
  0
ATTDEF
  5
18D
330
16B
100
AcDbEntity
  8
AM_6
100
AcDbText
 10
9.25
 20
-10.5
 30
0.0
 40
0.5
  1
8-1/2
100
AcDbAttributeDefinition
  3

  2
J
 70
     8
280
     0
  0
ATTDEF
  5
18E
330
16B
100
AcDbEntity
  8
AM_6
100
AcDbText
 10
9.25
 20
-11.0
 30
0.0
 40
0.5
  1
8.500000
100
AcDbAttributeDefinition
  3

  2
J1
 70
     8
280
     0
  0
ATTDEF
  5
18F
330
16B
100
AcDbEntity
  8
AM_6
100
AcDbText
 10
9.25
 20
-11.5
 30
0.0
 40
0.5
  1
4
100
AcDbAttributeDefinition
  3

  2
K
 70
     8
280
     0
  0
ATTDEF
  5
190
330
16B
100
AcDbEntity
  8
AM_6
100
AcDbText
 10
9.25
 20
-12.0
 30
0.0
 40
0.5
  1
4.000000
100
AcDbAttributeDefinition
  3

  2
K1
 70
     8
280
     0
  0
ATTDEF
  5
191
330
16B
100
AcDbEntity
  8
AM_6
100
AcDbText
 10
9.25
 20
-12.5
 30
0.0
 40
0.5
  1
4-45/64
100
AcDbAttributeDefinition
  3

  2
L
 70
     8
280
     0
  0
ATTDEF
  5
192
330
16B
100
AcDbEntity
  8
AM_6
100
AcDbText
 10
9.25
 20
-13.0
 30
0.0
 40
0.5
  1
4.7031250
100
AcDbAttributeDefinition
  3

  2
L1
 70
     8
280
     0
  0
ATTDEF
  5
193
330
16B
100
AcDbEntity
  8
AM_6
100
AcDbText
 10
9.25
 20
-13.5
 30
0.0
 40
0.5
  1
8
100
AcDbAttributeDefinition
  3

  2
M
 70
     8
280
     0
  0
ATTDEF
  5
194
330
16B
100
AcDbEntity
  8
AM_6
100
AcDbText
 10
9.25
 20
-14.0
 30
0.0
 40
0.5
  1
8.000000
100
AcDbAttributeDefinition
  3

  2
M1
 70
     8
280
     0
  0
ATTDEF
  5
195
330
16B
100
AcDbEntity
  8
AM_6
100
AcDbText
 10
9.25
 20
-14.5
 30
0.0
 40
0.5
  1
1-15/16
100
AcDbAttributeDefinition
  3

  2
N
 70
     8
280
     0
  0
ATTDEF
  5
196
330
16B
100
AcDbEntity
  8
AM_6
100
AcDbText
 10
9.25
 20
-15.0
 30
0.0
 40
0.5
  1
1.937500
100
AcDbAttributeDefinition
  3

  2
N1
 70
     8
280
     0
  0
ATTDEF
  5
197
330
16B
100
AcDbEntity
  8
AM_6
100
AcDbText
 10
9.25
 20
-15.5
 30
0.0
 40
0.5
  1
1-3/4
100
AcDbAttributeDefinition
  3

  2
P
 70
     8
280
     0
  0
ATTDEF
  5
198
330
16B
100
AcDbEntity
  8
AM_6
100
AcDbText
 10
9.25
 20
-16.0
 30
0.0
 40
0.5
  1
1.750000
100
AcDbAttributeDefinition
  3

  2
P1
 70
     8
280
     0
  0
ATTDEF
  5
199
330
16B
100
AcDbEntity
  8
AM_6
100
AcDbText
 10
9.25
 20
-16.5
 30
0.0
 40
0.5
  1
1-1/16
100
AcDbAttributeDefinition
  3

  2
Q
 70
     8
280
     0
  0
ATTDEF
  5
19A
330
16B
100
AcDbEntity
  8
AM_6
100
AcDbText
 10
9.25
 20
-17.0
 30
0.0
 40
0.5
  1
1.062500
100
AcDbAttributeDefinition
  3

  2
Q1
 70
     8
280
     0
  0
ATTDEF
  5
19B
330
16B
100
AcDbEntity
  8
AM_6
100
AcDbText
 10
9.25
 20
-17.5
 30
0.0
 40
0.5
  1
3-53/64
100
AcDbAttributeDefinition
  3

  2
R
 70
     8
280
     0
  0
ATTDEF
  5
19C
330
16B
100
AcDbEntity
  8
AM_6
100
AcDbText
 10
9.25
 20
-18.0
 30
0.0
 40
0.5
  1
3.828125
100
AcDbAttributeDefinition
  3

  2
R1
 70
     8
280
     0
  0
ATTDEF
  5
19D
330
16B
100
AcDbEntity
  8
AM_6
100
AcDbText
 10
9.25
 20
-18.5
 30
0.0
 40
0.5
  1
2-29/64
100
AcDbAttributeDefinition
  3

  2
S
 70
     8
280
     0
  0
ATTDEF
  5
19E
330
16B
100
AcDbEntity
  8
AM_6
100
AcDbText
 10
9.25
 20
-19.0
 30
0.0
 40
0.5
  1
2.453125
100
AcDbAttributeDefinition
  3

  2
S1
 70
     8
280
     0
  0
ATTDEF
  5
19F
330
16B
100
AcDbEntity
  8
AM_6
100
AcDbText
 10
9.25
 20
-19.5
 30
0.0
 40
0.5
  1
5/16
100
AcDbAttributeDefinition
  3

  2
T
 70
     8
280
     0
  0
ATTDEF
  5
1A0
330
16B
100
AcDbEntity
  8
AM_6
100
AcDbText
 10
9.25
 20
-20.0
 30
0.0
 40
0.5
  1
0.312500
100
AcDbAttributeDefinition
  3

  2
T1
 70
     8
280
     0
  0
ATTDEF
  5
1A1
330
16B
100
AcDbEntity
  8
AM_6
100
AcDbText
 10
9.25
 20
-20.5
 30
0.0
 40
0.5
  1
1-1/2
100
AcDbAttributeDefinition
  3

  2
U
 70
     8
280
     0
  0
ATTDEF
  5
1A2
330
16B
100
AcDbEntity
  8
AM_6
100
AcDbText
 10
9.25
 20
-21.0
 30
0.0
 40
0.5
  1
1.500000
100
AcDbAttributeDefinition
  3

  2
U1
 70
     8
280
     0
  0
ATTDEF
  5
1A3
330
16B
100
AcDbEntity
  8
AM_6
100
AcDbText
 10
9.25
 20
-21.5
 30
0.0
 40
0.5
  1
2-3/4
100
AcDbAttributeDefinition
  3

  2
V
 70
     8
280
     0
  0
ATTDEF
  5
1A4
330
16B
100
AcDbEntity
  8
AM_6
100
AcDbText
 10
9.25
 20
-22.0
 30
0.0
 40
0.5
  1
2.750000
100
AcDbAttributeDefinition
  3

  2
V1
 70
     8
280
     0
  0
ATTDEF
  5
1A5
330
16B
100
AcDbEntity
  8
AM_6
100
AcDbText
 10
9.25
 20
-22.5
 30
0.0
 40
0.5
  1
1
100
AcDbAttributeDefinition
  3

  2
W
 70
     8
280
     0
  0
ATTDEF
  5
1A6
330
16B
100
AcDbEntity
  8
AM_6
100
AcDbText
 10
9.25
 20
-23.0
 30
0.0
 40
0.5
  1
1.000000
100
AcDbAttributeDefinition
  3

  2
W1
 70
     8
280
     0
  0
ATTDEF
  5
1A7
330
16B
100
AcDbEntity
  8
AM_6
100
AcDbText
 10
9.25
 20
-23.5
 30
0.0
 40
0.5
  1
1/4
100
AcDbAttributeDefinition
  3

  2
X
 70
     8
280
     0
  0
ATTDEF
  5
1A8
330
16B
100
AcDbEntity
  8
AM_6
100
AcDbText
 10
9.25
 20
-24.0
 30
0.0
 40
0.5
  1
0.250000
100
AcDbAttributeDefinition
  3

  2
X1
 70
     8
280
     0
  0
ATTDEF
  5
1A9
330
16B
100
AcDbEntity
  8
AM_6
100
AcDbText
 10
9.25
 20
-24.5
 30
0.0
 40
0.5
  1
0.025
100
AcDbAttributeDefinition
  3

  2
Y
 70
     8
280
     0
  0
ATTDEF
  5
1AA
330
16B
100
AcDbEntity
  8
AM_6
100
AcDbText
 10
9.25
 20
-25.0
 30
0.0
 40
0.5
  1
3-15/32
100
AcDbAttributeDefinition
  3

  2
Z
 70
     8
280
     0
  0
ATTDEF
  5
1AB
330
16B
100
AcDbEntity
  8
AM_6
100
AcDbText
 10
9.25
 20
-25.5
 30
0.0
 40
0.5
  1
3.468750
100
AcDbAttributeDefinition
  3

  2
Z1
 70
     8
280
     0
  0
ATTDEF
  5
1AC
330
16B
100
AcDbEntity
  8
AM_6
100
AcDbText
 10
9.25
 20
-26.0
 30
0.0
 40
0.5
  1
baldor
100
AcDbAttributeDefinition
  3

  2
COMPANY
 70
     8
280
     0
  0
LWPOLYLINE
  5
1AD
330
16B
100
AcDbEntity
  8
AM_9
100
AcDbPolyline
 90
        6
 70
     0
 43
0.0
 10
2.494438257849294
 20
2.083333333333334
 10
2.453912862954322
 20
2.130918032451583
 10
2.41883795091067
 20
2.170650355822943
 10
2.397909312900024
 20
2.193748145778665
 10
2.38724802782507
 20
2.205345064529657
 10
2.384483987970749
 20
2.208333333333333
  0
LWPOLYLINE
  5
1AE
330
16B
100
AcDbEntity
  8
AM_9
100
AcDbPolyline
 90
        5
 70
     0
 43
0.0
 10
3.24751460213578
 20
0.1270783573819214
 10
3.245839113323878
 20
0.1644033163195218
 10
3.24106531008995
 20
0.2406922296086649
 10
3.235157062675516
 20
0.3102559907894227
 10
3.231354265725905
 20
0.3476343040826091
  0
LWPOLYLINE
  5
1AF
330
16B
100
AcDbEntity
  8
AM_9
100
AcDbPolyline
 90
        6
 70
     0
 43
0.0
 10
3.245450003549792
 20
-0.1719135668254784
 10
3.247898923044232
 20
-0.116844279655083
 10
3.249463693156057
 20
-0.058838180842611
 10
3.25
 20
0.0
 10
3.248915696444611
 20
0.0833833881378298
 10
3.247939778159199
 20
0.1157030572248617
  0
LWPOLYLINE
  5
1B0
330
16B
100
AcDbEntity
  8
AM_9
100
AcDbPolyline
 90
        4
 70
     0
 43
0.0
 10
3.231354265725904
 20
-0.3476343040826091
 10
3.238618527841098
 20
-0.271753622099792
 10
3.244003688435585
 20
-0.1971348020692685
 10
3.244974708399838
 20
-0.1806630616517518
  0
LINE
  5
1B1
330
16B
100
AcDbEntity
  8
AM_9
100
AcDbLine
 10
-2.25
 20
3.3125
 30
0.0
 11
-4.0
 21
3.3125
 31
0.0
  0
LINE
  5
1B2
330
16B
100
AcDbEntity
  8
AM_9
100
AcDbLine
 10
4.0
 20
3.3125
 30
0.0
 11
2.25
 21
3.3125
 31
0.0
  0
LINE
  5
1B3
330
16B
100
AcDbEntity
  8
AM_9
100
AcDbLine
 10
-2.9375
 20
2.75
 30
0.0
 11
2.9375
 21
2.75
 31
0.0
  0
LINE
  5
1B4
330
16B
100
AcDbEntity
  8
AM_9
100
AcDbLine
 10
-2.25
 20
4.1875
 30
0.0
 11
-2.9375
 21
4.1875
 31
0.0
  0
LINE
  5
1B5
330
16B
100
AcDbEntity
  8
AM_9
100
AcDbLine
 10
2.9375
 20
4.1875
 30
0.0
 11
2.25
 21
4.1875
 31
0.0
  0
LINE
  5
1B6
330
16B
100
AcDbEntity
  8
AM_9
100
AcDbLine
 10
2.9375
 20
4.5
 30
0.0
 11
2.9375
 21
2.5625
 31
0.0
  0
LINE
  5
1B7
330
16B
100
AcDbEntity
  8
AM_9
100
AcDbLine
 10
2.9375
 20
2.5625
 30
0.0
 11
4.0
 21
2.5625
 31
0.0
  0
LINE
  5
1B8
330
16B
100
AcDbEntity
  8
AM_9
100
AcDbLine
 10
-2.9375
 20
4.5
 30
0.0
 11
-2.9375
 21
2.5625
 31
0.0
  0
LINE
  5
1B9
330
16B
100
AcDbEntity
  8
AM_9
100
AcDbLine
 10
-4.0
 20
2.5625
 30
0.0
 11
-2.9375
 21
2.5625
 31
0.0
  0
LINE
  5
1BA
330
16B
100
AcDbEntity
  8
AM_9
100
AcDbLine
 10
-2.5
 20
-3.0
 30
0.0
 11
-4.25
 21
-3.0
 31
0.0
  0
LINE
  5
1BB
330
16B
100
AcDbEntity
  8
AM_9
100
AcDbLine
 10
4.25
 20
-3.0
 30
0.0
 11
2.5
 21
-3.0
 31
0.0
  0
LINE
  5
1BC
330
16B
100
AcDbEntity
  8
AM_9
100
AcDbLine
 10
-2.5
 20
-2.959375
 30
0.0
 11
-2.5
 21
-4.0
 31
0.0
  0
LINE
  5
1BD
330
16B
100
AcDbEntity
  8
AM_9
100
AcDbLine
 10
2.5
 20
-2.959375
 30
0.0
 11
2.5
 21
-4.0
 31
0.0
  0
LINE
  5
1BE
330
16B
100
AcDbEntity
  8
AM_9
100
AcDbLine
 10
2.5
 20
-2.959375
 30
0.0
 11
-2.5
 21
-2.959375
 31
0.0
  0
LINE
  5
1BF
330
16B
100
AcDbEntity
  8
AM_7
100
AcDbLine
 10
0.0000000000000002
 20
-3.28125
 30
0.0
 11
0.0000000000000002
 21
3.281249999999999
 31
0.0
  0
ARC
  5
1C0
330
16B
100
AcDbEntity
  8
AM_4
100
AcDbCircle
 10
7.327039134174333
 20
-0.103229439711659
 30
0.0
 40
3.978378638588504
100
AcDbArc
 50
183.5220856830435
 51
215.1359326919267
  0
ARC
  5
1C1
330
16B
100
AcDbEntity
  8
AM_4
100
AcDbCircle
 10
-7.327039134174314
 20
-0.1032294397116635
 30
0.0
 40
3.978378638588484
100
AcDbArc
 50
324.8640673080732
 51
32.22506305894644
  0
ARC
  5
1C2
330
16B
100
AcDbEntity
  8
AM_4
100
AcDbCircle
 10
-3.749999999999973
 20
2.15153816335898
 30
0.0
 40
0.25000000000003
100
AcDbArc
 50
195.8321019371602
 51
212.2250657812193
  0
ARC
  5
1C3
330
16B
100
AcDbEntity
  8
AM_4
100
AcDbCircle
 10
3.749999999999996
 20
2.151538163358954
 30
0.0
 40
0.2500000000000044
100
AcDbArc
 50
327.7749231197252
 51
344.1678980628441
  0
ARC
  5
1C4
330
16B
100
AcDbEntity
  8
AM_4
100
AcDbCircle
 10
7.327039134174322
 20
-0.1032294397116671
 30
0.0
 40
3.978378638588492
100
AcDbArc
 50
147.7749376385147
 51
173.4927742602519
  0
LWPOLYLINE
  5
1C5
330
16B
100
AcDbEntity
  8
AM_4
100
AcDbPolyline
 90
        5
 70
     0
 43
0.0
 10
-4.160123312411332
 20
-2.511162322880224
 10
-4.145891487998781
 20
-2.492328902942322
 10
-4.125988992046816
 20
-2.465595749063938
 10
-4.099015544370275
 20
-2.428602591626384
 10
-4.07356506217891
 20
-2.392858897687518
  0
LINE
  5
1C6
330
16B
100
AcDbEntity
  8
AM_4
100
AcDbLine
 10
-2.199255850454348
 20
-2.392858897687518
 30
0.0
 11
-4.073565062178909
 21
-2.392858897687518
 31
0.0
  0
LWPOLYLINE
  5
1C7
330
16B
100
AcDbEntity
  8
AM_4
100
AcDbPolyline
 90
        6
 70
     0
 43
0.0
 10
4.073565062178908
 20
-2.392858897687518
 10
4.109936457881933
 20
-2.44368814735202
 10
4.126669042801212
 20
-2.466513882025204
 10
4.14168527497556
 20
-2.486717930068766
 10
4.157183564895996
 20
-2.507291057452024
 10
4.16012331241133
 20
-2.511162322880224
  0
LINE
  5
1C8
330
16B
100
AcDbEntity
  8
AM_4
100
AcDbLine
 10
4.073565062178908
 20
-2.392858897687518
 30
0.0
 11
2.199255850454349
 21
-2.392858897687518
 31
0.0
  0
LINE
  5
1C9
330
16B
100
AcDbEntity
  8
AM_4
100
AcDbLine
 10
3.990516322026544
 20
2.083333333333332
 30
0.0
 11
2.494438257849295
 21
2.083333333333332
 31
0.0
  0
LWPOLYLINE
  5
1CA
330
16B
100
AcDbEntity
  8
AM_4
100
AcDbPolyline
 90
        3
 70
     0
 43
0.0
 10
3.990516322026544
 20
2.083333333333332
 10
3.99810558962323
 20
2.120819823597345
 10
4.0
 20
2.151538167084243
  0
LINE
  5
1CB
330
16B
100
AcDbEntity
  8
AM_4
100
AcDbLine
 10
-2.494438257849295
 20
2.083333333333332
 30
0.0
 11
-3.99051632202654
 21
2.083333333333332
 31
0.0
  0
LWPOLYLINE
  5
1CC
330
16B
100
AcDbEntity
  8
AM_4
100
AcDbPolyline
 90
        3
 70
     0
 43
0.0
 10
-4.0
 20
2.151538163358966
 10
-3.99750817636807
 20
2.116328752245568
 10
-3.99051632202654
 20
2.083333333333333
  0
LINE
  5
1CD
330
16B
100
AcDbEntity
  8
AM_4
100
AcDbLine
 10
3.374290915971063
 20
0.3476343040826091
 30
0.0
 11
3.231354265725904
 21
0.3476343040826091
 31
0.0
  0
LINE
  5
1CE
330
16B
100
AcDbEntity
  8
AM_4
100
AcDbLine
 10
3.231354265725904
 20
-0.3476343040826091
 30
0.0
 11
3.356174888918757
 21
-0.3476343040826091
 31
0.0
  0
LINE
  5
1CF
330
16B
100
AcDbEntity
  8
AM_4
100
AcDbLine
 10
3.368495246017251
 20
-0.5
 30
0.0
 11
3.4
 21
-0.5
 31
0.0
  0
LINE
  5
1D0
330
16B
100
AcDbEntity
  8
AM_4
100
AcDbLine
 10
3.4
 20
0.5
 30
0.0
 11
3.394659341346272
 21
0.5
 31
0.0
  0
LINE
  5
1D1
330
16B
100
AcDbEntity
  8
AM_4
100
AcDbLine
 10
3.45
 20
0.4499999999999995
 30
0.0
 11
3.45
 21
-0.4499999999999995
 31
0.0
  0
ARC
  5
1D2
330
16B
100
AcDbEntity
  8
AM_4
100
AcDbCircle
 10
3.399999999999999
 20
-0.4499999999999994
 30
0.0
 40
0.0500000000000006
100
AcDbArc
 50
270.0
 51
0.0
  0
ARC
  5
1D3
330
16B
100
AcDbEntity
  8
AM_4
100
AcDbCircle
 10
3.399999999999999
 20
0.4499999999999997
 30
0.0
 40
0.0500000000000003
100
AcDbArc
 50
0.0
 51
90.0
  0
LINE
  5
1D4
330
16B
100
AcDbEntity
  8
AM_4
100
AcDbLine
 10
3.4
 20
0.5
 30
0.0
 11
3.4
 21
-0.5
 31
0.0
  0
LINE
  5
1D5
330
16B
100
AcDbEntity
  8
AM_4
100
AcDbLine
 10
4.0
 20
2.208333333333333
 30
0.0
 11
2.384483987970749
 21
2.208333333333333
 31
0.0
  0
LINE
  5
1D6
330
16B
100
AcDbEntity
  8
AM_4
100
AcDbLine
 10
-2.06314415108271
 20
-2.511162322880224
 30
0.0
 11
-4.160123312411332
 21
-2.511162322880224
 31
0.0
  0
LINE
  5
1D7
330
16B
100
AcDbEntity
  8
AM_4
100
AcDbLine
 10
-4.160123312411332
 20
-2.511162322880224
 30
0.0
 11
-4.196708880422575
 21
-2.55853575347859
 31
0.0
  0
LWPOLYLINE
  5
1D8
330
16B
100
AcDbEntity
  8
AM_4
100
AcDbPolyline
 90
        4
 70
     0
 43
0.0
 10
-4.25
 20
-2.71282644134698
 10
-4.241084674413546
 20
-2.646658626187973
 10
-4.2169134782233
 20
-2.588534273592638
 10
-4.196708880422578
 20
-2.558535753478592
  0
LINE
  5
1D9
330
16B
100
AcDbEntity
  8
AM_4
100
AcDbLine
 10
-4.25
 20
-4.0
 30
0.0
 11
-4.25
 21
-2.71282644134698
 31
0.0
  0
LINE
  5
1DA
330
16B
100
AcDbEntity
  8
AM_4
100
AcDbLine
 10
4.25
 20
-2.71282644134698
 30
0.0
 11
4.25
 21
-4.0
 31
0.0
  0
LWPOLYLINE
  5
1DB
330
16B
100
AcDbEntity
  8
AM_4
100
AcDbPolyline
 90
        4
 70
     0
 43
0.0
 10
4.196708903035667
 20
-2.558535782308577
 10
4.229192116111991
 20
-2.612971677253785
 10
4.247808012704474
 20
-2.679793293760664
 10
4.25
 20
-2.71282644134698
  0
LINE
  5
1DC
330
16B
100
AcDbEntity
  8
AM_4
100
AcDbLine
 10
4.196708903035668
 20
-2.558535782308579
 30
0.0
 11
4.160123312411331
 21
-2.511162322880224
 31
0.0
  0
LINE
  5
1DD
330
16B
100
AcDbEntity
  8
AM_4
100
AcDbLine
 10
4.16012331241133
 20
-2.511162322880224
 30
0.0
 11
2.06314415108271
 21
-2.511162322880224
 31
0.0
  0
LINE
  5
1DE
330
16B
100
AcDbEntity
  8
AM_4
100
AcDbLine
 10
-2.384483987970749
 20
2.208333333333333
 30
0.0
 11
-4.0
 21
2.208333333333333
 31
0.0
  0
LINE
  5
1DF
330
16B
100
AcDbEntity
  8
AM_4
100
AcDbLine
 10
4.25
 20
-4.0
 30
0.0
 11
-4.25
 21
-4.0
 31
0.0
  0
LINE
  5
1E0
330
16B
100
AcDbEntity
  8
AM_4
100
AcDbLine
 10
4.25
 20
-3.8125
 30
0.0
 11
-4.25
 21
-3.8125
 31
0.0
  0
CIRCLE
  5
1E1
330
16B
100
AcDbEntity
  8
AM_4
100
AcDbCircle
 10
0.0
 20
0.0
 30
0.0
 40
2.55905
  0
LINE
  5
1E2
330
16B
100
AcDbEntity
  8
AM_4
100
AcDbLine
 10
-2.25
 20
4.5
 30
0.0
 11
-2.25
 21
3.125
 31
0.0
  0
LINE
  5
1E3
330
16B
100
AcDbEntity
  8
AM_4
100
AcDbLine
 10
-2.018765049823501
 20
2.385416666666667
 30
0.0
 11
-4.0
 21
2.385416666666667
 31
0.0
  0
LINE
  5
1E4
330
16B
100
AcDbEntity
  8
AM_4
100
AcDbLine
 10
4.0
 20
2.385416666666667
 30
0.0
 11
2.018765049823501
 21
2.385416666666667
 31
0.0
  0
LINE
  5
1E5
330
16B
100
AcDbEntity
  8
AM_4
100
AcDbLine
 10
2.25
 20
3.125
 30
0.0
 11
2.25
 21
4.5
 31
0.0
  0
ARC
  5
1E6
330
16B
100
AcDbEntity
  8
AM_4
100
AcDbCircle
 10
2.125
 20
3.124999999999999
 30
0.0
 40
0.1249999999999996
100
AcDbArc
 50
270.0
 51
0.0
  0
LINE
  5
1E7
330
16B
100
AcDbEntity
  8
AM_4
100
AcDbLine
 10
-2.124999999999999
 20
2.999999999999999
 30
0.0
 11
2.125
 21
3.0
 31
0.0
  0
ARC
  5
1E8
330
16B
100
AcDbEntity
  8
AM_4
100
AcDbCircle
 10
-2.125
 20
3.125
 30
0.0
 40
0.1250000000000004
100
AcDbArc
 50
180.0
 51
270.0
  0
LWPOLYLINE
  5
1E9
330
16B
100
AcDbEntity
  8
AM_4
100
AcDbPolyline
 90
        7
 70
     0
 43
0.0
 10
2.018765049823501
 20
2.385416666666667
 10
2.072364046497092
 20
2.381306989879308
 10
2.13548438355044
 20
2.367983653067515
 10
2.19650825354135
 20
2.347383496513776
 10
2.254682087241847
 20
2.319814883663914
 10
2.30728184280971
 20
2.285316849552867
 10
2.335169478443815
 20
2.260416666666666
  0
ARC
  5
1EA
330
16B
100
AcDbEntity
  8
AM_4
100
AcDbCircle
 10
-0.0000000000000002
 20
-0.0000000000000002
 30
0.0
 40
3.124999999999999
100
AcDbArc
 50
130.2410549849584
 51
49.75894501504155
  0
LWPOLYLINE
  5
1EB
330
16B
100
AcDbEntity
  8
AM_4
100
AcDbPolyline
 90
        7
 70
     0
 43
0.0
 10
-2.335169478443815
 20
2.260416666666666
 10
-2.298421214194719
 20
2.292023805485712
 10
-2.25426529089394
 20
2.320045680764794
 10
-2.188791913136254
 20
2.350420950724927
 10
-2.114937317599756
 20
2.373219383116771
 10
-2.047843690285585
 20
2.384130222262804
 10
-2.018765049823501
 20
2.385416666666667
  0
ARC
  5
1EC
330
16B
100
AcDbEntity
  8
AM_4
100
AcDbCircle
 10
0.0000000000000004
 20
0.0000000000000002
 30
0.0
 40
3.25
100
AcDbArc
 50
135.9319035261907
 51
265.43235771501
  0
LWPOLYLINE
  5
1ED
330
16B
100
AcDbEntity
  8
AM_4
100
AcDbPolyline
 90
        4
 70
     0
 43
0.0
 10
0.2588169415915383
 20
-3.239678038130518
 10
0.1419534706195257
 20
-3.246855726629156
 10
-0.0581124226463996
 20
-3.249402557044511
 10
-0.2588169415915383
 20
-3.239678038130518
  0
ARC
  5
1EE
330
16B
100
AcDbEntity
  8
AM_4
100
AcDbCircle
 10
0.0000000000000016
 20
-0.0000000000000009
 30
0.0
 40
3.249999999999999
100
AcDbArc
 50
274.56764228499
 51
44.06809647380938
  0
LINE
  5
1EF
330
16B
100
AcDbEntity
  8
AM_4
100
AcDbLine
 10
4.0
 20
4.151785714285714
 30
0.0
 11
2.25
 21
4.151785714285714
 31
0.0
  0
LINE
  5
1F0
330
16B
100
AcDbEntity
  8
AM_4
100
AcDbLine
 10
4.0
 20
4.5
 30
0.0
 11
4.0
 21
2.151538167084243
 31
0.0
  0
LINE
  5
1F1
330
16B
100
AcDbEntity
  8
AM_4
100
AcDbLine
 10
4.0
 20
4.5
 30
0.0
 11
2.25
 21
4.5
 31
0.0
  0
LINE
  5
1F2
330
16B
100
AcDbEntity
  8
AM_4
100
AcDbLine
 10
-2.25
 20
4.5
 30
0.0
 11
-4.0
 21
4.5
 31
0.0
  0
LINE
  5
1F3
330
16B
100
AcDbEntity
  8
AM_4
100
AcDbLine
 10
-4.0
 20
2.151538163358966
 30
0.0
 11
-4.0
 21
4.5
 31
0.0
  0
LINE
  5
1F4
330
16B
100
AcDbEntity
  8
AM_4
100
AcDbLine
 10
-2.25
 20
4.151785714285714
 30
0.0
 11
-4.0
 21
4.151785714285714
 31
0.0
  0
ENDBLK
  5
16E
330
16B
100
AcDbEntity
  8
0
100
AcDbBlockEnd
  0
ENDSEC
  0
SECTION
  2
ENTITIES
  0
INSERT
  5
6F
330
1F
100
AcDbEntity
  8
0
100
AcDbBlockReference
  2
1_070819_0
 10
0.0
 20
0.0
 30
0.0
  0
POINT
  5
1F6
330
1F
100
AcDbEntity
  8
ConnectionPoints
100
AcDbPoint
 10
0.0
 20
0.0
 30
2.453125
  0
POINT
  5
1F7
330
1F
100
AcDbEntity
  8
ConnectionPoints
100
AcDbPoint
 10
0.0
 20
0.0
 30
2.453125
  0
POINT
  5
1F8
330
1F
100
AcDbEntity
  8
ConnectionPoints
100
AcDbPoint
 10
0.0
 20
0.0
 30
-2.296374999999999
  0
POINT
  5
1F9
330
1F
100
AcDbEntity
  8
ConnectionPoints
100
AcDbPoint
 10
0.0
 20
0.0
 30
2.453125
  0
POINT
  5
1FA
330
1F
100
AcDbEntity
  8
ConnectionPoints
100
AcDbPoint
 10
3.45
 20
0.0
 30
0.0
  0
POINT
  5
1FB
330
1F
100
AcDbEntity
  8
ConnectionPoints
100
AcDbPoint
 10
0.0
 20
0.0
 30
2.703125
  0
POINT
  5
1FC
330
1F
100
AcDbEntity
  8
ConnectionPoints
100
AcDbPoint
 10
0.0
 20
0.0
 30
2.453125
  0
ENDSEC
  0
SECTION
  2
OBJECTS
  0
DICTIONARY
  5
C
330
0
100
AcDbDictionary
281
     1
  3
ACAD_DETAILVIEWSTYLE
350
204
  3
ACAD_GROUP
350
D
  3
ACAD_LAYOUT
350
1A
  3
ACAD_MATERIAL
350
43
  3
ACAD_MLEADERSTYLE
350
6B
  3
ACAD_MLINESTYLE
350
17
  3
ACAD_PLOTSETTINGS
350
19
  3
ACAD_PLOTSTYLENAME
350
E
  3
ACAD_SCALELIST
350
47
  3
ACAD_SECTIONVIEWSTYLE
350
205
  3
ACAD_TABLESTYLE
350
69
  3
ACAD_VISUALSTYLE
350
2A
  3
ACDB_RECOMPOSE_DATA
350
201
  3
AcDbVariableDictionary
350
1FD
  0
SUN
  5
6D
330
29
100
AcDbSun
 90
        1
290
     0
 63
     7
421
 16777215
 40
1.0
291
     1
 91
  2455826
 92
 54000000
292
     0
 70
     2
 71
   256
280
     1
  0
DICTIONARY
  5
204
102
{ACAD_REACTORS
330
C
102
}
330
C
100
AcDbDictionary
281
     1
  0
DICTIONARY
  5
D
102
{ACAD_REACTORS
330
C
102
}
330
C
100
AcDbDictionary
281
     1
  0
DICTIONARY
  5
1A
102
{ACAD_REACTORS
330
C
102
}
330
C
100
AcDbDictionary
281
     1
  3
Layout1
350
1E
  3
Layout2
350
26
  3
Model
350
22
  0
DICTIONARY
  5
43
102
{ACAD_REACTORS
330
C
102
}
330
C
100
AcDbDictionary
281
     1
  3
ByBlock
350
45
  3
ByLayer
350
44
  3
Global
350
46
  0
DICTIONARY
  5
6B
102
{ACAD_REACTORS
330
C
102
}
330
C
100
AcDbDictionary
281
     1
  3
Standard
350
6C
  0
DICTIONARY
  5
17
102
{ACAD_REACTORS
330
C
102
}
330
C
100
AcDbDictionary
281
     1
  3
Standard
350
18
  0
DICTIONARY
  5
19
102
{ACAD_REACTORS
330
C
102
}
330
C
100
AcDbDictionary
281
     1
  0
ACDBDICTIONARYWDFLT
  5
E
102
{ACAD_REACTORS
330
C
102
}
330
C
100
AcDbDictionary
281
     1
  3
Normal
350
F
100
AcDbDictionaryWithDefault
340
F
  0
DICTIONARY
  5
47
102
{ACAD_REACTORS
330
C
102
}
330
C
100
AcDbDictionary
281
     1
  3
A0
350
48
  3
A1
350
49
  3
A2
350
4A
  3
A3
350
4B
  3
A4
350
4C
  3
A5
350
4D
  3
A6
350
4E
  3
A7
350
4F
  3
A8
350
50
  3
A9
350
51
  3
B0
350
52
  3
B1
350
53
  3
B2
350
54
  3
B3
350
55
  3
B4
350
56
  3
B5
350
57
  3
B6
350
58
  3
B7
350
59
  3
B8
350
5A
  3
B9
350
5B
  3
C0
350
5C
  3
C1
350
5D
  3
C2
350
5E
  3
C3
350
5F
  3
C4
350
60
  3
C5
350
61
  3
C6
350
62
  3
C7
350
63
  3
C8
350
64
  3
C9
350
65
  3
D0
350
66
  3
D1
350
67
  3
D2
350
68
  0
DICTIONARY
  5
205
102
{ACAD_REACTORS
330
C
102
}
330
C
100
AcDbDictionary
281
     1
  0
DICTIONARY
  5
69
102
{ACAD_REACTORS
330
C
102
}
330
C
100
AcDbDictionary
281
     1
  3
Standard
350
6A
  0
DICTIONARY
  5
2A
102
{ACAD_REACTORS
330
C
102
}
330
C
100
AcDbDictionary
281
     1
  3
2dWireframe
350
2F
  3
Basic
350
32
  3
Brighten
350
36
  3
ColorChange
350
3A
  3
Conceptual
350
34
  3
Dim
350
35
  3
EdgeColorOff
350
3D
  3
Facepattern
350
39
  3
Flat
350
2B
  3
FlatWithEdges
350
2C
  3
Gouraud
350
2D
  3
GouraudWithEdges
350
2E
  3
Hidden
350
31
  3
JitterOff
350
3B
  3
Linepattern
350
38
  3
OverhangOff
350
3C
  3
Realistic
350
33
  3
Shaded
350
42
  3
Shaded with edges
350
41
  3
Shades of Gray
350
3E
  3
Sketchy
350
3F
  3
Thicken
350
37
  3
Wireframe
350
30
  3
X-Ray
350
40
  0
XRECORD
  5
201
102
{ACAD_REACTORS
330
C
102
}
330
C
100
AcDbXrecord
280
     1
 90
        1
330
6A
  0
DICTIONARY
  5
1FD
102
{ACAD_REACTORS
330
C
102
}
330
C
100
AcDbDictionary
281
     1
  3
CANNOSCALE
350
1FE
  3
CMLEADERSTYLE
350
203
  3
CTABLESTYLE
350
202
  0
LAYOUT
  5
1E
102
{ACAD_REACTORS
330
1A
102
}
330
1A
100
AcDbPlotSettings
  1

  2
none_device
  4

  6

 40
0.0
 41
0.0
 42
0.0
 43
0.0
 44
0.0
 45
0.0
 46
0.0
 47
0.0
 48
0.0
 49
0.0
140
0.0
141
0.0
142
1.0
143
1.0
 70
   688
 72
     0
 73
     0
 74
     5
  7

 75
    16
 76
     0
 77
     2
 78
   300
147
1.0
148
0.0
149
0.0
100
AcDbLayout
  1
Layout1
 70
     1
 71
     1
 10
0.0
 20
0.0
 11
12.0
 21
9.0
 12
0.0
 22
0.0
 32
0.0
 14
1.000000000000000E+20
 24
1.000000000000000E+20
 34
1.000000000000000E+20
 15
-1.000000000000000E+20
 25
-1.000000000000000E+20
 35
-1.000000000000000E+20
146
0.0
 13
0.0
 23
0.0
 33
0.0
 16
1.0
 26
0.0
 36
0.0
 17
0.0
 27
1.0
 37
0.0
 76
     0
330
1B
  0
LAYOUT
  5
26
102
{ACAD_REACTORS
330
1A
102
}
330
1A
100
AcDbPlotSettings
  1

  2
none_device
  4

  6

 40
0.0
 41
0.0
 42
0.0
 43
0.0
 44
0.0
 45
0.0
 46
0.0
 47
0.0
 48
0.0
 49
0.0
140
0.0
141
0.0
142
1.0
143
1.0
 70
   688
 72
     0
 73
     0
 74
     5
  7

 75
    16
 76
     0
 77
     2
 78
   300
147
1.0
148
0.0
149
0.0
100
AcDbLayout
  1
Layout2
 70
     1
 71
     2
 10
0.0
 20
0.0
 11
0.0
 21
0.0
 12
0.0
 22
0.0
 32
0.0
 14
0.0
 24
0.0
 34
0.0
 15
0.0
 25
0.0
 35
0.0
146
0.0
 13
0.0
 23
0.0
 33
0.0
 16
1.0
 26
0.0
 36
0.0
 17
0.0
 27
1.0
 37
0.0
 76
     0
330
23
  0
LAYOUT
  5
22
102
{ACAD_REACTORS
330
1A
102
}
330
1A
100
AcDbPlotSettings
  1

  2
none_device
  4
Letter_(8.50_x_11.00_Inches)
  6

 40
6.35
 41
6.35
 42
6.35000508
 43
6.35000508
 44
215.9
 45
279.4
 46
0.0
 47
0.0
 48
0.0
 49
0.0
140
0.0
141
0.0
142
1.0
143
1.0
 70
  1712
 72
     0
 73
     0
 74
     0
  7

 75
     0
 76
     0
 77
     2
 78
   300
147
1.0
148
0.0
149
0.0
100
AcDbLayout
  1
Model
 70
     1
 71
     0
 10
0.0
 20
0.0
 11
12.0
 21
9.0
 12
0.0
 22
0.0
 32
0.0
 14
1.000000000000000E+20
 24
1.000000000000000E+20
 34
1.000000000000000E+20
 15
-1.000000000000000E+20
 25
-1.000000000000000E+20
 35
-1.000000000000000E+20
146
0.0
 13
0.0
 23
0.0
 33
0.0
 16
1.0
 26
0.0
 36
0.0
 17
0.0
 27
1.0
 37
0.0
 76
     0
330
1F
331
29
  0
MATERIAL
  5
45
102
{ACAD_REACTORS
330
43
102
}
330
43
100
AcDbMaterial
  1
ByBlock
 72
     1
 94
      127
  0
MATERIAL
  5
44
102
{ACAD_REACTORS
330
43
102
}
330
43
100
AcDbMaterial
  1
ByLayer
 72
     1
 94
      127
  0
MATERIAL
  5
46
102
{ACAD_REACTORS
330
43
102
}
330
43
100
AcDbMaterial
  1
Global
 72
     1
 94
      127
  0
MLEADERSTYLE
  5
6C
102
{ACAD_REACTORS
330
6B
102
}
330
6B
100
AcDbMLeaderStyle
179
     2
170
     2
171
     1
172
     0
 90
        2
 40
0.0
 41
0.0
173
     1
 91
-1056964608
340
14
 92
       -2
290
     1
 42
0.09
291
     1
 43
0.36
  3
Standard
341
0
 44
0.18
300

342
11
174
     1
178
     6
175
     1
176
     0
 93
-1056964608
 45
0.18
292
     0
297
     0
 46
0.18
343
0
 94
-1056964608
 47
1.0
 49
1.0
140
1.0
293
     1
141
0.0
294
     1
177
     0
142
1.0
295
     0
296
     0
143
0.125
271
     0
272
     9
273
     9
298
     0
  0
MLINESTYLE
  5
18
102
{ACAD_REACTORS
330
17
102
}
330
17
100
AcDbMlineStyle
  2
Standard
 70
     0
  3

 62
   256
 51
90.0
 52
90.0
 71
     2
 49
0.5
 62
   256
  6
BYLAYER
 49
-0.5
 62
   256
  6
BYLAYER
  0
ACDBPLACEHOLDER
  5
F
102
{ACAD_REACTORS
330
E
102
}
330
E
  0
SCALE
  5
48
102
{ACAD_REACTORS
330
47
102
}
330
47
100
AcDbScale
 70
     0
300
1:1
140
1.0
141
1.0
290
     1
  0
SCALE
  5
49
102
{ACAD_REACTORS
330
47
102
}
330
47
100
AcDbScale
 70
     0
300
1:2
140
1.0
141
2.0
290
     0
  0
SCALE
  5
4A
102
{ACAD_REACTORS
330
47
102
}
330
47
100
AcDbScale
 70
     0
300
1:4
140
1.0
141
4.0
290
     0
  0
SCALE
  5
4B
102
{ACAD_REACTORS
330
47
102
}
330
47
100
AcDbScale
 70
     0
300
1:5
140
1.0
141
5.0
290
     0
  0
SCALE
  5
4C
102
{ACAD_REACTORS
330
47
102
}
330
47
100
AcDbScale
 70
     0
300
1:8
140
1.0
141
8.0
290
     0
  0
SCALE
  5
4D
102
{ACAD_REACTORS
330
47
102
}
330
47
100
AcDbScale
 70
     0
300
1:10
140
1.0
141
10.0
290
     0
  0
SCALE
  5
4E
102
{ACAD_REACTORS
330
47
102
}
330
47
100
AcDbScale
 70
     0
300
1:16
140
1.0
141
16.0
290
     0
  0
SCALE
  5
4F
102
{ACAD_REACTORS
330
47
102
}
330
47
100
AcDbScale
 70
     0
300
1:20
140
1.0
141
20.0
290
     0
  0
SCALE
  5
50
102
{ACAD_REACTORS
330
47
102
}
330
47
100
AcDbScale
 70
     0
300
1:30
140
1.0
141
30.0
290
     0
  0
SCALE
  5
51
102
{ACAD_REACTORS
330
47
102
}
330
47
100
AcDbScale
 70
     0
300
1:40
140
1.0
141
40.0
290
     0
  0
SCALE
  5
52
102
{ACAD_REACTORS
330
47
102
}
330
47
100
AcDbScale
 70
     0
300
1:50
140
1.0
141
50.0
290
     0
  0
SCALE
  5
53
102
{ACAD_REACTORS
330
47
102
}
330
47
100
AcDbScale
 70
     0
300
1:100
140
1.0
141
100.0
290
     0
  0
SCALE
  5
54
102
{ACAD_REACTORS
330
47
102
}
330
47
100
AcDbScale
 70
     0
300
2:1
140
2.0
141
1.0
290
     0
  0
SCALE
  5
55
102
{ACAD_REACTORS
330
47
102
}
330
47
100
AcDbScale
 70
     0
300
4:1
140
4.0
141
1.0
290
     0
  0
SCALE
  5
56
102
{ACAD_REACTORS
330
47
102
}
330
47
100
AcDbScale
 70
     0
300
8:1
140
8.0
141
1.0
290
     0
  0
SCALE
  5
57
102
{ACAD_REACTORS
330
47
102
}
330
47
100
AcDbScale
 70
     0
300
10:1
140
10.0
141
1.0
290
     0
  0
SCALE
  5
58
102
{ACAD_REACTORS
330
47
102
}
330
47
100
AcDbScale
 70
     0
300
100:1
140
100.0
141
1.0
290
     0
  0
SCALE
  5
59
102
{ACAD_REACTORS
330
47
102
}
330
47
100
AcDbScale
 70
     0
300
1/128" = 1'-0"
140
0.0078125
141
12.0
290
     0
  0
SCALE
  5
5A
102
{ACAD_REACTORS
330
47
102
}
330
47
100
AcDbScale
 70
     0
300
1/64" = 1'-0"
140
0.015625
141
12.0
290
     0
  0
SCALE
  5
5B
102
{ACAD_REACTORS
330
47
102
}
330
47
100
AcDbScale
 70
     0
300
1/32" = 1'-0"
140
0.03125
141
12.0
290
     0
  0
SCALE
  5
5C
102
{ACAD_REACTORS
330
47
102
}
330
47
100
AcDbScale
 70
     0
300
1/16" = 1'-0"
140
0.0625
141
12.0
290
     0
  0
SCALE
  5
5D
102
{ACAD_REACTORS
330
47
102
}
330
47
100
AcDbScale
 70
     0
300
3/32" = 1'-0"
140
0.09375
141
12.0
290
     0
  0
SCALE
  5
5E
102
{ACAD_REACTORS
330
47
102
}
330
47
100
AcDbScale
 70
     0
300
1/8" = 1'-0"
140
0.125
141
12.0
290
     0
  0
SCALE
  5
5F
102
{ACAD_REACTORS
330
47
102
}
330
47
100
AcDbScale
 70
     0
300
3/16" = 1'-0"
140
0.1875
141
12.0
290
     0
  0
SCALE
  5
60
102
{ACAD_REACTORS
330
47
102
}
330
47
100
AcDbScale
 70
     0
300
1/4" = 1'-0"
140
0.25
141
12.0
290
     0
  0
SCALE
  5
61
102
{ACAD_REACTORS
330
47
102
}
330
47
100
AcDbScale
 70
     0
300
3/8" = 1'-0"
140
0.375
141
12.0
290
     0
  0
SCALE
  5
62
102
{ACAD_REACTORS
330
47
102
}
330
47
100
AcDbScale
 70
     0
300
1/2" = 1'-0"
140
0.5
141
12.0
290
     0
  0
SCALE
  5
63
102
{ACAD_REACTORS
330
47
102
}
330
47
100
AcDbScale
 70
     0
300
3/4" = 1'-0"
140
0.75
141
12.0
290
     0
  0
SCALE
  5
64
102
{ACAD_REACTORS
330
47
102
}
330
47
100
AcDbScale
 70
     0
300
1" = 1'-0"
140
1.0
141
12.0
290
     0
  0
SCALE
  5
65
102
{ACAD_REACTORS
330
47
102
}
330
47
100
AcDbScale
 70
     0
300
1-1/2" = 1'-0"
140
1.5
141
12.0
290
     0
  0
SCALE
  5
66
102
{ACAD_REACTORS
330
47
102
}
330
47
100
AcDbScale
 70
     0
300
3" = 1'-0"
140
3.0
141
12.0
290
     0
  0
SCALE
  5
67
102
{ACAD_REACTORS
330
47
102
}
330
47
100
AcDbScale
 70
     0
300
6" = 1'-0"
140
6.0
141
12.0
290
     0
  0
SCALE
  5
68
102
{ACAD_REACTORS
330
47
102
}
330
47
100
AcDbScale
 70
     0
300
1'-0" = 1'-0"
140
12.0
141
12.0
290
     0
  0
TABLESTYLE
  5
6A
102
{ACAD_REACTORS
330
69
102
}
102
{ACAD_XDICTIONARY
360
1FF
102
}
330
69
100
AcDbTableStyle
  3
Standard
 70
     0
 71
     0
 40
0.06
 41
0.06
280
     0
281
     0
  7
Standard
140
0.18
170
     2
 62
     0
 63
   257
283
     0
 90
        4
 91
        0
  1

274
    -2
284
     1
 64
     0
275
    -2
285
     1
 65
     0
276
    -2
286
     1
 66
     0
277
    -2
287
     1
 67
     0
278
    -2
288
     1
 68
     0
279
    -2
289
     1
 69
     0
  7
Standard
140
0.25
170
     5
 62
     0
 63
   257
283
     0
 90
        4
 91
        0
  1

274
    -2
284
     1
 64
     0
275
    -2
285
     1
 65
     0
276
    -2
286
     1
 66
     0
277
    -2
287
     1
 67
     0
278
    -2
288
     1
 68
     0
279
    -2
289
     1
 69
     0
  7
Standard
140
0.18
170
     5
 62
     0
 63
   257
283
     0
 90
        4
 91
        0
  1

274
    -2
284
     1
 64
     0
275
    -2
285
     1
 65
     0
276
    -2
286
     1
 66
     0
277
    -2
287
     1
 67
     0
278
    -2
288
     1
 68
     0
279
    -2
289
     1
 69
     0
  0
VISUALSTYLE
  5
2F
102
{ACAD_REACTORS
330
2A
102
}
330
2A
100
AcDbVisualStyle
  2
2dWireframe
 70
     4
177
     3
291
     0
 70
    58
 90
        0
176
     1
 90
        2
176
     1
 90
        0
176
     1
 90
        0
176
     1
 40
0.6
176
     1
 40
30.0
176
     1
 62
     7
420
 16777215
176
     1
 90
        1
176
     1
 90
        4
176
     1
 62
     7
176
     1
 62
   257
176
     1
 90
        1
176
     1
 90
        1
176
     1
 40
1.0
176
     1
 90
        0
176
     1
 62
   257
176
     1
 40
1.0
176
     1
 90
        1
176
     1
 90
        6
176
     1
 90
        2
176
     1
 62
     7
176
     1
 90
        5
176
     1
 90
        0
176
     1
 90
        0
176
     1
290
     0
176
     1
 90
        1
176
     1
 40
0.0
176
     1
 90
        0
176
     1
290
     1
176
     1
290
     1
176
     1
290
     0
176
     1
290
     0
176
     1
290
     0
176
     1
290
     0
176
     1
290
     0
176
     1
290
     0
176
     1
290
     0
176
     1
 90
       50
176
     1
 40
0.0
176
     1
 40
1.0
176
     1
 90
        0
176
     1
 62
    18
420
        0
176
     1
 90
       50
176
     1
 90
        3
176
     1
 62
     5
420
      255
176
     1
290
     0
176
     1
 90
       50
176
     1
 90
       50
176
     1
 90
       50
176
     1
290
     0
176
     1
 90
       50
176
     1
 62
   256
176
     0
 40
1.0
176
     0
 90
        2
176
     1
  1
strokes_ogs.tif
176
     1
290
     0
176
     1
 40
1.0
176
     1
 40
1.0
176
     1
  0
VISUALSTYLE
  5
32
102
{ACAD_REACTORS
330
2A
102
}
330
2A
100
AcDbVisualStyle
  2
Basic
 70
     7
177
     3
291
     1
 70
    58
 90
        1
176
     1
 90
        0
176
     1
 90
        1
176
     1
 90
        0
176
     1
 40
0.6
176
     1
 40
30.0
176
     1
 62
     7
420
 16777215
176
     1
 90
        0
176
     1
 90
        4
176
     1
 62
     7
176
     1
 62
   257
176
     1
 90
        1
176
     1
 90
        1
176
     1
 40
1.0
176
     1
 90
        8
176
     1
 62
     7
176
     1
 40
1.0
176
     1
 90
        1
176
     1
 90
        6
176
     1
 90
        2
176
     1
 62
     7
176
     1
 90
        5
176
     1
 90
        0
176
     1
 90
        0
176
     1
290
     0
176
     1
 90
        1
176
     1
 40
0.0
176
     1
 90
        0
176
     1
290
     0
176
     1
290
     1
176
     1
290
     1
176
     1
290
     0
176
     1
290
     0
176
     1
290
     0
176
     1
290
     0
176
     1
290
     0
176
     1
290
     0
176
     1
 90
       50
176
     1
 40
0.0
176
     1
 40
1.0
176
     1
 90
        0
176
     1
 62
    18
420
        0
176
     1
 90
       50
176
     1
 90
        3
176
     1
 62
     5
420
      255
176
     1
290
     0
176
     1
 90
       50
176
     1
 90
       50
176
     1
 90
       50
176
     1
290
     0
176
     1
 90
       50
176
     1
 62
   256
176
     0
 40
1.0
176
     0
 90
        2
176
     1
  1
strokes_ogs.tif
176
     1
290
     0
176
     1
 40
1.0
176
     1
 40
1.0
176
     1
  0
VISUALSTYLE
  5
36
102
{ACAD_REACTORS
330
2A
102
}
330
2A
100
AcDbVisualStyle
  2
Brighten
 70
    12
177
     3
291
     1
 70
    58
 90
        2
176
     1
 90
        2
176
     1
 90
        0
176
     1
 90
        0
176
     1
 40
0.6
176
     1
 40
30.0
176
     1
 62
     7
420
 16777215
176
     1
 90
        1
176
     1
 90
        4
176
     1
 62
     7
176
     1
 62
   257
176
     1
 90
        1
176
     1
 90
        1
176
     1
 40
1.0
176
     1
 90
        8
176
     1
 62
     7
176
     1
 40
1.0
176
     1
 90
        1
176
     1
 90
        6
176
     1
 90
        2
176
     1
 62
     7
176
     1
 90
        5
176
     1
 90
        0
176
     1
 90
        0
176
     1
290
     0
176
     1
 90
        1
176
     1
 40
50.0
176
     1
 90
        0
176
     1
290
     0
176
     1
290
     1
176
     1
290
     1
176
     1
290
     0
176
     1
290
     0
176
     1
290
     0
176
     1
290
     0
176
     1
290
     0
176
     1
290
     0
176
     1
 90
       50
176
     1
 40
0.0
176
     1
 40
1.0
176
     1
 90
        0
176
     1
 62
    18
420
        0
176
     1
 90
       50
176
     1
 90
        3
176
     1
 62
     5
420
      255
176
     1
290
     0
176
     1
 90
       50
176
     1
 90
       50
176
     1
 90
       50
176
     1
290
     0
176
     1
 90
       50
176
     1
 62
   256
176
     0
 40
1.0
176
     0
 90
        2
176
     1
  1
strokes_ogs.tif
176
     1
290
     0
176
     1
 40
1.0
176
     1
 40
1.0
176
     1
  0
VISUALSTYLE
  5
3A
102
{ACAD_REACTORS
330
2A
102
}
330
2A
100
AcDbVisualStyle
  2
ColorChange
 70
    16
177
     3
291
     1
 70
    58
 90
        2
176
     1
 90
        2
176
     1
 90
        3
176
     1
 90
        0
176
     1
 40
0.6
176
     1
 40
30.0
176
     1
 62
     8
420
  8421504
176
     1
 90
        1
176
     1
 90
        4
176
     1
 62
     7
176
     1
 62
   257
176
     1
 90
        1
176
     1
 90
        1
176
     1
 40
1.0
176
     1
 90
        8
176
     1
 62
     8
420
  8421504
176
     1
 40
1.0
176
     1
 90
        1
176
     1
 90
        6
176
     1
 90
        2
176
     1
 62
     7
176
     1
 90
        5
176
     1
 90
        0
176
     1
 90
        0
176
     1
290
     0
176
     1
 90
        1
176
     1
 40
0.0
176
     1
 90
        0
176
     1
290
     0
176
     1
290
     1
176
     1
290
     1
176
     1
290
     0
176
     1
290
     0
176
     1
290
     0
176
     1
290
     0
176
     1
290
     0
176
     1
290
     0
176
     1
 90
       50
176
     1
 40
0.0
176
     1
 40
1.0
176
     1
 90
        0
176
     1
 62
    18
420
        0
176
     1
 90
       50
176
     1
 90
        3
176
     1
 62
     5
420
      255
176
     1
290
     0
176
     1
 90
       50
176
     1
 90
       50
176
     1
 90
       50
176
     1
290
     0
176
     1
 90
       50
176
     1
 62
   256
176
     0
 40
1.0
176
     0
 90
        2
176
     1
  1
strokes_ogs.tif
176
     1
290
     0
176
     1
 40
1.0
176
     1
 40
1.0
176
     1
  0
VISUALSTYLE
  5
34
102
{ACAD_REACTORS
330
2A
102
}
330
2A
100
AcDbVisualStyle
  2
Conceptual
 70
     9
177
     3
291
     0
 70
    58
 90
        3
176
     1
 90
        2
176
     1
 90
        0
176
     1
 90
        0
176
     1
 40
0.6
176
     1
 40
30.0
176
     1
 62
     7
420
 16777215
176
     1
 90
        2
176
     1
 90
        2
176
     1
 62
     7
176
     1
 62
   257
176
     1
 90
        1
176
     1
 90
        1
176
     1
 40
179.0
176
     1
 90
        8
176
     1
 62
     7
176
     1
 40
1.0
176
     1
 90
        1
176
     1
 90
        6
176
     1
 90
        2
176
     1
 62
     7
176
     1
 90
        3
176
     1
 90
        0
176
     1
 90
        0
176
     1
290
     0
176
     1
 90
        1
176
     1
 40
0.0
176
     1
 90
        0
176
     1
290
     0
176
     1
290
     1
176
     1
290
     1
176
     1
290
     0
176
     1
290
     0
176
     1
290
     0
176
     1
290
     0
176
     1
290
     0
176
     1
290
     0
176
     1
 90
       50
176
     1
 40
0.0
176
     1
 40
1.0
176
     1
 90
        0
176
     1
 62
    18
420
        0
176
     1
 90
       50
176
     1
 90
        3
176
     1
 62
     5
420
      255
176
     1
290
     0
176
     1
 90
       50
176
     1
 90
       50
176
     1
 90
       50
176
     1
290
     0
176
     1
 90
       50
176
     1
 62
   256
176
     0
 40
1.0
176
     0
 90
        2
176
     1
  1
strokes_ogs.tif
176
     1
290
     0
176
     1
 40
1.0
176
     1
 40
1.0
176
     1
  0
VISUALSTYLE
  5
35
102
{ACAD_REACTORS
330
2A
102
}
330
2A
100
AcDbVisualStyle
  2
Dim
 70
    11
177
     3
291
     1
 70
    58
 90
        2
176
     1
 90
        2
176
     1
 90
        0
176
     1
 90
        0
176
     1
 40
0.6
176
     1
 40
30.0
176
     1
 62
     7
420
 16777215
176
     1
 90
        1
176
     1
 90
        4
176
     1
 62
     7
176
     1
 62
   257
176
     1
 90
        1
176
     1
 90
        1
176
     1
 40
1.0
176
     1
 90
        8
176
     1
 62
     7
176
     1
 40
1.0
176
     1
 90
        1
176
     1
 90
        6
176
     1
 90
        2
176
     1
 62
     7
176
     1
 90
        5
176
     1
 90
        0
176
     1
 90
        0
176
     1
290
     0
176
     1
 90
        1
176
     1
 40
-50.0
176
     1
 90
        0
176
     1
290
     0
176
     1
290
     1
176
     1
290
     1
176
     1
290
     0
176
     1
290
     0
176
     1
290
     0
176
     1
290
     0
176
     1
290
     0
176
     1
290
     0
176
     1
 90
       50
176
     1
 40
0.0
176
     1
 40
1.0
176
     1
 90
        0
176
     1
 62
    18
420
        0
176
     1
 90
       50
176
     1
 90
        3
176
     1
 62
     5
420
      255
176
     1
290
     0
176
     1
 90
       50
176
     1
 90
       50
176
     1
 90
       50
176
     1
290
     0
176
     1
 90
       50
176
     1
 62
   256
176
     0
 40
1.0
176
     0
 90
        2
176
     1
  1
strokes_ogs.tif
176
     1
290
     0
176
     1
 40
1.0
176
     1
 40
1.0
176
     1
  0
VISUALSTYLE
  5
3D
102
{ACAD_REACTORS
330
2A
102
}
330
2A
100
AcDbVisualStyle
  2
EdgeColorOff
 70
    22
177
     3
291
     1
 70
    58
 90
        2
176
     0
 90
        2
176
     0
 90
        0
176
     0
 90
        0
176
     0
 40
0.6
176
     0
 40
30.0
176
     0
 62
     7
420
 16777215
176
     0
 90
        1
176
     0
 90
        4
176
     0
 62
     7
176
     0
 62
   257
176
     0
 90
        1
176
     0
 90
        1
176
     0
 40
1.0
176
     0
 90
        8
176
     2
 62
     7
176
     0
 40
1.0
176
     0
 90
        1
176
     0
 90
        6
176
     0
 90
        2
176
     0
 62
     7
176
     0
 90
        5
176
     0
 90
        0
176
     0
 90
        0
176
     0
290
     0
176
     0
 90
        1
176
     0
 40
0.0
176
     0
 90
        0
176
     0
290
     0
176
     0
290
     1
176
     0
290
     1
176
     0
290
     0
176
     0
290
     0
176
     0
290
     0
176
     0
290
     0
176
     0
290
     0
176
     0
290
     0
176
     0
 90
       50
176
     0
 40
0.0
176
     0
 40
1.0
176
     0
 90
        0
176
     0
 62
    18
420
        0
176
     0
 90
       50
176
     0
 90
        3
176
     0
 62
     5
420
      255
176
     0
290
     0
176
     0
 90
       50
176
     0
 90
       50
176
     0
 90
       50
176
     0
290
     0
176
     0
 90
       50
176
     0
 62
   256
176
     0
 40
1.0
176
     0
 90
        2
176
     0
  1
strokes_ogs.tif
176
     0
290
     0
176
     0
 40
1.0
176
     0
 40
1.0
176
     0
  0
VISUALSTYLE
  5
39
102
{ACAD_REACTORS
330
2A
102
}
330
2A
100
AcDbVisualStyle
  2
Facepattern
 70
    15
177
     3
291
     1
 70
    58
 90
        2
176
     1
 90
        2
176
     1
 90
        0
176
     1
 90
        0
176
     1
 40
0.6
176
     1
 40
30.0
176
     1
 62
     7
420
 16777215
176
     1
 90
        1
176
     1
 90
        4
176
     1
 62
     7
176
     1
 62
   257
176
     1
 90
        1
176
     1
 90
        1
176
     1
 40
1.0
176
     1
 90
        8
176
     1
 62
     7
176
     1
 40
1.0
176
     1
 90
        1
176
     1
 90
        6
176
     1
 90
        2
176
     1
 62
     7
176
     1
 90
        5
176
     1
 90
        0
176
     1
 90
        0
176
     1
290
     0
176
     1
 90
        1
176
     1
 40
0.0
176
     1
 90
        0
176
     1
290
     0
176
     1
290
     1
176
     1
290
     1
176
     1
290
     0
176
     1
290
     0
176
     1
290
     0
176
     1
290
     0
176
     1
290
     0
176
     1
290
     0
176
     1
 90
       50
176
     1
 40
0.0
176
     1
 40
1.0
176
     1
 90
        0
176
     1
 62
    18
420
        0
176
     1
 90
       50
176
     1
 90
        3
176
     1
 62
     5
420
      255
176
     1
290
     0
176
     1
 90
       50
176
     1
 90
       50
176
     1
 90
       50
176
     1
290
     0
176
     1
 90
       50
176
     1
 62
   256
176
     0
 40
1.0
176
     0
 90
        2
176
     1
  1
strokes_ogs.tif
176
     1
290
     0
176
     1
 40
1.0
176
     1
 40
1.0
176
     1
  0
VISUALSTYLE
  5
2B
102
{ACAD_REACTORS
330
2A
102
}
330
2A
100
AcDbVisualStyle
  2
Flat
 70
     0
177
     3
291
     1
 70
    58
 90
        2
176
     1
 90
        1
176
     1
 90
        1
176
     1
 90
        2
176
     1
 40
0.6
176
     1
 40
30.0
176
     1
 62
     7
420
 16777215
176
     1
 90
        0
176
     1
 90
        0
176
     1
 62
     7
176
     1
 62
   257
176
     1
 90
        1
176
     1
 90
        1
176
     1
 40
1.0
176
     1
 90
        8
176
     1
 62
     7
176
     1
 40
1.0
176
     1
 90
        1
176
     1
 90
        6
176
     1
 90
        2
176
     1
 62
     7
176
     1
 90
        5
176
     1
 90
        0
176
     1
 90
        0
176
     1
290
     0
176
     1
 90
       13
176
     1
 40
0.0
176
     1
 90
        0
176
     1
290
     0
176
     1
290
     1
176
     1
290
     1
176
     1
290
     0
176
     1
290
     0
176
     1
290
     0
176
     1
290
     0
176
     1
290
     0
176
     1
290
     0
176
     1
 90
       50
176
     1
 40
0.0
176
     1
 40
1.0
176
     1
 90
        0
176
     1
 62
    18
420
        0
176
     1
 90
       50
176
     1
 90
        3
176
     1
 62
     5
420
      255
176
     1
290
     0
176
     1
 90
       50
176
     1
 90
       50
176
     1
 90
       50
176
     1
290
     0
176
     1
 90
       50
176
     1
 62
   256
176
     0
 40
1.0
176
     0
 90
        2
176
     1
  1
strokes_ogs.tif
176
     1
290
     0
176
     1
 40
1.0
176
     1
 40
1.0
176
     1
  0
VISUALSTYLE
  5
2C
102
{ACAD_REACTORS
330
2A
102
}
330
2A
100
AcDbVisualStyle
  2
FlatWithEdges
 70
     1
177
     3
291
     1
 70
    58
 90
        2
176
     1
 90
        1
176
     1
 90
        1
176
     1
 90
        2
176
     1
 40
0.6
176
     1
 40
30.0
176
     1
 62
     7
420
 16777215
176
     1
 90
        1
176
     1
 90
        0
176
     1
 62
     7
176
     1
 62
   257
176
     1
 90
        1
176
     1
 90
        1
176
     1
 40
1.0
176
     1
 90
        0
176
     1
 62
   257
176
     1
 40
1.0
176
     1
 90
        1
176
     1
 90
        6
176
     1
 90
        2
176
     1
 62
     7
176
     1
 90
        5
176
     1
 90
        0
176
     1
 90
        0
176
     1
290
     0
176
     1
 90
       13
176
     1
 40
0.0
176
     1
 90
        0
176
     1
290
     0
176
     1
290
     1
176
     1
290
     1
176
     1
290
     0
176
     1
290
     0
176
     1
290
     0
176
     1
290
     0
176
     1
290
     0
176
     1
290
     0
176
     1
 90
       50
176
     1
 40
0.0
176
     1
 40
1.0
176
     1
 90
        0
176
     1
 62
    18
420
        0
176
     1
 90
       50
176
     1
 90
        3
176
     1
 62
     5
420
      255
176
     1
290
     0
176
     1
 90
       50
176
     1
 90
       50
176
     1
 90
       50
176
     1
290
     0
176
     1
 90
       50
176
     1
 62
   256
176
     0
 40
1.0
176
     0
 90
        2
176
     1
  1
strokes_ogs.tif
176
     1
290
     0
176
     1
 40
1.0
176
     1
 40
1.0
176
     1
  0
VISUALSTYLE
  5
2D
102
{ACAD_REACTORS
330
2A
102
}
330
2A
100
AcDbVisualStyle
  2
Gouraud
 70
     2
177
     3
291
     1
 70
    58
 90
        2
176
     1
 90
        2
176
     1
 90
        1
176
     1
 90
        2
176
     1
 40
0.6
176
     1
 40
30.0
176
     1
 62
     7
420
 16777215
176
     1
 90
        0
176
     1
 90
        0
176
     1
 62
     7
176
     1
 62
   257
176
     1
 90
        1
176
     1
 90
        1
176
     1
 40
1.0
176
     1
 90
        0
176
     1
 62
     7
176
     1
 40
1.0
176
     1
 90
        1
176
     1
 90
        6
176
     1
 90
        2
176
     1
 62
     7
176
     1
 90
        5
176
     1
 90
        0
176
     1
 90
        0
176
     1
290
     0
176
     1
 90
       13
176
     1
 40
0.0
176
     1
 90
        0
176
     1
290
     0
176
     1
290
     1
176
     1
290
     1
176
     1
290
     0
176
     1
290
     0
176
     1
290
     0
176
     1
290
     0
176
     1
290
     0
176
     1
290
     0
176
     1
 90
       50
176
     1
 40
0.0
176
     1
 40
1.0
176
     1
 90
        0
176
     1
 62
    18
420
        0
176
     1
 90
       50
176
     1
 90
        3
176
     1
 62
     5
420
      255
176
     1
290
     0
176
     1
 90
       50
176
     1
 90
       50
176
     1
 90
       50
176
     1
290
     0
176
     1
 90
       50
176
     1
 62
   256
176
     0
 40
1.0
176
     0
 90
        2
176
     1
  1
strokes_ogs.tif
176
     1
290
     0
176
     1
 40
1.0
176
     1
 40
1.0
176
     1
  0
VISUALSTYLE
  5
2E
102
{ACAD_REACTORS
330
2A
102
}
330
2A
100
AcDbVisualStyle
  2
GouraudWithEdges
 70
     3
177
     3
291
     1
 70
    58
 90
        2
176
     1
 90
        2
176
     1
 90
        1
176
     1
 90
        2
176
     1
 40
0.6
176
     1
 40
30.0
176
     1
 62
     7
420
 16777215
176
     1
 90
        1
176
     1
 90
        0
176
     1
 62
     7
176
     1
 62
   257
176
     1
 90
        1
176
     1
 90
        1
176
     1
 40
1.0
176
     1
 90
        0
176
     1
 62
   257
176
     1
 40
1.0
176
     1
 90
        1
176
     1
 90
        6
176
     1
 90
        2
176
     1
 62
     7
176
     1
 90
        5
176
     1
 90
        0
176
     1
 90
        0
176
     1
290
     0
176
     1
 90
       13
176
     1
 40
0.0
176
     1
 90
        0
176
     1
290
     0
176
     1
290
     1
176
     1
290
     1
176
     1
290
     0
176
     1
290
     0
176
     1
290
     0
176
     1
290
     0
176
     1
290
     0
176
     1
290
     0
176
     1
 90
       50
176
     1
 40
0.0
176
     1
 40
1.0
176
     1
 90
        0
176
     1
 62
    18
420
        0
176
     1
 90
       50
176
     1
 90
        3
176
     1
 62
     5
420
      255
176
     1
290
     0
176
     1
 90
       50
176
     1
 90
       50
176
     1
 90
       50
176
     1
290
     0
176
     1
 90
       50
176
     1
 62
   256
176
     0
 40
1.0
176
     0
 90
        2
176
     1
  1
strokes_ogs.tif
176
     1
290
     0
176
     1
 40
1.0
176
     1
 40
1.0
176
     1
  0
VISUALSTYLE
  5
31
102
{ACAD_REACTORS
330
2A
102
}
330
2A
100
AcDbVisualStyle
  2
Hidden
 70
     6
177
     3
291
     0
 70
    58
 90
        1
176
     1
 90
        2
176
     1
 90
        2
176
     1
 90
        0
176
     1
 40
0.6
176
     1
 40
30.0
176
     1
 62
     7
420
 16777215
176
     1
 90
        2
176
     1
 90
        2
176
     1
 62
     7
176
     1
 62
   257
176
     1
 90
        2
176
     1
 90
        1
176
     1
 40
40.0
176
     1
 90
        0
176
     1
 62
   257
176
     1
 40
1.0
176
     1
 90
        1
176
     1
 90
        6
176
     1
 90
        2
176
     1
 62
     7
176
     1
 90
        3
176
     1
 90
        0
176
     1
 90
        0
176
     1
290
     0
176
     1
 90
        1
176
     1
 40
0.0
176
     1
 90
        0
176
     1
290
     0
176
     1
290
     1
176
     1
290
     1
176
     1
290
     0
176
     1
290
     0
176
     1
290
     0
176
     1
290
     0
176
     1
290
     0
176
     1
290
     0
176
     1
 90
       50
176
     1
 40
0.0
176
     1
 40
1.0
176
     1
 90
        0
176
     1
 62
    18
420
        0
176
     1
 90
       50
176
     1
 90
        3
176
     1
 62
     5
420
      255
176
     1
290
     0
176
     1
 90
       50
176
     1
 90
       50
176
     1
 90
       50
176
     1
290
     0
176
     1
 90
       50
176
     1
 62
   256
176
     0
 40
1.0
176
     0
 90
        2
176
     1
  1
strokes_ogs.tif
176
     1
290
     0
176
     1
 40
1.0
176
     1
 40
1.0
176
     1
  0
VISUALSTYLE
  5
3B
102
{ACAD_REACTORS
330
2A
102
}
330
2A
100
AcDbVisualStyle
  2
JitterOff
 70
    20
177
     3
291
     1
 70
    58
 90
        2
176
     0
 90
        2
176
     0
 90
        0
176
     0
 90
        0
176
     0
 40
0.6
176
     0
 40
30.0
176
     0
 62
     7
420
 16777215
176
     0
 90
        1
176
     0
 90
        4
176
     0
 62
     7
176
     0
 62
   257
176
     0
 90
        1
176
     0
 90
        1
176
     0
 40
1.0
176
     0
 90
       10
176
     2
 62
     7
176
     0
 40
1.0
176
     0
 90
        1
176
     0
 90
        6
176
     0
 90
        2
176
     0
 62
     7
176
     0
 90
        5
176
     0
 90
        0
176
     0
 90
        0
176
     0
290
     0
176
     0
 90
        1
176
     0
 40
0.0
176
     0
 90
        0
176
     0
290
     0
176
     0
290
     1
176
     0
290
     1
176
     0
290
     0
176
     0
290
     0
176
     0
290
     0
176
     0
290
     0
176
     0
290
     0
176
     0
290
     0
176
     0
 90
       50
176
     0
 40
0.0
176
     0
 40
1.0
176
     0
 90
        0
176
     0
 62
    18
420
        0
176
     0
 90
       50
176
     0
 90
        3
176
     0
 62
     5
420
      255
176
     0
290
     0
176
     0
 90
       50
176
     0
 90
       50
176
     0
 90
       50
176
     0
290
     0
176
     0
 90
       50
176
     0
 62
   256
176
     0
 40
1.0
176
     0
 90
        2
176
     0
  1
strokes_ogs.tif
176
     0
290
     0
176
     0
 40
1.0
176
     0
 40
1.0
176
     0
  0
VISUALSTYLE
  5
38
102
{ACAD_REACTORS
330
2A
102
}
330
2A
100
AcDbVisualStyle
  2
Linepattern
 70
    14
177
     3
291
     1
 70
    58
 90
        2
176
     1
 90
        2
176
     1
 90
        0
176
     1
 90
        0
176
     1
 40
0.6
176
     1
 40
30.0
176
     1
 62
     7
420
 16777215
176
     1
 90
        1
176
     1
 90
        4
176
     1
 62
     7
176
     1
 62
   257
176
     1
 90
        7
176
     1
 90
        7
176
     1
 40
1.0
176
     1
 90
        8
176
     1
 62
     7
176
     1
 40
1.0
176
     1
 90
        1
176
     1
 90
        6
176
     1
 90
        2
176
     1
 62
     7
176
     1
 90
        5
176
     1
 90
        0
176
     1
 90
        0
176
     1
290
     0
176
     1
 90
        1
176
     1
 40
0.0
176
     1
 90
        0
176
     1
290
     0
176
     1
290
     1
176
     1
290
     1
176
     1
290
     0
176
     1
290
     0
176
     1
290
     0
176
     1
290
     0
176
     1
290
     0
176
     1
290
     0
176
     1
 90
       50
176
     1
 40
0.0
176
     1
 40
1.0
176
     1
 90
        0
176
     1
 62
    18
420
        0
176
     1
 90
       50
176
     1
 90
        3
176
     1
 62
     5
420
      255
176
     1
290
     0
176
     1
 90
       50
176
     1
 90
       50
176
     1
 90
       50
176
     1
290
     0
176
     1
 90
       50
176
     1
 62
   256
176
     0
 40
1.0
176
     0
 90
        2
176
     1
  1
strokes_ogs.tif
176
     1
290
     0
176
     1
 40
1.0
176
     1
 40
1.0
176
     1
  0
VISUALSTYLE
  5
3C
102
{ACAD_REACTORS
330
2A
102
}
330
2A
100
AcDbVisualStyle
  2
OverhangOff
 70
    21
177
     3
291
     1
 70
    58
 90
        2
176
     0
 90
        2
176
     0
 90
        0
176
     0
 90
        0
176
     0
 40
0.6
176
     0
 40
30.0
176
     0
 62
     7
420
 16777215
176
     0
 90
        1
176
     0
 90
        4
176
     0
 62
     7
176
     0
 62
   257
176
     0
 90
        1
176
     0
 90
        1
176
     0
 40
1.0
176
     0
 90
        9
176
     2
 62
     7
176
     0
 40
1.0
176
     0
 90
        1
176
     0
 90
        6
176
     0
 90
        2
176
     0
 62
     7
176
     0
 90
        5
176
     0
 90
        0
176
     0
 90
        0
176
     0
290
     0
176
     0
 90
        1
176
     0
 40
0.0
176
     0
 90
        0
176
     0
290
     0
176
     0
290
     1
176
     0
290
     1
176
     0
290
     0
176
     0
290
     0
176
     0
290
     0
176
     0
290
     0
176
     0
290
     0
176
     0
290
     0
176
     0
 90
       50
176
     0
 40
0.0
176
     0
 40
1.0
176
     0
 90
        0
176
     0
 62
    18
420
        0
176
     0
 90
       50
176
     0
 90
        3
176
     0
 62
     5
420
      255
176
     0
290
     0
176
     0
 90
       50
176
     0
 90
       50
176
     0
 90
       50
176
     0
290
     0
176
     0
 90
       50
176
     0
 62
   256
176
     0
 40
1.0
176
     0
 90
        2
176
     0
  1
strokes_ogs.tif
176
     0
290
     0
176
     0
 40
1.0
176
     0
 40
1.0
176
     0
  0
VISUALSTYLE
  5
33
102
{ACAD_REACTORS
330
2A
102
}
330
2A
100
AcDbVisualStyle
  2
Realistic
 70
     8
177
     3
291
     0
 70
    58
 90
        2
176
     1
 90
        3
176
     1
 90
        0
176
     1
 90
        2
176
     1
 40
0.6
176
     1
 40
30.0
176
     1
 62
     7
420
 16777215
176
     1
 90
        0
176
     1
 90
        0
176
     1
 62
     7
176
     1
 62
   257
176
     1
 90
        1
176
     1
 90
        1
176
     1
 40
1.0
176
     1
 90
        8
176
     1
 62
   257
176
     1
 40
1.0
176
     1
 90
        1
176
     1
 90
        6
176
     1
 90
        2
176
     1
 62
     7
176
     1
 90
        3
176
     1
 90
        0
176
     1
 90
        0
176
     1
290
     0
176
     1
 90
       13
176
     1
 40
0.0
176
     1
 90
        0
176
     1
290
     0
176
     1
290
     1
176
     1
290
     1
176
     1
290
     0
176
     1
290
     0
176
     1
290
     0
176
     1
290
     0
176
     1
290
     0
176
     1
290
     0
176
     1
 90
       50
176
     1
 40
0.0
176
     1
 40
1.0
176
     1
 90
        0
176
     1
 62
    18
420
        0
176
     1
 90
       50
176
     1
 90
        3
176
     1
 62
     5
420
      255
176
     1
290
     0
176
     1
 90
       50
176
     1
 90
       50
176
     1
 90
       50
176
     1
290
     0
176
     1
 90
       50
176
     1
 62
   256
176
     0
 40
1.0
176
     0
 90
        2
176
     1
  1
strokes_ogs.tif
176
     1
290
     0
176
     1
 40
1.0
176
     1
 40
1.0
176
     1
  0
VISUALSTYLE
  5
42
102
{ACAD_REACTORS
330
2A
102
}
330
2A
100
AcDbVisualStyle
  2
Shaded
 70
    27
177
     3
291
     0
 70
    58
 90
        2
176
     1
 90
        2
176
     1
 90
        1
176
     1
 90
        2
176
     1
 40
0.6
176
     1
 40
30.0
176
     1
 62
     7
420
 16777215
176
     1
 90
        0
176
     1
 90
        4
176
     1
 62
     7
176
     1
 62
   257
176
     1
 90
        1
176
     1
 90
        1
176
     1
 40
1.0
176
     1
 90
        8
176
     1
 62
   257
176
     1
 40
1.0
176
     1
 90
        1
176
     1
 90
        6
176
     1
 90
        2
176
     1
 62
     8
420
  7895160
176
     1
 90
        3
176
     1
 90
        0
176
     1
 90
        0
176
     1
290
     0
176
     1
 90
        5
176
     1
 40
0.0
176
     1
 90
        0
176
     1
290
     0
176
     1
290
     1
176
     1
290
     1
176
     1
290
     0
176
     1
290
     0
176
     1
290
     0
176
     1
290
     0
176
     1
290
     0
176
     1
290
     0
176
     1
 90
       50
176
     1
 40
0.0
176
     1
 40
1.0
176
     1
 90
        0
176
     1
 62
    18
420
        0
176
     1
 90
       50
176
     1
 90
        3
176
     1
 62
     5
420
      255
176
     1
290
     0
176
     1
 90
       50
176
     1
 90
       50
176
     1
 90
       50
176
     1
290
     0
176
     1
 90
       50
176
     1
 62
   256
176
     0
 40
1.0
176
     0
 90
        2
176
     1
  1
strokes_ogs.tif
176
     1
290
     0
176
     1
 40
1.0
176
     1
 40
1.0
176
     1
  0
VISUALSTYLE
  5
41
102
{ACAD_REACTORS
330
2A
102
}
330
2A
100
AcDbVisualStyle
  2
Shaded with edges
 70
    26
177
     3
291
     0
 70
    58
 90
        2
176
     1
 90
        2
176
     1
 90
        1
176
     1
 90
        2
176
     1
 40
0.6
176
     1
 40
30.0
176
     1
 62
     7
420
 16777215
176
     1
 90
        1
176
     1
 90
       10
176
     1
 62
     7
176
     1
 62
   257
176
     1
 90
        2
176
     1
 90
        1
176
     1
 40
1.0
176
     1
 90
        8
176
     1
 62
   257
176
     1
 40
1.0
176
     1
 90
        1
176
     1
 90
        6
176
     1
 90
        2
176
     1
 62
     7
176
     1
 90
        3
176
     1
 90
        0
176
     1
 90
        0
176
     1
290
     0
176
     1
 90
        5
176
     1
 40
0.0
176
     1
 90
        0
176
     1
290
     0
176
     1
290
     1
176
     1
290
     1
176
     1
290
     0
176
     1
290
     0
176
     1
290
     0
176
     1
290
     0
176
     1
290
     0
176
     1
290
     0
176
     1
 90
       50
176
     1
 40
0.0
176
     1
 40
1.0
176
     1
 90
        0
176
     1
 62
    18
420
        0
176
     1
 90
       50
176
     1
 90
        3
176
     1
 62
     5
420
      255
176
     1
290
     0
176
     1
 90
       50
176
     1
 90
       50
176
     1
 90
       50
176
     1
290
     0
176
     1
 90
       50
176
     1
 62
   256
176
     0
 40
1.0
176
     0
 90
        2
176
     1
  1
strokes_ogs.tif
176
     1
290
     0
176
     1
 40
1.0
176
     1
 40
1.0
176
     1
  0
VISUALSTYLE
  5
3E
102
{ACAD_REACTORS
330
2A
102
}
330
2A
100
AcDbVisualStyle
  2
Shades of Gray
 70
    23
177
     3
291
     0
 70
    58
 90
        2
176
     1
 90
        2
176
     1
 90
        3
176
     1
 90
        0
176
     1
 40
0.6
176
     1
 40
30.0
176
     1
 62
     7
420
 16777215
176
     1
 90
        2
176
     1
 90
        2
176
     1
 62
     7
176
     1
 62
     7
176
     1
 90
        1
176
     1
 90
        1
176
     1
 40
40.0
176
     1
 90
        8
176
     1
 62
     7
176
     1
 40
1.0
176
     1
 90
        1
176
     1
 90
        6
176
     1
 90
        2
176
     1
 62
     7
176
     1
 90
        3
176
     1
 90
        0
176
     1
 90
        0
176
     1
290
     0
176
     1
 90
        1
176
     1
 40
0.0
176
     1
 90
        0
176
     1
290
     0
176
     1
290
     1
176
     1
290
     1
176
     1
290
     0
176
     1
290
     0
176
     1
290
     0
176
     1
290
     0
176
     1
290
     0
176
     1
290
     0
176
     1
 90
       50
176
     1
 40
0.0
176
     1
 40
1.0
176
     1
 90
        0
176
     1
 62
    18
420
        0
176
     1
 90
       50
176
     1
 90
        3
176
     1
 62
     5
420
      255
176
     1
290
     0
176
     1
 90
       50
176
     1
 90
       50
176
     1
 90
       50
176
     1
290
     0
176
     1
 90
       50
176
     1
 62
   256
176
     0
 40
1.0
176
     0
 90
        2
176
     1
  1
strokes_ogs.tif
176
     1
290
     0
176
     1
 40
1.0
176
     1
 40
1.0
176
     1
  0
VISUALSTYLE
  5
3F
102
{ACAD_REACTORS
330
2A
102
}
330
2A
100
AcDbVisualStyle
  2
Sketchy
 70
    24
177
     3
291
     0
 70
    58
 90
        1
176
     1
 90
        2
176
     1
 90
        2
176
     1
 90
        0
176
     1
 40
0.6
176
     1
 40
30.0
176
     1
 62
     7
420
 16777215
176
     1
 90
        2
176
     1
 90
        2
176
     1
 62
     7
176
     1
 62
     7
176
     1
 90
        1
176
     1
 90
        1
176
     1
 40
40.0
176
     1
 90
       11
176
     1
 62
     7
176
     1
 40
1.0
176
     1
 90
        1
176
     1
 90
        6
176
     1
 90
        2
176
     1
 62
     7
176
     1
 90
        6
176
     1
 90
        0
176
     1
 90
        0
176
     1
290
     0
176
     1
 90
        1
176
     1
 40
0.0
176
     1
 90
        0
176
     1
290
     0
176
     1
290
     1
176
     1
290
     1
176
     1
290
     0
176
     1
290
     0
176
     1
290
     0
176
     1
290
     0
176
     1
290
     0
176
     1
290
     0
176
     1
 90
       50
176
     1
 40
0.0
176
     1
 40
1.0
176
     1
 90
        0
176
     1
 62
    18
420
        0
176
     1
 90
       50
176
     1
 90
        3
176
     1
 62
     5
420
      255
176
     1
290
     0
176
     1
 90
       50
176
     1
 90
       50
176
     1
 90
       50
176
     1
290
     0
176
     1
 90
       50
176
     1
 62
   256
176
     0
 40
1.0
176
     0
 90
        2
176
     1
  1
strokes_ogs.tif
176
     1
290
     0
176
     1
 40
1.0
176
     1
 40
1.0
176
     1
  0
VISUALSTYLE
  5
37
102
{ACAD_REACTORS
330
2A
102
}
330
2A
100
AcDbVisualStyle
  2
Thicken
 70
    13
177
     3
291
     1
 70
    58
 90
        2
176
     1
 90
        2
176
     1
 90
        0
176
     1
 90
        0
176
     1
 40
0.6
176
     1
 40
30.0
176
     1
 62
     7
420
 16777215
176
     1
 90
        1
176
     1
 90
        4
176
     1
 62
     7
176
     1
 62
   257
176
     1
 90
        1
176
     1
 90
        1
176
     1
 40
1.0
176
     1
 90
       12
176
     1
 62
     7
176
     1
 40
1.0
176
     1
 90
        1
176
     1
 90
        6
176
     1
 90
        2
176
     1
 62
     7
176
     1
 90
        5
176
     1
 90
        0
176
     1
 90
        0
176
     1
290
     0
176
     1
 90
        1
176
     1
 40
0.0
176
     1
 90
        0
176
     1
290
     0
176
     1
290
     1
176
     1
290
     1
176
     1
290
     0
176
     1
290
     0
176
     1
290
     0
176
     1
290
     0
176
     1
290
     0
176
     1
290
     0
176
     1
 90
       50
176
     1
 40
0.0
176
     1
 40
1.0
176
     1
 90
        0
176
     1
 62
    18
420
        0
176
     1
 90
       50
176
     1
 90
        3
176
     1
 62
     5
420
      255
176
     1
290
     0
176
     1
 90
       50
176
     1
 90
       50
176
     1
 90
       50
176
     1
290
     0
176
     1
 90
       50
176
     1
 62
   256
176
     0
 40
1.0
176
     0
 90
        2
176
     1
  1
strokes_ogs.tif
176
     1
290
     0
176
     1
 40
1.0
176
     1
 40
1.0
176
     1
  0
VISUALSTYLE
  5
30
102
{ACAD_REACTORS
330
2A
102
}
330
2A
100
AcDbVisualStyle
  2
Wireframe
 70
     5
177
     3
291
     0
 70
    58
 90
        0
176
     1
 90
        2
176
     1
 90
        0
176
     1
 90
        0
176
     1
 40
0.6
176
     1
 40
30.0
176
     1
 62
     7
420
 16777215
176
     1
 90
        1
176
     1
 90
        4
176
     1
 62
     7
176
     1
 62
   257
176
     1
 90
        1
176
     1
 90
        1
176
     1
 40
1.0
176
     1
 90
        0
176
     1
 62
   257
176
     1
 40
1.0
176
     1
 90
        1
176
     1
 90
        6
176
     1
 90
        2
176
     1
 62
     7
176
     1
 90
        3
176
     1
 90
        0
176
     1
 90
        0
176
     1
290
     0
176
     1
 90
        1
176
     1
 40
0.0
176
     1
 90
        0
176
     1
290
     0
176
     1
290
     1
176
     1
290
     1
176
     1
290
     0
176
     1
290
     0
176
     1
290
     0
176
     1
290
     0
176
     1
290
     0
176
     1
290
     0
176
     1
 90
       50
176
     1
 40
0.0
176
     1
 40
1.0
176
     1
 90
        0
176
     1
 62
    18
420
        0
176
     1
 90
       50
176
     1
 90
        3
176
     1
 62
     5
420
      255
176
     1
290
     0
176
     1
 90
       50
176
     1
 90
       50
176
     1
 90
       50
176
     1
290
     0
176
     1
 90
       50
176
     1
 62
   256
176
     0
 40
1.0
176
     0
 90
        2
176
     1
  1
strokes_ogs.tif
176
     1
290
     0
176
     1
 40
1.0
176
     1
 40
1.0
176
     1
  0
VISUALSTYLE
  5
40
102
{ACAD_REACTORS
330
2A
102
}
330
2A
100
AcDbVisualStyle
  2
X-Ray
 70
    25
177
     3
291
     0
 70
    58
 90
        2
176
     1
 90
        2
176
     1
 90
        1
176
     1
 90
        1
176
     1
 40
0.5
176
     1
 40
30.0
176
     1
 62
     7
420
 16777215
176
     1
 90
        1
176
     1
 90
        0
176
     1
 62
     7
176
     1
 62
   257
176
     1
 90
        1
176
     1
 90
        1
176
     1
 40
1.0
176
     1
 90
        8
176
     1
 62
     7
176
     1
 40
1.0
176
     1
 90
        1
176
     1
 90
        6
176
     1
 90
        2
176
     1
 62
     7
176
     1
 90
        3
176
     1
 90
        0
176
     1
 90
        0
176
     1
290
     0
176
     1
 90
       13
176
     1
 40
0.0
176
     1
 90
        0
176
     1
290
     0
176
     1
290
     1
176
     1
290
     1
176
     1
290
     0
176
     1
290
     0
176
     1
290
     0
176
     1
290
     0
176
     1
290
     0
176
     1
290
     0
176
     1
 90
       50
176
     1
 40
0.0
176
     1
 40
1.0
176
     1
 90
        0
176
     1
 62
    18
420
        0
176
     1
 90
       50
176
     1
 90
        3
176
     1
 62
     5
420
      255
176
     1
290
     0
176
     1
 90
       50
176
     1
 90
       50
176
     1
 90
       50
176
     1
290
     0
176
     1
 90
       50
176
     1
 62
   256
176
     0
 40
1.0
176
     0
 90
        2
176
     1
  1
strokes_ogs.tif
176
     1
290
     0
176
     1
 40
1.0
176
     1
 40
1.0
176
     1
  0
DICTIONARYVAR
  5
1FE
102
{ACAD_REACTORS
330
1FD
102
}
330
1FD
100
DictionaryVariables
280
     0
  1
1:1
  0
DICTIONARYVAR
  5
203
102
{ACAD_REACTORS
330
1FD
102
}
330
1FD
100
DictionaryVariables
280
     0
  1
Standard
  0
DICTIONARYVAR
  5
202
102
{ACAD_REACTORS
330
1FD
102
}
330
1FD
100
DictionaryVariables
280
     0
  1
Standard
  0
DICTIONARY
  5
1FF
330
6A
100
AcDbDictionary
280
     1
281
     1
  3
ACAD_ROUNDTRIP_2008_TABLESTYLE_CELLSTYLEMAP
360
200
  0
CELLSTYLEMAP
  5
200
102
{ACAD_REACTORS
330
1FF
102
}
330
1FF
100
AcDbCellStyleMap
 90
        3
300
CELLSTYLE
  1
TABLEFORMAT_BEGIN
 90
        5
170
     1
 91
        0
 92
    32768
 62
   257
 93
        1
300
CONTENTFORMAT
  1
CONTENTFORMAT_BEGIN
 90
        0
 91
        0
 92
        4
 93
        0
300

 40
0.0
140
1.0
 94
        5
 62
     0
340
11
144
0.25
309
CONTENTFORMAT_END
171
     1
301
MARGIN
  1
CELLMARGIN_BEGIN
 40
0.06
 40
0.06
 40
0.06
 40
0.06
 40
0.06
 40
0.06
309
CELLMARGIN_END
 94
        6
 95
        1
302
GRIDFORMAT
  1
GRIDFORMAT_BEGIN
 90
        0
 91
        1
 62
     0
 92
       -2
340
14
 93
        0
 40
0.045
309
GRIDFORMAT_END
 95
        2
302
GRIDFORMAT
  1
GRIDFORMAT_BEGIN
 90
        0
 91
        1
 62
     0
 92
       -2
340
14
 93
        0
 40
0.045
309
GRIDFORMAT_END
 95
        4
302
GRIDFORMAT
  1
GRIDFORMAT_BEGIN
 90
        0
 91
        1
 62
     0
 92
       -2
340
14
 93
        0
 40
0.045
309
GRIDFORMAT_END
 95
        8
302
GRIDFORMAT
  1
GRIDFORMAT_BEGIN
 90
        0
 91
        1
 62
     0
 92
       -2
340
14
 93
        0
 40
0.045
309
GRIDFORMAT_END
 95
       16
302
GRIDFORMAT
  1
GRIDFORMAT_BEGIN
 90
        0
 91
        1
 62
     0
 92
       -2
340
14
 93
        0
 40
0.045
309
GRIDFORMAT_END
 95
       32
302
GRIDFORMAT
  1
GRIDFORMAT_BEGIN
 90
        0
 91
        1
 62
     0
 92
       -2
340
14
 93
        0
 40
0.045
309
GRIDFORMAT_END
309
TABLEFORMAT_END
  1
CELLSTYLE_BEGIN
 90
        1
 91
        1
300
_TITLE
309
CELLSTYLE_END
300
CELLSTYLE
  1
TABLEFORMAT_BEGIN
 90
        5
170
     1
 91
        0
 92
        0
 62
   257
 93
        1
300
CONTENTFORMAT
  1
CONTENTFORMAT_BEGIN
 90
        0
 91
        0
 92
        4
 93
        0
300

 40
0.0
140
1.0
 94
        5
 62
     0
340
11
144
0.18
309
CONTENTFORMAT_END
171
     1
301
MARGIN
  1
CELLMARGIN_BEGIN
 40
0.06
 40
0.06
 40
0.06
 40
0.06
 40
0.06
 40
0.06
309
CELLMARGIN_END
 94
        6
 95
        1
302
GRIDFORMAT
  1
GRIDFORMAT_BEGIN
 90
        0
 91
        1
 62
     0
 92
       -2
340
14
 93
        0
 40
0.045
309
GRIDFORMAT_END
 95
        2
302
GRIDFORMAT
  1
GRIDFORMAT_BEGIN
 90
        0
 91
        1
 62
     0
 92
       -2
340
14
 93
        0
 40
0.045
309
GRIDFORMAT_END
 95
        4
302
GRIDFORMAT
  1
GRIDFORMAT_BEGIN
 90
        0
 91
        1
 62
     0
 92
       -2
340
14
 93
        0
 40
0.045
309
GRIDFORMAT_END
 95
        8
302
GRIDFORMAT
  1
GRIDFORMAT_BEGIN
 90
        0
 91
        1
 62
     0
 92
       -2
340
14
 93
        0
 40
0.045
309
GRIDFORMAT_END
 95
       16
302
GRIDFORMAT
  1
GRIDFORMAT_BEGIN
 90
        0
 91
        1
 62
     0
 92
       -2
340
14
 93
        0
 40
0.045
309
GRIDFORMAT_END
 95
       32
302
GRIDFORMAT
  1
GRIDFORMAT_BEGIN
 90
        0
 91
        1
 62
     0
 92
       -2
340
14
 93
        0
 40
0.045
309
GRIDFORMAT_END
309
TABLEFORMAT_END
  1
CELLSTYLE_BEGIN
 90
        2
 91
        1
300
_HEADER
309
CELLSTYLE_END
300
CELLSTYLE
  1
TABLEFORMAT_BEGIN
 90
        5
170
     1
 91
        0
 92
        0
 62
   257
 93
        1
300
CONTENTFORMAT
  1
CONTENTFORMAT_BEGIN
 90
        0
 91
        0
 92
        4
 93
        0
300

 40
0.0
140
1.0
 94
        2
 62
     0
340
11
144
0.18
309
CONTENTFORMAT_END
171
     1
301
MARGIN
  1
CELLMARGIN_BEGIN
 40
0.06
 40
0.06
 40
0.06
 40
0.06
 40
0.06
 40
0.06
309
CELLMARGIN_END
 94
        6
 95
        1
302
GRIDFORMAT
  1
GRIDFORMAT_BEGIN
 90
        0
 91
        1
 62
     0
 92
       -2
340
14
 93
        0
 40
0.045
309
GRIDFORMAT_END
 95
        2
302
GRIDFORMAT
  1
GRIDFORMAT_BEGIN
 90
        0
 91
        1
 62
     0
 92
       -2
340
14
 93
        0
 40
0.045
309
GRIDFORMAT_END
 95
        4
302
GRIDFORMAT
  1
GRIDFORMAT_BEGIN
 90
        0
 91
        1
 62
     0
 92
       -2
340
14
 93
        0
 40
0.045
309
GRIDFORMAT_END
 95
        8
302
GRIDFORMAT
  1
GRIDFORMAT_BEGIN
 90
        0
 91
        1
 62
     0
 92
       -2
340
14
 93
        0
 40
0.045
309
GRIDFORMAT_END
 95
       16
302
GRIDFORMAT
  1
GRIDFORMAT_BEGIN
 90
        0
 91
        1
 62
     0
 92
       -2
340
14
 93
        0
 40
0.045
309
GRIDFORMAT_END
 95
       32
302
GRIDFORMAT
  1
GRIDFORMAT_BEGIN
 90
        0
 91
        1
 62
     0
 92
       -2
340
14
 93
        0
 40
0.045
309
GRIDFORMAT_END
309
TABLEFORMAT_END
  1
CELLSTYLE_BEGIN
 90
        3
 91
        2
300
_DATA
309
CELLSTYLE_END
  0
ENDSEC
  0
EOF