0
SECTION
  2
HEADER
  9
$ACADVER
  1
AC1027
  9
$ACADMAINTVER
 70
     8
  9
$DWGCODEPAGE
  3
ANSI_1252
  9
$REQUIREDVERSIONS
160
                 0
  9
$COMMENTS
  1
File was created by Cadenas
  9
$CUSTOMPROPERTYTAG
  1
NN
  9
$CUSTOMPROPERTY
  1
TP Take-Up Trident Seal
  9
$CUSTOMPROPERTYTAG
  1
NT
  9
$CUSTOMPROPERTY
  1
S-2000 TPHU Take-Up Bearing -Inch
  9
$CUSTOMPROPERTYTAG
  1
NB
  9
$CUSTOMPROPERTY
  1
070818
  9
$CUSTOMPROPERTYTAG
  1
NBSYN
  9
$CUSTOMPROPERTY
  1
$PN.
  9
$CUSTOMPROPERTYTAG
  1
LINA
  9
$CUSTOMPROPERTY
  1
070818
  9
$CUSTOMPROPERTYTAG
  1
SS
  9
$CUSTOMPROPERTY
  1
2-15/16
  9
$CUSTOMPROPERTYTAG
  1
PN
  9
$CUSTOMPROPERTY
  1
070818
  9
$CUSTOMPROPERTYTAG
  1
DESCRIPTION
  9
$CUSTOMPROPERTY
  1
TPHU-S2-215R
  9
$CUSTOMPROPERTYTAG
  1
EF
  9
$CUSTOMPROPERTY
  1
Non-Expansion Type
  9
$CUSTOMPROPERTYTAG
  1
ST
  9
$CUSTOMPROPERTY
  1
Contact Seal
  9
$CUSTOMPROPERTYTAG
  1
A
  9
$CUSTOMPROPERTY
  1
3-19/32
  9
$CUSTOMPROPERTYTAG
  1
B
  9
$CUSTOMPROPERTY
  1
2-3/4
  9
$CUSTOMPROPERTYTAG
  1
C
  9
$CUSTOMPROPERTY
  1
13/16
  9
$CUSTOMPROPERTYTAG
  1
D
  9
$CUSTOMPROPERTY
  1
7-1/8
  9
$CUSTOMPROPERTYTAG
  1
E
  9
$CUSTOMPROPERTY
  1
3-5/16
  9
$CUSTOMPROPERTYTAG
  1
F
  9
$CUSTOMPROPERTY
  1
1-7/16
  9
$CUSTOMPROPERTYTAG
  1
G
  9
$CUSTOMPROPERTY
  1
9/16
  9
$CUSTOMPROPERTYTAG
  1
H
  9
$CUSTOMPROPERTY
  1
8-1/2
  9
$CUSTOMPROPERTYTAG
  1
J
  9
$CUSTOMPROPERTY
  1
8-1/2
  9
$CUSTOMPROPERTYTAG
  1
K
  9
$CUSTOMPROPERTY
  1
4
  9
$CUSTOMPROPERTYTAG
  1
L
  9
$CUSTOMPROPERTY
  1
4-45/64
  9
$CUSTOMPROPERTYTAG
  1
M
  9
$CUSTOMPROPERTY
  1
8
  9
$CUSTOMPROPERTYTAG
  1
N
  9
$CUSTOMPROPERTY
  1
1-15/16
  9
$CUSTOMPROPERTYTAG
  1
P
  9
$CUSTOMPROPERTY
  1
1-3/4
  9
$CUSTOMPROPERTYTAG
  1
Q
  9
$CUSTOMPROPERTY
  1
1-1/16
  9
$CUSTOMPROPERTYTAG
  1
R
  9
$CUSTOMPROPERTY
  1
3-53/64
  9
$CUSTOMPROPERTYTAG
  1
S
  9
$CUSTOMPROPERTY
  1
2-29/64
  9
$CUSTOMPROPERTYTAG
  1
T
  9
$CUSTOMPROPERTY
  1
5/16
  9
$CUSTOMPROPERTYTAG
  1
U
  9
$CUSTOMPROPERTY
  1
1-1/2
  9
$CUSTOMPROPERTYTAG
  1
V
  9
$CUSTOMPROPERTY
  1
2-3/4
  9
$CUSTOMPROPERTYTAG
  1
W
  9
$CUSTOMPROPERTY
  1
1
  9
$CUSTOMPROPERTYTAG
  1
X
  9
$CUSTOMPROPERTY
  1
1/4
  9
$CUSTOMPROPERTYTAG
  1
Y
  9
$CUSTOMPROPERTY
  1
0.025
  9
$CUSTOMPROPERTYTAG
  1
Z
  9
$CUSTOMPROPERTY
  1
3-15/32
  9
$CUSTOMPROPERTYTAG
  1
COMPANY
  9
$CUSTOMPROPERTY
  1
baldor
  9
$INSBASE
 10
0.0
 20
0.0
 30
0.0
  9
$EXTMIN
 10
1.000000000000000E+20
 20
1.000000000000000E+20
 30
1.000000000000000E+20
  9
$EXTMAX
 10
-1.000000000000000E+20
 20
-1.000000000000000E+20
 30
-1.000000000000000E+20
  9
$LIMMIN
 10
0.0
 20
0.0
  9
$LIMMAX
 10
12.0
 20
9.0
  9
$ORTHOMODE
 70
     0
  9
$REGENMODE
 70
     1
  9
$FILLMODE
 70
     1
  9
$QTEXTMODE
 70
     0
  9
$MIRRTEXT
 70
     1
  9
$LTSCALE
 40
1.0
  9
$ATTMODE
 70
     1
  9
$TEXTSIZE
 40
0.2
  9
$TRACEWID
 40
0.05
  9
$TEXTSTYLE
  7
Standard
  9
$CLAYER
  8
0
  9
$CELTYPE
  6
ByLayer
  9
$CECOLOR
 62
   256
  9
$CELTSCALE
 40
1.0
  9
$DISPSILH
 70
     0
  9
$DIMSCALE
 40
1.0
  9
$DIMASZ
 40
0.18
  9
$DIMEXO
 40
0.0625
  9
$DIMDLI
 40
0.38
  9
$DIMRND
 40
0.0
  9
$DIMDLE
 40
0.0
  9
$DIMEXE
 40
0.18
  9
$DIMTP
 40
0.0
  9
$DIMTM
 40
0.0
  9
$DIMTXT
 40
0.18
  9
$DIMCEN
 40
0.09
  9
$DIMTSZ
 40
0.0
  9
$DIMTOL
 70
     0
  9
$DIMLIM
 70
     0
  9
$DIMTIH
 70
     1
  9
$DIMTOH
 70
     1
  9
$DIMSE1
 70
     0
  9
$DIMSE2
 70
     0
  9
$DIMTAD
 70
     0
  9
$DIMZIN
 70
     0
  9
$DIMBLK
  1

  9
$DIMASO
 70
     1
  9
$DIMSHO
 70
     1
  9
$DIMPOST
  1

  9
$DIMAPOST
  1

  9
$DIMALT
 70
     0
  9
$DIMALTD
 70
     2
  9
$DIMALTF
 40
25.4
  9
$DIMLFAC
 40
1.0
  9
$DIMTOFL
 70
     0
  9
$DIMTVP
 40
0.0
  9
$DIMTIX
 70
     0
  9
$DIMSOXD
 70
     0
  9
$DIMSAH
 70
     0
  9
$DIMBLK1
  1

  9
$DIMBLK2
  1

  9
$DIMSTYLE
  2
Standard
  9
$DIMCLRD
 70
     0
  9
$DIMCLRE
 70
     0
  9
$DIMCLRT
 70
     0
  9
$DIMTFAC
 40
1.0
  9
$DIMGAP
 40
0.09
  9
$DIMJUST
 70
     0
  9
$DIMSD1
 70
     0
  9
$DIMSD2
 70
     0
  9
$DIMTOLJ
 70
     1
  9
$DIMTZIN
 70
     0
  9
$DIMALTZ
 70
     0
  9
$DIMALTTZ
 70
     0
  9
$DIMUPT
 70
     0
  9
$DIMDEC
 70
     4
  9
$DIMTDEC
 70
     4
  9
$DIMALTU
 70
     2
  9
$DIMALTTD
 70
     2
  9
$DIMTXSTY
  7
Standard
  9
$DIMAUNIT
 70
     0
  9
$DIMADEC
 70
     0
  9
$DIMALTRND
 40
0.0
  9
$DIMAZIN
 70
     0
  9
$DIMDSEP
 70
    46
  9
$DIMATFIT
 70
     3
  9
$DIMFRAC
 70
     0
  9
$DIMLDRBLK
  1

  9
$DIMLUNIT
 70
     2
  9
$DIMLWD
 70
    -2
  9
$DIMLWE
 70
    -2
  9
$DIMTMOVE
 70
     0
  9
$DIMFXL
 40
1.0
  9
$DIMFXLON
 70
     0
  9
$DIMJOGANG
 40
0.7853981633974483
  9
$DIMTFILL
 70
     0
  9
$DIMTFILLCLR
 70
     0
  9
$DIMARCSYM
 70
     0
  9
$DIMLTYPE
  6

  9
$DIMLTEX1
  6

  9
$DIMLTEX2
  6

  9
$DIMTXTDIRECTION
 70
     0
  9
$LUNITS
 70
     2
  9
$LUPREC
 70
     4
  9
$SKETCHINC
 40
0.1
  9
$FILLETRAD
 40
0.5
  9
$AUNITS
 70
     0
  9
$AUPREC
 70
     0
  9
$MENU
  1
.
  9
$ELEVATION
 40
0.0
  9
$PELEVATION
 40
0.0
  9
$THICKNESS
 40
0.0
  9
$LIMCHECK
 70
     0
  9
$CHAMFERA
 40
0.0
  9
$CHAMFERB
 40
0.0
  9
$CHAMFERC
 40
0.0
  9
$CHAMFERD
 40
0.0
  9
$SKPOLY
 70
     0
  9
$TDCREATE
 40
2458168.984013414
  9
$TDUCREATE
 40
2458168.942346747
  9
$TDUPDATE
 40
2458168.984013588
  9
$TDUUPDATE
 40
2458168.942346921
  9
$TDINDWG
 40
0.0000000116
  9
$TDUSRTIMER
 40
0.0000000116
  9
$USRTIMER
 70
     1
  9
$ANGBASE
 50
0.0
  9
$ANGDIR
 70
     0
  9
$PDMODE
 70
     0
  9
$PDSIZE
 40
0.0
  9
$PLINEWID
 40
0.0
  9
$SPLFRAME
 70
     0
  9
$SPLINETYPE
 70
     6
  9
$SPLINESEGS
 70
     8
  9
$HANDSEED
  5
26A
  9
$SURFTAB1
 70
     6
  9
$SURFTAB2
 70
     6
  9
$SURFTYPE
 70
     6
  9
$SURFU
 70
     6
  9
$SURFV
 70
     6
  9
$UCSBASE
  2

  9
$UCSNAME
  2

  9
$UCSORG
 10
0.0
 20
0.0
 30
0.0
  9
$UCSXDIR
 10
1.0
 20
0.0
 30
0.0
  9
$UCSYDIR
 10
0.0
 20
1.0
 30
0.0
  9
$UCSORTHOREF
  2

  9
$UCSORTHOVIEW
 70
     0
  9
$UCSORGTOP
 10
0.0
 20
0.0
 30
0.0
  9
$UCSORGBOTTOM
 10
0.0
 20
0.0
 30
0.0
  9
$UCSORGLEFT
 10
0.0
 20
0.0
 30
0.0
  9
$UCSORGRIGHT
 10
0.0
 20
0.0
 30
0.0
  9
$UCSORGFRONT
 10
0.0
 20
0.0
 30
0.0
  9
$UCSORGBACK
 10
0.0
 20
0.0
 30
0.0
  9
$PUCSBASE
  2

  9
$PUCSNAME
  2

  9
$PUCSORG
 10
0.0
 20
0.0
 30
0.0
  9
$PUCSXDIR
 10
1.0
 20
0.0
 30
0.0
  9
$PUCSYDIR
 10
0.0
 20
1.0
 30
0.0
  9
$PUCSORTHOREF
  2

  9
$PUCSORTHOVIEW
 70
     0
  9
$PUCSORGTOP
 10
0.0
 20
0.0
 30
0.0
  9
$PUCSORGBOTTOM
 10
0.0
 20
0.0
 30
0.0
  9
$PUCSORGLEFT
 10
0.0
 20
0.0
 30
0.0
  9
$PUCSORGRIGHT
 10
0.0
 20
0.0
 30
0.0
  9
$PUCSORGFRONT
 10
0.0
 20
0.0
 30
0.0
  9
$PUCSORGBACK
 10
0.0
 20
0.0
 30
0.0
  9
$USERI1
 70
     0
  9
$USERI2
 70
     0
  9
$USERI3
 70
     0
  9
$USERI4
 70
     0
  9
$USERI5
 70
     0
  9
$USERR1
 40
0.0
  9
$USERR2
 40
0.0
  9
$USERR3
 40
0.0
  9
$USERR4
 40
0.0
  9
$USERR5
 40
0.0
  9
$WORLDVIEW
 70
     1
  9
$SHADEDGE
 70
     3
  9
$SHADEDIF
 70
    70
  9
$TILEMODE
 70
     1
  9
$MAXACTVP
 70
    64
  9
$PINSBASE
 10
0.0
 20
0.0
 30
0.0
  9
$PLIMCHECK
 70
     0
  9
$PEXTMIN
 10
1.000000000000000E+20
 20
1.000000000000000E+20
 30
1.000000000000000E+20
  9
$PEXTMAX
 10
-1.000000000000000E+20
 20
-1.000000000000000E+20
 30
-1.000000000000000E+20
  9
$PLIMMIN
 10
0.0
 20
0.0
  9
$PLIMMAX
 10
12.0
 20
9.0
  9
$UNITMODE
 70
     0
  9
$VISRETAIN
 70
     1
  9
$PLINEGEN
 70
     0
  9
$PSLTSCALE
 70
     1
  9
$TREEDEPTH
 70
  3020
  9
$CMLSTYLE
  2
Standard
  9
$CMLJUST
 70
     0
  9
$CMLSCALE
 40
1.0
  9
$PROXYGRAPHICS
 70
     1
  9
$MEASUREMENT
 70
     0
  9
$CELWEIGHT
370
    -1
  9
$ENDCAPS
280
     0
  9
$JOINSTYLE
280
     0
  9
$LWDISPLAY
290
     0
  9
$INSUNITS
 70
     1
  9
$HYPERLINKBASE
  1

  9
$STYLESHEET
  1

  9
$XEDIT
290
     1
  9
$CEPSNTYPE
380
     0
  9
$PSTYLEMODE
290
     1
  9
$FINGERPRINTGUID
  2
{18057F12-6582-422D-83BD-D49F2698BF73}
  9
$VERSIONGUID
  2
{FAEB1C32-E019-11D5-929B-00C0DF256EC4}
  9
$EXTNAMES
290
     1
  9
$PSVPSCALE
 40
0.0
  9
$OLESTARTUP
290
     0
  9
$SORTENTS
280
   127
  9
$INDEXCTL
280
     0
  9
$HIDETEXT
280
     1
  9
$XCLIPFRAME
280
     2
  9
$HALOGAP
280
     0
  9
$OBSCOLOR
 70
   257
  9
$OBSLTYPE
280
     0
  9
$INTERSECTIONDISPLAY
280
     0
  9
$INTERSECTIONCOLOR
 70
   257
  9
$DIMASSOC
280
     2
  9
$PROJECTNAME
  1

  9
$CAMERADISPLAY
290
     0
  9
$LENSLENGTH
 40
50.0
  9
$CAMERAHEIGHT
 40
0.0
  9
$STEPSPERSEC
 40
2.0
  9
$STEPSIZE
 40
6.0
  9
$3DDWFPREC
 40
2.0
  9
$PSOLWIDTH
 40
0.25
  9
$PSOLHEIGHT
 40
4.0
  9
$LOFTANG1
 40
1.570796326794897
  9
$LOFTANG2
 40
1.570796326794897
  9
$LOFTMAG1
 40
0.0
  9
$LOFTMAG2
 40
0.0
  9
$LOFTPARAM
 70
     7
  9
$LOFTNORMALS
280
     1
  9
$LATITUDE
 40
37.795
  9
$LONGITUDE
 40
-122.394
  9
$NORTHDIRECTION
 40
0.0
  9
$TIMEZONE
 70
 -8000
  9
$LIGHTGLYPHDISPLAY
280
     1
  9
$TILEMODELIGHTSYNCH
280
     1
  9
$CMATERIAL
347
44
  9
$SOLIDHIST
280
     0
  9
$SHOWHIST
280
     1
  9
$DWFFRAME
280
     2
  9
$DGNFRAME
280
     2
  9
$REALWORLDSCALE
290
     1
  9
$INTERFERECOLOR
 62
   256
  9
$CSHADOW
280
     0
  9
$SHADOWPLANELOCATION
 40
0.0
  0
ENDSEC
  0
SECTION
  2
CLASSES
  0
CLASS
  1
ACDBDICTIONARYWDFLT
  2
AcDbDictionaryWithDefault
  3
ObjectDBX Classes
 90
        0
 91
        4
280
     0
281
     0
  0
CLASS
  1
VISUALSTYLE
  2
AcDbVisualStyle
  3
ObjectDBX Classes
 90
     4095
 91
        4
280
     0
281
     0
  0
CLASS
  1
MATERIAL
  2
AcDbMaterial
  3
ObjectDBX Classes
 90
     1153
 91
        4
280
     0
281
     0
  0
CLASS
  1
SCALE
  2
AcDbScale
  3
ObjectDBX Classes
 90
     1153
 91
        4
280
     0
281
     0
  0
CLASS
  1
TABLESTYLE
  2
AcDbTableStyle
  3
ObjectDBX Classes
 90
     4095
 91
        4
280
     0
281
     0
  0
CLASS
  1
MLEADERSTYLE
  2
AcDbMLeaderStyle
  3
ACDB_MLEADERSTYLE_CLASS
 90
     4095
 91
        4
280
     0
281
     0
  0
CLASS
  1
SUN
  2
AcDbSun
  3
SCENEOE
 90
     1153
 91
        4
280
     0
281
     0
  0
CLASS
  1
DICTIONARYVAR
  2
AcDbDictionaryVar
  3
ObjectDBX Classes
 90
        0
 91
        4
280
     0
281
     0
  0
CLASS
  1
CELLSTYLEMAP
  2
AcDbCellStyleMap
  3
ObjectDBX Classes
 90
     1152
 91
        4
280
     0
281
     0
  0
ENDSEC
  0
SECTION
  2
TABLES
  0
TABLE
  2
VPORT
  5
8
330
0
100
AcDbSymbolTable
 70
     1
  0
VPORT
  5
29
330
8
100
AcDbSymbolTableRecord
100
AcDbViewportTableRecord
  2
*Active
 70
     0
 10
0.0
 20
0.0
 11
1.0
 21
1.0
 12
0.0
 22
-0.2033750000000003
 13
0.0
 23
0.0
 14
0.5
 24
0.5
 15
0.5
 25
0.5
 16
0.0
 26
0.0
 36
1.0
 17
0.0
 27
0.0
 37
0.0
 40
5.099489999999999
 41
1.7001700170017
 42
50.0
 43
0.0
 44
0.0
 50
0.0
 51
0.0
 71
     0
 72
   100
 73
     1
 74
     3
 75
     0
 76
     0
 77
     0
 78
     0
281
     0
 65
     1
110
0.0
120
0.0
130
0.0
111
1.0
121
0.0
131
0.0
112
0.0
122
1.0
132
0.0
 79
     0
146
0.0
348
2F
 60
     3
 61
     5
292
     1
282
     1
141
0.0
142
0.0
 63
   250
361
6D
  0
ENDTAB
  0
TABLE
  2
LTYPE
  5
5
330
0
100
AcDbSymbolTable
 70
     3
  0
LTYPE
  5
14
330
5
100
AcDbSymbolTableRecord
100
AcDbLinetypeTableRecord
  2
ByBlock
 70
     0
  3

 72
    65
 73
     0
 40
0.0
  0
LTYPE
  5
15
330
5
100
AcDbSymbolTableRecord
100
AcDbLinetypeTableRecord
  2
ByLayer
 70
     0
  3

 72
    65
 73
     0
 40
0.0
  0
LTYPE
  5
16
330
5
100
AcDbSymbolTableRecord
100
AcDbLinetypeTableRecord
  2
Continuous
 70
     0
  3
Solid line
 72
    65
 73
     0
 40
0.0
  0
LTYPE
  5
A7
330
5
100
AcDbSymbolTableRecord
100
AcDbLinetypeTableRecord
  2
Dashed
 70
     0
  3

 72
    65
 73
     2
 40
2.0
 49
1.0
 74
     0
 49
-1.0
 74
     0
  0
LTYPE
  5
DF
330
5
100
AcDbSymbolTableRecord
100
AcDbLinetypeTableRecord
  2
Center
 70
     0
  3

 72
    65
 73
     4
 40
1.5
 49
0.45
 74
     0
 49
-0.5
 74
     0
 49
0.05
 74
     0
 49
-0.5
 74
     0
  0
ENDTAB
  0
TABLE
  2
LAYER
  5
2
330
0
100
AcDbSymbolTable
 70
     7
  0
LAYER
  5
10
330
2
100
AcDbSymbolTableRecord
100
AcDbLayerTableRecord
  2
0
 70
     0
 62
     7
  6
Continuous
370
    -3
390
F
347
46
348
0
  0
LAYER
  5
72
330
2
100
AcDbSymbolTableRecord
100
AcDbLayerTableRecord
  2
AM_6
 70
     0
 62
    -2
  6
Continuous
370
    35
390
F
347
46
348
0
  0
LAYER
  5
A8
330
2
100
AcDbSymbolTableRecord
100
AcDbLayerTableRecord
  2
AM_9
 70
     0
 62
     6
  6
Dashed
370
    25
390
F
347
46
348
0
  0
LAYER
  5
D9
330
2
100
AcDbSymbolTableRecord
100
AcDbLayerTableRecord
  2
AM_5
 70
     0
 62
     3
  6
Continuous
370
    25
390
F
347
46
348
0
  0
LAYER
  5
E0
330
2
100
AcDbSymbolTableRecord
100
AcDbLayerTableRecord
  2
AM_7
 70
     0
 62
     7
  6
Center
370
    25
390
F
347
46
348
0
  0
LAYER
  5
E2
330
2
100
AcDbSymbolTableRecord
100
AcDbLayerTableRecord
  2
AM_4
 70
     0
 62
     7
  6
Continuous
370
    50
390
F
347
46
348
0
  0
LAYER
  5
259
330
2
100
AcDbSymbolTableRecord
100
AcDbLayerTableRecord
  2
ConnectionPoints
 70
     0
 62
     7
  6
Continuous
370
    50
390
F
347
46
348
0
  0
ENDTAB
  0
TABLE
  2
STYLE
  5
3
330
0
100
AcDbSymbolTable
 70
     1
  0
STYLE
  5
11
330
3
100
AcDbSymbolTableRecord
100
AcDbTextStyleTableRecord
  2
Standard
 70
     0
 40
0.0
 41
1.0
 50
0.0
 71
     0
 42
0.2
  3
txt
  4

  0
ENDTAB
  0
TABLE
  2
VIEW
  5
6
330
0
100
AcDbSymbolTable
 70
     0
  0
ENDTAB
  0
TABLE
  2
UCS
  5
7
330
0
100
AcDbSymbolTable
 70
     0
  0
ENDTAB
  0
TABLE
  2
APPID
  5
9
330
0
100
AcDbSymbolTable
 70
     1
  0
APPID
  5
12
330
9
100
AcDbSymbolTableRecord
100
AcDbRegAppTableRecord
  2
ACAD
 70
     0
  0
ENDTAB
  0
TABLE
  2
DIMSTYLE
  5
A
330
0
100
AcDbSymbolTable
 70
     1
100
AcDbDimStyleTable
  0
DIMSTYLE
105
27
330
A
100
AcDbSymbolTableRecord
100
AcDbDimStyleTableRecord
  2
Standard
 70
     0
178
     0
340
11
  0
ENDTAB
  0
TABLE
  2
BLOCK_RECORD
  5
1
330
0
100
AcDbSymbolTable
 70
     6
  0
BLOCK_RECORD
  5
1F
330
1
100
AcDbSymbolTableRecord
100
AcDbBlockTableRecord
  2
*Model_Space
340
22
 70
     0
280
     1
281
     0
  0
BLOCK_RECORD
  5
1B
330
1
100
AcDbSymbolTableRecord
100
AcDbBlockTableRecord
  2
*Paper_Space
340
1E
 70
     0
280
     1
281
     0
  0
BLOCK_RECORD
  5
23
330
1
100
AcDbSymbolTableRecord
100
AcDbBlockTableRecord
  2
*Paper_Space0
340
26
 70
     0
280
     1
281
     0
  0
BLOCK_RECORD
  5
6E
330
1
100
AcDbSymbolTableRecord
100
AcDbBlockTableRecord
  2
1_070818_4
340
0
102
{BLKREFS
331
6F
102
}
 70
     0
280
     1
281
     0
  0
BLOCK_RECORD
  5
96
330
1
100
AcDbSymbolTableRecord
100
AcDbBlockTableRecord
  2
2_405016_Inch_0_in_070818_4
340
0
102
{BLKREFS
331
97
102
}
 70
     0
280
     1
281
     0
  0
BLOCK_RECORD
  5
EE
330
1
100
AcDbSymbolTableRecord
100
AcDbBlockTableRecord
  2
3_2_15_16CS2i_0_in_070818_4
340
0
102
{BLKREFS
331
EF
102
}
 70
     0
280
     1
281
     0
  0
BLOCK_RECORD
  5
138
330
1
100
AcDbSymbolTableRecord
100
AcDbBlockTableRecord
  2
4_070010i_0_in_070818_4
340
0
102
{BLKREFS
331
139
102
}
 70
     0
280
     1
281
     0
  0
BLOCK_RECORD
  5
188
330
1
100
AcDbSymbolTableRecord
100
AcDbBlockTableRecord
  2
5_070818H_0_in_070818_4
340
0
102
{BLKREFS
331
189
102
}
 70
     0
280
     1
281
     0
  0
ENDTAB
  0
ENDSEC
  0
SECTION
  2
BLOCKS
  0
BLOCK
  5
20
330
1F
100
AcDbEntity
  8
0
100
AcDbBlockBegin
  2
*Model_Space
 70
     0
 10
0.0
 20
0.0
 30
0.0
  3
*Model_Space
  1

  0
ENDBLK
  5
21
330
1F
100
AcDbEntity
  8
0
100
AcDbBlockEnd
  0
BLOCK
  5
1C
330
1B
100
AcDbEntity
 67
     1
  8
0
100
AcDbBlockBegin
  2
*Paper_Space
 70
     0
 10
0.0
 20
0.0
 30
0.0
  3
*Paper_Space
  1

  0
ENDBLK
  5
1D
330
1B
100
AcDbEntity
 67
     1
  8
0
100
AcDbBlockEnd
  0
BLOCK
  5
24
330
23
100
AcDbEntity
  8
0
100
AcDbBlockBegin
  2
*Paper_Space0
 70
     0
 10
0.0
 20
0.0
 30
0.0
  3
*Paper_Space0
  1

  0
ENDBLK
  5
25
330
23
100
AcDbEntity
  8
0
100
AcDbBlockEnd
  0
BLOCK
  5
70
330
6E
100
AcDbEntity
  8
0
100
AcDbBlockBegin
  2
1_070818_4
 70
     2
 10
0.0
 20
0.0
 30
0.0
  3
1_070818_4
  1

  0
ATTDEF
  5
73
330
6E
100
AcDbEntity
  8
AM_6
100
AcDbText
 10
9.25
 20
2.016666666666667
 30
0.0
 40
0.5
  1
TP Take-Up Trident Seal
100
AcDbAttributeDefinition
  3

  2
NN
 70
     8
280
     0
  0
ATTDEF
  5
74
330
6E
100
AcDbEntity
  8
AM_6
100
AcDbText
 10
9.25
 20
1.516666666666667
 30
0.0
 40
0.5
  1
S-2000 TPHU Take-Up Bearing -Inch
100
AcDbAttributeDefinition
  3

  2
NT
 70
     8
280
     0
  0
ATTDEF
  5
75
330
6E
100
AcDbEntity
  8
AM_6
100
AcDbText
 10
9.25
 20
1.016666666666667
 30
0.0
 40
0.5
  1
070818
100
AcDbAttributeDefinition
  3

  2
NB
 70
     8
280
     0
  0
ATTDEF
  5
76
330
6E
100
AcDbEntity
  8
AM_6
100
AcDbText
 10
9.25
 20
0.5166666666666666
 30
0.0
 40
0.5
  1
$PN.
100
AcDbAttributeDefinition
  3

  2
NBSYN
 70
     8
280
     0
  0
ATTDEF
  5
77
330
6E
100
AcDbEntity
  8
AM_6
100
AcDbText
 10
9.25
 20
0.0166666666666666
 30
0.0
 40
0.5
  1
070818
100
AcDbAttributeDefinition
  3

  2
LINA
 70
     8
280
     0
  0
ATTDEF
  5
78
330
6E
100
AcDbEntity
  8
AM_6
100
AcDbText
 10
9.25
 20
-0.4833333333333334
 30
0.0
 40
0.5
  1
2-15/16
100
AcDbAttributeDefinition
  3

  2
SS
 70
     8
280
     0
  0
ATTDEF
  5
79
330
6E
100
AcDbEntity
  8
AM_6
100
AcDbText
 10
9.25
 20
-0.9833333333333334
 30
0.0
 40
0.5
  1
070818
100
AcDbAttributeDefinition
  3

  2
PN
 70
     8
280
     0
  0
ATTDEF
  5
7A
330
6E
100
AcDbEntity
  8
AM_6
100
AcDbText
 10
9.25
 20
-1.483333333333333
 30
0.0
 40
0.5
  1
TPHU-S2-215R
100
AcDbAttributeDefinition
  3

  2
DESCRIPTION
 70
     8
280
     0
  0
ATTDEF
  5
7B
330
6E
100
AcDbEntity
  8
AM_6
100
AcDbText
 10
9.25
 20
-1.983333333333333
 30
0.0
 40
0.5
  1
Non-Expansion Type
100
AcDbAttributeDefinition
  3

  2
EF
 70
     8
280
     0
  0
ATTDEF
  5
7C
330
6E
100
AcDbEntity
  8
AM_6
100
AcDbText
 10
9.25
 20
-2.483333333333333
 30
0.0
 40
0.5
  1
Contact Seal
100
AcDbAttributeDefinition
  3

  2
ST
 70
     8
280
     0
  0
ATTDEF
  5
7D
330
6E
100
AcDbEntity
  8
AM_6
100
AcDbText
 10
9.25
 20
-2.983333333333333
 30
0.0
 40
0.5
  1
3-19/32
100
AcDbAttributeDefinition
  3

  2
A
 70
     8
280
     0
  0
ATTDEF
  5
7E
330
6E
100
AcDbEntity
  8
AM_6
100
AcDbText
 10
9.25
 20
-3.483333333333333
 30
0.0
 40
0.5
  1
2-3/4
100
AcDbAttributeDefinition
  3

  2
B
 70
     8
280
     0
  0
ATTDEF
  5
7F
330
6E
100
AcDbEntity
  8
AM_6
100
AcDbText
 10
9.25
 20
-3.983333333333333
 30
0.0
 40
0.5
  1
13/16
100
AcDbAttributeDefinition
  3

  2
C
 70
     8
280
     0
  0
ATTDEF
  5
80
330
6E
100
AcDbEntity
  8
AM_6
100
AcDbText
 10
9.25
 20
-4.483333333333333
 30
0.0
 40
0.5
  1
7-1/8
100
AcDbAttributeDefinition
  3

  2
D
 70
     8
280
     0
  0
ATTDEF
  5
81
330
6E
100
AcDbEntity
  8
AM_6
100
AcDbText
 10
9.25
 20
-4.983333333333333
 30
0.0
 40
0.5
  1
3-5/16
100
AcDbAttributeDefinition
  3

  2
E
 70
     8
280
     0
  0
ATTDEF
  5
82
330
6E
100
AcDbEntity
  8
AM_6
100
AcDbText
 10
9.25
 20
-5.483333333333333
 30
0.0
 40
0.5
  1
1-7/16
100
AcDbAttributeDefinition
  3

  2
F
 70
     8
280
     0
  0
ATTDEF
  5
83
330
6E
100
AcDbEntity
  8
AM_6
100
AcDbText
 10
9.25
 20
-5.983333333333333
 30
0.0
 40
0.5
  1
9/16
100
AcDbAttributeDefinition
  3

  2
G
 70
     8
280
     0
  0
ATTDEF
  5
84
330
6E
100
AcDbEntity
  8
AM_6
100
AcDbText
 10
9.25
 20
-6.483333333333333
 30
0.0
 40
0.5
  1
8-1/2
100
AcDbAttributeDefinition
  3

  2
H
 70
     8
280
     0
  0
ATTDEF
  5
85
330
6E
100
AcDbEntity
  8
AM_6
100
AcDbText
 10
9.25
 20
-6.983333333333333
 30
0.0
 40
0.5
  1
8-1/2
100
AcDbAttributeDefinition
  3

  2
J
 70
     8
280
     0
  0
ATTDEF
  5
86
330
6E
100
AcDbEntity
  8
AM_6
100
AcDbText
 10
9.25
 20
-7.483333333333333
 30
0.0
 40
0.5
  1
4
100
AcDbAttributeDefinition
  3

  2
K
 70
     8
280
     0
  0
ATTDEF
  5
87
330
6E
100
AcDbEntity
  8
AM_6
100
AcDbText
 10
9.25
 20
-7.983333333333333
 30
0.0
 40
0.5
  1
4-45/64
100
AcDbAttributeDefinition
  3

  2
L
 70
     8
280
     0
  0
ATTDEF
  5
88
330
6E
100
AcDbEntity
  8
AM_6
100
AcDbText
 10
9.25
 20
-8.483333333333334
 30
0.0
 40
0.5
  1
8
100
AcDbAttributeDefinition
  3

  2
M
 70
     8
280
     0
  0
ATTDEF
  5
89
330
6E
100
AcDbEntity
  8
AM_6
100
AcDbText
 10
9.25
 20
-8.983333333333334
 30
0.0
 40
0.5
  1
1-15/16
100
AcDbAttributeDefinition
  3

  2
N
 70
     8
280
     0
  0
ATTDEF
  5
8A
330
6E
100
AcDbEntity
  8
AM_6
100
AcDbText
 10
9.25
 20
-9.483333333333334
 30
0.0
 40
0.5
  1
1-3/4
100
AcDbAttributeDefinition
  3

  2
P
 70
     8
280
     0
  0
ATTDEF
  5
8B
330
6E
100
AcDbEntity
  8
AM_6
100
AcDbText
 10
9.25
 20
-9.983333333333334
 30
0.0
 40
0.5
  1
1-1/16
100
AcDbAttributeDefinition
  3

  2
Q
 70
     8
280
     0
  0
ATTDEF
  5
8C
330
6E
100
AcDbEntity
  8
AM_6
100
AcDbText
 10
9.25
 20
-10.48333333333333
 30
0.0
 40
0.5
  1
3-53/64
100
AcDbAttributeDefinition
  3

  2
R
 70
     8
280
     0
  0
ATTDEF
  5
8D
330
6E
100
AcDbEntity
  8
AM_6
100
AcDbText
 10
9.25
 20
-10.98333333333333
 30
0.0
 40
0.5
  1
2-29/64
100
AcDbAttributeDefinition
  3

  2
S
 70
     8
280
     0
  0
ATTDEF
  5
8E
330
6E
100
AcDbEntity
  8
AM_6
100
AcDbText
 10
9.25
 20
-11.48333333333333
 30
0.0
 40
0.5
  1
5/16
100
AcDbAttributeDefinition
  3

  2
T
 70
     8
280
     0
  0
ATTDEF
  5
8F
330
6E
100
AcDbEntity
  8
AM_6
100
AcDbText
 10
9.25
 20
-11.98333333333333
 30
0.0
 40
0.5
  1
1-1/2
100
AcDbAttributeDefinition
  3

  2
U
 70
     8
280
     0
  0
ATTDEF
  5
90
330
6E
100
AcDbEntity
  8
AM_6
100
AcDbText
 10
9.25
 20
-12.48333333333333
 30
0.0
 40
0.5
  1
2-3/4
100
AcDbAttributeDefinition
  3

  2
V
 70
     8
280
     0
  0
ATTDEF
  5
91
330
6E
100
AcDbEntity
  8
AM_6
100
AcDbText
 10
9.25
 20
-12.98333333333333
 30
0.0
 40
0.5
  1
1
100
AcDbAttributeDefinition
  3

  2
W
 70
     8
280
     0
  0
ATTDEF
  5
92
330
6E
100
AcDbEntity
  8
AM_6
100
AcDbText
 10
9.25
 20
-13.48333333333333
 30
0.0
 40
0.5
  1
1/4
100
AcDbAttributeDefinition
  3

  2
X
 70
     8
280
     0
  0
ATTDEF
  5
93
330
6E
100
AcDbEntity
  8
AM_6
100
AcDbText
 10
9.25
 20
-13.98333333333333
 30
0.0
 40
0.5
  1
0.025
100
AcDbAttributeDefinition
  3

  2
Y
 70
     8
280
     0
  0
ATTDEF
  5
94
330
6E
100
AcDbEntity
  8
AM_6
100
AcDbText
 10
9.25
 20
-14.48333333333333
 30
0.0
 40
0.5
  1
3-15/32
100
AcDbAttributeDefinition
  3

  2
Z
 70
     8
280
     0
  0
ATTDEF
  5
95
330
6E
100
AcDbEntity
  8
AM_6
100
AcDbText
 10
9.25
 20
-14.98333333333333
 30
0.0
 40
0.5
  1
baldor
100
AcDbAttributeDefinition
  3

  2
COMPANY
 70
     8
280
     0
  0
INSERT
  5
97
330
6E
100
AcDbEntity
  8
0
100
AcDbBlockReference
  2
2_405016_Inch_0_in_070818_4
 10
0.0
 20
0.0
 30
0.0
  0
INSERT
  5
EF
330
6E
100
AcDbEntity
  8
0
100
AcDbBlockReference
  2
3_2_15_16CS2i_0_in_070818_4
 10
0.0
 20
0.0
 30
0.0
  0
INSERT
  5
139
330
6E
100
AcDbEntity
  8
0
100
AcDbBlockReference
  2
4_070010i_0_in_070818_4
 10
0.0
 20
0.0
 30
0.0
  0
INSERT
  5
189
330
6E
100
AcDbEntity
  8
0
100
AcDbBlockReference
  2
5_070818H_0_in_070818_4
 10
0.0
 20
0.0
 30
0.0
  0
ENDBLK
  5
71
330
6E
100
AcDbEntity
  8
0
100
AcDbBlockEnd
  0
BLOCK
  5
98
330
96
100
AcDbEntity
  8
0
100
AcDbBlockBegin
  2
2_405016_Inch_0_in_070818_4
 70
     2
 10
0.0
 20
0.0
 30
0.0
  3
2_405016_Inch_0_in_070818_4
  1

  0
ATTDEF
  5
9A
330
96
100
AcDbEntity
  8
AM_6
100
AcDbText
 10
9.075
 20
0.21875
 30
0.0
 40
0.5
  1
405016 -Inch
100
AcDbAttributeDefinition
  3

  2
NN
 70
     8
280
     0
  0
ATTDEF
  5
9B
330
96
100
AcDbEntity
  8
AM_6
100
AcDbText
 10
9.075
 20
-0.28125
 30
0.0
 40
0.5
  1
Grease Fitting
100
AcDbAttributeDefinition
  3

  2
NT
 70
     8
280
     0
  0
ATTDEF
  5
9C
330
96
100
AcDbEntity
  8
AM_6
100
AcDbText
 10
9.075
 20
-0.78125
 30
0.0
 40
0.5
  1
405016-Inch
100
AcDbAttributeDefinition
  3

  2
NB
 70
     8
280
     0
  0
ATTDEF
  5
9D
330
96
100
AcDbEntity
  8
AM_6
100
AcDbText
 10
9.075
 20
-1.28125
 30
0.0
 40
0.5
  1
$MN.-Inch
100
AcDbAttributeDefinition
  3

  2
NBSYN
 70
     8
280
     0
  0
ATTDEF
  5
9E
330
96
100
AcDbEntity
  8
AM_6
100
AcDbText
 10
9.075
 20
-1.78125
 30
0.0
 40
0.5
  1
405016
100
AcDbAttributeDefinition
  3

  2
LINA
 70
     8
280
     0
  0
ATTDEF
  5
9F
330
96
100
AcDbEntity
  8
AM_6
100
AcDbText
 10
9.075
 20
-2.28125
 30
0.0
 40
0.5
  1
405016
100
AcDbAttributeDefinition
  3

  2
MN
 70
     8
280
     0
  0
ATTDEF
  5
A0
330
96
100
AcDbEntity
  8
AM_6
100
AcDbText
 10
9.075
 20
-2.78125
 30
0.0
 40
0.5
  1
7/16 HEX
100
AcDbAttributeDefinition
  3

  2
H
 70
     8
280
     0
  0
ATTDEF
  5
A1
330
96
100
AcDbEntity
  8
AM_6
100
AcDbText
 10
9.075
 20
-3.28125
 30
0.0
 40
0.5
  1
0.383
100
AcDbAttributeDefinition
  3

  2
NDR
 70
     8
280
     0
  0
ATTDEF
  5
A2
330
96
100
AcDbEntity
  8
AM_6
100
AcDbText
 10
9.075
 20
-3.78125
 30
0.0
 40
0.5
  1
0.337
100
AcDbAttributeDefinition
  3

  2
KDR
 70
     8
280
     0
  0
ATTDEF
  5
A3
330
96
100
AcDbEntity
  8
AM_6
100
AcDbText
 10
9.075
 20
-4.28125
 30
0.0
 40
0.5
  1
0.1575
100
AcDbAttributeDefinition
  3

  2
BZE
 70
     8
280
     0
  0
ATTDEF
  5
A4
330
96
100
AcDbEntity
  8
AM_6
100
AcDbText
 10
9.075
 20
-4.78125
 30
0.0
 40
0.5
  1
0.4375
100
AcDbAttributeDefinition
  3

  2
HEX
 70
     8
280
     0
  0
ATTDEF
  5
A5
330
96
100
AcDbEntity
  8
AM_6
100
AcDbText
 10
9.075
 20
-5.28125
 30
0.0
 40
0.5
  1
0.281250
100
AcDbAttributeDefinition
  3

  2
HEX2
 70
     8
280
     0
  0
ATTDEF
  5
A6
330
96
100
AcDbEntity
  8
AM_6
100
AcDbText
 10
9.075
 20
-5.78125
 30
0.0
 40
0.5
  1
baldor
100
AcDbAttributeDefinition
  3

  2
COMPANY
 70
     8
280
     0
  0
LINE
  5
A9
330
96
100
AcDbEntity
  8
AM_9
100
AcDbLine
 10
3.751485901430354
 20
-0.305545857794963
 30
0.0
 11
3.730354988343318
 21
-0.2602304684431305
 31
0.0
  0
LINE
  5
AA
330
96
100
AcDbEntity
  8
AM_9
100
AcDbLine
 10
3.734521122673159
 20
-0.2
 30
0.0
 11
3.75684663310065
 21
-0.2478772116156649
 31
0.0
  0
LINE
  5
AB
330
96
100
AcDbEntity
  8
AM_9
100
AcDbLine
 10
3.956234346248714
 20
-0.1549011940327111
 30
0.0
 11
3.938025827732023
 21
-0.1158529000614427
 31
0.0
  0
LINE
  5
AC
330
96
100
AcDbEntity
  8
AM_9
100
AcDbLine
 10
4.000000000000001
 20
-0.4599894206182613
 30
0.0
 11
3.887425753776376
 21
-0.5124836537433635
 31
0.0
  0
LINE
  5
AD
330
96
100
AcDbEntity
  8
AM_9
100
AcDbLine
 10
3.822777160155095
 20
-0.4582370426796164
 30
0.0
 11
3.887425753776376
 21
-0.5124836537433635
 31
0.0
  0
ARC
  5
AE
330
96
100
AcDbEntity
  8
AM_9
100
AcDbCircle
 10
3.73340326416709
 20
-0.3941587959651975
 30
0.0
 40
0.0896158688558193
100
AcDbArc
 50
336.9222389899023
 51
78.05389513160274
  0
ARC
  5
AF
330
96
100
AcDbEntity
  8
AM_9
100
AcDbCircle
 10
4.083361648150115
 20
-0.2309705214783648
 30
0.0
 40
0.0896158688558186
100
AcDbArc
 50
158.4676971249618
 51
201.5323028750382
  0
LINE
  5
B0
330
96
100
AcDbEntity
  8
AM_9
100
AcDbLine
 10
4.000000000000001
 20
-0.3434147125297254
 30
0.0
 11
3.815847507618029
 21
-0.4292864299957689
 31
0.0
  0
LINE
  5
B1
330
96
100
AcDbEntity
  8
AM_9
100
AcDbLine
 10
4.000000000000001
 20
-0.3755966752599603
 30
0.0
 11
3.822777160155095
 21
-0.4582370426796164
 31
0.0
  0
ARC
  5
B2
330
96
100
AcDbEntity
  8
AM_9
100
AcDbCircle
 10
3.838846850397258
 20
-0.4390859316016419
 30
0.0
 40
0.0249999999999996
100
AcDbArc
 50
156.9222389899012
 51
230.0000000000011
  0
LINE
  5
B3
330
96
100
AcDbEntity
  8
AM_9
100
AcDbLine
 10
3.98565103198678
 20
-0.1419585097669022
 30
0.0
 11
3.983990022226711
 21
-0.1419585097669022
 31
0.0
  0
LINE
  5
B4
330
96
100
AcDbEntity
  8
AM_9
100
AcDbLine
 10
3.985528907998513
 20
-0.1419585098156049
 30
0.0
 11
4.0
 21
-0.1729918667601243
 31
0.0
  0
LINE
  5
B5
330
96
100
AcDbEntity
  8
AM_9
100
AcDbLine
 10
3.983990022226711
 20
-0.1419585097669022
 30
0.0
 11
3.730354988343318
 21
-0.2602304684431305
 31
0.0
  0
LWPOLYLINE
  5
B6
330
96
100
AcDbEntity
  8
AM_9
100
AcDbPolyline
 90
        6
 70
     0
 43
0.0
 10
3.989779591422741
 20
-0.1510741298357569
 10
3.964459640964115
 20
-0.1564222384464442
 10
3.939673655314264
 20
-0.1639940363880804
 10
3.915359069419333
 20
-0.1744063212866122
 10
3.89215195447448
 20
-0.1876759562813857
 10
3.862092915312688
 20
-0.2099962668917053
  0
LWPOLYLINE
  5
B7
330
96
100
AcDbEntity
  8
AM_9
100
AcDbPolyline
 90
        5
 70
     0
 43
0.0
 10
3.875588184814567
 20
-0.2389369657326275
 10
3.909015212398109
 20
-0.2295338871417795
 10
3.941443378377863
 20
-0.216687117104632
 10
3.972959325649376
 20
-0.1996402057054678
 10
4.000075902161568
 20
-0.1811823284246527
  0
LINE
  5
B8
330
96
100
AcDbEntity
  8
AM_9
100
AcDbLine
 10
4.000000000000001
 20
-0.1896618304724506
 30
0.0
 11
3.751485901430354
 21
-0.305545857794963
 31
0.0
  0
LWPOLYLINE
  5
B9
330
96
100
AcDbEntity
  8
AM_9
100
AcDbPolyline
 90
        3
 70
     0
 43
0.0
 10
3.862092915312688
 20
-0.2099962668917053
 10
3.832727141375751
 20
-0.2163479371246912
 10
3.804110144493329
 20
-0.2258378743019628
  0
LWPOLYLINE
  5
BA
330
96
100
AcDbEntity
  8
AM_9
100
AcDbPolyline
 90
        4
 70
     0
 43
0.0
 10
3.782153317914338
 20
-0.2360765106845276
 10
3.764944149569911
 20
-0.246209193863185
 10
3.7493684432055
 20
-0.2570505402207573
 10
3.734404468701036
 20
-0.2689146070947221
  0
LWPOLYLINE
  5
BB
330
96
100
AcDbEntity
  8
AM_9
100
AcDbPolyline
 90
        3
 70
     0
 43
0.0
 10
3.748325133450933
 20
-0.2987675689889717
 10
3.776134483864593
 20
-0.2912216284034024
 10
3.803284231001374
 20
-0.2813919000363598
  0
LWPOLYLINE
  5
BC
330
96
100
AcDbEntity
  8
AM_9
100
AcDbPolyline
 90
        3
 70
     0
 43
0.0
 10
3.825241057580364
 20
-0.2711532636537956
 10
3.850988571746168
 20
-0.256181552758992
 10
3.875588184814567
 20
-0.2389369657326275
  0
LINE
  5
BD
330
96
100
AcDbEntity
  8
AM_9
100
AcDbLine
 10
3.862092915312688
 20
-0.2099962668917053
 30
0.0
 11
3.875588184814567
 21
-0.2389369657326275
 31
0.0
  0
LINE
  5
BE
330
96
100
AcDbEntity
  8
AM_9
100
AcDbLine
 10
3.23125
 20
0.1616637258772237
 30
0.0
 11
3.23125
 21
-0.1616637258772237
 31
0.0
  0
LINE
  5
BF
330
96
100
AcDbEntity
  8
AM_9
100
AcDbLine
 10
3.23125
 20
-0.1616637258772237
 30
0.0
 11
3.255003564847762
 21
-0.1854172907249859
 31
0.0
  0
LINE
  5
C0
330
96
100
AcDbEntity
  8
AM_9
100
AcDbLine
 10
3.255003564847762
 20
0.1854172907249859
 30
0.0
 11
3.23125
 21
0.1616637258772237
 31
0.0
  0
LINE
  5
C1
330
96
100
AcDbEntity
  8
AM_9
100
AcDbLine
 10
3.628125
 20
0.21875
 30
0.0
 11
3.628125
 21
-0.21875
 31
0.0
  0
LINE
  5
C2
330
96
100
AcDbEntity
  8
AM_9
100
AcDbLine
 10
3.628125
 20
0.21875
 30
0.0
 11
3.528125
 21
0.21875
 31
0.0
  0
LINE
  5
C3
330
96
100
AcDbEntity
  8
AM_9
100
AcDbLine
 10
3.528125
 20
0.21875
 30
0.0
 11
3.528125
 21
-0.21875
 31
0.0
  0
LINE
  5
C4
330
96
100
AcDbEntity
  8
AM_9
100
AcDbLine
 10
3.528125
 20
-0.21875
 30
0.0
 11
3.628125
 21
-0.21875
 31
0.0
  0
LINE
  5
C5
330
96
100
AcDbEntity
  8
AM_9
100
AcDbLine
 10
3.255003564847762
 20
0.1854172907249859
 30
0.0
 11
3.255003564847762
 21
-0.1854172907249859
 31
0.0
  0
LINE
  5
C6
330
96
100
AcDbEntity
  8
AM_9
100
AcDbLine
 10
3.255003564847762
 20
-0.1854172907249859
 30
0.0
 11
3.45
 21
-0.1915112338502295
 31
0.0
  0
LINE
  5
C7
330
96
100
AcDbEntity
  8
AM_9
100
AcDbLine
 10
3.45
 20
0.1915112338502295
 30
0.0
 11
3.255003564847762
 21
0.1854172907249859
 31
0.0
  0
LINE
  5
C8
330
96
100
AcDbEntity
  8
AM_9
100
AcDbLine
 10
3.45
 20
-0.2
 30
0.0
 11
3.528125
 21
-0.2
 31
0.0
  0
LINE
  5
C9
330
96
100
AcDbEntity
  8
AM_9
100
AcDbLine
 10
3.528125
 20
0.2
 30
0.0
 11
3.45
 21
0.2
 31
0.0
  0
LWPOLYLINE
  5
CA
330
96
100
AcDbEntity
  8
AM_9
100
AcDbPolyline
 90
        7
 70
     0
 43
0.0
 10
3.775
 20
-0.1790373738501783
 10
3.762711773328742
 20
-0.184262879520394
 10
3.752857912812704
 20
-0.1891729979031392
 10
3.744890090732852
 20
-0.1936098952159723
 10
3.738950819230624
 20
-0.1971856748420371
 10
3.735426786929245
 20
-0.1994144431868154
 10
3.734521122719426
 20
-0.1999999999699528
  0
LINE
  5
CB
330
96
100
AcDbEntity
  8
AM_9
100
AcDbLine
 10
3.628125
 20
-0.2
 30
0.0
 11
3.734521122673159
 21
-0.2
 31
0.0
  0
LINE
  5
CC
330
96
100
AcDbEntity
  8
AM_9
100
AcDbLine
 10
3.775
 20
0.2
 30
0.0
 11
3.628125
 21
0.2
 31
0.0
  0
LINE
  5
CD
330
96
100
AcDbEntity
  8
AM_9
100
AcDbLine
 10
3.775
 20
-0.1790373738501778
 30
0.0
 11
3.93802665626152
 21
-0.1158546867058417
 31
0.0
  0
ARC
  5
CE
330
96
100
AcDbEntity
  8
AM_9
100
AcDbCircle
 10
3.775
 20
0.0000000000000001
 30
0.0
 40
0.1999999999999999
100
AcDbArc
 50
324.5986377186891
 51
90.0
  0
LINE
  5
CF
330
96
100
AcDbEntity
  8
AM_9
100
AcDbLine
 10
3.775
 20
0.2
 30
0.0
 11
3.775
 21
-0.1790373738501778
 31
0.0
  0
LWPOLYLINE
  5
D0
330
96
100
AcDbEntity
  8
AM_9
100
AcDbPolyline
 90
        4
 70
     0
 43
0.0
 10
3.628125
 20
-0.1093749999999999
 10
3.627517585996001
 20
-0.1367187499999999
 10
3.625731619214966
 20
-0.1640625
 10
3.619057400303385
 20
-0.21875
  0
LWPOLYLINE
  5
D1
330
96
100
AcDbEntity
  8
AM_9
100
AcDbPolyline
 90
        4
 70
     0
 43
0.0
 10
3.619057400303385
 20
0.0
 10
3.62571047505038
 20
-0.0544416102741496
 10
3.627510438185773
 20
-0.081870001090765
 10
3.628125
 20
-0.1093749999999999
  0
LWPOLYLINE
  5
D2
330
96
100
AcDbEntity
  8
AM_9
100
AcDbPolyline
 90
        4
 70
     0
 43
0.0
 10
3.528125
 20
-0.109375
 10
3.528732414003999
 20
-0.08203125
 10
3.530518380785035
 20
-0.0546875
 10
3.537192599696614
 20
0.0
  0
LWPOLYLINE
  5
D3
330
96
100
AcDbEntity
  8
AM_9
100
AcDbPolyline
 90
        4
 70
     0
 43
0.0
 10
3.537192599696614
 20
-0.21875
 10
3.53053952494962
 20
-0.1643083897258504
 10
3.528739561814227
 20
-0.1368799989092349
 10
3.528125
 20
-0.109375
  0
LINE
  5
D4
330
96
100
AcDbEntity
  8
AM_9
100
AcDbLine
 10
3.619057400303385
 20
0.0
 30
0.0
 11
3.537192599696614
 21
0.0
 31
0.0
  0
LWPOLYLINE
  5
D5
330
96
100
AcDbEntity
  8
AM_9
100
AcDbPolyline
 90
        4
 70
     0
 43
0.0
 10
3.628125
 20
0.109375
 10
3.627517585996001
 20
0.08203125
 10
3.625731619214966
 20
0.0546875
 10
3.619057400303385
 20
0.0
  0
LWPOLYLINE
  5
D6
330
96
100
AcDbEntity
  8
AM_9
100
AcDbPolyline
 90
        4
 70
     0
 43
0.0
 10
3.619057400303385
 20
0.21875
 10
3.62571047505038
 20
0.1643083897258504
 10
3.627510438185773
 20
0.1368799989092349
 10
3.628125
 20
0.109375
  0
LWPOLYLINE
  5
D7
330
96
100
AcDbEntity
  8
AM_9
100
AcDbPolyline
 90
        4
 70
     0
 43
0.0
 10
3.528125
 20
0.109375
 10
3.528732414003999
 20
0.13671875
 10
3.530518380785035
 20
0.1640625
 10
3.537192599696614
 20
0.21875
  0
LWPOLYLINE
  5
D8
330
96
100
AcDbEntity
  8
AM_9
100
AcDbPolyline
 90
        4
 70
     0
 43
0.0
 10
3.537192599696614
 20
0.0
 10
3.53053952494962
 20
0.0544416102741496
 10
3.528739561814227
 20
0.0818700010907651
 10
3.528125
 20
0.109375
  0
LINE
  5
DA
330
96
100
AcDbEntity
  8
AM_5
100
AcDbLine
 10
3.407862509955051
 20
0.1671831426298035
 30
0.0
 11
3.23125
 21
0.1616637258772237
 31
0.0
  0
LINE
  5
DB
330
96
100
AcDbEntity
  8
AM_5
100
AcDbLine
 10
3.45
 20
0.1915112338502292
 30
0.0
 11
3.407862509955052
 21
0.1671831426298035
 31
0.0
  0
LINE
  5
DC
330
96
100
AcDbEntity
  8
AM_5
100
AcDbLine
 10
3.407862509955052
 20
0.190194371480033
 30
0.0
 11
3.407862509955052
 21
-0.190194371480033
 31
0.0
  0
LINE
  5
DD
330
96
100
AcDbEntity
  8
AM_5
100
AcDbLine
 10
3.407862509955051
 20
-0.1671831426298035
 30
0.0
 11
3.23125
 21
-0.1616637258772237
 31
0.0
  0
LINE
  5
DE
330
96
100
AcDbEntity
  8
AM_5
100
AcDbLine
 10
3.45
 20
-0.1915112338502292
 30
0.0
 11
3.407862509955052
 21
-0.1671831426298035
 31
0.0
  0
LINE
  5
E1
330
96
100
AcDbEntity
  8
AM_7
100
AcDbLine
 10
3.71983579112304
 20
0.0917749692859806
 30
0.0
 11
4.011208030815163
 21
-0.533074815178147
 31
0.0
  0
LINE
  5
E3
330
96
100
AcDbEntity
  8
AM_4
100
AcDbLine
 10
4.075
 20
-0.4250163462566365
 30
0.0
 11
4.000000000000001
 21
-0.4599894206182613
 31
0.0
  0
LINE
  5
E4
330
96
100
AcDbEntity
  8
AM_4
100
AcDbLine
 10
4.075
 20
-0.4250163462566365
 30
0.0
 11
4.075
 21
-0.3406236008983355
 31
0.0
  0
ARC
  5
E5
330
96
100
AcDbEntity
  8
AM_4
100
AcDbCircle
 10
4.083361648149995
 20
-0.2309705214783052
 30
0.0
 40
0.0896158688556853
100
AcDbArc
 50
150.8170969074213
 51
158.467697124969
  0
ARC
  5
E6
330
96
100
AcDbEntity
  8
AM_4
100
AcDbCircle
 10
4.083361648150117
 20
-0.2309705214783644
 30
0.0
 40
0.0896158688558204
100
AcDbArc
 50
201.5323028750381
 51
253.0777610100969
  0
LINE
  5
E7
330
96
100
AcDbEntity
  8
AM_4
100
AcDbLine
 10
4.057276838818908
 20
-0.3167060839535595
 30
0.0
 11
4.000000000000001
 21
-0.3434147125297254
 31
0.0
  0
LINE
  5
E8
330
96
100
AcDbEntity
  8
AM_4
100
AcDbLine
 10
4.075
 20
-0.3406236008983355
 30
0.0
 11
4.000000000000001
 21
-0.3755966752599603
 31
0.0
  0
ARC
  5
E9
330
96
100
AcDbEntity
  8
AM_4
100
AcDbCircle
 10
4.049999999999997
 20
-0.3406236008983378
 30
0.0
 40
0.025000000000003
100
AcDbArc
 50
0.0
 51
73.07776101009412
  0
LINE
  5
EA
330
96
100
AcDbEntity
  8
AM_4
100
AcDbLine
 10
4.0
 20
-0.1729918667601243
 30
0.0
 11
4.006170432486621
 21
-0.1862244019302201
 31
0.0
  0
LINE
  5
EB
330
96
100
AcDbEntity
  8
AM_4
100
AcDbLine
 10
4.000075902161568
 20
-0.1811823284246527
 30
0.0
 11
4.00285261811965
 21
-0.1791093260592899
 31
0.0
  0
LINE
  5
EC
330
96
100
AcDbEntity
  8
AM_4
100
AcDbLine
 10
4.005120935313745
 20
-0.1872738991187349
 30
0.0
 11
4.0061875964768
 21
-0.1862072379556804
 31
0.0
  0
LINE
  5
ED
330
96
100
AcDbEntity
  8
AM_4
100
AcDbLine
 10
4.005120935313745
 20
-0.1872738991187349
 30
0.0
 11
4.000000000000001
 21
-0.1896618304724506
 31
0.0
  0
ENDBLK
  5
99
330
96
100
AcDbEntity
  8
0
100
AcDbBlockEnd
  0
BLOCK
  5
F0
330
EE
100
AcDbEntity
  8
0
100
AcDbBlockBegin
  2
3_2_15_16CS2i_0_in_070818_4
 70
     2
 10
0.0
 20
0.0
 30
0.0
  3
3_2_15_16CS2i_0_in_070818_4
  1

  0
ATTDEF
  5
F2
330
EE
100
AcDbEntity
  8
AM_6
100
AcDbText
 10
7.3125
 20
-1.569125
 30
0.0
 40
0.5
  1
S-2000 Collar -Inch
100
AcDbAttributeDefinition
  3

  2
NN
 70
     8
280
     0
  0
ATTDEF
  5
F3
330
EE
100
AcDbEntity
  8
AM_6
100
AcDbText
 10
7.3125
 20
-2.069125
 30
0.0
 40
0.5
  1
S-2000 Bearings
100
AcDbAttributeDefinition
  3

  2
NT
 70
     8
280
     0
  0
ATTDEF
  5
F4
330
EE
100
AcDbEntity
  8
AM_6
100
AcDbText
 10
7.3125
 20
-2.569125
 30
0.0
 40
0.5
  1
2-15/16CS2i
100
AcDbAttributeDefinition
  3

  2
NB
 70
     8
280
     0
  0
ATTDEF
  5
F5
330
EE
100
AcDbEntity
  8
AM_6
100
AcDbText
 10
7.3125
 20
-3.069125
 30
0.0
 40
0.5
  1
$BORE.CS2i
100
AcDbAttributeDefinition
  3

  2
NBSYN
 70
     8
280
     0
  0
ATTDEF
  5
F6
330
EE
100
AcDbEntity
  8
AM_6
100
AcDbText
 10
7.3125
 20
-3.569125
 30
0.0
 40
0.5
  1
2-15/16CS2i
100
AcDbAttributeDefinition
  3

  2
LINA
 70
     8
280
     0
  0
ATTDEF
  5
F7
330
EE
100
AcDbEntity
  8
AM_6
100
AcDbText
 10
7.3125
 20
-4.069125
 30
0.0
 40
0.5
  1
2-15/16
100
AcDbAttributeDefinition
  3

  2
BORE
 70
     8
280
     0
  0
ATTDEF
  5
F8
330
EE
100
AcDbEntity
  8
AM_6
100
AcDbText
 10
7.3125
 20
-4.569125
 30
0.0
 40
0.5
  1
2.937500
100
AcDbAttributeDefinition
  3

  2
BORE1
 70
     8
280
     0
  0
ATTDEF
  5
F9
330
EE
100
AcDbEntity
  8
AM_6
100
AcDbText
 10
7.3125
 20
-5.069125
 30
0.0
 40
0.5
  1
4-45/64
100
AcDbAttributeDefinition
  3

  2
L1
 70
     8
280
     0
  0
ATTDEF
  5
FA
330
EE
100
AcDbEntity
  8
AM_6
100
AcDbText
 10
7.3125
 20
-5.569125
 30
0.0
 40
0.5
  1
4.70313
100
AcDbAttributeDefinition
  3

  2
L
 70
     8
280
     0
  0
ATTDEF
  5
FB
330
EE
100
AcDbEntity
  8
AM_6
100
AcDbText
 10
7.3125
 20
-6.069125
 30
0.0
 40
0.5
  1
4.62500
100
AcDbAttributeDefinition
  3

  2
L2
 70
     8
280
     0
  0
ATTDEF
  5
FC
330
EE
100
AcDbEntity
  8
AM_6
100
AcDbText
 10
7.3125
 20
-6.569125
 30
0.0
 40
0.5
  1
4.50
100
AcDbAttributeDefinition
  3

  2
A
 70
     8
280
     0
  0
ATTDEF
  5
FD
330
EE
100
AcDbEntity
  8
AM_6
100
AcDbText
 10
7.3125
 20
-7.069125
 30
0.0
 40
0.5
  1
1.94
100
AcDbAttributeDefinition
  3

  2
B
 70
     8
280
     0
  0
ATTDEF
  5
FE
330
EE
100
AcDbEntity
  8
AM_6
100
AcDbText
 10
7.3125
 20
-7.569125
 30
0.0
 40
0.5
  1
3.47
100
AcDbAttributeDefinition
  3

  2
C
 70
     8
280
     0
  0
ATTDEF
  5
FF
330
EE
100
AcDbEntity
  8
AM_6
100
AcDbText
 10
7.3125
 20
-8.069125
 30
0.0
 40
0.5
  1
4.78
100
AcDbAttributeDefinition
  3

  2
D
 70
     8
280
     0
  0
ATTDEF
  5
100
330
EE
100
AcDbEntity
  8
AM_6
100
AcDbText
 10
7.3125
 20
-8.569125
 30
0.0
 40
0.5
  1
0.54
100
AcDbAttributeDefinition
  3

  2
E
 70
     8
280
     0
  0
ATTDEF
  5
101
330
EE
100
AcDbEntity
  8
AM_6
100
AcDbText
 10
7.3125
 20
-9.069125
 30
0.0
 40
0.5
  1
0.442
100
AcDbAttributeDefinition
  3

  2
F
 70
     8
280
     0
  0
ATTDEF
  5
102
330
EE
100
AcDbEntity
  8
AM_6
100
AcDbText
 10
7.3125
 20
-9.569125
 30
0.0
 40
0.5
  1
1/2-13
100
AcDbAttributeDefinition
  3

  2
CS
 70
     8
280
     0
  0
ATTDEF
  5
103
330
EE
100
AcDbEntity
  8
AM_6
100
AcDbText
 10
7.3125
 20
-10.069125
 30
0.0
 40
0.5
  1
0.5000
100
AcDbAttributeDefinition
  3

  2
NDM
 70
     8
280
     0
  0
ATTDEF
  5
104
330
EE
100
AcDbEntity
  8
AM_6
100
AcDbText
 10
7.3125
 20
-10.569125
 30
0.0
 40
0.5
  1
0.4170
100
AcDbAttributeDefinition
  3

  2
KDM
 70
     8
280
     0
  0
ATTDEF
  5
105
330
EE
100
AcDbEntity
  8
AM_6
100
AcDbText
 10
7.3125
 20
-11.069125
 30
0.0
 40
0.5
  1
2
100
AcDbAttributeDefinition
  3

  2
DD
 70
     8
280
     0
  0
ATTDEF
  5
106
330
EE
100
AcDbEntity
  8
AM_6
100
AcDbText
 10
7.3125
 20
-11.569125
 30
0.0
 40
0.5
  1
baldor
100
AcDbAttributeDefinition
  3

  2
COMPANY
 70
     8
280
     0
  0
LINE
  5
107
330
EE
100
AcDbEntity
  8
AM_9
100
AcDbLine
 10
1.621041032257525
 20
-1.826813878520788
 30
0.0
 11
1.613054407223875
 21
-1.816852268251324
 31
0.0
  0
LINE
  5
108
330
EE
100
AcDbEntity
  8
AM_9
100
AcDbLine
 10
1.613170729530419
 20
-2.205252644496106
 30
0.0
 11
1.621041032257525
 21
-2.195436121479211
 31
0.0
  0
LWPOLYLINE
  5
109
330
EE
100
AcDbEntity
  8
AM_9
100
AcDbPolyline
 90
       26
 70
     0
 43
0.0
 10
1.612990574754568
 20
-1.816772651442545
 10
1.612046645345023
 20
-1.815615675361797
 10
1.597857685350579
 20
-1.802529494522095
 10
1.582275798261553
 20
-1.79558679702824
 10
1.565046956142052
 20
-1.795085288434039
 10
1.547173428377314
 20
-1.801295428180735
 10
1.529059042951487
 20
-1.814312605814691
 10
1.511537682000738
 20
-1.833754757231113
 10
1.495645357798665
 20
-1.858766421991176
 10
1.481812561533486
 20
-1.888979894468448
 10
1.471353800244297
 20
-1.92175132375807
 10
1.464056919187701
 20
-1.957562628082111
 10
1.460611199751106
 20
-1.992443106206522
 10
1.460501342178343
 20
-2.027903266969308
 10
1.463559790983704
 20
-2.061131309297699
 10
1.469471304412093
 20
-2.092980005921873
 10
1.478080152316676
 20
-2.122947817727668
 10
1.488875959469233
 20
-2.149993925596461
 10
1.502221246461337
 20
-2.174839244414015
 10
1.516948169503488
 20
-2.195300428933718
 10
1.533630517432526
 20
-2.211868085542849
 10
1.550677039470556
 20
-2.222691887546216
 10
1.568314873597993
 20
-2.227580950329139
 10
1.585225053095025
 20
-2.225863766420176
 10
1.60119238701817
 20
-2.217291359535579
 10
1.612992634762472
 20
-2.205474779511948
  0
LWPOLYLINE
  5
10A
330
EE
100
AcDbEntity
  8
AM_9
100
AcDbPolyline
 90
       13
 70
     0
 43
0.0
 10
1.618961423155808
 20
-2.197167002702764
 10
1.627956172008701
 20
-2.180733146632974
 10
1.638294116472995
 20
-2.153650984542453
 10
1.646116998041129
 20
-2.122834367588375
 10
1.651811072303224
 20
-2.088177376945248
 10
1.655093810789354
 20
-2.053431650676083
 10
1.65642742786631
 20
-2.017321659427123
 10
1.655869411456415
 20
-1.98330754250781
 10
1.653592459925616
 20
-1.950088263442653
 10
1.649650426497844
 20
-1.91888782646181
 10
1.644091577252383
 20
-1.890117724445744
 10
1.638505512378884
 20
-1.869292613816586
 10
1.631954042127873
 20
-1.85068066875648
  0
LWPOLYLINE
  5
10B
330
EE
100
AcDbEntity
  8
AM_9
100
AcDbPolyline
 90
        3
 70
     0
 43
0.0
 10
1.612992634762472
 20
-2.205474779511948
 10
1.615575161783562
 20
-2.202097840272985
 10
1.618961423155808
 20
-2.197167002702764
  0
ELLIPSE
  5
10C
330
EE
100
AcDbEntity
  8
AM_9
100
AcDbEllipse
 10
2.093493951892835
 20
-2.011125000000299
 30
0.0
 11
-3.827327409041617E-17
 21
-0.2083500000003458
 31
0.0
210
0.0
220
0.0
230
1.0
 40
0.4226182617406881
 41
3.626704900063631
 42
3.69389879913036
  0
ELLIPSE
  5
10D
330
EE
100
AcDbEntity
  8
AM_9
100
AcDbEllipse
 10
2.093493951892506
 20
-2.011125000000439
 30
0.0
 11
-3.827327409025995E-17
 21
-0.2083499999994953
 31
0.0
210
0.0
220
0.0
230
1.0
 40
0.4226182617403307
 41
-0.5523061455396219
 42
-0.485112246472533
  0
LINE
  5
10E
330
EE
100
AcDbEntity
  8
AM_9
100
AcDbLine
 10
1.579981470270782
 20
-2.219475
 30
0.0
 11
2.093493951892763
 21
-2.219475
 31
0.0
  0
LINE
  5
10F
330
EE
100
AcDbEntity
  8
AM_9
100
AcDbLine
 10
2.093493951892763
 20
-1.802775
 30
0.0
 11
1.579981470270782
 21
-1.802775
 31
0.0
  0
LWPOLYLINE
  5
110
330
EE
100
AcDbEntity
  8
AM_9
100
AcDbPolyline
 90
       39
 70
     0
 43
0.0
 10
-0.1614669842005706
 20
-1.855585767138974
 10
-0.1841635177382134
 20
-1.879322992660086
 10
-0.2034646077066729
 20
-1.90682939886035
 10
-0.219298322434616
 20
-1.939877577690726
 10
-0.229272331796801
 20
-1.976433884043454
 10
-0.2322858014840351
 20
-2.010573280293218
 10
-0.2292778394375723
 20
-2.045784609339306
 10
-0.2209335884976248
 20
-2.077854276553562
 10
-0.2071343034778676
 20
-2.108956273095761
 10
-0.1885143827045359
 20
-2.137471349179525
 10
-0.165067926385096
 20
-2.163339827786419
 10
-0.1367356484815341
 20
-2.186097569846921
 10
-0.1043519545037595
 20
-2.204583188147679
 10
-0.068066793156531
 20
-2.218228700389165
 10
-0.0290124474895309
 20
-2.226085235219271
 10
0.0112458417610125
 20
-2.227536114352767
 10
0.052322566258815
 20
-2.222192220647533
 10
0.0911718498606547
 20
-2.210314965200798
 10
0.1284866317154295
 20
-2.191465734915684
 10
0.1604137427744523
 20
-2.167609769650648
 10
0.18846498206414
 20
-2.137535334238765
 10
0.2088734306056504
 20
-2.105696293770885
 10
0.2236575397198488
 20
-2.069471451783199
 10
0.2308455463607861
 20
-2.035151229611859
 10
0.2319177534005054
 20
-1.998956398016386
 10
0.2271667767931106
 20
-1.966013599907359
 10
0.2167515968369057
 20
-1.933420213212396
 10
0.2014846923988777
 20
-1.903547082354886
 10
0.1811810434242246
 20
-1.875779236130347
 10
0.1559727047703956
 20
-1.850780096308983
 10
0.1264175880709424
 20
-1.829513550425185
 10
0.09244039881194
 20
-1.812446425731911
 10
0.0551932495490389
 20
-1.800698200158213
 10
0.0156939869056566
 20
-1.794956299756215
 10
-0.0253357208255733
 20
-1.795758464860002
 10
-0.0652749777004011
 20
-1.80323702493289
 10
-0.1044797043361685
 20
-1.817727020644803
 10
-0.134065419177076
 20
-1.834360434007988
 10
-0.1614669842005706
 20
-1.855585767138974
  0
LINE
  5
111
330
EE
100
AcDbEntity
  8
AM_9
100
AcDbLine
 10
1.619947043509669
 20
-1.826633624274472
 30
0.0
 11
1.612990574754568
 21
-1.816772651442545
 31
0.0
  0
LWPOLYLINE
  5
112
330
EE
100
AcDbEntity
  8
AM_9
100
AcDbPolyline
 90
        3
 70
     0
 43
0.0
 10
1.631954042127873
 20
-1.85068066875648
 10
1.622646391369938
 20
-1.831184625999029
 10
1.619947043509669
 20
-1.826633624274472
  0
LINE
  5
113
330
EE
100
AcDbEntity
  8
AM_9
100
AcDbLine
 10
1.735
 20
-2.453125
 30
0.0
 11
1.735
 21
-1.569125
 31
0.0
  0
LINE
  5
114
330
EE
100
AcDbEntity
  8
AM_9
100
AcDbLine
 10
-1.735
 20
-1.569125
 30
0.0
 11
-1.735
 21
-2.453125
 31
0.0
  0
ELLIPSE
  5
115
330
EE
100
AcDbEntity
  8
AM_9
100
AcDbEllipse
 10
1.579981470270782
 20
-2.011125
 30
0.0
 11
-3.827327409035262E-17
 21
-0.2083499999999998
 31
0.0
210
0.0
220
0.0
230
1.0
 40
0.4226182617406992
 41
0.0
 42
6.283185307179586
  0
LWPOLYLINE
  5
116
330
EE
100
AcDbEntity
  8
AM_4
100
AcDbPolyline
 90
        8
 70
     0
 43
0.0
 10
2.052798182551589
 20
-1.826360128176253
 10
2.061758466762218
 20
-1.816507342472555
 10
2.076492966154317
 20
-1.805455798587904
 10
2.090779188608292
 20
-1.800579618990659
 10
2.104791630000644
 20
-1.801378046922179
 10
2.122289546901467
 20
-1.811246818270481
 10
2.131364357022759
 20
-1.82108804221478
 10
2.139690869595018
 20
-1.833753131528712
  0
ELLIPSE
  5
117
330
EE
100
AcDbEntity
  8
AM_4
100
AcDbEllipse
 10
2.09349395189276
 20
-2.011125000000004
 30
0.0
 11
-3.827327409035189E-17
 21
-0.2083499999999958
 31
0.0
210
0.0
220
0.0
230
1.0
 40
0.4226182617406967
 41
5.798073060705828
 42
6.835491452720239
  0
LWPOLYLINE
  5
118
330
EE
100
AcDbEntity
  8
AM_4
100
AcDbPolyline
 90
        3
 70
     0
 43
0.0
 10
2.052802899618605
 20
-2.195895757225641
 10
2.050682805091217
 20
-2.193173728254032
 10
2.047297034190511
 20
-2.188496868471293
  0
ELLIPSE
  5
119
330
EE
100
AcDbEntity
  8
AM_4
100
AcDbEllipse
 10
2.093493951892749
 20
-2.011125000000263
 30
0.0
 11
-3.827327409040108E-17
 21
-0.2083500000002636
 31
0.0
210
0.0
220
0.0
230
1.0
 40
0.4226182617406991
 41
2.589286508049655
 42
3.626704900062836
  0
LINE
  5
11A
330
EE
100
AcDbEntity
  8
AM_4
100
AcDbLine
 10
-2.202380952380952
 20
-1.569125
 30
0.0
 11
2.202380952380952
 21
-1.569125
 31
0.0
  0
LINE
  5
11B
330
EE
100
AcDbEntity
  8
AM_4
100
AcDbLine
 10
2.202380952380952
 20
-1.624075058072008
 30
0.0
 11
2.202380952380952
 21
-1.569125
 31
0.0
  0
LINE
  5
11C
330
EE
100
AcDbEntity
  8
AM_4
100
AcDbLine
 10
-2.202380952380952
 20
-1.569125
 30
0.0
 11
-2.202380952380952
 21
-1.624075058072008
 31
0.0
  0
LINE
  5
11D
330
EE
100
AcDbEntity
  8
AM_4
100
AcDbLine
 10
-2.202380952380952
 20
-1.624075058072008
 30
0.0
 11
2.202380952380952
 21
-1.624075058072008
 31
0.0
  0
LINE
  5
11E
330
EE
100
AcDbEntity
  8
AM_4
100
AcDbLine
 10
-2.202380952380952
 20
-1.624075058072008
 30
0.0
 11
-2.25609756097561
 21
-1.677791666666667
 31
0.0
  0
LINE
  5
11F
330
EE
100
AcDbEntity
  8
AM_4
100
AcDbLine
 10
2.25609756097561
 20
-1.677791666666667
 30
0.0
 11
2.202380952380952
 21
-1.624075058072008
 31
0.0
  0
LINE
  5
120
330
EE
100
AcDbEntity
  8
AM_4
100
AcDbLine
 10
-2.25609756097561
 20
-1.677791666666667
 30
0.0
 11
2.25609756097561
 21
-1.677791666666667
 31
0.0
  0
LINE
  5
121
330
EE
100
AcDbEntity
  8
AM_4
100
AcDbLine
 10
2.25609756097561
 20
-1.761125
 30
0.0
 11
2.25609756097561
 21
-1.677791666666667
 31
0.0
  0
LINE
  5
122
330
EE
100
AcDbEntity
  8
AM_4
100
AcDbLine
 10
-2.25609756097561
 20
-1.677791666666667
 30
0.0
 11
-2.25609756097561
 21
-1.761125
 31
0.0
  0
LINE
  5
123
330
EE
100
AcDbEntity
  8
AM_4
100
AcDbLine
 10
-2.25609756097561
 20
-1.761125
 30
0.0
 11
2.25609756097561
 21
-1.761125
 31
0.0
  0
LINE
  5
124
330
EE
100
AcDbEntity
  8
AM_4
100
AcDbLine
 10
-2.25609756097561
 20
-1.761125
 30
0.0
 11
-2.3125
 21
-1.793688963353683
 31
0.0
  0
LINE
  5
125
330
EE
100
AcDbEntity
  8
AM_4
100
AcDbLine
 10
2.3125
 20
-1.793688963353683
 30
0.0
 11
2.25609756097561
 21
-1.761125
 31
0.0
  0
ARC
  5
126
330
EE
100
AcDbEntity
  8
AM_4
100
AcDbCircle
 10
0.0
 20
-2.011124999999998
 30
0.0
 40
0.2083499999999987
100
AcDbArc
 50
58.35518886138442
 51
121.6448111386156
  0
ARC
  5
127
330
EE
100
AcDbEntity
  8
AM_4
100
AcDbCircle
 10
-0.0000000000000001
 20
-2.011124999999997
 30
0.0
 40
0.2083500000000025
100
AcDbArc
 50
238.355188861385
 51
301.644811138615
  0
LWPOLYLINE
  5
128
330
EE
100
AcDbEntity
  8
AM_4
100
AcDbPolyline
 90
       13
 70
     0
 43
0.0
 10
-0.1093112198038347
 20
-2.188496868471293
 10
-0.137542992229782
 20
-2.167595370977225
 10
-0.1618900715252744
 20
-2.142278830449367
 10
-0.1816067383493973
 20
-2.113203279645964
 10
-0.1961991517171535
 20
-2.081236449603252
 10
-0.2051655348035572
 20
-2.047290738381099
 10
-0.2083465837017974
 20
-2.012318130248524
 10
-0.2055871353451224
 20
-1.977436570671274
 10
-0.1970716503271904
 20
-1.943504831874524
 10
-0.1829704211574924
 20
-1.911510863942797
 10
-0.1637578194217304
 20
-1.8823107962869
 10
-0.1386610332564185
 20
-1.855649596145593
 10
-0.1093112198038347
 20
-1.833753131528706
  0
LWPOLYLINE
  5
129
330
EE
100
AcDbEntity
  8
AM_4
100
AcDbPolyline
 90
       13
 70
     0
 43
0.0
 10
0.1093112198038347
 20
-1.833753131528706
 10
0.137542992229782
 20
-1.854654629022774
 10
0.1618900715252744
 20
-1.879971169550632
 10
0.1816067383493973
 20
-1.909046720354035
 10
0.1961991517171535
 20
-1.941013550396747
 10
0.2051655348035572
 20
-1.9749592616189
 10
0.2083465837017974
 20
-2.009931869751475
 10
0.2055871353451224
 20
-2.044813429328725
 10
0.1970716503271904
 20
-2.078745168125475
 10
0.1829704211574924
 20
-2.110739136057202
 10
0.1637578194217304
 20
-2.139939203713099
 10
0.1386610332564185
 20
-2.166600403854406
 10
0.1093112198038347
 20
-2.188496868471293
  0
LWPOLYLINE
  5
12A
330
EE
100
AcDbEntity
  8
AM_4
100
AcDbPolyline
 90
        8
 70
     0
 43
0.0
 10
-0.1093112198038347
 20
-1.833753131528706
 10
-0.0856554834347881
 20
-1.820102048324417
 10
-0.0598338020339571
 20
-1.809661660306017
 10
-0.0276831442526271
 20
-1.802181611989675
 10
0.0062905988535634
 20
-1.800292381257891
 10
0.0382116763667555
 20
-1.80400101189738
 10
0.0699512313053306
 20
-1.813248559860638
 10
0.1093112198038347
 20
-1.833753131528706
  0
LWPOLYLINE
  5
12B
330
EE
100
AcDbEntity
  8
AM_4
100
AcDbPolyline
 90
        8
 70
     0
 43
0.0
 10
0.1093112198038347
 20
-2.188496868471293
 10
0.0856554834347881
 20
-2.202147951675582
 10
0.0598338020339571
 20
-2.212588339693982
 10
0.0276831442526271
 20
-2.220068388010324
 10
-0.0062905988535634
 20
-2.221957618742108
 10
-0.0382116763667555
 20
-2.218248988102619
 10
-0.0699512313053306
 20
-2.209001440139361
 10
-0.1093112198038348
 20
-2.188496868471293
  0
LINE
  5
12C
330
EE
100
AcDbEntity
  8
AM_4
100
AcDbLine
 10
-2.3125
 20
-1.793688963353683
 30
0.0
 11
2.3125
 21
-1.793688963353683
 31
0.0
  0
LWPOLYLINE
  5
12D
330
EE
100
AcDbEntity
  8
AM_4
100
AcDbPolyline
 90
       13
 70
     0
 43
0.0
 10
2.139690869595015
 20
-1.833753131528706
 10
2.150253301765782
 20
-1.854654629022774
 10
2.159112393942237
 20
-1.879971169550632
 10
2.166114632456999
 20
-1.909046720354035
 10
2.171197233036197
 20
-1.941013550396747
 10
2.174280255679048
 20
-1.9749592616189
 10
2.175364273788554
 20
-2.009931869751475
 10
2.174424361268534
 20
-2.044813429328725
 10
2.171498483601667
 20
-2.078745168125475
 10
2.166593270470814
 20
-2.110739136057202
 10
2.159782254313468
 20
-2.139939203713099
 10
2.150665011257281
 20
-2.166600403854406
 10
2.139690869595015
 20
-2.188496868471293
  0
LWPOLYLINE
  5
12E
330
EE
100
AcDbEntity
  8
AM_4
100
AcDbPolyline
 90
        8
 70
     0
 43
0.0
 10
2.139690869595015
 20
-2.188496868471293
 10
2.131845704072109
 20
-2.200540941176019
 10
2.119325914408193
 20
-2.213426360017709
 10
2.105691109410915
 20
-2.220617496888424
 10
2.09186686260877
 20
-2.221811569585871
 10
2.077742370731517
 20
-2.217447732606286
 10
2.063936777423943
 20
-2.20777383735203
 10
2.052802899618605
 20
-2.195895757225641
  0
LWPOLYLINE
  5
12F
330
EE
100
AcDbEntity
  8
AM_4
100
AcDbPolyline
 90
       13
 70
     0
 43
0.0
 10
2.047297034190511
 20
-2.188496868471292
 10
2.033996941184251
 20
-2.167595370977225
 10
2.022276992700059
 20
-2.142278830449367
 10
2.012613984293758
 20
-2.113203279645964
 10
2.005362544128791
 20
-2.081236449603251
 10
2.000866852303487
 20
-2.047290738381099
 10
1.99926213170122
 20
-2.012318130248524
 10
2.000654605716923
 20
-1.977436570671274
 10
2.004926327002371
 20
-1.943504831874523
 10
2.011939987791728
 20
-1.911510863942796
 10
2.02136816433255
 20
-1.882310796286899
 10
2.033463641565287
 20
-1.855649596145593
 10
2.04729703419051
 20
-1.833753131528707
  0
LWPOLYLINE
  5
130
330
EE
100
AcDbEntity
  8
AM_4
100
AcDbPolyline
 90
        3
 70
     0
 43
0.0
 10
2.047297034190541
 20
-1.833753131528627
 10
2.047733406577648
 20
-1.833126865382718
 10
2.052798182551589
 20
-1.826360128176253
  0
LINE
  5
131
330
EE
100
AcDbEntity
  8
AM_4
100
AcDbLine
 10
2.3125
 20
-2.305791666666666
 30
0.0
 11
2.3125
 21
-1.793688963353683
 31
0.0
  0
LINE
  5
132
330
EE
100
AcDbEntity
  8
AM_4
100
AcDbLine
 10
-2.3125
 20
-1.793688963353683
 30
0.0
 11
-2.3125
 21
-2.305791666666666
 31
0.0
  0
LINE
  5
133
330
EE
100
AcDbEntity
  8
AM_4
100
AcDbLine
 10
-2.165166666666666
 20
-2.453125
 30
0.0
 11
2.165166666654319
 21
-2.453125
 31
0.0
  0
LINE
  5
134
330
EE
100
AcDbEntity
  8
AM_4
100
AcDbLine
 10
-2.3125
 20
-2.305791666666666
 30
0.0
 11
2.3125
 21
-2.305791666666666
 31
0.0
  0
ARC
  5
135
330
EE
100
AcDbEntity
  8
AM_4
100
AcDbCircle
 10
2.165166666666666
 20
-2.305791666666666
 30
0.0
 40
0.147333333333334
100
AcDbArc
 50
270.0
 51
0.0000008537736463
  0
ARC
  5
136
330
EE
100
AcDbEntity
  8
AM_4
100
AcDbCircle
 10
-2.165166666666666
 20
-2.305791666666666
 30
0.0
 40
0.147333333333334
100
AcDbArc
 50
179.9999991462263
 51
270.0
  0
CIRCLE
  5
137
330
EE
100
AcDbEntity
  8
AM_5
100
AcDbCircle
 10
0.0000000000000002
 20
-2.011124999999999
 30
0.0
 40
0.2499999999999999
  0
ENDBLK
  5
F1
330
EE
100
AcDbEntity
  8
0
100
AcDbBlockEnd
  0
BLOCK
  5
13A
330
138
100
AcDbEntity
  8
0
100
AcDbBlockBegin
  2
4_070010i_0_in_070818_4
 70
     2
 10
0.0
 20
0.0
 30
0.0
  3
4_070010i_0_in_070818_4
  1

  0
ATTDEF
  5
13C
330
138
100
AcDbEntity
  8
AM_6
100
AcDbText
 10
7.55905
 20
1.140625
 30
0.0
 40
0.5
  1
S-2000 Insert -Inch
100
AcDbAttributeDefinition
  3

  2
NN
 70
     8
280
     0
  0
ATTDEF
  5
13D
330
138
100
AcDbEntity
  8
AM_6
100
AcDbText
 10
7.55905
 20
0.640625
 30
0.0
 40
0.5
  1
S-2000 Bearings
100
AcDbAttributeDefinition
  3

  2
NT
 70
     8
280
     0
  0
ATTDEF
  5
13E
330
138
100
AcDbEntity
  8
AM_6
100
AcDbText
 10
7.55905
 20
0.140625
 30
0.0
 40
0.5
  1
070010i
100
AcDbAttributeDefinition
  3

  2
NB
 70
     8
280
     0
  0
ATTDEF
  5
13F
330
138
100
AcDbEntity
  8
AM_6
100
AcDbText
 10
7.55905
 20
-0.359375
 30
0.0
 40
0.5
  1
$PN.i
100
AcDbAttributeDefinition
  3

  2
NBSYN
 70
     8
280
     0
  0
ATTDEF
  5
140
330
138
100
AcDbEntity
  8
AM_6
100
AcDbText
 10
7.55905
 20
-0.859375
 30
0.0
 40
0.5
  1
070010i
100
AcDbAttributeDefinition
  3

  2
LINA
 70
     8
280
     0
  0
ATTDEF
  5
141
330
138
100
AcDbEntity
  8
AM_6
100
AcDbText
 10
7.55905
 20
-1.359375
 30
0.0
 40
0.5
  1
2-15/16
100
AcDbAttributeDefinition
  3

  2
SS
 70
     8
280
     0
  0
ATTDEF
  5
142
330
138
100
AcDbEntity
  8
AM_6
100
AcDbText
 10
7.55905
 20
-1.859375
 30
0.0
 40
0.5
  1
3.47
100
AcDbAttributeDefinition
  3

  2
CC
 70
     8
280
     0
  0
ATTDEF
  5
143
330
138
100
AcDbEntity
  8
AM_6
100
AcDbText
 10
7.55905
 20
-2.359375
 30
0.0
 40
0.5
  1
2.937500
100
AcDbAttributeDefinition
  3

  2
SS1
 70
     8
280
     0
  0
ATTDEF
  5
144
330
138
100
AcDbEntity
  8
AM_6
100
AcDbText
 10
7.55905
 20
-2.859375
 30
0.0
 40
0.5
  1
070010
100
AcDbAttributeDefinition
  3

  2
PN
 70
     8
280
     0
  0
ATTDEF
  5
145
330
138
100
AcDbEntity
  8
AM_6
100
AcDbText
 10
7.55905
 20
-3.359375
 30
0.0
 40
0.5
  1
INS-S2-215R
100
AcDbAttributeDefinition
  3

  2
DESCRIPTION
 70
     8
280
     0
  0
ATTDEF
  5
146
330
138
100
AcDbEntity
  8
AM_6
100
AcDbText
 10
7.55905
 20
-3.859375
 30
0.0
 40
0.5
  1
Contact Seal
100
AcDbAttributeDefinition
  3

  2
ST
 70
     8
280
     0
  0
ATTDEF
  5
147
330
138
100
AcDbEntity
  8
AM_6
100
AcDbText
 10
7.55905
 20
-4.359375
 30
0.0
 40
0.5
  1
1
100
AcDbAttributeDefinition
  3

  2
ST1
 70
     8
280
     0
  0
ATTDEF
  5
148
330
138
100
AcDbEntity
  8
AM_6
100
AcDbText
 10
7.55905
 20
-4.859375
 30
0.0
 40
0.5
  1
5.1181
100
AcDbAttributeDefinition
  3

  2
A
 70
     8
280
     0
  0
ATTDEF
  5
149
330
138
100
AcDbEntity
  8
AM_6
100
AcDbText
 10
7.55905
 20
-5.359375
 30
0.0
 40
0.5
  1
1-9/32
100
AcDbAttributeDefinition
  3

  2
B
 70
     8
280
     0
  0
ATTDEF
  5
14A
330
138
100
AcDbEntity
  8
AM_6
100
AcDbText
 10
7.55905
 20
-5.859375
 30
0.0
 40
0.5
  1
3-19/32
100
AcDbAttributeDefinition
  3

  2
C
 70
     8
280
     0
  0
ATTDEF
  5
14B
330
138
100
AcDbEntity
  8
AM_6
100
AcDbText
 10
7.55905
 20
-6.359375
 30
0.0
 40
0.5
  1
1.219
100
AcDbAttributeDefinition
  3

  2
D
 70
     8
280
     0
  0
ATTDEF
  5
14C
330
138
100
AcDbEntity
  8
AM_6
100
AcDbText
 10
7.55905
 20
-6.859375
 30
0.0
 40
0.5
  1
4-5/8
100
AcDbAttributeDefinition
  3

  2
E
 70
     8
280
     0
  0
ATTDEF
  5
14D
330
138
100
AcDbEntity
  8
AM_6
100
AcDbText
 10
7.55905
 20
-7.359375
 30
0.0
 40
0.5
  1
0.53125
100
AcDbAttributeDefinition
  3

  2
F
 70
     8
280
     0
  0
ATTDEF
  5
14E
330
138
100
AcDbEntity
  8
AM_6
100
AcDbText
 10
7.55905
 20
-7.859375
 30
0.0
 40
0.5
  1
2
100
AcDbAttributeDefinition
  3

  2
DD
 70
     8
280
     0
  0
ATTDEF
  5
14F
330
138
100
AcDbEntity
  8
AM_6
100
AcDbText
 10
7.55905
 20
-8.359375
 30
0.0
 40
0.5
  1
baldor
100
AcDbAttributeDefinition
  3

  2
COMPANY
 70
     8
280
     0
  0
LINE
  5
150
330
138
100
AcDbEntity
  8
AM_9
100
AcDbLine
 10
1.572444010508588
 20
-1.741125
 30
0.0
 11
1.330988178515106
 21
-1.741125
 31
0.0
  0
LINE
  5
151
330
138
100
AcDbEntity
  8
AM_9
100
AcDbLine
 10
1.331085927988868
 20
-2.281125
 30
0.0
 11
1.572444010508588
 21
-2.281125
 31
0.0
  0
LWPOLYLINE
  5
152
330
138
100
AcDbEntity
  8
AM_9
100
AcDbPolyline
 90
       21
 70
     0
 43
0.0
 10
1.331148381561003
 20
-1.741125000806485
 10
1.318586481199573
 20
-1.742696172234286
 10
1.298622775869288
 20
-1.751215870866985
 10
1.278486212098533
 20
-1.766807606252527
 10
1.258812677220188
 20
-1.789249295413498
 10
1.240500812171942
 20
-1.817757860483892
 10
1.224140748487837
 20
-1.85217375776703
 10
1.210753951378522
 20
-1.891106793199859
 10
1.201056675203573
 20
-1.933609272470211
 10
1.195526947935731
 20
-1.978370332013573
 10
1.194534988776996
 20
-2.023442268018811
 10
1.197943349856536
 20
-2.068162348670711
 10
1.205564315051233
 20
-2.110902733958428
 10
1.216938442094142
 20
-2.150878617367224
 10
1.231731707229797
 20
-2.187349439305803
 10
1.249085471962802
 20
-2.218929968285833
 10
1.268502804893296
 20
-2.244985887924327
 10
1.288921844575726
 20
-2.26441655592773
 10
1.309412523673275
 20
-2.276501944257455
 10
1.329341749156181
 20
-2.281091692613923
 10
1.331130276815441
 20
-2.281124999106085
  0
LWPOLYLINE
  5
153
330
138
100
AcDbEntity
  8
AM_9
100
AcDbPolyline
 90
       11
 70
     0
 43
0.0
 10
1.331130276815441
 20
-2.281124999106085
 10
1.347769173160589
 20
-2.278031943755325
 10
1.364548304240664
 20
-2.267648380846527
 10
1.379283109852216
 20
-2.250188744830584
 10
1.391860056727916
 20
-2.226238218906886
 10
1.402309728428418
 20
-2.195922800393847
 10
1.410504518924626
 20
-2.160437625699886
 10
1.416543798301151
 20
-2.120326056325797
 10
1.420471360807949
 20
-2.077046522030643
 10
1.422039865024059
 20
-2.044344978188489
 10
1.422561334043591
 20
-2.011125
  0
LWPOLYLINE
  5
154
330
138
100
AcDbEntity
  8
AM_9
100
AcDbPolyline
 90
       21
 70
     0
 43
0.0
 10
1.572453529034551
 20
-2.281124999060577
 10
1.559662479892031
 20
-2.279486689251915
 10
1.539817919809031
 20
-2.270811191475499
 10
1.519966441553498
 20
-2.254999925706517
 10
1.50074748321753
 20
-2.232310563952598
 10
1.482986326566711
 20
-2.203519707038779
 10
1.467294430758221
 20
-2.168951430692859
 10
1.454541367638515
 20
-2.129906192761772
 10
1.445380906261801
 20
-2.087376049515454
 10
1.440222978201757
 20
-2.04264514864933
 10
1.439395081397956
 20
-1.997463706378366
 10
1.442789501938842
 20
-1.952670868557394
 10
1.450252124359514
 20
-1.909789073453575
 10
1.461355722773937
 20
-1.869728240050793
 10
1.475754396814139
 20
-1.833352649049555
 10
1.49267348387806
 20
-1.801933406601096
 10
1.511588272603896
 20
-1.776204103600343
 10
1.531560071977737
 20
-1.757121897166227
 10
1.551738910215461
 20
-1.745378418495136
 10
1.57150193324043
 20
-1.741134176900261
 10
1.572438301844108
 20
-1.741125000337887
  0
LINE
  5
155
330
138
100
AcDbEntity
  8
AM_9
100
AcDbLine
 10
1.667197704357399
 20
-1.991684353080454
 30
0.0
 11
1.667393947872945
 21
-2.011125
 31
0.0
  0
LWPOLYLINE
  5
156
330
138
100
AcDbEntity
  8
AM_9
100
AcDbPolyline
 90
       11
 70
     0
 43
0.0
 10
1.572438301844108
 20
-1.741125000337887
 10
1.590010953433221
 20
-1.74455219455302
 10
1.607023832385576
 20
-1.755337070566499
 10
1.62213573521823
 20
-1.773251624235077
 10
1.635173662960729
 20
-1.797694579887676
 10
1.646085416535077
 20
-1.828406807824553
 10
1.654726527031491
 20
-1.864246540818258
 10
1.661119684768608
 20
-1.904531783534719
 10
1.665276950596505
 20
-1.947885450401828
 10
1.666864543379217
 20
-1.979278786116405
 10
1.667197704357399
 20
-1.991684353080454
  0
LWPOLYLINE
  5
157
330
138
100
AcDbEntity
  8
AM_9
100
AcDbPolyline
 90
       11
 70
     0
 43
0.0
 10
1.422561334043591
 20
-2.011125
 10
1.42160231943493
 20
-1.96623101048721
 10
1.418712462314789
 20
-1.922612998979804
 10
1.413815190759318
 20
-1.881550230356317
 10
1.406833636255853
 20
-1.844093102920861
 10
1.397540650346658
 20
-1.81097740350302
 10
1.385965954973627
 20
-1.783458918000719
 10
1.371972140125384
 20
-1.762256336383516
 10
1.355805522512846
 20
-1.748126963355146
 10
1.337911087512634
 20
-1.741642190391
 10
1.331148381561003
 20
-1.741125000806485
  0
LINE
  5
158
330
138
100
AcDbEntity
  8
AM_9
100
AcDbLine
 10
-1.46875
 20
1.140625
 30
0.0
 11
-1.46875
 21
-2.453125
 31
0.0
  0
LINE
  5
159
330
138
100
AcDbEntity
  8
AM_9
100
AcDbLine
 10
1.46875
 20
-2.453125
 30
0.0
 11
1.46875
 21
1.140625
 31
0.0
  0
LWPOLYLINE
  5
15A
330
138
100
AcDbEntity
  8
AM_9
100
AcDbPolyline
 90
       11
 70
     0
 43
0.0
 10
1.667121728839655
 20
-2.034012912908143
 10
1.666328122499217
 20
-2.056141402455498
 10
1.663133944149217
 20
-2.099881420371638
 10
1.657760573318692
 20
-2.141066422842958
 10
1.650183330245489
 20
-2.178622412273244
 10
1.640259410434626
 20
-2.211701240282542
 10
1.628074126110839
 20
-2.239157979761296
 10
1.613588682433794
 20
-2.260232090367962
 10
1.597084458855766
 20
-2.274242799535108
 10
1.578991091281328
 20
-2.280642223934402
 10
1.572453529034551
 20
-2.281124999060577
  0
LINE
  5
15B
330
138
100
AcDbEntity
  8
AM_9
100
AcDbLine
 10
1.667393947872945
 20
-2.011125
 30
0.0
 11
1.667121728839655
 21
-2.034012912908143
 31
0.0
  0
LWPOLYLINE
  5
15C
330
138
100
AcDbEntity
  8
AM_9
100
AcDbPolyline
 90
       39
 70
     0
 43
0.0
 10
0.27
 20
-2.011125
 10
0.2663279453243751
 20
-2.055503210185819
 10
0.2549947015975296
 20
-2.099881420371638
 10
0.2369739392194663
 20
-2.140521105547303
 10
0.2117654761328368
 20
-2.178622412273244
 10
0.1812028386142657
 20
-2.211288761151045
 10
0.1445716436275962
 20
-2.239157979761295
 10
0.1046960596777353
 20
-2.259999938649829
 10
0.0605724654261542
 20
-2.274242799535108
 10
0.0163242365921935
 20
-2.280631065422807
 10
-0.0296985478072313
 20
-2.279486689251915
 10
-0.073208263206951
 20
-2.271010648311371
 10
-0.1158663912083254
 20
-2.254999925706517
 10
-0.1542967907545652
 20
-2.232693274721003
 10
-0.189431456478227
 20
-2.203519707038779
 10
-0.2186749246583895
 20
-2.169495695918303
 10
-0.2424686129091572
 20
-2.129906192761772
 10
-0.2588169924764043
 20
-2.088026003930175
 10
-0.2681538368719047
 20
-2.042645148649331
 10
-0.2696864661733382
 20
-1.998116927009088
 10
-0.2635964994405094
 20
-1.952670868557394
 10
-0.250494815206508
 20
-1.910366141557393
 10
-0.2300151218417308
 20
-1.869728240050793
 10
-0.2036203698298914
 20
-1.833815256922136
 10
-0.1707011342997689
 20
-1.801933406601096
 10
-0.1336196840221797
 20
-1.776506628933681
 10
-0.091555577387812
 20
-1.757121897166227
 10
-0.0482381762769904
 20
-1.745469060202919
 10
-0.0022260821919898
 20
-1.741134176900261
 10
0.0420767147473343
 20
-1.744423762514923
 10
0.0864438265934716
 20
-1.755337070566499
 10
0.1271367328653359
 20
-1.772931273893857
 10
0.1653706617592031
 20
-1.797694579887676
 10
0.1983293434060238
 20
-1.827916180495764
 10
0.2265540073103927
 20
-1.864246540818258
 10
0.2477997381730851
 20
-1.903908910902559
 10
0.2624895414423598
 20
-1.947885450401828
 10
0.2680881166594346
 20
-1.97905068463712
 10
0.27
 20
-2.011125
  0
LINE
  5
15D
330
138
100
AcDbEntity
  8
AM_9
100
AcDbLine
 10
-1.735
 20
-1.569125
 30
0.0
 11
-1.735
 21
-2.453125
 31
0.0
  0
LINE
  5
15E
330
138
100
AcDbEntity
  8
AM_9
100
AcDbLine
 10
-1.735
 20
-1.037875
 30
0.0
 11
-1.735
 21
-1.375
 31
0.0
  0
LINE
  5
15F
330
138
100
AcDbEntity
  8
AM_9
100
AcDbLine
 10
1.735000000000001
 20
-1.375
 30
0.0
 11
1.735
 21
-1.037875
 31
0.0
  0
LINE
  5
160
330
138
100
AcDbEntity
  8
AM_9
100
AcDbLine
 10
1.735
 20
-2.453125
 30
0.0
 11
1.735
 21
-1.569125
 31
0.0
  0
LINE
  5
161
330
138
100
AcDbEntity
  8
AM_9
100
AcDbLine
 10
-1.735
 20
1.140625
 30
0.0
 11
-1.735
 21
0.8811249999999996
 31
0.0
  0
LINE
  5
162
330
138
100
AcDbEntity
  8
AM_9
100
AcDbLine
 10
1.735
 20
0.8811249999999996
 30
0.0
 11
1.735
 21
1.140625
 31
0.0
  0
LINE
  5
163
330
138
100
AcDbEntity
  8
AM_9
100
AcDbLine
 10
1.735
 20
1.140625
 30
0.0
 11
-1.735
 21
1.140625
 31
0.0
  0
LINE
  5
164
330
138
100
AcDbEntity
  8
AM_9
100
AcDbLine
 10
1.919115
 20
0.8811249999999996
 30
0.0
 11
-1.919115
 21
0.8811249999999996
 31
0.0
  0
ARC
  5
165
330
138
100
AcDbEntity
  8
AM_9
100
AcDbCircle
 10
-1.919115
 20
0.7529999999999993
 30
0.0
 40
0.1281250000000002
100
AcDbArc
 50
90.0
 51
180.0
  0
ARC
  5
166
330
138
100
AcDbEntity
  8
AM_9
100
AcDbCircle
 10
1.919115
 20
0.7529999999999993
 30
0.0
 40
0.128125
100
AcDbArc
 50
0.0
 51
90.0
  0
LINE
  5
167
330
138
100
AcDbEntity
  8
AM_9
100
AcDbLine
 10
-2.04724
 20
0.7529999999999994
 30
0.0
 11
-2.04724
 21
0.5622499999999999
 31
0.0
  0
LINE
  5
168
330
138
100
AcDbEntity
  8
AM_9
100
AcDbLine
 10
2.04724
 20
0.5622499999999999
 30
0.0
 11
2.04724
 21
0.7529999999999994
 31
0.0
  0
LINE
  5
169
330
138
100
AcDbEntity
  8
AM_9
100
AcDbLine
 10
2.04724
 20
0.7529999999999994
 30
0.0
 11
-2.04724
 21
0.7529999999999994
 31
0.0
  0
LINE
  5
16A
330
138
100
AcDbEntity
  8
AM_9
100
AcDbLine
 10
1.919115
 20
-1.037875
 30
0.0
 11
-1.919115
 21
-1.037875
 31
0.0
  0
ARC
  5
16B
330
138
100
AcDbEntity
  8
AM_9
100
AcDbCircle
 10
-1.919115
 20
-0.9097499999999995
 30
0.0
 40
0.1281250000000007
100
AcDbArc
 50
180.0
 51
270.0
  0
ARC
  5
16C
330
138
100
AcDbEntity
  8
AM_9
100
AcDbCircle
 10
1.919114999999999
 20
-0.9097499999999994
 30
0.0
 40
0.1281250000000009
100
AcDbArc
 50
270.0
 51
0.0
  0
LINE
  5
16D
330
138
100
AcDbEntity
  8
AM_9
100
AcDbLine
 10
-2.04724
 20
-0.7190000000000003
 30
0.0
 11
-2.04724
 21
-0.9097500000000005
 31
0.0
  0
LINE
  5
16E
330
138
100
AcDbEntity
  8
AM_9
100
AcDbLine
 10
2.04724
 20
-0.9097500000000005
 30
0.0
 11
2.04724
 21
-0.7190000000000003
 31
0.0
  0
LINE
  5
16F
330
138
100
AcDbEntity
  8
AM_9
100
AcDbLine
 10
2.04724
 20
-0.9097500000000005
 30
0.0
 11
-2.04724
 21
-0.9097500000000005
 31
0.0
  0
LINE
  5
170
330
138
100
AcDbEntity
  8
AM_9
100
AcDbLine
 10
-2.456688
 20
-0.0143125000000041
 30
0.0
 11
-2.456688
 21
-0.1424374999999966
 31
0.0
  0
LINE
  5
171
330
138
100
AcDbEntity
  8
AM_9
100
AcDbLine
 10
2.456688
 20
-0.1424374999999966
 30
0.0
 11
2.456688
 21
-0.0143125000000041
 31
0.0
  0
LINE
  5
172
330
138
100
AcDbEntity
  8
AM_9
100
AcDbLine
 10
-2.456688
 20
-0.1424374999999966
 30
0.0
 11
-2.55905
 21
-0.2015362282547846
 31
0.0
  0
LINE
  5
173
330
138
100
AcDbEntity
  8
AM_9
100
AcDbLine
 10
2.55905
 20
-0.2015362282547846
 30
0.0
 11
2.456688
 21
-0.1424374999999966
 31
0.0
  0
LINE
  5
174
330
138
100
AcDbEntity
  8
AM_9
100
AcDbLine
 10
2.456688
 20
-0.1424374999999966
 30
0.0
 11
-2.456688
 21
-0.1424374999999966
 31
0.0
  0
LINE
  5
175
330
138
100
AcDbEntity
  8
AM_9
100
AcDbLine
 10
-2.55905
 20
-0.2015362282547846
 30
0.0
 11
-2.55905
 21
-0.5908750000000009
 31
0.0
  0
LINE
  5
176
330
138
100
AcDbEntity
  8
AM_9
100
AcDbLine
 10
2.55905
 20
-0.5908750000000009
 30
0.0
 11
2.55905
 21
-0.2015362282547846
 31
0.0
  0
LINE
  5
177
330
138
100
AcDbEntity
  8
AM_9
100
AcDbLine
 10
2.55905
 20
-0.2015362282547846
 30
0.0
 11
-2.55905
 21
-0.2015362282547846
 31
0.0
  0
LINE
  5
178
330
138
100
AcDbEntity
  8
AM_9
100
AcDbLine
 10
2.456688
 20
-0.0143125000000041
 30
0.0
 11
2.55905
 21
0.044786228254784
 31
0.0
  0
LINE
  5
179
330
138
100
AcDbEntity
  8
AM_9
100
AcDbLine
 10
-2.55905
 20
0.044786228254784
 30
0.0
 11
-2.456688
 21
-0.0143125000000041
 31
0.0
  0
LINE
  5
17A
330
138
100
AcDbEntity
  8
AM_9
100
AcDbLine
 10
2.456688
 20
-0.0143125000000041
 30
0.0
 11
-2.456688
 21
-0.0143125000000041
 31
0.0
  0
LINE
  5
17B
330
138
100
AcDbEntity
  8
AM_9
100
AcDbLine
 10
-2.55905
 20
0.4341249999999998
 30
0.0
 11
-2.55905
 21
0.044786228254784
 31
0.0
  0
LINE
  5
17C
330
138
100
AcDbEntity
  8
AM_9
100
AcDbLine
 10
2.55905
 20
0.044786228254784
 30
0.0
 11
2.55905
 21
0.4341249999999998
 31
0.0
  0
LINE
  5
17D
330
138
100
AcDbEntity
  8
AM_9
100
AcDbLine
 10
2.55905
 20
0.044786228254784
 30
0.0
 11
-2.55905
 21
0.044786228254784
 31
0.0
  0
LINE
  5
17E
330
138
100
AcDbEntity
  8
AM_9
100
AcDbLine
 10
2.430925000000001
 20
0.5622499999999994
 30
0.0
 11
-2.430925000000001
 21
0.5622499999999994
 31
0.0
  0
ARC
  5
17F
330
138
100
AcDbEntity
  8
AM_9
100
AcDbCircle
 10
-2.430925000000001
 20
0.4341250000000006
 30
0.0
 40
0.1281249999999987
100
AcDbArc
 50
90.0
 51
180.0
  0
ARC
  5
180
330
138
100
AcDbEntity
  8
AM_9
100
AcDbCircle
 10
2.430925000000001
 20
0.4341250000000006
 30
0.0
 40
0.1281249999999989
100
AcDbArc
 50
0.0
 51
90.0
  0
LINE
  5
181
330
138
100
AcDbEntity
  8
AM_9
100
AcDbLine
 10
2.55905
 20
0.4341249999999998
 30
0.0
 11
-2.55905
 21
0.4341249999999998
 31
0.0
  0
LINE
  5
182
330
138
100
AcDbEntity
  8
AM_9
100
AcDbLine
 10
2.430925
 20
-0.7190000000000001
 30
0.0
 11
-2.430925
 21
-0.7190000000000001
 31
0.0
  0
ARC
  5
183
330
138
100
AcDbEntity
  8
AM_9
100
AcDbCircle
 10
-2.430924999999921
 20
-0.5908749999999217
 30
0.0
 40
0.1281250000000789
100
AcDbArc
 50
180.0
 51
270.0
  0
ARC
  5
184
330
138
100
AcDbEntity
  8
AM_9
100
AcDbCircle
 10
2.430925000000001
 20
-0.590875000000001
 30
0.0
 40
0.128124999999999
100
AcDbArc
 50
270.0
 51
0.0
  0
LINE
  5
185
330
138
100
AcDbEntity
  8
AM_9
100
AcDbLine
 10
2.55905
 20
-0.5908750000000009
 30
0.0
 11
-2.55905
 21
-0.5908750000000009
 31
0.0
  0
LINE
  5
186
330
138
100
AcDbEntity
  8
AM_4
100
AcDbLine
 10
-1.735
 20
-1.375
 30
0.0
 11
-1.735
 21
-1.569125
 31
0.0
  0
LINE
  5
187
330
138
100
AcDbEntity
  8
AM_4
100
AcDbLine
 10
1.735
 20
-1.569125
 30
0.0
 11
1.735000000000001
 21
-1.375
 31
0.0
  0
ENDBLK
  5
13B
330
138
100
AcDbEntity
  8
0
100
AcDbBlockEnd
  0
BLOCK
  5
18A
330
188
100
AcDbEntity
  8
0
100
AcDbBlockBegin
  2
5_070818H_0_in_070818_4
 70
     2
 10
0.0
 20
0.0
 30
0.0
  3
5_070818H_0_in_070818_4
  1

  0
ATTDEF
  5
18C
330
188
100
AcDbEntity
  8
AM_6
100
AcDbText
 10
9.25
 20
2.016666666666667
 30
0.0
 40
0.5
  1
TPHU-S2 -(Contact Seal)-Housing
100
AcDbAttributeDefinition
  3

  2
NN
 70
     8
280
     0
  0
ATTDEF
  5
18D
330
188
100
AcDbEntity
  8
AM_6
100
AcDbText
 10
9.25
 20
1.516666666666667
 30
0.0
 40
0.5
  1
S-2000 TPHU Take-Up Bearing -Inch
100
AcDbAttributeDefinition
  3

  2
NT
 70
     8
280
     0
  0
ATTDEF
  5
18E
330
188
100
AcDbEntity
  8
AM_6
100
AcDbText
 10
9.25
 20
1.016666666666667
 30
0.0
 40
0.5
  1
070818H
100
AcDbAttributeDefinition
  3

  2
NB
 70
     8
280
     0
  0
ATTDEF
  5
18F
330
188
100
AcDbEntity
  8
AM_6
100
AcDbText
 10
9.25
 20
0.5166666666666666
 30
0.0
 40
0.5
  1
$PN.H
100
AcDbAttributeDefinition
  3

  2
NBSYN
 70
     8
280
     0
  0
ATTDEF
  5
190
330
188
100
AcDbEntity
  8
AM_6
100
AcDbText
 10
9.25
 20
0.0166666666666666
 30
0.0
 40
0.5
  1
070818
100
AcDbAttributeDefinition
  3

  2
LINA
 70
     8
280
     0
  0
ATTDEF
  5
191
330
188
100
AcDbEntity
  8
AM_6
100
AcDbText
 10
9.25
 20
-0.4833333333333334
 30
0.0
 40
0.5
  1
2-15/16
100
AcDbAttributeDefinition
  3

  2
SS
 70
     8
280
     0
  0
ATTDEF
  5
192
330
188
100
AcDbEntity
  8
AM_6
100
AcDbText
 10
9.25
 20
-0.9833333333333334
 30
0.0
 40
0.5
  1
5.1181
100
AcDbAttributeDefinition
  3

  2
BORE
 70
     8
280
     0
  0
ATTDEF
  5
193
330
188
100
AcDbEntity
  8
AM_6
100
AcDbText
 10
9.25
 20
-1.483333333333333
 30
0.0
 40
0.5
  1
2.937500
100
AcDbAttributeDefinition
  3

  2
SS1
 70
     8
280
     0
  0
ATTDEF
  5
194
330
188
100
AcDbEntity
  8
AM_6
100
AcDbText
 10
9.25
 20
-1.983333333333333
 30
0.0
 40
0.5
  1
070818
100
AcDbAttributeDefinition
  3

  2
PN
 70
     8
280
     0
  0
ATTDEF
  5
195
330
188
100
AcDbEntity
  8
AM_6
100
AcDbText
 10
9.25
 20
-2.483333333333333
 30
0.0
 40
0.5
  1
TPHU-S2-215R
100
AcDbAttributeDefinition
  3

  2
DESCRIPTION
 70
     8
280
     0
  0
ATTDEF
  5
196
330
188
100
AcDbEntity
  8
AM_6
100
AcDbText
 10
9.25
 20
-2.983333333333333
 30
0.0
 40
0.5
  1
Non-Expansion Type
100
AcDbAttributeDefinition
  3

  2
EF
 70
     8
280
     0
  0
ATTDEF
  5
197
330
188
100
AcDbEntity
  8
AM_6
100
AcDbText
 10
9.25
 20
-3.483333333333333
 30
0.0
 40
0.5
  1
1
100
AcDbAttributeDefinition
  3

  2
EF1
 70
     8
280
     0
  0
ATTDEF
  5
198
330
188
100
AcDbEntity
  8
AM_6
100
AcDbText
 10
9.25
 20
-3.983333333333333
 30
0.0
 40
0.5
  1
Contact Seal
100
AcDbAttributeDefinition
  3

  2
ST
 70
     8
280
     0
  0
ATTDEF
  5
199
330
188
100
AcDbEntity
  8
AM_6
100
AcDbText
 10
9.25
 20
-4.483333333333333
 30
0.0
 40
0.5
  1
1
100
AcDbAttributeDefinition
  3

  2
ST1
 70
     8
280
     0
  0
ATTDEF
  5
19A
330
188
100
AcDbEntity
  8
AM_6
100
AcDbText
 10
9.25
 20
-4.983333333333333
 30
0.0
 40
0.5
  1
3-19/32
100
AcDbAttributeDefinition
  3

  2
A
 70
     8
280
     0
  0
ATTDEF
  5
19B
330
188
100
AcDbEntity
  8
AM_6
100
AcDbText
 10
9.25
 20
-5.483333333333333
 30
0.0
 40
0.5
  1
3.5937500
100
AcDbAttributeDefinition
  3

  2
A1
 70
     8
280
     0
  0
ATTDEF
  5
19C
330
188
100
AcDbEntity
  8
AM_6
100
AcDbText
 10
9.25
 20
-5.983333333333333
 30
0.0
 40
0.5
  1
2-3/4
100
AcDbAttributeDefinition
  3

  2
B
 70
     8
280
     0
  0
ATTDEF
  5
19D
330
188
100
AcDbEntity
  8
AM_6
100
AcDbText
 10
9.25
 20
-6.483333333333333
 30
0.0
 40
0.5
  1
2.750000
100
AcDbAttributeDefinition
  3

  2
B1
 70
     8
280
     0
  0
ATTDEF
  5
19E
330
188
100
AcDbEntity
  8
AM_6
100
AcDbText
 10
9.25
 20
-6.983333333333333
 30
0.0
 40
0.5
  1
13/16
100
AcDbAttributeDefinition
  3

  2
C
 70
     8
280
     0
  0
ATTDEF
  5
19F
330
188
100
AcDbEntity
  8
AM_6
100
AcDbText
 10
9.25
 20
-7.483333333333333
 30
0.0
 40
0.5
  1
0.812500
100
AcDbAttributeDefinition
  3

  2
C1
 70
     8
280
     0
  0
ATTDEF
  5
1A0
330
188
100
AcDbEntity
  8
AM_6
100
AcDbText
 10
9.25
 20
-7.983333333333333
 30
0.0
 40
0.5
  1
7-1/8
100
AcDbAttributeDefinition
  3

  2
D
 70
     8
280
     0
  0
ATTDEF
  5
1A1
330
188
100
AcDbEntity
  8
AM_6
100
AcDbText
 10
9.25
 20
-8.483333333333334
 30
0.0
 40
0.5
  1
7.125000
100
AcDbAttributeDefinition
  3

  2
D1
 70
     8
280
     0
  0
ATTDEF
  5
1A2
330
188
100
AcDbEntity
  8
AM_6
100
AcDbText
 10
9.25
 20
-8.983333333333334
 30
0.0
 40
0.5
  1
3-5/16
100
AcDbAttributeDefinition
  3

  2
E
 70
     8
280
     0
  0
ATTDEF
  5
1A3
330
188
100
AcDbEntity
  8
AM_6
100
AcDbText
 10
9.25
 20
-9.483333333333334
 30
0.0
 40
0.5
  1
3.312500
100
AcDbAttributeDefinition
  3

  2
E1
 70
     8
280
     0
  0
ATTDEF
  5
1A4
330
188
100
AcDbEntity
  8
AM_6
100
AcDbText
 10
9.25
 20
-9.983333333333334
 30
0.0
 40
0.5
  1
1-7/16
100
AcDbAttributeDefinition
  3

  2
F
 70
     8
280
     0
  0
ATTDEF
  5
1A5
330
188
100
AcDbEntity
  8
AM_6
100
AcDbText
 10
9.25
 20
-10.48333333333333
 30
0.0
 40
0.5
  1
1.437500
100
AcDbAttributeDefinition
  3

  2
F1
 70
     8
280
     0
  0
ATTDEF
  5
1A6
330
188
100
AcDbEntity
  8
AM_6
100
AcDbText
 10
9.25
 20
-10.98333333333333
 30
0.0
 40
0.5
  1
9/16
100
AcDbAttributeDefinition
  3

  2
G
 70
     8
280
     0
  0
ATTDEF
  5
1A7
330
188
100
AcDbEntity
  8
AM_6
100
AcDbText
 10
9.25
 20
-11.48333333333333
 30
0.0
 40
0.5
  1
0.562500
100
AcDbAttributeDefinition
  3

  2
G1
 70
     8
280
     0
  0
ATTDEF
  5
1A8
330
188
100
AcDbEntity
  8
AM_6
100
AcDbText
 10
9.25
 20
-11.98333333333333
 30
0.0
 40
0.5
  1
8-1/2
100
AcDbAttributeDefinition
  3

  2
H
 70
     8
280
     0
  0
ATTDEF
  5
1A9
330
188
100
AcDbEntity
  8
AM_6
100
AcDbText
 10
9.25
 20
-12.48333333333333
 30
0.0
 40
0.5
  1
8.500000
100
AcDbAttributeDefinition
  3

  2
H1
 70
     8
280
     0
  0
ATTDEF
  5
1AA
330
188
100
AcDbEntity
  8
AM_6
100
AcDbText
 10
9.25
 20
-12.98333333333333
 30
0.0
 40
0.5
  1
8-1/2
100
AcDbAttributeDefinition
  3

  2
J
 70
     8
280
     0
  0
ATTDEF
  5
1AB
330
188
100
AcDbEntity
  8
AM_6
100
AcDbText
 10
9.25
 20
-13.48333333333333
 30
0.0
 40
0.5
  1
8.500000
100
AcDbAttributeDefinition
  3

  2
J1
 70
     8
280
     0
  0
ATTDEF
  5
1AC
330
188
100
AcDbEntity
  8
AM_6
100
AcDbText
 10
9.25
 20
-13.98333333333333
 30
0.0
 40
0.5
  1
4
100
AcDbAttributeDefinition
  3

  2
K
 70
     8
280
     0
  0
ATTDEF
  5
1AD
330
188
100
AcDbEntity
  8
AM_6
100
AcDbText
 10
9.25
 20
-14.48333333333333
 30
0.0
 40
0.5
  1
4.000000
100
AcDbAttributeDefinition
  3

  2
K1
 70
     8
280
     0
  0
ATTDEF
  5
1AE
330
188
100
AcDbEntity
  8
AM_6
100
AcDbText
 10
9.25
 20
-14.98333333333333
 30
0.0
 40
0.5
  1
4-45/64
100
AcDbAttributeDefinition
  3

  2
L
 70
     8
280
     0
  0
ATTDEF
  5
1AF
330
188
100
AcDbEntity
  8
AM_6
100
AcDbText
 10
9.25
 20
-15.48333333333333
 30
0.0
 40
0.5
  1
4.7031250
100
AcDbAttributeDefinition
  3

  2
L1
 70
     8
280
     0
  0
ATTDEF
  5
1B0
330
188
100
AcDbEntity
  8
AM_6
100
AcDbText
 10
9.25
 20
-15.98333333333333
 30
0.0
 40
0.5
  1
8
100
AcDbAttributeDefinition
  3

  2
M
 70
     8
280
     0
  0
ATTDEF
  5
1B1
330
188
100
AcDbEntity
  8
AM_6
100
AcDbText
 10
9.25
 20
-16.48333333333333
 30
0.0
 40
0.5
  1
8.000000
100
AcDbAttributeDefinition
  3

  2
M1
 70
     8
280
     0
  0
ATTDEF
  5
1B2
330
188
100
AcDbEntity
  8
AM_6
100
AcDbText
 10
9.25
 20
-16.98333333333333
 30
0.0
 40
0.5
  1
1-15/16
100
AcDbAttributeDefinition
  3

  2
N
 70
     8
280
     0
  0
ATTDEF
  5
1B3
330
188
100
AcDbEntity
  8
AM_6
100
AcDbText
 10
9.25
 20
-17.48333333333333
 30
0.0
 40
0.5
  1
1.937500
100
AcDbAttributeDefinition
  3

  2
N1
 70
     8
280
     0
  0
ATTDEF
  5
1B4
330
188
100
AcDbEntity
  8
AM_6
100
AcDbText
 10
9.25
 20
-17.98333333333333
 30
0.0
 40
0.5
  1
1-3/4
100
AcDbAttributeDefinition
  3

  2
P
 70
     8
280
     0
  0
ATTDEF
  5
1B5
330
188
100
AcDbEntity
  8
AM_6
100
AcDbText
 10
9.25
 20
-18.48333333333333
 30
0.0
 40
0.5
  1
1.750000
100
AcDbAttributeDefinition
  3

  2
P1
 70
     8
280
     0
  0
ATTDEF
  5
1B6
330
188
100
AcDbEntity
  8
AM_6
100
AcDbText
 10
9.25
 20
-18.98333333333333
 30
0.0
 40
0.5
  1
1-1/16
100
AcDbAttributeDefinition
  3

  2
Q
 70
     8
280
     0
  0
ATTDEF
  5
1B7
330
188
100
AcDbEntity
  8
AM_6
100
AcDbText
 10
9.25
 20
-19.48333333333333
 30
0.0
 40
0.5
  1
1.062500
100
AcDbAttributeDefinition
  3

  2
Q1
 70
     8
280
     0
  0
ATTDEF
  5
1B8
330
188
100
AcDbEntity
  8
AM_6
100
AcDbText
 10
9.25
 20
-19.98333333333333
 30
0.0
 40
0.5
  1
3-53/64
100
AcDbAttributeDefinition
  3

  2
R
 70
     8
280
     0
  0
ATTDEF
  5
1B9
330
188
100
AcDbEntity
  8
AM_6
100
AcDbText
 10
9.25
 20
-20.48333333333333
 30
0.0
 40
0.5
  1
3.828125
100
AcDbAttributeDefinition
  3

  2
R1
 70
     8
280
     0
  0
ATTDEF
  5
1BA
330
188
100
AcDbEntity
  8
AM_6
100
AcDbText
 10
9.25
 20
-20.98333333333333
 30
0.0
 40
0.5
  1
2-29/64
100
AcDbAttributeDefinition
  3

  2
S
 70
     8
280
     0
  0
ATTDEF
  5
1BB
330
188
100
AcDbEntity
  8
AM_6
100
AcDbText
 10
9.25
 20
-21.48333333333333
 30
0.0
 40
0.5
  1
2.453125
100
AcDbAttributeDefinition
  3

  2
S1
 70
     8
280
     0
  0
ATTDEF
  5
1BC
330
188
100
AcDbEntity
  8
AM_6
100
AcDbText
 10
9.25
 20
-21.98333333333333
 30
0.0
 40
0.5
  1
5/16
100
AcDbAttributeDefinition
  3

  2
T
 70
     8
280
     0
  0
ATTDEF
  5
1BD
330
188
100
AcDbEntity
  8
AM_6
100
AcDbText
 10
9.25
 20
-22.48333333333333
 30
0.0
 40
0.5
  1
0.312500
100
AcDbAttributeDefinition
  3

  2
T1
 70
     8
280
     0
  0
ATTDEF
  5
1BE
330
188
100
AcDbEntity
  8
AM_6
100
AcDbText
 10
9.25
 20
-22.98333333333333
 30
0.0
 40
0.5
  1
1-1/2
100
AcDbAttributeDefinition
  3

  2
U
 70
     8
280
     0
  0
ATTDEF
  5
1BF
330
188
100
AcDbEntity
  8
AM_6
100
AcDbText
 10
9.25
 20
-23.48333333333333
 30
0.0
 40
0.5
  1
1.500000
100
AcDbAttributeDefinition
  3

  2
U1
 70
     8
280
     0
  0
ATTDEF
  5
1C0
330
188
100
AcDbEntity
  8
AM_6
100
AcDbText
 10
9.25
 20
-23.98333333333333
 30
0.0
 40
0.5
  1
2-3/4
100
AcDbAttributeDefinition
  3

  2
V
 70
     8
280
     0
  0
ATTDEF
  5
1C1
330
188
100
AcDbEntity
  8
AM_6
100
AcDbText
 10
9.25
 20
-24.48333333333333
 30
0.0
 40
0.5
  1
2.750000
100
AcDbAttributeDefinition
  3

  2
V1
 70
     8
280
     0
  0
ATTDEF
  5
1C2
330
188
100
AcDbEntity
  8
AM_6
100
AcDbText
 10
9.25
 20
-24.98333333333333
 30
0.0
 40
0.5
  1
1
100
AcDbAttributeDefinition
  3

  2
W
 70
     8
280
     0
  0
ATTDEF
  5
1C3
330
188
100
AcDbEntity
  8
AM_6
100
AcDbText
 10
9.25
 20
-25.48333333333333
 30
0.0
 40
0.5
  1
1.000000
100
AcDbAttributeDefinition
  3

  2
W1
 70
     8
280
     0
  0
ATTDEF
  5
1C4
330
188
100
AcDbEntity
  8
AM_6
100
AcDbText
 10
9.25
 20
-25.98333333333333
 30
0.0
 40
0.5
  1
1/4
100
AcDbAttributeDefinition
  3

  2
X
 70
     8
280
     0
  0
ATTDEF
  5
1C5
330
188
100
AcDbEntity
  8
AM_6
100
AcDbText
 10
9.25
 20
-26.48333333333333
 30
0.0
 40
0.5
  1
0.250000
100
AcDbAttributeDefinition
  3

  2
X1
 70
     8
280
     0
  0
ATTDEF
  5
1C6
330
188
100
AcDbEntity
  8
AM_6
100
AcDbText
 10
9.25
 20
-26.98333333333333
 30
0.0
 40
0.5
  1
0.025
100
AcDbAttributeDefinition
  3

  2
Y
 70
     8
280
     0
  0
ATTDEF
  5
1C7
330
188
100
AcDbEntity
  8
AM_6
100
AcDbText
 10
9.25
 20
-27.48333333333333
 30
0.0
 40
0.5
  1
3-15/32
100
AcDbAttributeDefinition
  3

  2
Z
 70
     8
280
     0
  0
ATTDEF
  5
1C8
330
188
100
AcDbEntity
  8
AM_6
100
AcDbText
 10
9.25
 20
-27.98333333333333
 30
0.0
 40
0.5
  1
3.468750
100
AcDbAttributeDefinition
  3

  2
Z1
 70
     8
280
     0
  0
ATTDEF
  5
1C9
330
188
100
AcDbEntity
  8
AM_6
100
AcDbText
 10
9.25
 20
-28.48333333333333
 30
0.0
 40
0.5
  1
baldor
100
AcDbAttributeDefinition
  3

  2
COMPANY
 70
     8
280
     0
  0
LINE
  5
1CA
330
188
100
AcDbEntity
  8
AM_9
100
AcDbLine
 10
4.25
 20
0.8124999999999998
 30
0.0
 11
2.5
 21
0.8124999999999998
 31
0.0
  0
LINE
  5
1CB
330
188
100
AcDbEntity
  8
AM_9
100
AcDbLine
 10
4.25
 20
-0.8125000000000003
 30
0.0
 11
2.5
 21
-0.8125000000000003
 31
0.0
  0
LINE
  5
1CC
330
188
100
AcDbEntity
  8
AM_9
100
AcDbLine
 10
-2.5
 20
0.8124999999999998
 30
0.0
 11
-4.25
 21
0.8124999999999998
 31
0.0
  0
LINE
  5
1CD
330
188
100
AcDbEntity
  8
AM_9
100
AcDbLine
 10
-2.5
 20
-0.8125000000000003
 30
0.0
 11
-4.25
 21
-0.8125000000000003
 31
0.0
  0
LINE
  5
1CE
330
188
100
AcDbEntity
  8
AM_9
100
AcDbLine
 10
2.5
 20
0.8531249999999998
 30
0.0
 11
2.5
 21
-0.8531250000000004
 31
0.0
  0
LINE
  5
1CF
330
188
100
AcDbEntity
  8
AM_9
100
AcDbLine
 10
-2.5
 20
0.8531249999999998
 30
0.0
 11
-2.5
 21
-0.8531250000000004
 31
0.0
  0
LINE
  5
1D0
330
188
100
AcDbEntity
  8
AM_9
100
AcDbLine
 10
2.5
 20
0.8531249999999998
 30
0.0
 11
-2.5
 21
0.8531249999999998
 31
0.0
  0
LINE
  5
1D1
330
188
100
AcDbEntity
  8
AM_9
100
AcDbLine
 10
2.5
 20
-0.8531250000000004
 30
0.0
 11
-2.5
 21
-0.8531250000000004
 31
0.0
  0
LINE
  5
1D2
330
188
100
AcDbEntity
  8
AM_9
100
AcDbLine
 10
4.0
 20
0.4440104166666665
 30
0.0
 11
2.06314415108271
 21
0.4440104166666664
 31
0.0
  0
LINE
  5
1D3
330
188
100
AcDbEntity
  8
AM_9
100
AcDbLine
 10
-2.06314415108271
 20
0.4440104166666664
 30
0.0
 11
-4.0
 21
0.4440104166666665
 31
0.0
  0
LINE
  5
1D4
330
188
100
AcDbEntity
  8
AM_9
100
AcDbLine
 10
-2.06314415108271
 20
-0.4440104166666668
 30
0.0
 11
-4.0
 21
-0.4440104166666668
 31
0.0
  0
LINE
  5
1D5
330
188
100
AcDbEntity
  8
AM_9
100
AcDbLine
 10
4.034267084557044
 20
-0.4440104166666668
 30
0.0
 11
2.06314415108271
 21
-0.4440104166666666
 31
0.0
  0
LINE
  5
1D6
330
188
100
AcDbEntity
  8
AM_9
100
AcDbLine
 10
4.073565062178908
 20
-0.3593750000000002
 30
0.0
 11
4.0
 21
-0.3593750000000002
 31
0.0
  0
LWPOLYLINE
  5
1D7
330
188
100
AcDbEntity
  8
AM_9
100
AcDbPolyline
 90
       20
 70
     0
 43
0.0
 10
3.374290915971063
 20
-0.3593750000000001
 10
3.375487702542312
 20
-0.3490442700245345
 10
3.378833896358409
 20
-0.3180227868228249
 10
3.382030198805601
 20
-0.2847870023202145
 10
3.385082925055899
 20
-0.2484978798507381
 10
3.387820403521764
 20
-0.2103626623990947
 10
3.390103676997702
 20
-0.1719051609650038
 10
3.391969415827682
 20
-0.1322386174995185
 10
3.393402688030446
 20
-0.0904188644479081
 10
3.394306950682203
 20
-0.0479206476599284
 10
3.394651573260933
 20
-0.006719820978857
 10
3.394476429382202
 20
0.0345277412285111
 10
3.393754473484038
 20
0.0767299176700604
 10
3.392505339362144
 20
0.1183678799165198
 10
3.390821566408771
 20
0.1578409929311605
 10
3.388714531925198
 20
0.1962329780738313
 10
3.386156123946751
 20
0.2343194071899517
 10
3.383266653984509
 20
0.2707212437654991
 10
3.378922691380615
 20
0.3171419803334751
 10
3.374290915971063
 20
0.3593750000000001
  0
LWPOLYLINE
  5
1D8
330
188
100
AcDbEntity
  8
AM_9
100
AcDbPolyline
 90
       16
 70
     0
 43
0.0
 10
3.356174888918757
 20
0.3593750000000001
 10
3.359006915933931
 20
0.3129159542272772
 10
3.361787531381104
 20
0.2615300845107549
 10
3.364042732741829
 20
0.2120381022430878
 10
3.365950627309723
 20
0.159703200283395
 10
3.367382876428172
 20
0.105510912622253
 10
3.368234743473582
 20
0.0501115086660543
 10
3.368482508543012
 20
-0.0060983423952034
 10
3.368109695829024
 20
-0.0620538021319015
 10
3.367120704109368
 20
-0.1170055059404745
 10
3.365593191835598
 20
-0.1706596347211331
 10
3.363628265863777
 20
-0.2220149054287376
 10
3.361320863474235
 20
-0.2706576686928724
 10
3.358821685611364
 20
-0.3160615872139117
 10
3.356301316032828
 20
-0.3573850158752884
 10
3.356174888918757
 20
-0.3593750000000001
  0
LINE
  5
1D9
330
188
100
AcDbEntity
  8
AM_9
100
AcDbLine
 10
3.25
 20
-0.5
 30
0.0
 11
3.4
 21
-0.5
 31
0.0
  0
LINE
  5
1DA
330
188
100
AcDbEntity
  8
AM_9
100
AcDbLine
 10
3.4
 20
0.5
 30
0.0
 11
3.25
 21
0.5
 31
0.0
  0
LINE
  5
1DB
330
188
100
AcDbEntity
  8
AM_9
100
AcDbLine
 10
3.4
 20
0.5
 30
0.0
 11
3.4
 21
-0.5
 31
0.0
  0
LINE
  5
1DC
330
188
100
AcDbEntity
  8
AM_9
100
AcDbLine
 10
3.45
 20
0.4499999999999995
 30
0.0
 11
3.45
 21
-0.449992266606598
 31
0.0
  0
ARC
  5
1DD
330
188
100
AcDbEntity
  8
AM_9
100
AcDbCircle
 10
3.399999999999999
 20
-0.4499999999999994
 30
0.0
 40
0.0500000000000006
100
AcDbArc
 50
270.0
 51
0.0
  0
ARC
  5
1DE
330
188
100
AcDbEntity
  8
AM_9
100
AcDbCircle
 10
3.399999999999999
 20
0.4499999999999997
 30
0.0
 40
0.0500000000000003
100
AcDbArc
 50
0.0
 51
90.0
  0
LINE
  5
1DF
330
188
100
AcDbEntity
  8
AM_9
100
AcDbLine
 10
-3.348660495585829
 20
-0.3593750000000001
 30
0.0
 11
-3.348660495585829
 21
0.3593750000000001
 31
0.0
  0
LINE
  5
1E0
330
188
100
AcDbEntity
  8
AM_9
100
AcDbLine
 10
-3.961489990556547
 20
-0.3593749999999999
 30
0.0
 11
-3.961489990556547
 21
0.3593750000000002
 31
0.0
  0
LINE
  5
1E1
330
188
100
AcDbEntity
  8
AM_9
100
AcDbLine
 10
3.961489964732079
 20
-0.3593749999999999
 30
0.0
 11
3.961489964732079
 21
0.3593750000000002
 31
0.0
  0
LINE
  5
1E2
330
188
100
AcDbEntity
  8
AM_9
100
AcDbLine
 10
4.0
 20
0.4843749999999996
 30
0.0
 11
2.384483987970749
 21
0.4843749999999996
 31
0.0
  0
LINE
  5
1E3
330
188
100
AcDbEntity
  8
AM_9
100
AcDbLine
 10
3.990516322026544
 20
0.3593750000000002
 30
0.0
 11
2.199255850454348
 21
0.3593749999999999
 31
0.0
  0
LWPOLYLINE
  5
1E4
330
188
100
AcDbEntity
  8
AM_9
100
AcDbPolyline
 90
        4
 70
     0
 43
0.0
 10
4.0
 20
0.3796224312820405
 10
3.999436421860267
 20
0.3704443645076791
 10
3.997508176963038
 20
0.3638084123614345
 10
3.990516322026544
 20
0.3593750000000001
  0
LINE
  5
1E5
330
188
100
AcDbEntity
  8
AM_9
100
AcDbLine
 10
4.0
 20
1.197916666666667
 30
0.0
 11
2.38448398797075
 21
1.197916666666667
 31
0.0
  0
LINE
  5
1E6
330
188
100
AcDbEntity
  8
AM_9
100
AcDbLine
 10
-2.384483987970749
 20
0.4843749999999996
 30
0.0
 11
-4.0
 21
0.4843749999999996
 31
0.0
  0
LINE
  5
1E7
330
188
100
AcDbEntity
  8
AM_9
100
AcDbLine
 10
-2.199255850454348
 20
0.3593749999999999
 30
0.0
 11
-3.99051632202654
 21
0.3593750000000002
 31
0.0
  0
LWPOLYLINE
  5
1E8
330
188
100
AcDbEntity
  8
AM_9
100
AcDbPolyline
 90
        4
 70
     0
 43
0.0
 10
-3.990516322026541
 20
0.3593750000000001
 10
-3.99501772379651
 20
0.3607579957228126
 10
-3.998105589615762
 20
0.3651283520294734
 10
-4.0
 20
0.3796224288564969
  0
LINE
  5
1E9
330
188
100
AcDbEntity
  8
AM_9
100
AcDbLine
 10
-2.38448398797075
 20
-0.4843749999999999
 30
0.0
 11
-4.0
 21
-0.4843749999999999
 31
0.0
  0
LINE
  5
1EA
330
188
100
AcDbEntity
  8
AM_9
100
AcDbLine
 10
-2.199255850454348
 20
-0.3593750000000001
 30
0.0
 11
-3.99051632202654
 21
-0.3593749999999998
 31
0.0
  0
LWPOLYLINE
  5
1EB
330
188
100
AcDbEntity
  8
AM_9
100
AcDbPolyline
 90
        4
 70
     0
 43
0.0
 10
-4.0
 20
-0.3796224288564977
 10
-3.999436421590446
 20
-0.3704443626968662
 10
-3.99750817636807
 20
-0.363808411216846
 10
-3.99051632202654
 20
-0.3593749999999998
  0
LINE
  5
1EC
330
188
100
AcDbEntity
  8
AM_9
100
AcDbLine
 10
4.0
 20
-0.4843749999999999
 30
0.0
 11
2.384483987970699
 21
-0.4843750000000156
 31
0.0
  0
LINE
  5
1ED
330
188
100
AcDbEntity
  8
AM_9
100
AcDbLine
 10
3.990516322026544
 20
-0.3593749999999998
 30
0.0
 11
2.199255850454349
 21
-0.3593750000000001
 31
0.0
  0
LWPOLYLINE
  5
1EE
330
188
100
AcDbEntity
  8
AM_9
100
AcDbPolyline
 90
        4
 70
     0
 43
0.0
 10
3.990516322026544
 20
-0.3593749999999998
 10
3.995017723802494
 20
-0.360757995727239
 10
3.99810558962323
 20
-0.365128352048428
 10
4.0
 20
-0.3796224312820412
  0
LINE
  5
1EF
330
188
100
AcDbEntity
  8
AM_9
100
AcDbLine
 10
4.0
 20
-1.197916666666667
 30
0.0
 11
2.384483987970749
 21
-1.197916666666667
 31
0.0
  0
LINE
  5
1F0
330
188
100
AcDbEntity
  8
AM_9
100
AcDbLine
 10
-2.38448398797075
 20
1.197916666666667
 30
0.0
 11
-4.0
 21
1.197916666666667
 31
0.0
  0
LINE
  5
1F1
330
188
100
AcDbEntity
  8
AM_9
100
AcDbLine
 10
-2.384483987970749
 20
-1.197916666666667
 30
0.0
 11
-4.0
 21
-1.197916666666667
 31
0.0
  0
LINE
  5
1F2
330
188
100
AcDbEntity
  8
AM_9
100
AcDbLine
 10
-2.335169478443816
 20
-1.249999999999999
 30
0.0
 11
-2.384483987970749
 21
-1.197916666666667
 31
0.0
  0
LINE
  5
1F3
330
188
100
AcDbEntity
  8
AM_9
100
AcDbLine
 10
-2.384483987970749
 20
-1.197916666666667
 30
0.0
 11
-2.38448398797075
 21
-0.4843749999999999
 31
0.0
  0
LWPOLYLINE
  5
1F4
330
188
100
AcDbEntity
  8
AM_9
100
AcDbPolyline
 90
       11
 70
     0
 43
0.0
 10
-2.494438257849295
 20
-0.3593749999999999
 10
-2.48809680216892
 20
-0.3596043946621211
 10
-2.465878509956
 20
-0.3640148765422644
 10
-2.444190470017932
 20
-0.3740307555134973
 10
-2.427795926964405
 20
-0.3861402482492279
 10
-2.412786590686221
 20
-0.4020269028361698
 10
-2.402850485599072
 20
-0.4165652189577762
 10
-2.394563573534735
 20
-0.4332489621769635
 10
-2.389380772420885
 20
-0.4483967954151629
 10
-2.38594362101728
 20
-0.4645813199315557
 10
-2.38448398797075
 20
-0.4843749999999999
  0
LWPOLYLINE
  5
1F5
330
188
100
AcDbEntity
  8
AM_9
100
AcDbPolyline
 90
        7
 70
     0
 43
0.0
 10
-2.06314415108271
 20
-0.4440104166666668
 10
-2.075668991077048
 20
-0.421370988881371
 10
-2.090229900380367
 20
-0.4040802375796784
 10
-2.106642801820316
 20
-0.3899648890952309
 10
-2.133173908580723
 20
-0.3742133422042309
 10
-2.161043267224771
 20
-0.3642492888840192
 10
-2.199255850454348
 20
-0.3593750000000001
  0
LWPOLYLINE
  5
1F6
330
188
100
AcDbEntity
  8
AM_9
100
AcDbPolyline
 90
       19
 70
     0
 43
0.0
 10
-2.06314415108271
 20
-0.4440104166666667
 10
-2.02159176905249
 20
-0.5321177684722411
 10
-1.972641037615702
 20
-0.6149639868947473
 10
-1.917074182901774
 20
-0.6919002521434963
 10
-1.855673431040131
 20
-0.7622777444277992
 10
-1.789383234969039
 20
-0.8256690842366675
 10
-1.718085123865077
 20
-0.8832148074699775
 10
-1.642465975521531
 20
-0.9350528234844204
 10
-1.563212667731686
 20
-0.9813210416366868
 10
-1.455165264746169
 20
-1.033901662384218
 10
-1.341936813429177
 20
-1.078869842290443
 10
-1.224416548596609
 20
-1.116936884782975
 10
-1.10349370506436
 20
-1.148814093289428
 10
-0.9800575176483277
 20
-1.175212771237415
 10
-0.8399207216879054
 20
-1.199163000053319
 10
-0.6970629646021598
 20
-1.218115410922126
 10
-0.5521495478909467
 20
-1.232571430259241
 10
-0.4058457730541212
 20
-1.243032484480064
 10
-0.2588169415915383
 20
-1.249999999999999
  0
LINE
  5
1F7
330
188
100
AcDbEntity
  8
AM_9
100
AcDbLine
 10
-3.25
 20
-0.3593750000000001
 30
0.0
 11
-3.25
 21
-1.249999999999999
 31
0.0
  0
LINE
  5
1F8
330
188
100
AcDbEntity
  8
AM_9
100
AcDbLine
 10
2.384483987970749
 20
-1.197916666666667
 30
0.0
 11
2.335169478443816
 21
-1.249999999999998
 31
0.0
  0
LWPOLYLINE
  5
1F9
330
188
100
AcDbEntity
  8
AM_9
100
AcDbPolyline
 90
       10
 70
     0
 43
0.0
 10
3.231354265725904
 20
-0.3593750000000001
 10
3.237207862552727
 20
-0.4086743757237495
 10
3.239998630078006
 20
-0.43022284784848
 10
3.242555749717873
 20
-0.449074370264478
 10
3.24491560721753
 20
-0.4658101328366337
 10
3.246883546987235
 20
-0.4793253255320548
 10
3.24843988252262
 20
-0.4897597087464033
 10
3.24947765587559
 20
-0.4965934313245806
 10
3.249954176488139
 20
-0.499704882354927
 10
3.25
 20
-0.4999999999999952
  0
LWPOLYLINE
  5
1FA
330
188
100
AcDbEntity
  8
AM_9
100
AcDbPolyline
 90
        9
 70
     0
 43
0.0
 10
2.384483987970699
 20
-0.4843750000000156
 10
2.384719777598701
 20
-0.4764005778575982
 10
2.390034837189483
 20
-0.4460854783753846
 10
2.401614945236469
 20
-0.4187008321950829
 10
2.413113100440342
 20
-0.4016227288933548
 10
2.426253477069569
 20
-0.3875244399471726
 10
2.445039637341232
 20
-0.3735230820464635
 10
2.46490283939947
 20
-0.3643350089762915
 10
2.494438257849295
 20
-0.3593749999999999
  0
LINE
  5
1FB
330
188
100
AcDbEntity
  8
AM_9
100
AcDbLine
 10
2.384483987970699
 20
-0.4843750000000156
 30
0.0
 11
2.384483987970749
 21
-1.197916666666667
 31
0.0
  0
LWPOLYLINE
  5
1FC
330
188
100
AcDbEntity
  8
AM_9
100
AcDbPolyline
 90
       19
 70
     0
 43
0.0
 10
0.2588169415915383
 20
-1.249999999999999
 10
0.4139008538256205
 20
-1.242613606781723
 10
0.5683495752632367
 20
-1.231356271933189
 10
0.7213220390058843
 20
-1.215543776428577
 10
0.8719771781550607
 20
-1.194491901242073
 10
1.019473925812263
 20
-1.167516427347856
 10
1.162971215078989
 20
-1.133933135720111
 10
1.263902426199094
 20
-1.104964114558485
 10
1.362480084032041
 20
-1.07132792962811
 10
1.458072672985423
 20
-1.032587580471212
 10
1.550048677466834
 20
-0.988306066630017
 10
1.637776581883866
 20
-0.9380463876467516
 10
1.717687595762414
 20
-0.88351225681027
 10
1.7930209179055
 20
-0.8223437385886889
 10
1.862906059855695
 20
-0.754543093772728
 10
1.926472533155565
 20
-0.6801125831531069
 10
1.978167237936167
 20
-0.6067153011870705
 10
2.023941111848681
 20
-0.5277849304859051
 10
2.06314415108271
 20
-0.4440104166666671
  0
LWPOLYLINE
  5
1FD
330
188
100
AcDbEntity
  8
AM_9
100
AcDbPolyline
 90
        8
 70
     0
 43
0.0
 10
2.199255850454349
 20
-0.3593750000000001
 10
2.173708799686557
 20
-0.3615526734313451
 10
2.141021797541528
 20
-0.3707986092917003
 10
2.109801902524206
 20
-0.3876940337950484
 10
2.094202616844029
 20
-0.4002532545511745
 10
2.080038165677458
 20
-0.4155221321769354
 10
2.070756284441743
 20
-0.4289364716674963
 10
2.06314415108271
 20
-0.4440104166666666
  0
LINE
  5
1FE
330
188
100
AcDbEntity
  8
AM_9
100
AcDbLine
 10
3.25
 20
-1.249999999999999
 30
0.0
 11
3.25
 21
-0.5000000000000001
 31
0.0
  0
LINE
  5
1FF
330
188
100
AcDbEntity
  8
AM_9
100
AcDbLine
 10
2.335169478443815
 20
1.25
 30
0.0
 11
2.384483987970749
 21
1.197916666666667
 31
0.0
  0
LWPOLYLINE
  5
200
330
188
100
AcDbEntity
  8
AM_9
100
AcDbPolyline
 90
        9
 70
     0
 43
0.0
 10
2.06314415108271
 20
0.4440104166666664
 10
2.063753092674183
 20
0.4425724544235607
 10
2.072268054052449
 20
0.4264788127288146
 10
2.082645287073815
 20
0.4123361837363579
 10
2.100358595866547
 20
0.3948663914852317
 10
2.119865255917203
 20
0.3812272953359641
 10
2.149778178592574
 20
0.3675716669865567
 10
2.180658464983876
 20
0.3605309546627327
 10
2.199255850454348
 20
0.3593749999999994
  0
LWPOLYLINE
  5
201
330
188
100
AcDbEntity
  8
AM_9
100
AcDbPolyline
 90
       18
 70
     0
 43
0.0
 10
2.06314415108271
 20
0.4440104166666664
 10
2.019491460146114
 20
0.5362988230666922
 10
1.966858210691188
 20
0.6239463253296005
 10
1.906598368440107
 20
0.7049086642450516
 10
1.839686349015896
 20
0.7786086071960433
 10
1.757582068759346
 20
0.8525109298989464
 10
1.66850051299211
 20
0.918061317241516
 10
1.573583891002759
 20
0.9756055092951474
 10
1.473974412079867
 20
1.025489246131235
 10
1.353122143701421
 20
1.074833968293952
 10
1.227073948958912
 20
1.116217045520449
 10
1.096792089491673
 20
1.150474135754559
 10
0.9632388269390345
 20
1.178440896940116
 10
0.827376422940327
 20
1.200952987020951
 10
0.6876337860882638
 20
1.219065554254305
 10
0.5458970583549688
 20
1.233005374346948
 10
0.4027601425771487
 20
1.243180754021355
 10
0.2588169415915099
 20
1.250000000000001
  0
LINE
  5
202
330
188
100
AcDbEntity
  8
AM_9
100
AcDbLine
 10
2.38448398797075
 20
1.197916666666667
 30
0.0
 11
2.384483987970749
 21
0.4843749999999996
 31
0.0
  0
LWPOLYLINE
  5
203
330
188
100
AcDbEntity
  8
AM_9
100
AcDbPolyline
 90
       10
 70
     0
 43
0.0
 10
2.494438257849294
 20
0.3593750000000001
 10
2.474057770939827
 20
0.3617355625521747
 10
2.453912862954322
 20
0.3687865212928828
 10
2.435741758333819
 20
0.3797080565838402
 10
2.41883795091067
 20
0.3949281577776552
 10
2.407572219716397
 20
0.4091251421506852
 10
2.397909312900024
 20
0.4257783346284765
 10
2.391711725480268
 20
0.4408543465621047
 10
2.38724802782507
 20
0.457206314892394
 10
2.384483987970749
 20
0.4843749999999996
  0
LINE
  5
204
330
188
100
AcDbEntity
  8
AM_9
100
AcDbLine
 10
3.25
 20
0.5
 30
0.0
 11
3.25
 21
1.25
 31
0.0
  0
LWPOLYLINE
  5
205
330
188
100
AcDbEntity
  8
AM_9
100
AcDbPolyline
 90
       10
 70
     0
 43
0.0
 10
3.25
 20
0.5
 10
3.249737390810993
 20
0.4982929616337945
 10
3.248960277903654
 20
0.4931966011600099
 10
3.247641982010072
 20
0.4844388762497919
 10
3.245839113323878
 20
0.4721986336099917
 10
3.243669627978182
 20
0.457049338407495
 10
3.241149923304428
 20
0.4388084152979521
 10
3.238261994753854
 20
0.4169425477769356
 10
3.235157062675516
 20
0.3920984827556384
 10
3.231354265725905
 20
0.3593750000000001
  0
LINE
  5
206
330
188
100
AcDbEntity
  8
AM_9
100
AcDbLine
 10
-2.38448398797075
 20
1.197916666666667
 30
0.0
 11
-2.335169478443814
 21
1.250000000000001
 31
0.0
  0
LWPOLYLINE
  5
207
330
188
100
AcDbEntity
  8
AM_9
100
AcDbPolyline
 90
       19
 70
     0
 43
0.0
 10
-0.2588169415915098
 20
1.25
 10
-0.4139008538255931
 20
1.242613606781725
 10
-0.5683495752632106
 20
1.23135627193319
 10
-0.7213220390058595
 20
1.21554377642858
 10
-0.8719771781550371
 20
1.194491901242076
 10
-1.019473925812241
 20
1.167516427347861
 10
-1.162971215078968
 20
1.133933135720116
 10
-1.263902426199076
 20
1.104964114558491
 10
-1.362480084032024
 20
1.071327929628116
 10
-1.458072672985408
 20
1.032587580471218
 10
-1.55004867746682
 20
0.988306066630024
 10
-1.637776581883853
 20
0.938046387646759
 10
-1.717687595762403
 20
0.8835122568102776
 10
-1.793020917905491
 20
0.822343738588697
 10
-1.862906059855686
 20
0.7545430937727364
 10
-1.926472533155558
 20
0.6801125831531156
 10
-1.978167237936162
 20
0.6067153011870766
 10
-2.023941111848679
 20
0.527784930485908
 10
-2.06314415108271
 20
0.4440104166666664
  0
LWPOLYLINE
  5
208
330
188
100
AcDbEntity
  8
AM_9
100
AcDbPolyline
 90
        8
 70
     0
 43
0.0
 10
-2.199255850454348
 20
0.3593749999999996
 10
-2.165406971620214
 20
0.3631866829966809
 10
-2.132149144025068
 20
0.3747078808452451
 10
-2.111081594307004
 20
0.3868012517860099
 10
-2.091485811847424
 20
0.4028406283019857
 10
-2.079325382861805
 20
0.4164321732556882
 10
-2.068849567649035
 20
0.432231974674561
 10
-2.06314415108271
 20
0.4440104166666664
  0
LWPOLYLINE
  5
209
330
188
100
AcDbEntity
  8
AM_9
100
AcDbPolyline
 90
        9
 70
     0
 43
0.0
 10
-2.384483987970749
 20
0.4843749999999996
 10
-2.385227143551881
 20
0.470231733349067
 10
-2.391747889221666
 20
0.4407241665243364
 10
-2.404602078407668
 20
0.4136629542461086
 10
-2.417214723674934
 20
0.3967349416027761
 10
-2.43142124142469
 20
0.3830591465566043
 10
-2.45124698160608
 20
0.3700997979076047
 10
-2.471998618919243
 20
0.3622330834145107
 10
-2.494438257849294
 20
0.3593750000000001
  0
LINE
  5
20A
330
188
100
AcDbEntity
  8
AM_9
100
AcDbLine
 10
-2.384483987970749
 20
0.4843749999999996
 30
0.0
 11
-2.38448398797075
 21
1.197916666666667
 31
0.0
  0
LINE
  5
20B
330
188
100
AcDbEntity
  8
AM_9
100
AcDbLine
 10
-3.25
 20
1.25
 30
0.0
 11
-3.25
 21
0.3593750000000001
 31
0.0
  0
LWPOLYLINE
  5
20C
330
188
100
AcDbEntity
  8
AM_9
100
AcDbPolyline
 90
        6
 70
     0
 43
0.0
 10
-0.2588169415915098
 20
1.25
 10
-0.1419534706195112
 20
1.25326435998267
 10
-0.0419994208705652
 20
1.254520356233608
 10
0.0581124226463927
 20
1.254410726092929
 10
0.1584977830979088
 20
1.252922383245496
 10
0.2588169415915098
 20
1.25
  0
LINE
  5
20D
330
188
100
AcDbEntity
  8
AM_9
100
AcDbLine
 10
-0.2588169415915098
 20
1.25
 30
0.0
 11
-3.25
 21
1.25
 31
0.0
  0
LWPOLYLINE
  5
20E
330
188
100
AcDbEntity
  8
AM_9
100
AcDbPolyline
 90
       10
 70
     0
 43
0.0
 10
-2.018765049823501
 20
1.375
 10
-2.045564548160296
 20
1.373900284793125
 10
-2.072364046497092
 20
1.370890323212641
 10
-2.104203853974213
 20
1.365199279278598
 10
-2.135484383550439
 20
1.357566986400849
 10
-2.196508253541348
 20
1.33696682984711
 10
-2.254682087241845
 20
1.309398216997249
 10
-2.281930808673033
 20
1.293004938136868
 10
-2.307281842809708
 20
1.274900182886203
 10
-2.335169478443815
 20
1.25
  0
LWPOLYLINE
  5
20F
330
188
100
AcDbEntity
  8
AM_9
100
AcDbPolyline
 90
       10
 70
     0
 43
0.0
 10
2.335169478443815
 20
1.25
 10
2.298421214194718
 20
1.281607138819047
 10
2.254265290893937
 20
1.309629014098129
 10
2.222414539726495
 20
1.325770184035143
 10
2.188791913136252
 20
1.340004284058261
 10
2.15258098386621
 20
1.352571262440924
 10
2.114937317599755
 20
1.362802716450105
 10
2.081930014013453
 20
1.369410058978544
 10
2.047843690285586
 20
1.373713555596137
 10
2.018765049823501
 20
1.375
  0
LINE
  5
210
330
188
100
AcDbEntity
  8
AM_9
100
AcDbLine
 10
0.2588169415915098
 20
1.25
 30
0.0
 11
3.25
 21
1.25
 31
0.0
  0
ARC
  5
211
330
188
100
AcDbEntity
  8
AM_9
100
AcDbCircle
 10
3.124999999999999
 20
1.249999999999999
 30
0.0
 40
0.1250000000000009
100
AcDbArc
 50
0.0
 51
90.0
  0
ARC
  5
212
330
188
100
AcDbEntity
  8
AM_9
100
AcDbCircle
 10
-3.124999999999999
 20
1.249999999999999
 30
0.0
 40
0.1250000000000011
100
AcDbArc
 50
90.0
 51
180.0
  0
LWPOLYLINE
  5
213
330
188
100
AcDbEntity
  8
AM_9
100
AcDbPolyline
 90
       10
 70
     0
 43
0.0
 10
2.018765049823501
 20
-1.375
 10
2.045564548160296
 20
-1.373900284793124
 10
2.072364046497092
 20
-1.370890323212641
 10
2.104203853974214
 20
-1.365199279278597
 10
2.13548438355044
 20
-1.357566986400848
 10
2.19650825354135
 20
-1.336966829847109
 10
2.254682087241847
 20
-1.309398216997247
 10
2.281930808673035
 20
-1.293004938136866
 10
2.30728184280971
 20
-1.274900182886199
 10
2.335169478443815
 20
-1.249999999999999
  0
LWPOLYLINE
  5
214
330
188
100
AcDbEntity
  8
AM_9
100
AcDbPolyline
 90
       10
 70
     0
 43
0.0
 10
-2.335169478443815
 20
-1.249999999999999
 10
-2.298421214194719
 20
-1.281607138819045
 10
-2.25426529089394
 20
-1.309629014098127
 10
-2.222524150461826
 20
-1.325716650613924
 10
-2.188791913136254
 20
-1.340004284058259
 10
-2.152725838402381
 20
-1.352521532617829
 10
-2.114937317599756
 20
-1.362802716450104
 10
-2.081930014013453
 20
-1.369410058978543
 10
-2.047843690285585
 20
-1.373713555596136
 10
-2.018765049823501
 20
-1.375
  0
LINE
  5
215
330
188
100
AcDbEntity
  8
AM_9
100
AcDbLine
 10
-0.2588169415915383
 20
-1.249999999999999
 30
0.0
 11
-3.25
 21
-1.249999999999999
 31
0.0
  0
LWPOLYLINE
  5
216
330
188
100
AcDbEntity
  8
AM_9
100
AcDbPolyline
 90
        6
 70
     0
 43
0.0
 10
0.2588169415915383
 20
-1.249999999999999
 10
0.1419534706195257
 20
-1.25326435998267
 10
0.0419994208705689
 20
-1.254520356233609
 10
-0.0581124226463996
 20
-1.254410726092929
 10
-0.1584977830979266
 20
-1.252922383245496
 10
-0.2588169415915383
 20
-1.249999999999999
  0
LINE
  5
217
330
188
100
AcDbEntity
  8
AM_9
100
AcDbLine
 10
0.2588169415915383
 20
-1.249999999999999
 30
0.0
 11
3.25
 21
-1.249999999999999
 31
0.0
  0
ARC
  5
218
330
188
100
AcDbEntity
  8
AM_9
100
AcDbCircle
 10
3.125
 20
-1.25
 30
0.0
 40
0.1250000000000004
100
AcDbArc
 50
270.0
 51
0.0
  0
ARC
  5
219
330
188
100
AcDbEntity
  8
AM_9
100
AcDbCircle
 10
-3.125
 20
-1.25
 30
0.0
 40
0.1250000000000004
100
AcDbArc
 50
180.0
 51
270.0
  0
LINE
  5
21A
330
188
100
AcDbEntity
  8
AM_9
100
AcDbLine
 10
2.55905
 20
-1.375
 30
0.0
 11
2.55905
 21
1.375000000000002
 31
0.0
  0
LINE
  5
21B
330
188
100
AcDbEntity
  8
AM_9
100
AcDbLine
 10
-2.55905
 20
1.375000000000002
 30
0.0
 11
-2.55905
 21
-1.375
 31
0.0
  0
LINE
  5
21C
330
188
100
AcDbEntity
  8
AM_7
100
AcDbLine
 10
-0.1725
 20
0.0
 30
0.0
 11
4.0121875
 21
0.0
 31
0.0
  0
LINE
  5
21D
330
188
100
AcDbEntity
  8
AM_7
100
AcDbLine
 10
0.0
 20
2.016666666666667
 30
0.0
 11
0.0
 21
-2.6328125
 31
0.0
  0
LWPOLYLINE
  5
21E
330
188
100
AcDbEntity
  8
AM_4
100
AcDbPolyline
 90
        6
 70
     0
 43
0.0
 10
4.25
 20
0.8254350758232905
 10
4.247666249928522
 20
0.7779643043624236
 10
4.24108467441354
 20
0.7289985535706308
 10
4.23065794967335
 20
0.6782212284409802
 10
4.216913478223288
 20
0.6265244612783125
 10
4.196708903035669
 20
0.5640910748713684
  0
LINE
  5
21F
330
188
100
AcDbEntity
  8
AM_4
100
AcDbLine
 10
4.25
 20
1.375
 30
0.0
 11
4.25
 21
-1.375
 31
0.0
  0
LINE
  5
220
330
188
100
AcDbEntity
  8
AM_4
100
AcDbLine
 10
4.25
 20
1.375
 30
0.0
 11
-4.25
 21
1.375
 31
0.0
  0
LINE
  5
221
330
188
100
AcDbEntity
  8
AM_4
100
AcDbLine
 10
-4.25
 20
-1.375
 30
0.0
 11
-4.25
 21
1.375
 31
0.0
  0
LWPOLYLINE
  5
222
330
188
100
AcDbEntity
  8
AM_4
100
AcDbPolyline
 90
        6
 70
     0
 43
0.0
 10
-4.196708880422576
 20
0.5640910107828312
 10
-4.21444492531094
 20
0.6182264690019449
 10
-4.229192100723746
 20
0.6721284982762566
 10
-4.24058860200104
 20
0.7261415592734118
 10
-4.247808007092254
 20
0.7794872816554433
 10
-4.25
 20
0.8254350758232905
  0
LWPOLYLINE
  5
223
330
188
100
AcDbEntity
  8
AM_4
100
AcDbPolyline
 90
        6
 70
     0
 43
0.0
 10
-4.25
 20
-0.8254350758232911
 10
-4.247666249928525
 20
-0.7779643043624282
 10
-4.241084674413546
 20
-0.7289985535706397
 10
-4.230657949673359
 20
-0.6782212284409928
 10
-4.2169134782233
 20
-0.6265244612783293
 10
-4.196708880422578
 20
-0.5640910107828314
  0
LINE
  5
224
330
188
100
AcDbEntity
  8
AM_4
100
AcDbLine
 10
4.25
 20
-1.375
 30
0.0
 11
-4.25
 21
-1.375
 31
0.0
  0
LWPOLYLINE
  5
225
330
188
100
AcDbEntity
  8
AM_4
100
AcDbPolyline
 90
        6
 70
     0
 43
0.0
 10
4.196708903035667
 20
-0.5640910748713701
 10
4.214444944517647
 20
-0.6182265326763176
 10
4.229192116111991
 20
-0.6721285613107469
 10
4.240588612935502
 20
-0.7261416215275602
 10
4.247808012704474
 20
-0.7794873428352992
 10
4.25
 20
-0.8254350758232911
  0
LINE
  5
226
330
188
100
AcDbEntity
  8
AM_4
100
AcDbLine
 10
4.16012331241133
 20
0.4440104166666665
 30
0.0
 11
4.0
 21
0.4440104166666665
 31
0.0
  0
LINE
  5
227
330
188
100
AcDbEntity
  8
AM_4
100
AcDbLine
 10
-4.0
 20
0.4440104166666665
 30
0.0
 11
-4.160123312411332
 21
0.4440104166666665
 31
0.0
  0
LINE
  5
228
330
188
100
AcDbEntity
  8
AM_4
100
AcDbLine
 10
-4.0
 20
-0.4440104166666668
 30
0.0
 11
-4.160123312411332
 21
-0.4440104166666668
 31
0.0
  0
LINE
  5
229
330
188
100
AcDbEntity
  8
AM_4
100
AcDbLine
 10
4.16012331241133
 20
-0.4440104166666668
 30
0.0
 11
4.034267084557044
 21
-0.4440104166666668
 31
0.0
  0
LINE
  5
22A
330
188
100
AcDbEntity
  8
AM_4
100
AcDbLine
 10
4.0
 20
0.3593749999999999
 30
0.0
 11
4.073565062178909
 21
0.3593749999999996
 31
0.0
  0
LWPOLYLINE
  5
22B
330
188
100
AcDbEntity
  8
AM_4
100
AcDbPolyline
 90
        8
 70
     0
 43
0.0
 10
4.073565062178908
 20
-0.3593750000000001
 10
4.091925075465906
 20
-0.3620905041239841
 10
4.109936457881933
 20
-0.3701761060537638
 10
4.126669042801212
 20
-0.3833995302569347
 10
4.14168527497556
 20
-0.4018190672001338
 10
4.150214223970441
 20
-0.4169016334903867
 10
4.157183564895996
 20
-0.4340731032998718
 10
4.16012331241133
 20
-0.4440104166666667
  0
LWPOLYLINE
  5
22C
330
188
100
AcDbEntity
  8
AM_4
100
AcDbPolyline
 90
        3
 70
     0
 43
0.0
 10
4.196708903035668
 20
-0.5640910748713749
 10
4.177306939420445
 20
-0.5050055951987956
 10
4.160123312411331
 20
-0.4440104166666667
  0
LINE
  5
22D
330
188
100
AcDbEntity
  8
AM_4
100
AcDbLine
 10
4.196708903035668
 20
-0.5640910748713749
 30
0.0
 11
4.196708903035668
 21
0.564091074871374
 31
0.0
  0
LWPOLYLINE
  5
22E
330
188
100
AcDbEntity
  8
AM_4
100
AcDbPolyline
 90
        3
 70
     0
 43
0.0
 10
4.16012331241133
 20
0.4440104166666664
 10
4.177246777571099
 20
0.5048080921308326
 10
4.196708903035669
 20
0.5640910748713739
  0
LWPOLYLINE
  5
22F
330
188
100
AcDbEntity
  8
AM_4
100
AcDbPolyline
 90
        8
 70
     0
 43
0.0
 10
4.16012331241133
 20
0.4440104166666665
 10
4.153940034637971
 20
0.425307317750344
 10
4.145891487998779
 20
0.4086734937097742
 10
4.136471447183359
 20
0.3945048897416085
 10
4.125988992046814
 20
0.3827169926821075
 10
4.112831395932363
 20
0.3720332623005962
 10
4.099015544370273
 20
0.3645944158320945
 10
4.073565062178909
 20
0.3593749999999996
  0
LINE
  5
230
330
188
100
AcDbEntity
  8
AM_4
100
AcDbLine
 10
-4.07356506217891
 20
0.3593749999999996
 30
0.0
 11
-4.0
 21
0.3593749999999999
 31
0.0
  0
LWPOLYLINE
  5
231
330
188
100
AcDbEntity
  8
AM_4
100
AcDbPolyline
 90
        3
 70
     0
 43
0.0
 10
-4.160123312411332
 20
-0.444010416666667
 10
-4.177246767560417
 20
-0.5048080592588626
 10
-4.196708880422575
 20
-0.5640910107828292
  0
LWPOLYLINE
  5
232
330
188
100
AcDbEntity
  8
AM_4
100
AcDbPolyline
 90
        8
 70
     0
 43
0.0
 10
-4.160123312411332
 20
-0.4440104166666667
 10
-4.153940034637973
 20
-0.4253073177503441
 10
-4.145891487998781
 20
-0.4086734937097743
 10
-4.13647144718336
 20
-0.3945048897416089
 10
-4.125988992046816
 20
-0.382716992682108
 10
-4.112831395932363
 20
-0.3720332623005966
 10
-4.099015544370275
 20
-0.3645944158320948
 10
-4.07356506217891
 20
-0.3593750000000001
  0
LWPOLYLINE
  5
233
330
188
100
AcDbEntity
  8
AM_4
100
AcDbPolyline
 90
        8
 70
     0
 43
0.0
 10
-4.07356506217891
 20
0.3593749999999996
 10
-4.091925075465909
 20
0.3620905041239836
 10
-4.109936457881934
 20
0.3701761060537635
 10
-4.126669042801213
 20
0.3833995302569345
 10
-4.141685274975562
 20
0.4018190672001336
 10
-4.150214223970442
 20
0.4169016334903867
 10
-4.157183564895997
 20
0.4340731032998718
 10
-4.160123312411332
 20
0.4440104166666664
  0
LWPOLYLINE
  5
234
330
188
100
AcDbEntity
  8
AM_4
100
AcDbPolyline
 90
        3
 70
     0
 43
0.0
 10
-4.196708880422575
 20
0.5640910107828285
 10
-4.177306929307276
 20
0.5050055620070013
 10
-4.160123312411332
 20
0.4440104166666661
  0
LINE
  5
235
330
188
100
AcDbEntity
  8
AM_4
100
AcDbLine
 10
-4.196708880422575
 20
-0.5640910107828294
 30
0.0
 11
-4.196708880422576
 21
0.5640910107828312
 31
0.0
  0
LINE
  5
236
330
188
100
AcDbEntity
  8
AM_4
100
AcDbLine
 10
-4.0
 20
-0.3593750000000002
 30
0.0
 11
-4.073565062178909
 21
-0.3593750000000002
 31
0.0
  0
LINE
  5
237
330
188
100
AcDbEntity
  8
AM_4
100
AcDbLine
 10
-2.124999999999999
 20
0.4677071733467427
 30
0.0
 11
-2.124999999999999
 21
1.375000000000001
 31
0.0
  0
LINE
  5
238
330
188
100
AcDbEntity
  8
AM_4
100
AcDbLine
 10
2.125
 20
0.4677071733467426
 30
0.0
 11
2.125
 21
1.375
 31
0.0
  0
LINE
  5
239
330
188
100
AcDbEntity
  8
AM_4
100
AcDbLine
 10
-2.124999999999999
 20
-1.375
 30
0.0
 11
-2.124999999999999
 21
-0.4677071733467422
 31
0.0
  0
LINE
  5
23A
330
188
100
AcDbEntity
  8
AM_4
100
AcDbLine
 10
2.125
 20
-1.375
 30
0.0
 11
2.125
 21
-0.4677071733467422
 31
0.0
  0
LWPOLYLINE
  5
23B
330
188
100
AcDbEntity
  8
AM_4
100
AcDbPolyline
 90
       11
 70
     0
 43
0.0
 10
-2.124999999999999
 20
-0.4677071733467419
 10
-2.14370399562991
 20
-0.4686559553216772
 10
-2.161832376339442
 20
-0.4713679650664925
 10
-2.178796099276241
 20
-0.4756175715624305
 10
-2.194361558822914
 20
-0.4810817792988825
 10
-2.209337434004194
 20
-0.4879976094687648
 10
-2.222208863303412
 20
-0.4955861000634787
 10
-2.234213445113944
 20
-0.5047305474645493
 10
-2.243007207250578
 20
-0.5138990590139327
 10
-2.248210904038452
 20
-0.522418011871145
 10
-2.25
 20
-0.5303300858899103
  0
LINE
  5
23C
330
188
100
AcDbEntity
  8
AM_4
100
AcDbLine
 10
2.125
 20
-0.4677071733467422
 30
0.0
 11
-2.124999999999999
 21
-0.4677071733467422
 31
0.0
  0
LWPOLYLINE
  5
23D
330
188
100
AcDbEntity
  8
AM_4
100
AcDbPolyline
 90
       10
 70
     0
 43
0.0
 10
2.25
 20
-0.5303300858899105
 10
2.247945780631501
 20
-0.521821666106547
 10
2.241987914915096
 20
-0.5126393727594809
 10
2.232368229451649
 20
-0.503142828795014
 10
2.219361689443434
 20
-0.4937471850043193
 10
2.202600770309515
 20
-0.4846697138158363
 10
2.182801363535455
 20
-0.4768684730655185
 10
2.165871503576026
 20
-0.4722336353361133
 10
2.14776326939972
 20
-0.4690969719741054
 10
2.125
 20
-0.4677071733467422
  0
LWPOLYLINE
  5
23E
330
188
100
AcDbEntity
  8
AM_4
100
AcDbPolyline
 90
       11
 70
     0
 43
0.0
 10
2.125
 20
0.4677071733467426
 10
2.14370399562991
 20
0.4686559553216781
 10
2.161832376339443
 20
0.4713679650664934
 10
2.178796099276241
 20
0.4756175715624316
 10
2.194361558822915
 20
0.4810817792988835
 10
2.209337434004195
 20
0.4879976094687659
 10
2.222208863303412
 20
0.4955861000634799
 10
2.234213445113944
 20
0.5047305474645504
 10
2.243007207250578
 20
0.5138990590139335
 10
2.248210904038452
 20
0.5224180118711458
 10
2.25
 20
0.5303300858899109
  0
LINE
  5
23F
330
188
100
AcDbEntity
  8
AM_4
100
AcDbLine
 10
-2.124999999999999
 20
0.4677071733467427
 30
0.0
 11
2.125
 21
0.4677071733467426
 31
0.0
  0
LWPOLYLINE
  5
240
330
188
100
AcDbEntity
  8
AM_4
100
AcDbPolyline
 90
       10
 70
     0
 43
0.0
 10
-2.25
 20
0.5303300858899108
 10
-2.247945780631501
 20
0.5218216661065475
 10
-2.241987914915096
 20
0.5126393727594812
 10
-2.232368229451649
 20
0.5031428287950144
 10
-2.219361689443434
 20
0.4937471850043195
 10
-2.202600770309514
 20
0.4846697138158363
 10
-2.182801363535455
 20
0.4768684730655186
 10
-2.165871503576025
 20
0.4722336353361135
 10
-2.147763269399719
 20
0.4690969719741056
 10
-2.124999999999999
 20
0.4677071733467423
  0
LINE
  5
241
330
188
100
AcDbEntity
  8
AM_4
100
AcDbLine
 10
-2.25
 20
0.5625000000000003
 30
0.0
 11
-2.9375
 21
0.5625000000000003
 31
0.0
  0
LINE
  5
242
330
188
100
AcDbEntity
  8
AM_4
100
AcDbLine
 10
2.9375
 20
-0.5624999999999998
 30
0.0
 11
2.25
 21
-0.5624999999999998
 31
0.0
  0
LINE
  5
243
330
188
100
AcDbEntity
  8
AM_4
100
AcDbLine
 10
-2.25
 20
-0.5624999999999998
 30
0.0
 11
-2.9375
 21
-0.5624999999999998
 31
0.0
  0
LINE
  5
244
330
188
100
AcDbEntity
  8
AM_4
100
AcDbLine
 10
2.9375
 20
0.5625000000000003
 30
0.0
 11
2.25
 21
0.5625000000000003
 31
0.0
  0
LINE
  5
245
330
188
100
AcDbEntity
  8
AM_4
100
AcDbLine
 10
2.25
 20
-1.375
 30
0.0
 11
2.25
 21
-0.5303300858899104
 31
0.0
  0
LINE
  5
246
330
188
100
AcDbEntity
  8
AM_4
100
AcDbLine
 10
-2.25
 20
-0.5303300858899105
 30
0.0
 11
-2.25
 21
-1.375
 31
0.0
  0
LINE
  5
247
330
188
100
AcDbEntity
  8
AM_4
100
AcDbLine
 10
4.0
 20
1.375
 30
0.0
 11
4.0
 21
-1.375
 31
0.0
  0
LINE
  5
248
330
188
100
AcDbEntity
  8
AM_4
100
AcDbLine
 10
2.25
 20
0.5303300858899109
 30
0.0
 11
2.25
 21
1.375
 31
0.0
  0
LINE
  5
249
330
188
100
AcDbEntity
  8
AM_4
100
AcDbLine
 10
-4.0
 20
-1.375
 30
0.0
 11
-4.0
 21
1.375
 31
0.0
  0
LINE
  5
24A
330
188
100
AcDbEntity
  8
AM_4
100
AcDbLine
 10
-2.25
 20
1.375
 30
0.0
 11
-2.25
 21
0.5303300858899108
 31
0.0
  0
LINE
  5
24B
330
188
100
AcDbEntity
  8
AM_4
100
AcDbLine
 10
2.9375
 20
0.7187500000000003
 30
0.0
 11
2.25
 21
0.7187500000000003
 31
0.0
  0
LINE
  5
24C
330
188
100
AcDbEntity
  8
AM_4
100
AcDbLine
 10
2.9375
 20
0.7500000000000002
 30
0.0
 11
2.9375
 21
-0.7499999999999997
 31
0.0
  0
LINE
  5
24D
330
188
100
AcDbEntity
  8
AM_4
100
AcDbLine
 10
2.9375
 20
0.7500000000000002
 30
0.0
 11
4.0
 21
0.7500000000000002
 31
0.0
  0
LINE
  5
24E
330
188
100
AcDbEntity
  8
AM_4
100
AcDbLine
 10
4.0
 20
1.026785714285715
 30
0.0
 11
2.25
 21
1.026785714285715
 31
0.0
  0
LINE
  5
24F
330
188
100
AcDbEntity
  8
AM_4
100
AcDbLine
 10
2.25
 20
-0.7187499999999997
 30
0.0
 11
2.9375
 21
-0.7187499999999997
 31
0.0
  0
LINE
  5
250
330
188
100
AcDbEntity
  8
AM_4
100
AcDbLine
 10
4.0
 20
-0.7499999999999997
 30
0.0
 11
2.9375
 21
-0.7499999999999997
 31
0.0
  0
LINE
  5
251
330
188
100
AcDbEntity
  8
AM_4
100
AcDbLine
 10
4.0
 20
-1.026785714285714
 30
0.0
 11
2.25
 21
-1.026785714285714
 31
0.0
  0
LINE
  5
252
330
188
100
AcDbEntity
  8
AM_4
100
AcDbLine
 10
-2.9375
 20
0.7500000000000002
 30
0.0
 11
-4.0
 21
0.7500000000000002
 31
0.0
  0
LINE
  5
253
330
188
100
AcDbEntity
  8
AM_4
100
AcDbLine
 10
-2.25
 20
0.7187500000000001
 30
0.0
 11
-2.9375
 21
0.7187500000000002
 31
0.0
  0
LINE
  5
254
330
188
100
AcDbEntity
  8
AM_4
100
AcDbLine
 10
-2.25
 20
1.026785714285715
 30
0.0
 11
-4.0
 21
1.026785714285715
 31
0.0
  0
LINE
  5
255
330
188
100
AcDbEntity
  8
AM_4
100
AcDbLine
 10
-4.0
 20
-0.7499999999999997
 30
0.0
 11
-2.9375
 21
-0.7499999999999997
 31
0.0
  0
LINE
  5
256
330
188
100
AcDbEntity
  8
AM_4
100
AcDbLine
 10
-2.25
 20
-1.026785714285714
 30
0.0
 11
-4.0
 21
-1.026785714285714
 31
0.0
  0
LINE
  5
257
330
188
100
AcDbEntity
  8
AM_4
100
AcDbLine
 10
-2.9375
 20
-0.7187499999999997
 30
0.0
 11
-2.25
 21
-0.7187499999999997
 31
0.0
  0
LINE
  5
258
330
188
100
AcDbEntity
  8
AM_4
100
AcDbLine
 10
-2.9375
 20
0.7500000000000002
 30
0.0
 11
-2.9375
 21
-0.7499999999999997
 31
0.0
  0
ENDBLK
  5
18B
330
188
100
AcDbEntity
  8
0
100
AcDbBlockEnd
  0
ENDSEC
  0
SECTION
  2
ENTITIES
  0
INSERT
  5
6F
330
1F
100
AcDbEntity
  8
0
100
AcDbBlockReference
  2
1_070818_4
 10
0.0
 20
0.0
 30
0.0
  0
POINT
  5
25A
330
1F
100
AcDbEntity
  8
ConnectionPoints
100
AcDbPoint
 10
0.0
 20
-2.453125
 30
0.0000000000000002
  0
POINT
  5
25B
330
1F
100
AcDbEntity
  8
ConnectionPoints
100
AcDbPoint
 10
0.0
 20
-2.453125
 30
0.0000000000000002
  0
POINT
  5
25C
330
1F
100
AcDbEntity
  8
ConnectionPoints
100
AcDbPoint
 10
0.0
 20
2.296374999999999
 30
-0.0000000000000001
  0
POINT
  5
25D
330
1F
100
AcDbEntity
  8
ConnectionPoints
100
AcDbPoint
 10
0.0
 20
-2.453125
 30
0.0000000000000002
  0
POINT
  5
25E
330
1F
100
AcDbEntity
  8
ConnectionPoints
100
AcDbPoint
 10
3.45
 20
0.0
 30
0.0
  0
POINT
  5
25F
330
1F
100
AcDbEntity
  8
ConnectionPoints
100
AcDbPoint
 10
0.0
 20
-2.703125
 30
0.0000000000000002
  0
POINT
  5
260
330
1F
100
AcDbEntity
  8
ConnectionPoints
100
AcDbPoint
 10
0.0
 20
-2.453125
 30
0.0000000000000002
  0
ENDSEC
  0
SECTION
  2
OBJECTS
  0
DICTIONARY
  5
C
330
0
100
AcDbDictionary
281
     1
  3
ACAD_DETAILVIEWSTYLE
350
268
  3
ACAD_GROUP
350
D
  3
ACAD_LAYOUT
350
1A
  3
ACAD_MATERIAL
350
43
  3
ACAD_MLEADERSTYLE
350
6B
  3
ACAD_MLINESTYLE
350
17
  3
ACAD_PLOTSETTINGS
350
19
  3
ACAD_PLOTSTYLENAME
350
E
  3
ACAD_SCALELIST
350
47
  3
ACAD_SECTIONVIEWSTYLE
350
269
  3
ACAD_TABLESTYLE
350
69
  3
ACAD_VISUALSTYLE
350
2A
  3
ACDB_RECOMPOSE_DATA
350
265
  3
AcDbVariableDictionary
350
261
  0
SUN
  5
6D
330
29
100
AcDbSun
 90
        1
290
     0
 63
     7
421
 16777215
 40
1.0
291
     1
 91
  2455826
 92
 54000000
292
     0
 70
     2
 71
   256
280
     1
  0
DICTIONARY
  5
268
102
{ACAD_REACTORS
330
C
102
}
330
C
100
AcDbDictionary
281
     1
  0
DICTIONARY
  5
D
102
{ACAD_REACTORS
330
C
102
}
330
C
100
AcDbDictionary
281
     1
  0
DICTIONARY
  5
1A
102
{ACAD_REACTORS
330
C
102
}
330
C
100
AcDbDictionary
281
     1
  3
Layout1
350
1E
  3
Layout2
350
26
  3
Model
350
22
  0
DICTIONARY
  5
43
102
{ACAD_REACTORS
330
C
102
}
330
C
100
AcDbDictionary
281
     1
  3
ByBlock
350
45
  3
ByLayer
350
44
  3
Global
350
46
  0
DICTIONARY
  5
6B
102
{ACAD_REACTORS
330
C
102
}
330
C
100
AcDbDictionary
281
     1
  3
Standard
350
6C
  0
DICTIONARY
  5
17
102
{ACAD_REACTORS
330
C
102
}
330
C
100
AcDbDictionary
281
     1
  3
Standard
350
18
  0
DICTIONARY
  5
19
102
{ACAD_REACTORS
330
C
102
}
330
C
100
AcDbDictionary
281
     1
  0
ACDBDICTIONARYWDFLT
  5
E
102
{ACAD_REACTORS
330
C
102
}
330
C
100
AcDbDictionary
281
     1
  3
Normal
350
F
100
AcDbDictionaryWithDefault
340
F
  0
DICTIONARY
  5
47
102
{ACAD_REACTORS
330
C
102
}
330
C
100
AcDbDictionary
281
     1
  3
A0
350
48
  3
A1
350
49
  3
A2
350
4A
  3
A3
350
4B
  3
A4
350
4C
  3
A5
350
4D
  3
A6
350
4E
  3
A7
350
4F
  3
A8
350
50
  3
A9
350
51
  3
B0
350
52
  3
B1
350
53
  3
B2
350
54
  3
B3
350
55
  3
B4
350
56
  3
B5
350
57
  3
B6
350
58
  3
B7
350
59
  3
B8
350
5A
  3
B9
350
5B
  3
C0
350
5C
  3
C1
350
5D
  3
C2
350
5E
  3
C3
350
5F
  3
C4
350
60
  3
C5
350
61
  3
C6
350
62
  3
C7
350
63
  3
C8
350
64
  3
C9
350
65
  3
D0
350
66
  3
D1
350
67
  3
D2
350
68
  0
DICTIONARY
  5
269
102
{ACAD_REACTORS
330
C
102
}
330
C
100
AcDbDictionary
281
     1
  0
DICTIONARY
  5
69
102
{ACAD_REACTORS
330
C
102
}
330
C
100
AcDbDictionary
281
     1
  3
Standard
350
6A
  0
DICTIONARY
  5
2A
102
{ACAD_REACTORS
330
C
102
}
330
C
100
AcDbDictionary
281
     1
  3
2dWireframe
350
2F
  3
Basic
350
32
  3
Brighten
350
36
  3
ColorChange
350
3A
  3
Conceptual
350
34
  3
Dim
350
35
  3
EdgeColorOff
350
3D
  3
Facepattern
350
39
  3
Flat
350
2B
  3
FlatWithEdges
350
2C
  3
Gouraud
350
2D
  3
GouraudWithEdges
350
2E
  3
Hidden
350
31
  3
JitterOff
350
3B
  3
Linepattern
350
38
  3
OverhangOff
350
3C
  3
Realistic
350
33
  3
Shaded
350
42
  3
Shaded with edges
350
41
  3
Shades of Gray
350
3E
  3
Sketchy
350
3F
  3
Thicken
350
37
  3
Wireframe
350
30
  3
X-Ray
350
40
  0
XRECORD
  5
265
102
{ACAD_REACTORS
330
C
102
}
330
C
100
AcDbXrecord
280
     1
 90
        1
330
6A
  0
DICTIONARY
  5
261
102
{ACAD_REACTORS
330
C
102
}
330
C
100
AcDbDictionary
281
     1
  3
CANNOSCALE
350
262
  3
CMLEADERSTYLE
350
267
  3
CTABLESTYLE
350
266
  0
LAYOUT
  5
1E
102
{ACAD_REACTORS
330
1A
102
}
330
1A
100
AcDbPlotSettings
  1

  2
none_device
  4

  6

 40
0.0
 41
0.0
 42
0.0
 43
0.0
 44
0.0
 45
0.0
 46
0.0
 47
0.0
 48
0.0
 49
0.0
140
0.0
141
0.0
142
1.0
143
1.0
 70
   688
 72
     0
 73
     0
 74
     5
  7

 75
    16
 76
     0
 77
     2
 78
   300
147
1.0
148
0.0
149
0.0
100
AcDbLayout
  1
Layout1
 70
     1
 71
     1
 10
0.0
 20
0.0
 11
12.0
 21
9.0
 12
0.0
 22
0.0
 32
0.0
 14
1.000000000000000E+20
 24
1.000000000000000E+20
 34
1.000000000000000E+20
 15
-1.000000000000000E+20
 25
-1.000000000000000E+20
 35
-1.000000000000000E+20
146
0.0
 13
0.0
 23
0.0
 33
0.0
 16
1.0
 26
0.0
 36
0.0
 17
0.0
 27
1.0
 37
0.0
 76
     0
330
1B
  0
LAYOUT
  5
26
102
{ACAD_REACTORS
330
1A
102
}
330
1A
100
AcDbPlotSettings
  1

  2
none_device
  4

  6

 40
0.0
 41
0.0
 42
0.0
 43
0.0
 44
0.0
 45
0.0
 46
0.0
 47
0.0
 48
0.0
 49
0.0
140
0.0
141
0.0
142
1.0
143
1.0
 70
   688
 72
     0
 73
     0
 74
     5
  7

 75
    16
 76
     0
 77
     2
 78
   300
147
1.0
148
0.0
149
0.0
100
AcDbLayout
  1
Layout2
 70
     1
 71
     2
 10
0.0
 20
0.0
 11
0.0
 21
0.0
 12
0.0
 22
0.0
 32
0.0
 14
0.0
 24
0.0
 34
0.0
 15
0.0
 25
0.0
 35
0.0
146
0.0
 13
0.0
 23
0.0
 33
0.0
 16
1.0
 26
0.0
 36
0.0
 17
0.0
 27
1.0
 37
0.0
 76
     0
330
23
  0
LAYOUT
  5
22
102
{ACAD_REACTORS
330
1A
102
}
330
1A
100
AcDbPlotSettings
  1

  2
none_device
  4
Letter_(8.50_x_11.00_Inches)
  6

 40
6.35
 41
6.35
 42
6.35000508
 43
6.35000508
 44
215.9
 45
279.4
 46
0.0
 47
0.0
 48
0.0
 49
0.0
140
0.0
141
0.0
142
1.0
143
1.0
 70
  1712
 72
     0
 73
     0
 74
     0
  7

 75
     0
 76
     0
 77
     2
 78
   300
147
1.0
148
0.0
149
0.0
100
AcDbLayout
  1
Model
 70
     1
 71
     0
 10
0.0
 20
0.0
 11
12.0
 21
9.0
 12
0.0
 22
0.0
 32
0.0
 14
1.000000000000000E+20
 24
1.000000000000000E+20
 34
1.000000000000000E+20
 15
-1.000000000000000E+20
 25
-1.000000000000000E+20
 35
-1.000000000000000E+20
146
0.0
 13
0.0
 23
0.0
 33
0.0
 16
1.0
 26
0.0
 36
0.0
 17
0.0
 27
1.0
 37
0.0
 76
     0
330
1F
331
29
  0
MATERIAL
  5
45
102
{ACAD_REACTORS
330
43
102
}
330
43
100
AcDbMaterial
  1
ByBlock
 72
     1
 94
      127
  0
MATERIAL
  5
44
102
{ACAD_REACTORS
330
43
102
}
330
43
100
AcDbMaterial
  1
ByLayer
 72
     1
 94
      127
  0
MATERIAL
  5
46
102
{ACAD_REACTORS
330
43
102
}
330
43
100
AcDbMaterial
  1
Global
 72
     1
 94
      127
  0
MLEADERSTYLE
  5
6C
102
{ACAD_REACTORS
330
6B
102
}
330
6B
100
AcDbMLeaderStyle
179
     2
170
     2
171
     1
172
     0
 90
        2
 40
0.0
 41
0.0
173
     1
 91
-1056964608
340
14
 92
       -2
290
     1
 42
0.09
291
     1
 43
0.36
  3
Standard
341
0
 44
0.18
300

342
11
174
     1
178
     6
175
     1
176
     0
 93
-1056964608
 45
0.18
292
     0
297
     0
 46
0.18
343
0
 94
-1056964608
 47
1.0
 49
1.0
140
1.0
293
     1
141
0.0
294
     1
177
     0
142
1.0
295
     0
296
     0
143
0.125
271
     0
272
     9
273
     9
298
     0
  0
MLINESTYLE
  5
18
102
{ACAD_REACTORS
330
17
102
}
330
17
100
AcDbMlineStyle
  2
Standard
 70
     0
  3

 62
   256
 51
90.0
 52
90.0
 71
     2
 49
0.5
 62
   256
  6
BYLAYER
 49
-0.5
 62
   256
  6
BYLAYER
  0
ACDBPLACEHOLDER
  5
F
102
{ACAD_REACTORS
330
E
102
}
330
E
  0
SCALE
  5
48
102
{ACAD_REACTORS
330
47
102
}
330
47
100
AcDbScale
 70
     0
300
1:1
140
1.0
141
1.0
290
     1
  0
SCALE
  5
49
102
{ACAD_REACTORS
330
47
102
}
330
47
100
AcDbScale
 70
     0
300
1:2
140
1.0
141
2.0
290
     0
  0
SCALE
  5
4A
102
{ACAD_REACTORS
330
47
102
}
330
47
100
AcDbScale
 70
     0
300
1:4
140
1.0
141
4.0
290
     0
  0
SCALE
  5
4B
102
{ACAD_REACTORS
330
47
102
}
330
47
100
AcDbScale
 70
     0
300
1:5
140
1.0
141
5.0
290
     0
  0
SCALE
  5
4C
102
{ACAD_REACTORS
330
47
102
}
330
47
100
AcDbScale
 70
     0
300
1:8
140
1.0
141
8.0
290
     0
  0
SCALE
  5
4D
102
{ACAD_REACTORS
330
47
102
}
330
47
100
AcDbScale
 70
     0
300
1:10
140
1.0
141
10.0
290
     0
  0
SCALE
  5
4E
102
{ACAD_REACTORS
330
47
102
}
330
47
100
AcDbScale
 70
     0
300
1:16
140
1.0
141
16.0
290
     0
  0
SCALE
  5
4F
102
{ACAD_REACTORS
330
47
102
}
330
47
100
AcDbScale
 70
     0
300
1:20
140
1.0
141
20.0
290
     0
  0
SCALE
  5
50
102
{ACAD_REACTORS
330
47
102
}
330
47
100
AcDbScale
 70
     0
300
1:30
140
1.0
141
30.0
290
     0
  0
SCALE
  5
51
102
{ACAD_REACTORS
330
47
102
}
330
47
100
AcDbScale
 70
     0
300
1:40
140
1.0
141
40.0
290
     0
  0
SCALE
  5
52
102
{ACAD_REACTORS
330
47
102
}
330
47
100
AcDbScale
 70
     0
300
1:50
140
1.0
141
50.0
290
     0
  0
SCALE
  5
53
102
{ACAD_REACTORS
330
47
102
}
330
47
100
AcDbScale
 70
     0
300
1:100
140
1.0
141
100.0
290
     0
  0
SCALE
  5
54
102
{ACAD_REACTORS
330
47
102
}
330
47
100
AcDbScale
 70
     0
300
2:1
140
2.0
141
1.0
290
     0
  0
SCALE
  5
55
102
{ACAD_REACTORS
330
47
102
}
330
47
100
AcDbScale
 70
     0
300
4:1
140
4.0
141
1.0
290
     0
  0
SCALE
  5
56
102
{ACAD_REACTORS
330
47
102
}
330
47
100
AcDbScale
 70
     0
300
8:1
140
8.0
141
1.0
290
     0
  0
SCALE
  5
57
102
{ACAD_REACTORS
330
47
102
}
330
47
100
AcDbScale
 70
     0
300
10:1
140
10.0
141
1.0
290
     0
  0
SCALE
  5
58
102
{ACAD_REACTORS
330
47
102
}
330
47
100
AcDbScale
 70
     0
300
100:1
140
100.0
141
1.0
290
     0
  0
SCALE
  5
59
102
{ACAD_REACTORS
330
47
102
}
330
47
100
AcDbScale
 70
     0
300
1/128" = 1'-0"
140
0.0078125
141
12.0
290
     0
  0
SCALE
  5
5A
102
{ACAD_REACTORS
330
47
102
}
330
47
100
AcDbScale
 70
     0
300
1/64" = 1'-0"
140
0.015625
141
12.0
290
     0
  0
SCALE
  5
5B
102
{ACAD_REACTORS
330
47
102
}
330
47
100
AcDbScale
 70
     0
300
1/32" = 1'-0"
140
0.03125
141
12.0
290
     0
  0
SCALE
  5
5C
102
{ACAD_REACTORS
330
47
102
}
330
47
100
AcDbScale
 70
     0
300
1/16" = 1'-0"
140
0.0625
141
12.0
290
     0
  0
SCALE
  5
5D
102
{ACAD_REACTORS
330
47
102
}
330
47
100
AcDbScale
 70
     0
300
3/32" = 1'-0"
140
0.09375
141
12.0
290
     0
  0
SCALE
  5
5E
102
{ACAD_REACTORS
330
47
102
}
330
47
100
AcDbScale
 70
     0
300
1/8" = 1'-0"
140
0.125
141
12.0
290
     0
  0
SCALE
  5
5F
102
{ACAD_REACTORS
330
47
102
}
330
47
100
AcDbScale
 70
     0
300
3/16" = 1'-0"
140
0.1875
141
12.0
290
     0
  0
SCALE
  5
60
102
{ACAD_REACTORS
330
47
102
}
330
47
100
AcDbScale
 70
     0
300
1/4" = 1'-0"
140
0.25
141
12.0
290
     0
  0
SCALE
  5
61
102
{ACAD_REACTORS
330
47
102
}
330
47
100
AcDbScale
 70
     0
300
3/8" = 1'-0"
140
0.375
141
12.0
290
     0
  0
SCALE
  5
62
102
{ACAD_REACTORS
330
47
102
}
330
47
100
AcDbScale
 70
     0
300
1/2" = 1'-0"
140
0.5
141
12.0
290
     0
  0
SCALE
  5
63
102
{ACAD_REACTORS
330
47
102
}
330
47
100
AcDbScale
 70
     0
300
3/4" = 1'-0"
140
0.75
141
12.0
290
     0
  0
SCALE
  5
64
102
{ACAD_REACTORS
330
47
102
}
330
47
100
AcDbScale
 70
     0
300
1" = 1'-0"
140
1.0
141
12.0
290
     0
  0
SCALE
  5
65
102
{ACAD_REACTORS
330
47
102
}
330
47
100
AcDbScale
 70
     0
300
1-1/2" = 1'-0"
140
1.5
141
12.0
290
     0
  0
SCALE
  5
66
102
{ACAD_REACTORS
330
47
102
}
330
47
100
AcDbScale
 70
     0
300
3" = 1'-0"
140
3.0
141
12.0
290
     0
  0
SCALE
  5
67
102
{ACAD_REACTORS
330
47
102
}
330
47
100
AcDbScale
 70
     0
300
6" = 1'-0"
140
6.0
141
12.0
290
     0
  0
SCALE
  5
68
102
{ACAD_REACTORS
330
47
102
}
330
47
100
AcDbScale
 70
     0
300
1'-0" = 1'-0"
140
12.0
141
12.0
290
     0
  0
TABLESTYLE
  5
6A
102
{ACAD_REACTORS
330
69
102
}
102
{ACAD_XDICTIONARY
360
263
102
}
330
69
100
AcDbTableStyle
  3
Standard
 70
     0
 71
     0
 40
0.06
 41
0.06
280
     0
281
     0
  7
Standard
140
0.18
170
     2
 62
     0
 63
   257
283
     0
 90
        4
 91
        0
  1

274
    -2
284
     1
 64
     0
275
    -2
285
     1
 65
     0
276
    -2
286
     1
 66
     0
277
    -2
287
     1
 67
     0
278
    -2
288
     1
 68
     0
279
    -2
289
     1
 69
     0
  7
Standard
140
0.25
170
     5
 62
     0
 63
   257
283
     0
 90
        4
 91
        0
  1

274
    -2
284
     1
 64
     0
275
    -2
285
     1
 65
     0
276
    -2
286
     1
 66
     0
277
    -2
287
     1
 67
     0
278
    -2
288
     1
 68
     0
279
    -2
289
     1
 69
     0
  7
Standard
140
0.18
170
     5
 62
     0
 63
   257
283
     0
 90
        4
 91
        0
  1

274
    -2
284
     1
 64
     0
275
    -2
285
     1
 65
     0
276
    -2
286
     1
 66
     0
277
    -2
287
     1
 67
     0
278
    -2
288
     1
 68
     0
279
    -2
289
     1
 69
     0
  0
VISUALSTYLE
  5
2F
102
{ACAD_REACTORS
330
2A
102
}
330
2A
100
AcDbVisualStyle
  2
2dWireframe
 70
     4
177
     3
291
     0
 70
    58
 90
        0
176
     1
 90
        2
176
     1
 90
        0
176
     1
 90
        0
176
     1
 40
0.6
176
     1
 40
30.0
176
     1
 62
     7
420
 16777215
176
     1
 90
        1
176
     1
 90
        4
176
     1
 62
     7
176
     1
 62
   257
176
     1
 90
        1
176
     1
 90
        1
176
     1
 40
1.0
176
     1
 90
        0
176
     1
 62
   257
176
     1
 40
1.0
176
     1
 90
        1
176
     1
 90
        6
176
     1
 90
        2
176
     1
 62
     7
176
     1
 90
        5
176
     1
 90
        0
176
     1
 90
        0
176
     1
290
     0
176
     1
 90
        1
176
     1
 40
0.0
176
     1
 90
        0
176
     1
290
     1
176
     1
290
     1
176
     1
290
     0
176
     1
290
     0
176
     1
290
     0
176
     1
290
     0
176
     1
290
     0
176
     1
290
     0
176
     1
290
     0
176
     1
 90
       50
176
     1
 40
0.0
176
     1
 40
1.0
176
     1
 90
        0
176
     1
 62
    18
420
        0
176
     1
 90
       50
176
     1
 90
        3
176
     1
 62
     5
420
      255
176
     1
290
     0
176
     1
 90
       50
176
     1
 90
       50
176
     1
 90
       50
176
     1
290
     0
176
     1
 90
       50
176
     1
 62
   256
176
     0
 40
1.0
176
     0
 90
        2
176
     1
  1
strokes_ogs.tif
176
     1
290
     0
176
     1
 40
1.0
176
     1
 40
1.0
176
     1
  0
VISUALSTYLE
  5
32
102
{ACAD_REACTORS
330
2A
102
}
330
2A
100
AcDbVisualStyle
  2
Basic
 70
     7
177
     3
291
     1
 70
    58
 90
        1
176
     1
 90
        0
176
     1
 90
        1
176
     1
 90
        0
176
     1
 40
0.6
176
     1
 40
30.0
176
     1
 62
     7
420
 16777215
176
     1
 90
        0
176
     1
 90
        4
176
     1
 62
     7
176
     1
 62
   257
176
     1
 90
        1
176
     1
 90
        1
176
     1
 40
1.0
176
     1
 90
        8
176
     1
 62
     7
176
     1
 40
1.0
176
     1
 90
        1
176
     1
 90
        6
176
     1
 90
        2
176
     1
 62
     7
176
     1
 90
        5
176
     1
 90
        0
176
     1
 90
        0
176
     1
290
     0
176
     1
 90
        1
176
     1
 40
0.0
176
     1
 90
        0
176
     1
290
     0
176
     1
290
     1
176
     1
290
     1
176
     1
290
     0
176
     1
290
     0
176
     1
290
     0
176
     1
290
     0
176
     1
290
     0
176
     1
290
     0
176
     1
 90
       50
176
     1
 40
0.0
176
     1
 40
1.0
176
     1
 90
        0
176
     1
 62
    18
420
        0
176
     1
 90
       50
176
     1
 90
        3
176
     1
 62
     5
420
      255
176
     1
290
     0
176
     1
 90
       50
176
     1
 90
       50
176
     1
 90
       50
176
     1
290
     0
176
     1
 90
       50
176
     1
 62
   256
176
     0
 40
1.0
176
     0
 90
        2
176
     1
  1
strokes_ogs.tif
176
     1
290
     0
176
     1
 40
1.0
176
     1
 40
1.0
176
     1
  0
VISUALSTYLE
  5
36
102
{ACAD_REACTORS
330
2A
102
}
330
2A
100
AcDbVisualStyle
  2
Brighten
 70
    12
177
     3
291
     1
 70
    58
 90
        2
176
     1
 90
        2
176
     1
 90
        0
176
     1
 90
        0
176
     1
 40
0.6
176
     1
 40
30.0
176
     1
 62
     7
420
 16777215
176
     1
 90
        1
176
     1
 90
        4
176
     1
 62
     7
176
     1
 62
   257
176
     1
 90
        1
176
     1
 90
        1
176
     1
 40
1.0
176
     1
 90
        8
176
     1
 62
     7
176
     1
 40
1.0
176
     1
 90
        1
176
     1
 90
        6
176
     1
 90
        2
176
     1
 62
     7
176
     1
 90
        5
176
     1
 90
        0
176
     1
 90
        0
176
     1
290
     0
176
     1
 90
        1
176
     1
 40
50.0
176
     1
 90
        0
176
     1
290
     0
176
     1
290
     1
176
     1
290
     1
176
     1
290
     0
176
     1
290
     0
176
     1
290
     0
176
     1
290
     0
176
     1
290
     0
176
     1
290
     0
176
     1
 90
       50
176
     1
 40
0.0
176
     1
 40
1.0
176
     1
 90
        0
176
     1
 62
    18
420
        0
176
     1
 90
       50
176
     1
 90
        3
176
     1
 62
     5
420
      255
176
     1
290
     0
176
     1
 90
       50
176
     1
 90
       50
176
     1
 90
       50
176
     1
290
     0
176
     1
 90
       50
176
     1
 62
   256
176
     0
 40
1.0
176
     0
 90
        2
176
     1
  1
strokes_ogs.tif
176
     1
290
     0
176
     1
 40
1.0
176
     1
 40
1.0
176
     1
  0
VISUALSTYLE
  5
3A
102
{ACAD_REACTORS
330
2A
102
}
330
2A
100
AcDbVisualStyle
  2
ColorChange
 70
    16
177
     3
291
     1
 70
    58
 90
        2
176
     1
 90
        2
176
     1
 90
        3
176
     1
 90
        0
176
     1
 40
0.6
176
     1
 40
30.0
176
     1
 62
     8
420
  8421504
176
     1
 90
        1
176
     1
 90
        4
176
     1
 62
     7
176
     1
 62
   257
176
     1
 90
        1
176
     1
 90
        1
176
     1
 40
1.0
176
     1
 90
        8
176
     1
 62
     8
420
  8421504
176
     1
 40
1.0
176
     1
 90
        1
176
     1
 90
        6
176
     1
 90
        2
176
     1
 62
     7
176
     1
 90
        5
176
     1
 90
        0
176
     1
 90
        0
176
     1
290
     0
176
     1
 90
        1
176
     1
 40
0.0
176
     1
 90
        0
176
     1
290
     0
176
     1
290
     1
176
     1
290
     1
176
     1
290
     0
176
     1
290
     0
176
     1
290
     0
176
     1
290
     0
176
     1
290
     0
176
     1
290
     0
176
     1
 90
       50
176
     1
 40
0.0
176
     1
 40
1.0
176
     1
 90
        0
176
     1
 62
    18
420
        0
176
     1
 90
       50
176
     1
 90
        3
176
     1
 62
     5
420
      255
176
     1
290
     0
176
     1
 90
       50
176
     1
 90
       50
176
     1
 90
       50
176
     1
290
     0
176
     1
 90
       50
176
     1
 62
   256
176
     0
 40
1.0
176
     0
 90
        2
176
     1
  1
strokes_ogs.tif
176
     1
290
     0
176
     1
 40
1.0
176
     1
 40
1.0
176
     1
  0
VISUALSTYLE
  5
34
102
{ACAD_REACTORS
330
2A
102
}
330
2A
100
AcDbVisualStyle
  2
Conceptual
 70
     9
177
     3
291
     0
 70
    58
 90
        3
176
     1
 90
        2
176
     1
 90
        0
176
     1
 90
        0
176
     1
 40
0.6
176
     1
 40
30.0
176
     1
 62
     7
420
 16777215
176
     1
 90
        2
176
     1
 90
        2
176
     1
 62
     7
176
     1
 62
   257
176
     1
 90
        1
176
     1
 90
        1
176
     1
 40
179.0
176
     1
 90
        8
176
     1
 62
     7
176
     1
 40
1.0
176
     1
 90
        1
176
     1
 90
        6
176
     1
 90
        2
176
     1
 62
     7
176
     1
 90
        3
176
     1
 90
        0
176
     1
 90
        0
176
     1
290
     0
176
     1
 90
        1
176
     1
 40
0.0
176
     1
 90
        0
176
     1
290
     0
176
     1
290
     1
176
     1
290
     1
176
     1
290
     0
176
     1
290
     0
176
     1
290
     0
176
     1
290
     0
176
     1
290
     0
176
     1
290
     0
176
     1
 90
       50
176
     1
 40
0.0
176
     1
 40
1.0
176
     1
 90
        0
176
     1
 62
    18
420
        0
176
     1
 90
       50
176
     1
 90
        3
176
     1
 62
     5
420
      255
176
     1
290
     0
176
     1
 90
       50
176
     1
 90
       50
176
     1
 90
       50
176
     1
290
     0
176
     1
 90
       50
176
     1
 62
   256
176
     0
 40
1.0
176
     0
 90
        2
176
     1
  1
strokes_ogs.tif
176
     1
290
     0
176
     1
 40
1.0
176
     1
 40
1.0
176
     1
  0
VISUALSTYLE
  5
35
102
{ACAD_REACTORS
330
2A
102
}
330
2A
100
AcDbVisualStyle
  2
Dim
 70
    11
177
     3
291
     1
 70
    58
 90
        2
176
     1
 90
        2
176
     1
 90
        0
176
     1
 90
        0
176
     1
 40
0.6
176
     1
 40
30.0
176
     1
 62
     7
420
 16777215
176
     1
 90
        1
176
     1
 90
        4
176
     1
 62
     7
176
     1
 62
   257
176
     1
 90
        1
176
     1
 90
        1
176
     1
 40
1.0
176
     1
 90
        8
176
     1
 62
     7
176
     1
 40
1.0
176
     1
 90
        1
176
     1
 90
        6
176
     1
 90
        2
176
     1
 62
     7
176
     1
 90
        5
176
     1
 90
        0
176
     1
 90
        0
176
     1
290
     0
176
     1
 90
        1
176
     1
 40
-50.0
176
     1
 90
        0
176
     1
290
     0
176
     1
290
     1
176
     1
290
     1
176
     1
290
     0
176
     1
290
     0
176
     1
290
     0
176
     1
290
     0
176
     1
290
     0
176
     1
290
     0
176
     1
 90
       50
176
     1
 40
0.0
176
     1
 40
1.0
176
     1
 90
        0
176
     1
 62
    18
420
        0
176
     1
 90
       50
176
     1
 90
        3
176
     1
 62
     5
420
      255
176
     1
290
     0
176
     1
 90
       50
176
     1
 90
       50
176
     1
 90
       50
176
     1
290
     0
176
     1
 90
       50
176
     1
 62
   256
176
     0
 40
1.0
176
     0
 90
        2
176
     1
  1
strokes_ogs.tif
176
     1
290
     0
176
     1
 40
1.0
176
     1
 40
1.0
176
     1
  0
VISUALSTYLE
  5
3D
102
{ACAD_REACTORS
330
2A
102
}
330
2A
100
AcDbVisualStyle
  2
EdgeColorOff
 70
    22
177
     3
291
     1
 70
    58
 90
        2
176
     0
 90
        2
176
     0
 90
        0
176
     0
 90
        0
176
     0
 40
0.6
176
     0
 40
30.0
176
     0
 62
     7
420
 16777215
176
     0
 90
        1
176
     0
 90
        4
176
     0
 62
     7
176
     0
 62
   257
176
     0
 90
        1
176
     0
 90
        1
176
     0
 40
1.0
176
     0
 90
        8
176
     2
 62
     7
176
     0
 40
1.0
176
     0
 90
        1
176
     0
 90
        6
176
     0
 90
        2
176
     0
 62
     7
176
     0
 90
        5
176
     0
 90
        0
176
     0
 90
        0
176
     0
290
     0
176
     0
 90
        1
176
     0
 40
0.0
176
     0
 90
        0
176
     0
290
     0
176
     0
290
     1
176
     0
290
     1
176
     0
290
     0
176
     0
290
     0
176
     0
290
     0
176
     0
290
     0
176
     0
290
     0
176
     0
290
     0
176
     0
 90
       50
176
     0
 40
0.0
176
     0
 40
1.0
176
     0
 90
        0
176
     0
 62
    18
420
        0
176
     0
 90
       50
176
     0
 90
        3
176
     0
 62
     5
420
      255
176
     0
290
     0
176
     0
 90
       50
176
     0
 90
       50
176
     0
 90
       50
176
     0
290
     0
176
     0
 90
       50
176
     0
 62
   256
176
     0
 40
1.0
176
     0
 90
        2
176
     0
  1
strokes_ogs.tif
176
     0
290
     0
176
     0
 40
1.0
176
     0
 40
1.0
176
     0
  0
VISUALSTYLE
  5
39
102
{ACAD_REACTORS
330
2A
102
}
330
2A
100
AcDbVisualStyle
  2
Facepattern
 70
    15
177
     3
291
     1
 70
    58
 90
        2
176
     1
 90
        2
176
     1
 90
        0
176
     1
 90
        0
176
     1
 40
0.6
176
     1
 40
30.0
176
     1
 62
     7
420
 16777215
176
     1
 90
        1
176
     1
 90
        4
176
     1
 62
     7
176
     1
 62
   257
176
     1
 90
        1
176
     1
 90
        1
176
     1
 40
1.0
176
     1
 90
        8
176
     1
 62
     7
176
     1
 40
1.0
176
     1
 90
        1
176
     1
 90
        6
176
     1
 90
        2
176
     1
 62
     7
176
     1
 90
        5
176
     1
 90
        0
176
     1
 90
        0
176
     1
290
     0
176
     1
 90
        1
176
     1
 40
0.0
176
     1
 90
        0
176
     1
290
     0
176
     1
290
     1
176
     1
290
     1
176
     1
290
     0
176
     1
290
     0
176
     1
290
     0
176
     1
290
     0
176
     1
290
     0
176
     1
290
     0
176
     1
 90
       50
176
     1
 40
0.0
176
     1
 40
1.0
176
     1
 90
        0
176
     1
 62
    18
420
        0
176
     1
 90
       50
176
     1
 90
        3
176
     1
 62
     5
420
      255
176
     1
290
     0
176
     1
 90
       50
176
     1
 90
       50
176
     1
 90
       50
176
     1
290
     0
176
     1
 90
       50
176
     1
 62
   256
176
     0
 40
1.0
176
     0
 90
        2
176
     1
  1
strokes_ogs.tif
176
     1
290
     0
176
     1
 40
1.0
176
     1
 40
1.0
176
     1
  0
VISUALSTYLE
  5
2B
102
{ACAD_REACTORS
330
2A
102
}
330
2A
100
AcDbVisualStyle
  2
Flat
 70
     0
177
     3
291
     1
 70
    58
 90
        2
176
     1
 90
        1
176
     1
 90
        1
176
     1
 90
        2
176
     1
 40
0.6
176
     1
 40
30.0
176
     1
 62
     7
420
 16777215
176
     1
 90
        0
176
     1
 90
        0
176
     1
 62
     7
176
     1
 62
   257
176
     1
 90
        1
176
     1
 90
        1
176
     1
 40
1.0
176
     1
 90
        8
176
     1
 62
     7
176
     1
 40
1.0
176
     1
 90
        1
176
     1
 90
        6
176
     1
 90
        2
176
     1
 62
     7
176
     1
 90
        5
176
     1
 90
        0
176
     1
 90
        0
176
     1
290
     0
176
     1
 90
       13
176
     1
 40
0.0
176
     1
 90
        0
176
     1
290
     0
176
     1
290
     1
176
     1
290
     1
176
     1
290
     0
176
     1
290
     0
176
     1
290
     0
176
     1
290
     0
176
     1
290
     0
176
     1
290
     0
176
     1
 90
       50
176
     1
 40
0.0
176
     1
 40
1.0
176
     1
 90
        0
176
     1
 62
    18
420
        0
176
     1
 90
       50
176
     1
 90
        3
176
     1
 62
     5
420
      255
176
     1
290
     0
176
     1
 90
       50
176
     1
 90
       50
176
     1
 90
       50
176
     1
290
     0
176
     1
 90
       50
176
     1
 62
   256
176
     0
 40
1.0
176
     0
 90
        2
176
     1
  1
strokes_ogs.tif
176
     1
290
     0
176
     1
 40
1.0
176
     1
 40
1.0
176
     1
  0
VISUALSTYLE
  5
2C
102
{ACAD_REACTORS
330
2A
102
}
330
2A
100
AcDbVisualStyle
  2
FlatWithEdges
 70
     1
177
     3
291
     1
 70
    58
 90
        2
176
     1
 90
        1
176
     1
 90
        1
176
     1
 90
        2
176
     1
 40
0.6
176
     1
 40
30.0
176
     1
 62
     7
420
 16777215
176
     1
 90
        1
176
     1
 90
        0
176
     1
 62
     7
176
     1
 62
   257
176
     1
 90
        1
176
     1
 90
        1
176
     1
 40
1.0
176
     1
 90
        0
176
     1
 62
   257
176
     1
 40
1.0
176
     1
 90
        1
176
     1
 90
        6
176
     1
 90
        2
176
     1
 62
     7
176
     1
 90
        5
176
     1
 90
        0
176
     1
 90
        0
176
     1
290
     0
176
     1
 90
       13
176
     1
 40
0.0
176
     1
 90
        0
176
     1
290
     0
176
     1
290
     1
176
     1
290
     1
176
     1
290
     0
176
     1
290
     0
176
     1
290
     0
176
     1
290
     0
176
     1
290
     0
176
     1
290
     0
176
     1
 90
       50
176
     1
 40
0.0
176
     1
 40
1.0
176
     1
 90
        0
176
     1
 62
    18
420
        0
176
     1
 90
       50
176
     1
 90
        3
176
     1
 62
     5
420
      255
176
     1
290
     0
176
     1
 90
       50
176
     1
 90
       50
176
     1
 90
       50
176
     1
290
     0
176
     1
 90
       50
176
     1
 62
   256
176
     0
 40
1.0
176
     0
 90
        2
176
     1
  1
strokes_ogs.tif
176
     1
290
     0
176
     1
 40
1.0
176
     1
 40
1.0
176
     1
  0
VISUALSTYLE
  5
2D
102
{ACAD_REACTORS
330
2A
102
}
330
2A
100
AcDbVisualStyle
  2
Gouraud
 70
     2
177
     3
291
     1
 70
    58
 90
        2
176
     1
 90
        2
176
     1
 90
        1
176
     1
 90
        2
176
     1
 40
0.6
176
     1
 40
30.0
176
     1
 62
     7
420
 16777215
176
     1
 90
        0
176
     1
 90
        0
176
     1
 62
     7
176
     1
 62
   257
176
     1
 90
        1
176
     1
 90
        1
176
     1
 40
1.0
176
     1
 90
        0
176
     1
 62
     7
176
     1
 40
1.0
176
     1
 90
        1
176
     1
 90
        6
176
     1
 90
        2
176
     1
 62
     7
176
     1
 90
        5
176
     1
 90
        0
176
     1
 90
        0
176
     1
290
     0
176
     1
 90
       13
176
     1
 40
0.0
176
     1
 90
        0
176
     1
290
     0
176
     1
290
     1
176
     1
290
     1
176
     1
290
     0
176
     1
290
     0
176
     1
290
     0
176
     1
290
     0
176
     1
290
     0
176
     1
290
     0
176
     1
 90
       50
176
     1
 40
0.0
176
     1
 40
1.0
176
     1
 90
        0
176
     1
 62
    18
420
        0
176
     1
 90
       50
176
     1
 90
        3
176
     1
 62
     5
420
      255
176
     1
290
     0
176
     1
 90
       50
176
     1
 90
       50
176
     1
 90
       50
176
     1
290
     0
176
     1
 90
       50
176
     1
 62
   256
176
     0
 40
1.0
176
     0
 90
        2
176
     1
  1
strokes_ogs.tif
176
     1
290
     0
176
     1
 40
1.0
176
     1
 40
1.0
176
     1
  0
VISUALSTYLE
  5
2E
102
{ACAD_REACTORS
330
2A
102
}
330
2A
100
AcDbVisualStyle
  2
GouraudWithEdges
 70
     3
177
     3
291
     1
 70
    58
 90
        2
176
     1
 90
        2
176
     1
 90
        1
176
     1
 90
        2
176
     1
 40
0.6
176
     1
 40
30.0
176
     1
 62
     7
420
 16777215
176
     1
 90
        1
176
     1
 90
        0
176
     1
 62
     7
176
     1
 62
   257
176
     1
 90
        1
176
     1
 90
        1
176
     1
 40
1.0
176
     1
 90
        0
176
     1
 62
   257
176
     1
 40
1.0
176
     1
 90
        1
176
     1
 90
        6
176
     1
 90
        2
176
     1
 62
     7
176
     1
 90
        5
176
     1
 90
        0
176
     1
 90
        0
176
     1
290
     0
176
     1
 90
       13
176
     1
 40
0.0
176
     1
 90
        0
176
     1
290
     0
176
     1
290
     1
176
     1
290
     1
176
     1
290
     0
176
     1
290
     0
176
     1
290
     0
176
     1
290
     0
176
     1
290
     0
176
     1
290
     0
176
     1
 90
       50
176
     1
 40
0.0
176
     1
 40
1.0
176
     1
 90
        0
176
     1
 62
    18
420
        0
176
     1
 90
       50
176
     1
 90
        3
176
     1
 62
     5
420
      255
176
     1
290
     0
176
     1
 90
       50
176
     1
 90
       50
176
     1
 90
       50
176
     1
290
     0
176
     1
 90
       50
176
     1
 62
   256
176
     0
 40
1.0
176
     0
 90
        2
176
     1
  1
strokes_ogs.tif
176
     1
290
     0
176
     1
 40
1.0
176
     1
 40
1.0
176
     1
  0
VISUALSTYLE
  5
31
102
{ACAD_REACTORS
330
2A
102
}
330
2A
100
AcDbVisualStyle
  2
Hidden
 70
     6
177
     3
291
     0
 70
    58
 90
        1
176
     1
 90
        2
176
     1
 90
        2
176
     1
 90
        0
176
     1
 40
0.6
176
     1
 40
30.0
176
     1
 62
     7
420
 16777215
176
     1
 90
        2
176
     1
 90
        2
176
     1
 62
     7
176
     1
 62
   257
176
     1
 90
        2
176
     1
 90
        1
176
     1
 40
40.0
176
     1
 90
        0
176
     1
 62
   257
176
     1
 40
1.0
176
     1
 90
        1
176
     1
 90
        6
176
     1
 90
        2
176
     1
 62
     7
176
     1
 90
        3
176
     1
 90
        0
176
     1
 90
        0
176
     1
290
     0
176
     1
 90
        1
176
     1
 40
0.0
176
     1
 90
        0
176
     1
290
     0
176
     1
290
     1
176
     1
290
     1
176
     1
290
     0
176
     1
290
     0
176
     1
290
     0
176
     1
290
     0
176
     1
290
     0
176
     1
290
     0
176
     1
 90
       50
176
     1
 40
0.0
176
     1
 40
1.0
176
     1
 90
        0
176
     1
 62
    18
420
        0
176
     1
 90
       50
176
     1
 90
        3
176
     1
 62
     5
420
      255
176
     1
290
     0
176
     1
 90
       50
176
     1
 90
       50
176
     1
 90
       50
176
     1
290
     0
176
     1
 90
       50
176
     1
 62
   256
176
     0
 40
1.0
176
     0
 90
        2
176
     1
  1
strokes_ogs.tif
176
     1
290
     0
176
     1
 40
1.0
176
     1
 40
1.0
176
     1
  0
VISUALSTYLE
  5
3B
102
{ACAD_REACTORS
330
2A
102
}
330
2A
100
AcDbVisualStyle
  2
JitterOff
 70
    20
177
     3
291
     1
 70
    58
 90
        2
176
     0
 90
        2
176
     0
 90
        0
176
     0
 90
        0
176
     0
 40
0.6
176
     0
 40
30.0
176
     0
 62
     7
420
 16777215
176
     0
 90
        1
176
     0
 90
        4
176
     0
 62
     7
176
     0
 62
   257
176
     0
 90
        1
176
     0
 90
        1
176
     0
 40
1.0
176
     0
 90
       10
176
     2
 62
     7
176
     0
 40
1.0
176
     0
 90
        1
176
     0
 90
        6
176
     0
 90
        2
176
     0
 62
     7
176
     0
 90
        5
176
     0
 90
        0
176
     0
 90
        0
176
     0
290
     0
176
     0
 90
        1
176
     0
 40
0.0
176
     0
 90
        0
176
     0
290
     0
176
     0
290
     1
176
     0
290
     1
176
     0
290
     0
176
     0
290
     0
176
     0
290
     0
176
     0
290
     0
176
     0
290
     0
176
     0
290
     0
176
     0
 90
       50
176
     0
 40
0.0
176
     0
 40
1.0
176
     0
 90
        0
176
     0
 62
    18
420
        0
176
     0
 90
       50
176
     0
 90
        3
176
     0
 62
     5
420
      255
176
     0
290
     0
176
     0
 90
       50
176
     0
 90
       50
176
     0
 90
       50
176
     0
290
     0
176
     0
 90
       50
176
     0
 62
   256
176
     0
 40
1.0
176
     0
 90
        2
176
     0
  1
strokes_ogs.tif
176
     0
290
     0
176
     0
 40
1.0
176
     0
 40
1.0
176
     0
  0
VISUALSTYLE
  5
38
102
{ACAD_REACTORS
330
2A
102
}
330
2A
100
AcDbVisualStyle
  2
Linepattern
 70
    14
177
     3
291
     1
 70
    58
 90
        2
176
     1
 90
        2
176
     1
 90
        0
176
     1
 90
        0
176
     1
 40
0.6
176
     1
 40
30.0
176
     1
 62
     7
420
 16777215
176
     1
 90
        1
176
     1
 90
        4
176
     1
 62
     7
176
     1
 62
   257
176
     1
 90
        7
176
     1
 90
        7
176
     1
 40
1.0
176
     1
 90
        8
176
     1
 62
     7
176
     1
 40
1.0
176
     1
 90
        1
176
     1
 90
        6
176
     1
 90
        2
176
     1
 62
     7
176
     1
 90
        5
176
     1
 90
        0
176
     1
 90
        0
176
     1
290
     0
176
     1
 90
        1
176
     1
 40
0.0
176
     1
 90
        0
176
     1
290
     0
176
     1
290
     1
176
     1
290
     1
176
     1
290
     0
176
     1
290
     0
176
     1
290
     0
176
     1
290
     0
176
     1
290
     0
176
     1
290
     0
176
     1
 90
       50
176
     1
 40
0.0
176
     1
 40
1.0
176
     1
 90
        0
176
     1
 62
    18
420
        0
176
     1
 90
       50
176
     1
 90
        3
176
     1
 62
     5
420
      255
176
     1
290
     0
176
     1
 90
       50
176
     1
 90
       50
176
     1
 90
       50
176
     1
290
     0
176
     1
 90
       50
176
     1
 62
   256
176
     0
 40
1.0
176
     0
 90
        2
176
     1
  1
strokes_ogs.tif
176
     1
290
     0
176
     1
 40
1.0
176
     1
 40
1.0
176
     1
  0
VISUALSTYLE
  5
3C
102
{ACAD_REACTORS
330
2A
102
}
330
2A
100
AcDbVisualStyle
  2
OverhangOff
 70
    21
177
     3
291
     1
 70
    58
 90
        2
176
     0
 90
        2
176
     0
 90
        0
176
     0
 90
        0
176
     0
 40
0.6
176
     0
 40
30.0
176
     0
 62
     7
420
 16777215
176
     0
 90
        1
176
     0
 90
        4
176
     0
 62
     7
176
     0
 62
   257
176
     0
 90
        1
176
     0
 90
        1
176
     0
 40
1.0
176
     0
 90
        9
176
     2
 62
     7
176
     0
 40
1.0
176
     0
 90
        1
176
     0
 90
        6
176
     0
 90
        2
176
     0
 62
     7
176
     0
 90
        5
176
     0
 90
        0
176
     0
 90
        0
176
     0
290
     0
176
     0
 90
        1
176
     0
 40
0.0
176
     0
 90
        0
176
     0
290
     0
176
     0
290
     1
176
     0
290
     1
176
     0
290
     0
176
     0
290
     0
176
     0
290
     0
176
     0
290
     0
176
     0
290
     0
176
     0
290
     0
176
     0
 90
       50
176
     0
 40
0.0
176
     0
 40
1.0
176
     0
 90
        0
176
     0
 62
    18
420
        0
176
     0
 90
       50
176
     0
 90
        3
176
     0
 62
     5
420
      255
176
     0
290
     0
176
     0
 90
       50
176
     0
 90
       50
176
     0
 90
       50
176
     0
290
     0
176
     0
 90
       50
176
     0
 62
   256
176
     0
 40
1.0
176
     0
 90
        2
176
     0
  1
strokes_ogs.tif
176
     0
290
     0
176
     0
 40
1.0
176
     0
 40
1.0
176
     0
  0
VISUALSTYLE
  5
33
102
{ACAD_REACTORS
330
2A
102
}
330
2A
100
AcDbVisualStyle
  2
Realistic
 70
     8
177
     3
291
     0
 70
    58
 90
        2
176
     1
 90
        3
176
     1
 90
        0
176
     1
 90
        2
176
     1
 40
0.6
176
     1
 40
30.0
176
     1
 62
     7
420
 16777215
176
     1
 90
        0
176
     1
 90
        0
176
     1
 62
     7
176
     1
 62
   257
176
     1
 90
        1
176
     1
 90
        1
176
     1
 40
1.0
176
     1
 90
        8
176
     1
 62
   257
176
     1
 40
1.0
176
     1
 90
        1
176
     1
 90
        6
176
     1
 90
        2
176
     1
 62
     7
176
     1
 90
        3
176
     1
 90
        0
176
     1
 90
        0
176
     1
290
     0
176
     1
 90
       13
176
     1
 40
0.0
176
     1
 90
        0
176
     1
290
     0
176
     1
290
     1
176
     1
290
     1
176
     1
290
     0
176
     1
290
     0
176
     1
290
     0
176
     1
290
     0
176
     1
290
     0
176
     1
290
     0
176
     1
 90
       50
176
     1
 40
0.0
176
     1
 40
1.0
176
     1
 90
        0
176
     1
 62
    18
420
        0
176
     1
 90
       50
176
     1
 90
        3
176
     1
 62
     5
420
      255
176
     1
290
     0
176
     1
 90
       50
176
     1
 90
       50
176
     1
 90
       50
176
     1
290
     0
176
     1
 90
       50
176
     1
 62
   256
176
     0
 40
1.0
176
     0
 90
        2
176
     1
  1
strokes_ogs.tif
176
     1
290
     0
176
     1
 40
1.0
176
     1
 40
1.0
176
     1
  0
VISUALSTYLE
  5
42
102
{ACAD_REACTORS
330
2A
102
}
330
2A
100
AcDbVisualStyle
  2
Shaded
 70
    27
177
     3
291
     0
 70
    58
 90
        2
176
     1
 90
        2
176
     1
 90
        1
176
     1
 90
        2
176
     1
 40
0.6
176
     1
 40
30.0
176
     1
 62
     7
420
 16777215
176
     1
 90
        0
176
     1
 90
        4
176
     1
 62
     7
176
     1
 62
   257
176
     1
 90
        1
176
     1
 90
        1
176
     1
 40
1.0
176
     1
 90
        8
176
     1
 62
   257
176
     1
 40
1.0
176
     1
 90
        1
176
     1
 90
        6
176
     1
 90
        2
176
     1
 62
     8
420
  7895160
176
     1
 90
        3
176
     1
 90
        0
176
     1
 90
        0
176
     1
290
     0
176
     1
 90
        5
176
     1
 40
0.0
176
     1
 90
        0
176
     1
290
     0
176
     1
290
     1
176
     1
290
     1
176
     1
290
     0
176
     1
290
     0
176
     1
290
     0
176
     1
290
     0
176
     1
290
     0
176
     1
290
     0
176
     1
 90
       50
176
     1
 40
0.0
176
     1
 40
1.0
176
     1
 90
        0
176
     1
 62
    18
420
        0
176
     1
 90
       50
176
     1
 90
        3
176
     1
 62
     5
420
      255
176
     1
290
     0
176
     1
 90
       50
176
     1
 90
       50
176
     1
 90
       50
176
     1
290
     0
176
     1
 90
       50
176
     1
 62
   256
176
     0
 40
1.0
176
     0
 90
        2
176
     1
  1
strokes_ogs.tif
176
     1
290
     0
176
     1
 40
1.0
176
     1
 40
1.0
176
     1
  0
VISUALSTYLE
  5
41
102
{ACAD_REACTORS
330
2A
102
}
330
2A
100
AcDbVisualStyle
  2
Shaded with edges
 70
    26
177
     3
291
     0
 70
    58
 90
        2
176
     1
 90
        2
176
     1
 90
        1
176
     1
 90
        2
176
     1
 40
0.6
176
     1
 40
30.0
176
     1
 62
     7
420
 16777215
176
     1
 90
        1
176
     1
 90
       10
176
     1
 62
     7
176
     1
 62
   257
176
     1
 90
        2
176
     1
 90
        1
176
     1
 40
1.0
176
     1
 90
        8
176
     1
 62
   257
176
     1
 40
1.0
176
     1
 90
        1
176
     1
 90
        6
176
     1
 90
        2
176
     1
 62
     7
176
     1
 90
        3
176
     1
 90
        0
176
     1
 90
        0
176
     1
290
     0
176
     1
 90
        5
176
     1
 40
0.0
176
     1
 90
        0
176
     1
290
     0
176
     1
290
     1
176
     1
290
     1
176
     1
290
     0
176
     1
290
     0
176
     1
290
     0
176
     1
290
     0
176
     1
290
     0
176
     1
290
     0
176
     1
 90
       50
176
     1
 40
0.0
176
     1
 40
1.0
176
     1
 90
        0
176
     1
 62
    18
420
        0
176
     1
 90
       50
176
     1
 90
        3
176
     1
 62
     5
420
      255
176
     1
290
     0
176
     1
 90
       50
176
     1
 90
       50
176
     1
 90
       50
176
     1
290
     0
176
     1
 90
       50
176
     1
 62
   256
176
     0
 40
1.0
176
     0
 90
        2
176
     1
  1
strokes_ogs.tif
176
     1
290
     0
176
     1
 40
1.0
176
     1
 40
1.0
176
     1
  0
VISUALSTYLE
  5
3E
102
{ACAD_REACTORS
330
2A
102
}
330
2A
100
AcDbVisualStyle
  2
Shades of Gray
 70
    23
177
     3
291
     0
 70
    58
 90
        2
176
     1
 90
        2
176
     1
 90
        3
176
     1
 90
        0
176
     1
 40
0.6
176
     1
 40
30.0
176
     1
 62
     7
420
 16777215
176
     1
 90
        2
176
     1
 90
        2
176
     1
 62
     7
176
     1
 62
     7
176
     1
 90
        1
176
     1
 90
        1
176
     1
 40
40.0
176
     1
 90
        8
176
     1
 62
     7
176
     1
 40
1.0
176
     1
 90
        1
176
     1
 90
        6
176
     1
 90
        2
176
     1
 62
     7
176
     1
 90
        3
176
     1
 90
        0
176
     1
 90
        0
176
     1
290
     0
176
     1
 90
        1
176
     1
 40
0.0
176
     1
 90
        0
176
     1
290
     0
176
     1
290
     1
176
     1
290
     1
176
     1
290
     0
176
     1
290
     0
176
     1
290
     0
176
     1
290
     0
176
     1
290
     0
176
     1
290
     0
176
     1
 90
       50
176
     1
 40
0.0
176
     1
 40
1.0
176
     1
 90
        0
176
     1
 62
    18
420
        0
176
     1
 90
       50
176
     1
 90
        3
176
     1
 62
     5
420
      255
176
     1
290
     0
176
     1
 90
       50
176
     1
 90
       50
176
     1
 90
       50
176
     1
290
     0
176
     1
 90
       50
176
     1
 62
   256
176
     0
 40
1.0
176
     0
 90
        2
176
     1
  1
strokes_ogs.tif
176
     1
290
     0
176
     1
 40
1.0
176
     1
 40
1.0
176
     1
  0
VISUALSTYLE
  5
3F
102
{ACAD_REACTORS
330
2A
102
}
330
2A
100
AcDbVisualStyle
  2
Sketchy
 70
    24
177
     3
291
     0
 70
    58
 90
        1
176
     1
 90
        2
176
     1
 90
        2
176
     1
 90
        0
176
     1
 40
0.6
176
     1
 40
30.0
176
     1
 62
     7
420
 16777215
176
     1
 90
        2
176
     1
 90
        2
176
     1
 62
     7
176
     1
 62
     7
176
     1
 90
        1
176
     1
 90
        1
176
     1
 40
40.0
176
     1
 90
       11
176
     1
 62
     7
176
     1
 40
1.0
176
     1
 90
        1
176
     1
 90
        6
176
     1
 90
        2
176
     1
 62
     7
176
     1
 90
        6
176
     1
 90
        0
176
     1
 90
        0
176
     1
290
     0
176
     1
 90
        1
176
     1
 40
0.0
176
     1
 90
        0
176
     1
290
     0
176
     1
290
     1
176
     1
290
     1
176
     1
290
     0
176
     1
290
     0
176
     1
290
     0
176
     1
290
     0
176
     1
290
     0
176
     1
290
     0
176
     1
 90
       50
176
     1
 40
0.0
176
     1
 40
1.0
176
     1
 90
        0
176
     1
 62
    18
420
        0
176
     1
 90
       50
176
     1
 90
        3
176
     1
 62
     5
420
      255
176
     1
290
     0
176
     1
 90
       50
176
     1
 90
       50
176
     1
 90
       50
176
     1
290
     0
176
     1
 90
       50
176
     1
 62
   256
176
     0
 40
1.0
176
     0
 90
        2
176
     1
  1
strokes_ogs.tif
176
     1
290
     0
176
     1
 40
1.0
176
     1
 40
1.0
176
     1
  0
VISUALSTYLE
  5
37
102
{ACAD_REACTORS
330
2A
102
}
330
2A
100
AcDbVisualStyle
  2
Thicken
 70
    13
177
     3
291
     1
 70
    58
 90
        2
176
     1
 90
        2
176
     1
 90
        0
176
     1
 90
        0
176
     1
 40
0.6
176
     1
 40
30.0
176
     1
 62
     7
420
 16777215
176
     1
 90
        1
176
     1
 90
        4
176
     1
 62
     7
176
     1
 62
   257
176
     1
 90
        1
176
     1
 90
        1
176
     1
 40
1.0
176
     1
 90
       12
176
     1
 62
     7
176
     1
 40
1.0
176
     1
 90
        1
176
     1
 90
        6
176
     1
 90
        2
176
     1
 62
     7
176
     1
 90
        5
176
     1
 90
        0
176
     1
 90
        0
176
     1
290
     0
176
     1
 90
        1
176
     1
 40
0.0
176
     1
 90
        0
176
     1
290
     0
176
     1
290
     1
176
     1
290
     1
176
     1
290
     0
176
     1
290
     0
176
     1
290
     0
176
     1
290
     0
176
     1
290
     0
176
     1
290
     0
176
     1
 90
       50
176
     1
 40
0.0
176
     1
 40
1.0
176
     1
 90
        0
176
     1
 62
    18
420
        0
176
     1
 90
       50
176
     1
 90
        3
176
     1
 62
     5
420
      255
176
     1
290
     0
176
     1
 90
       50
176
     1
 90
       50
176
     1
 90
       50
176
     1
290
     0
176
     1
 90
       50
176
     1
 62
   256
176
     0
 40
1.0
176
     0
 90
        2
176
     1
  1
strokes_ogs.tif
176
     1
290
     0
176
     1
 40
1.0
176
     1
 40
1.0
176
     1
  0
VISUALSTYLE
  5
30
102
{ACAD_REACTORS
330
2A
102
}
330
2A
100
AcDbVisualStyle
  2
Wireframe
 70
     5
177
     3
291
     0
 70
    58
 90
        0
176
     1
 90
        2
176
     1
 90
        0
176
     1
 90
        0
176
     1
 40
0.6
176
     1
 40
30.0
176
     1
 62
     7
420
 16777215
176
     1
 90
        1
176
     1
 90
        4
176
     1
 62
     7
176
     1
 62
   257
176
     1
 90
        1
176
     1
 90
        1
176
     1
 40
1.0
176
     1
 90
        0
176
     1
 62
   257
176
     1
 40
1.0
176
     1
 90
        1
176
     1
 90
        6
176
     1
 90
        2
176
     1
 62
     7
176
     1
 90
        3
176
     1
 90
        0
176
     1
 90
        0
176
     1
290
     0
176
     1
 90
        1
176
     1
 40
0.0
176
     1
 90
        0
176
     1
290
     0
176
     1
290
     1
176
     1
290
     1
176
     1
290
     0
176
     1
290
     0
176
     1
290
     0
176
     1
290
     0
176
     1
290
     0
176
     1
290
     0
176
     1
 90
       50
176
     1
 40
0.0
176
     1
 40
1.0
176
     1
 90
        0
176
     1
 62
    18
420
        0
176
     1
 90
       50
176
     1
 90
        3
176
     1
 62
     5
420
      255
176
     1
290
     0
176
     1
 90
       50
176
     1
 90
       50
176
     1
 90
       50
176
     1
290
     0
176
     1
 90
       50
176
     1
 62
   256
176
     0
 40
1.0
176
     0
 90
        2
176
     1
  1
strokes_ogs.tif
176
     1
290
     0
176
     1
 40
1.0
176
     1
 40
1.0
176
     1
  0
VISUALSTYLE
  5
40
102
{ACAD_REACTORS
330
2A
102
}
330
2A
100
AcDbVisualStyle
  2
X-Ray
 70
    25
177
     3
291
     0
 70
    58
 90
        2
176
     1
 90
        2
176
     1
 90
        1
176
     1
 90
        1
176
     1
 40
0.5
176
     1
 40
30.0
176
     1
 62
     7
420
 16777215
176
     1
 90
        1
176
     1
 90
        0
176
     1
 62
     7
176
     1
 62
   257
176
     1
 90
        1
176
     1
 90
        1
176
     1
 40
1.0
176
     1
 90
        8
176
     1
 62
     7
176
     1
 40
1.0
176
     1
 90
        1
176
     1
 90
        6
176
     1
 90
        2
176
     1
 62
     7
176
     1
 90
        3
176
     1
 90
        0
176
     1
 90
        0
176
     1
290
     0
176
     1
 90
       13
176
     1
 40
0.0
176
     1
 90
        0
176
     1
290
     0
176
     1
290
     1
176
     1
290
     1
176
     1
290
     0
176
     1
290
     0
176
     1
290
     0
176
     1
290
     0
176
     1
290
     0
176
     1
290
     0
176
     1
 90
       50
176
     1
 40
0.0
176
     1
 40
1.0
176
     1
 90
        0
176
     1
 62
    18
420
        0
176
     1
 90
       50
176
     1
 90
        3
176
     1
 62
     5
420
      255
176
     1
290
     0
176
     1
 90
       50
176
     1
 90
       50
176
     1
 90
       50
176
     1
290
     0
176
     1
 90
       50
176
     1
 62
   256
176
     0
 40
1.0
176
     0
 90
        2
176
     1
  1
strokes_ogs.tif
176
     1
290
     0
176
     1
 40
1.0
176
     1
 40
1.0
176
     1
  0
DICTIONARYVAR
  5
262
102
{ACAD_REACTORS
330
261
102
}
330
261
100
DictionaryVariables
280
     0
  1
1:1
  0
DICTIONARYVAR
  5
267
102
{ACAD_REACTORS
330
261
102
}
330
261
100
DictionaryVariables
280
     0
  1
Standard
  0
DICTIONARYVAR
  5
266
102
{ACAD_REACTORS
330
261
102
}
330
261
100
DictionaryVariables
280
     0
  1
Standard
  0
DICTIONARY
  5
263
330
6A
100
AcDbDictionary
280
     1
281
     1
  3
ACAD_ROUNDTRIP_2008_TABLESTYLE_CELLSTYLEMAP
360
264
  0
CELLSTYLEMAP
  5
264
102
{ACAD_REACTORS
330
263
102
}
330
263
100
AcDbCellStyleMap
 90
        3
300
CELLSTYLE
  1
TABLEFORMAT_BEGIN
 90
        5
170
     1
 91
        0
 92
    32768
 62
   257
 93
        1
300
CONTENTFORMAT
  1
CONTENTFORMAT_BEGIN
 90
        0
 91
        0
 92
        4
 93
        0
300

 40
0.0
140
1.0
 94
        5
 62
     0
340
11
144
0.25
309
CONTENTFORMAT_END
171
     1
301
MARGIN
  1
CELLMARGIN_BEGIN
 40
0.06
 40
0.06
 40
0.06
 40
0.06
 40
0.06
 40
0.06
309
CELLMARGIN_END
 94
        6
 95
        1
302
GRIDFORMAT
  1
GRIDFORMAT_BEGIN
 90
        0
 91
        1
 62
     0
 92
       -2
340
14
 93
        0
 40
0.045
309
GRIDFORMAT_END
 95
        2
302
GRIDFORMAT
  1
GRIDFORMAT_BEGIN
 90
        0
 91
        1
 62
     0
 92
       -2
340
14
 93
        0
 40
0.045
309
GRIDFORMAT_END
 95
        4
302
GRIDFORMAT
  1
GRIDFORMAT_BEGIN
 90
        0
 91
        1
 62
     0
 92
       -2
340
14
 93
        0
 40
0.045
309
GRIDFORMAT_END
 95
        8
302
GRIDFORMAT
  1
GRIDFORMAT_BEGIN
 90
        0
 91
        1
 62
     0
 92
       -2
340
14
 93
        0
 40
0.045
309
GRIDFORMAT_END
 95
       16
302
GRIDFORMAT
  1
GRIDFORMAT_BEGIN
 90
        0
 91
        1
 62
     0
 92
       -2
340
14
 93
        0
 40
0.045
309
GRIDFORMAT_END
 95
       32
302
GRIDFORMAT
  1
GRIDFORMAT_BEGIN
 90
        0
 91
        1
 62
     0
 92
       -2
340
14
 93
        0
 40
0.045
309
GRIDFORMAT_END
309
TABLEFORMAT_END
  1
CELLSTYLE_BEGIN
 90
        1
 91
        1
300
_TITLE
309
CELLSTYLE_END
300
CELLSTYLE
  1
TABLEFORMAT_BEGIN
 90
        5
170
     1
 91
        0
 92
        0
 62
   257
 93
        1
300
CONTENTFORMAT
  1
CONTENTFORMAT_BEGIN
 90
        0
 91
        0
 92
        4
 93
        0
300

 40
0.0
140
1.0
 94
        5
 62
     0
340
11
144
0.18
309
CONTENTFORMAT_END
171
     1
301
MARGIN
  1
CELLMARGIN_BEGIN
 40
0.06
 40
0.06
 40
0.06
 40
0.06
 40
0.06
 40
0.06
309
CELLMARGIN_END
 94
        6
 95
        1
302
GRIDFORMAT
  1
GRIDFORMAT_BEGIN
 90
        0
 91
        1
 62
     0
 92
       -2
340
14
 93
        0
 40
0.045
309
GRIDFORMAT_END
 95
        2
302
GRIDFORMAT
  1
GRIDFORMAT_BEGIN
 90
        0
 91
        1
 62
     0
 92
       -2
340
14
 93
        0
 40
0.045
309
GRIDFORMAT_END
 95
        4
302
GRIDFORMAT
  1
GRIDFORMAT_BEGIN
 90
        0
 91
        1
 62
     0
 92
       -2
340
14
 93
        0
 40
0.045
309
GRIDFORMAT_END
 95
        8
302
GRIDFORMAT
  1
GRIDFORMAT_BEGIN
 90
        0
 91
        1
 62
     0
 92
       -2
340
14
 93
        0
 40
0.045
309
GRIDFORMAT_END
 95
       16
302
GRIDFORMAT
  1
GRIDFORMAT_BEGIN
 90
        0
 91
        1
 62
     0
 92
       -2
340
14
 93
        0
 40
0.045
309
GRIDFORMAT_END
 95
       32
302
GRIDFORMAT
  1
GRIDFORMAT_BEGIN
 90
        0
 91
        1
 62
     0
 92
       -2
340
14
 93
        0
 40
0.045
309
GRIDFORMAT_END
309
TABLEFORMAT_END
  1
CELLSTYLE_BEGIN
 90
        2
 91
        1
300
_HEADER
309
CELLSTYLE_END
300
CELLSTYLE
  1
TABLEFORMAT_BEGIN
 90
        5
170
     1
 91
        0
 92
        0
 62
   257
 93
        1
300
CONTENTFORMAT
  1
CONTENTFORMAT_BEGIN
 90
        0
 91
        0
 92
        4
 93
        0
300

 40
0.0
140
1.0
 94
        2
 62
     0
340
11
144
0.18
309
CONTENTFORMAT_END
171
     1
301
MARGIN
  1
CELLMARGIN_BEGIN
 40
0.06
 40
0.06
 40
0.06
 40
0.06
 40
0.06
 40
0.06
309
CELLMARGIN_END
 94
        6
 95
        1
302
GRIDFORMAT
  1
GRIDFORMAT_BEGIN
 90
        0
 91
        1
 62
     0
 92
       -2
340
14
 93
        0
 40
0.045
309
GRIDFORMAT_END
 95
        2
302
GRIDFORMAT
  1
GRIDFORMAT_BEGIN
 90
        0
 91
        1
 62
     0
 92
       -2
340
14
 93
        0
 40
0.045
309
GRIDFORMAT_END
 95
        4
302
GRIDFORMAT
  1
GRIDFORMAT_BEGIN
 90
        0
 91
        1
 62
     0
 92
       -2
340
14
 93
        0
 40
0.045
309
GRIDFORMAT_END
 95
        8
302
GRIDFORMAT
  1
GRIDFORMAT_BEGIN
 90
        0
 91
        1
 62
     0
 92
       -2
340
14
 93
        0
 40
0.045
309
GRIDFORMAT_END
 95
       16
302
GRIDFORMAT
  1
GRIDFORMAT_BEGIN
 90
        0
 91
        1
 62
     0
 92
       -2
340
14
 93
        0
 40
0.045
309
GRIDFORMAT_END
 95
       32
302
GRIDFORMAT
  1
GRIDFORMAT_BEGIN
 90
        0
 91
        1
 62
     0
 92
       -2
340
14
 93
        0
 40
0.045
309
GRIDFORMAT_END
309
TABLEFORMAT_END
  1
CELLSTYLE_BEGIN
 90
        3
 91
        2
300
_DATA
309
CELLSTYLE_END
  0
ENDSEC
  0
EOF