0
SECTION
  2
HEADER
  9
$ACADVER
  1
AC1027
  9
$ACADMAINTVER
 70
     8
  9
$DWGCODEPAGE
  3
ANSI_1252
  9
$REQUIREDVERSIONS
160
                 0
  9
$COMMENTS
  1
File was created by Cadenas
  9
$CUSTOMPROPERTYTAG
  1
NN
  9
$CUSTOMPROPERTY
  1
TP Take-Up Trident Seal
  9
$CUSTOMPROPERTYTAG
  1
NT
  9
$CUSTOMPROPERTY
  1
S-2000 TPHU Take-Up Bearing -Inch
  9
$CUSTOMPROPERTYTAG
  1
NB
  9
$CUSTOMPROPERTY
  1
070813
  9
$CUSTOMPROPERTYTAG
  1
NBSYN
  9
$CUSTOMPROPERTY
  1
$PN.
  9
$CUSTOMPROPERTYTAG
  1
LINA
  9
$CUSTOMPROPERTY
  1
070813
  9
$CUSTOMPROPERTYTAG
  1
SS
  9
$CUSTOMPROPERTY
  1
2-3/16
  9
$CUSTOMPROPERTYTAG
  1
PN
  9
$CUSTOMPROPERTY
  1
070813
  9
$CUSTOMPROPERTYTAG
  1
DESCRIPTION
  9
$CUSTOMPROPERTY
  1
TPHU-S2-203R
  9
$CUSTOMPROPERTYTAG
  1
EF
  9
$CUSTOMPROPERTY
  1
Non-Expansion Type
  9
$CUSTOMPROPERTYTAG
  1
ST
  9
$CUSTOMPROPERTY
  1
Contact Seal
  9
$CUSTOMPROPERTYTAG
  1
A
  9
$CUSTOMPROPERTY
  1
2-15/16
  9
$CUSTOMPROPERTYTAG
  1
B
  9
$CUSTOMPROPERTY
  1
2-3/4
  9
$CUSTOMPROPERTYTAG
  1
C
  9
$CUSTOMPROPERTY
  1
13/16
  9
$CUSTOMPROPERTYTAG
  1
D
  9
$CUSTOMPROPERTY
  1
6-1/4
  9
$CUSTOMPROPERTYTAG
  1
E
  9
$CUSTOMPROPERTY
  1
3
  9
$CUSTOMPROPERTYTAG
  1
F
  9
$CUSTOMPROPERTY
  1
1-7/16
  9
$CUSTOMPROPERTYTAG
  1
G
  9
$CUSTOMPROPERTY
  1
9/16
  9
$CUSTOMPROPERTYTAG
  1
H
  9
$CUSTOMPROPERTY
  1
7-1/2
  9
$CUSTOMPROPERTYTAG
  1
J
  9
$CUSTOMPROPERTY
  1
7-5/8
  9
$CUSTOMPROPERTYTAG
  1
K
  9
$CUSTOMPROPERTY
  1
3-1/2
  9
$CUSTOMPROPERTYTAG
  1
L
  9
$CUSTOMPROPERTY
  1
3-3/4
  9
$CUSTOMPROPERTYTAG
  1
M
  9
$CUSTOMPROPERTY
  1
7
  9
$CUSTOMPROPERTYTAG
  1
N
  9
$CUSTOMPROPERTY
  1
1-15/16
  9
$CUSTOMPROPERTYTAG
  1
P
  9
$CUSTOMPROPERTY
  1
1-3/4
  9
$CUSTOMPROPERTYTAG
  1
Q
  9
$CUSTOMPROPERTY
  1
1-1/16
  9
$CUSTOMPROPERTYTAG
  1
R
  9
$CUSTOMPROPERTY
  1
3-25/64
  9
$CUSTOMPROPERTYTAG
  1
S
  9
$CUSTOMPROPERTY
  1
2-1/64
  9
$CUSTOMPROPERTYTAG
  1
T
  9
$CUSTOMPROPERTY
  1
5/16
  9
$CUSTOMPROPERTYTAG
  1
U
  9
$CUSTOMPROPERTY
  1
1-9/16
  9
$CUSTOMPROPERTYTAG
  1
V
  9
$CUSTOMPROPERTY
  1
2-1/4
  9
$CUSTOMPROPERTYTAG
  1
W
  9
$CUSTOMPROPERTY
  1
15/16
  9
$CUSTOMPROPERTYTAG
  1
X
  9
$CUSTOMPROPERTY
  1
1/4
  9
$CUSTOMPROPERTYTAG
  1
Y
  9
$CUSTOMPROPERTY
  1
0.025
  9
$CUSTOMPROPERTYTAG
  1
Z
  9
$CUSTOMPROPERTY
  1
2-19/32
  9
$CUSTOMPROPERTYTAG
  1
COMPANY
  9
$CUSTOMPROPERTY
  1
baldor
  9
$INSBASE
 10
0.0
 20
0.0
 30
0.0
  9
$EXTMIN
 10
1.000000000000000E+20
 20
1.000000000000000E+20
 30
1.000000000000000E+20
  9
$EXTMAX
 10
-1.000000000000000E+20
 20
-1.000000000000000E+20
 30
-1.000000000000000E+20
  9
$LIMMIN
 10
0.0
 20
0.0
  9
$LIMMAX
 10
12.0
 20
9.0
  9
$ORTHOMODE
 70
     0
  9
$REGENMODE
 70
     1
  9
$FILLMODE
 70
     1
  9
$QTEXTMODE
 70
     0
  9
$MIRRTEXT
 70
     1
  9
$LTSCALE
 40
1.0
  9
$ATTMODE
 70
     1
  9
$TEXTSIZE
 40
0.2
  9
$TRACEWID
 40
0.05
  9
$TEXTSTYLE
  7
Standard
  9
$CLAYER
  8
0
  9
$CELTYPE
  6
ByLayer
  9
$CECOLOR
 62
   256
  9
$CELTSCALE
 40
1.0
  9
$DISPSILH
 70
     0
  9
$DIMSCALE
 40
1.0
  9
$DIMASZ
 40
0.18
  9
$DIMEXO
 40
0.0625
  9
$DIMDLI
 40
0.38
  9
$DIMRND
 40
0.0
  9
$DIMDLE
 40
0.0
  9
$DIMEXE
 40
0.18
  9
$DIMTP
 40
0.0
  9
$DIMTM
 40
0.0
  9
$DIMTXT
 40
0.18
  9
$DIMCEN
 40
0.09
  9
$DIMTSZ
 40
0.0
  9
$DIMTOL
 70
     0
  9
$DIMLIM
 70
     0
  9
$DIMTIH
 70
     1
  9
$DIMTOH
 70
     1
  9
$DIMSE1
 70
     0
  9
$DIMSE2
 70
     0
  9
$DIMTAD
 70
     0
  9
$DIMZIN
 70
     0
  9
$DIMBLK
  1

  9
$DIMASO
 70
     1
  9
$DIMSHO
 70
     1
  9
$DIMPOST
  1

  9
$DIMAPOST
  1

  9
$DIMALT
 70
     0
  9
$DIMALTD
 70
     2
  9
$DIMALTF
 40
25.4
  9
$DIMLFAC
 40
1.0
  9
$DIMTOFL
 70
     0
  9
$DIMTVP
 40
0.0
  9
$DIMTIX
 70
     0
  9
$DIMSOXD
 70
     0
  9
$DIMSAH
 70
     0
  9
$DIMBLK1
  1

  9
$DIMBLK2
  1

  9
$DIMSTYLE
  2
Standard
  9
$DIMCLRD
 70
     0
  9
$DIMCLRE
 70
     0
  9
$DIMCLRT
 70
     0
  9
$DIMTFAC
 40
1.0
  9
$DIMGAP
 40
0.09
  9
$DIMJUST
 70
     0
  9
$DIMSD1
 70
     0
  9
$DIMSD2
 70
     0
  9
$DIMTOLJ
 70
     1
  9
$DIMTZIN
 70
     0
  9
$DIMALTZ
 70
     0
  9
$DIMALTTZ
 70
     0
  9
$DIMUPT
 70
     0
  9
$DIMDEC
 70
     4
  9
$DIMTDEC
 70
     4
  9
$DIMALTU
 70
     2
  9
$DIMALTTD
 70
     2
  9
$DIMTXSTY
  7
Standard
  9
$DIMAUNIT
 70
     0
  9
$DIMADEC
 70
     0
  9
$DIMALTRND
 40
0.0
  9
$DIMAZIN
 70
     0
  9
$DIMDSEP
 70
    46
  9
$DIMATFIT
 70
     3
  9
$DIMFRAC
 70
     0
  9
$DIMLDRBLK
  1

  9
$DIMLUNIT
 70
     2
  9
$DIMLWD
 70
    -2
  9
$DIMLWE
 70
    -2
  9
$DIMTMOVE
 70
     0
  9
$DIMFXL
 40
1.0
  9
$DIMFXLON
 70
     0
  9
$DIMJOGANG
 40
0.7853981633974483
  9
$DIMTFILL
 70
     0
  9
$DIMTFILLCLR
 70
     0
  9
$DIMARCSYM
 70
     0
  9
$DIMLTYPE
  6

  9
$DIMLTEX1
  6

  9
$DIMLTEX2
  6

  9
$DIMTXTDIRECTION
 70
     0
  9
$LUNITS
 70
     2
  9
$LUPREC
 70
     4
  9
$SKETCHINC
 40
0.1
  9
$FILLETRAD
 40
0.5
  9
$AUNITS
 70
     0
  9
$AUPREC
 70
     0
  9
$MENU
  1
.
  9
$ELEVATION
 40
0.0
  9
$PELEVATION
 40
0.0
  9
$THICKNESS
 40
0.0
  9
$LIMCHECK
 70
     0
  9
$CHAMFERA
 40
0.0
  9
$CHAMFERB
 40
0.0
  9
$CHAMFERC
 40
0.0
  9
$CHAMFERD
 40
0.0
  9
$SKPOLY
 70
     0
  9
$TDCREATE
 40
2458168.983839468
  9
$TDUCREATE
 40
2458168.942172801
  9
$TDUPDATE
 40
2458168.983839653
  9
$TDUUPDATE
 40
2458168.942172986
  9
$TDINDWG
 40
0.0000000116
  9
$TDUSRTIMER
 40
0.0000000116
  9
$USRTIMER
 70
     1
  9
$ANGBASE
 50
0.0
  9
$ANGDIR
 70
     0
  9
$PDMODE
 70
     0
  9
$PDSIZE
 40
0.0
  9
$PLINEWID
 40
0.0
  9
$SPLFRAME
 70
     0
  9
$SPLINETYPE
 70
     6
  9
$SPLINESEGS
 70
     8
  9
$HANDSEED
  5
243
  9
$SURFTAB1
 70
     6
  9
$SURFTAB2
 70
     6
  9
$SURFTYPE
 70
     6
  9
$SURFU
 70
     6
  9
$SURFV
 70
     6
  9
$UCSBASE
  2

  9
$UCSNAME
  2

  9
$UCSORG
 10
0.0
 20
0.0
 30
0.0
  9
$UCSXDIR
 10
1.0
 20
0.0
 30
0.0
  9
$UCSYDIR
 10
0.0
 20
1.0
 30
0.0
  9
$UCSORTHOREF
  2

  9
$UCSORTHOVIEW
 70
     0
  9
$UCSORGTOP
 10
0.0
 20
0.0
 30
0.0
  9
$UCSORGBOTTOM
 10
0.0
 20
0.0
 30
0.0
  9
$UCSORGLEFT
 10
0.0
 20
0.0
 30
0.0
  9
$UCSORGRIGHT
 10
0.0
 20
0.0
 30
0.0
  9
$UCSORGFRONT
 10
0.0
 20
0.0
 30
0.0
  9
$UCSORGBACK
 10
0.0
 20
0.0
 30
0.0
  9
$PUCSBASE
  2

  9
$PUCSNAME
  2

  9
$PUCSORG
 10
0.0
 20
0.0
 30
0.0
  9
$PUCSXDIR
 10
1.0
 20
0.0
 30
0.0
  9
$PUCSYDIR
 10
0.0
 20
1.0
 30
0.0
  9
$PUCSORTHOREF
  2

  9
$PUCSORTHOVIEW
 70
     0
  9
$PUCSORGTOP
 10
0.0
 20
0.0
 30
0.0
  9
$PUCSORGBOTTOM
 10
0.0
 20
0.0
 30
0.0
  9
$PUCSORGLEFT
 10
0.0
 20
0.0
 30
0.0
  9
$PUCSORGRIGHT
 10
0.0
 20
0.0
 30
0.0
  9
$PUCSORGFRONT
 10
0.0
 20
0.0
 30
0.0
  9
$PUCSORGBACK
 10
0.0
 20
0.0
 30
0.0
  9
$USERI1
 70
     0
  9
$USERI2
 70
     0
  9
$USERI3
 70
     0
  9
$USERI4
 70
     0
  9
$USERI5
 70
     0
  9
$USERR1
 40
0.0
  9
$USERR2
 40
0.0
  9
$USERR3
 40
0.0
  9
$USERR4
 40
0.0
  9
$USERR5
 40
0.0
  9
$WORLDVIEW
 70
     1
  9
$SHADEDGE
 70
     3
  9
$SHADEDIF
 70
    70
  9
$TILEMODE
 70
     1
  9
$MAXACTVP
 70
    64
  9
$PINSBASE
 10
0.0
 20
0.0
 30
0.0
  9
$PLIMCHECK
 70
     0
  9
$PEXTMIN
 10
1.000000000000000E+20
 20
1.000000000000000E+20
 30
1.000000000000000E+20
  9
$PEXTMAX
 10
-1.000000000000000E+20
 20
-1.000000000000000E+20
 30
-1.000000000000000E+20
  9
$PLIMMIN
 10
0.0
 20
0.0
  9
$PLIMMAX
 10
12.0
 20
9.0
  9
$UNITMODE
 70
     0
  9
$VISRETAIN
 70
     1
  9
$PLINEGEN
 70
     0
  9
$PSLTSCALE
 70
     1
  9
$TREEDEPTH
 70
  3020
  9
$CMLSTYLE
  2
Standard
  9
$CMLJUST
 70
     0
  9
$CMLSCALE
 40
1.0
  9
$PROXYGRAPHICS
 70
     1
  9
$MEASUREMENT
 70
     0
  9
$CELWEIGHT
370
    -1
  9
$ENDCAPS
280
     0
  9
$JOINSTYLE
280
     0
  9
$LWDISPLAY
290
     0
  9
$INSUNITS
 70
     1
  9
$HYPERLINKBASE
  1

  9
$STYLESHEET
  1

  9
$XEDIT
290
     1
  9
$CEPSNTYPE
380
     0
  9
$PSTYLEMODE
290
     1
  9
$FINGERPRINTGUID
  2
{983C93A9-4B09-4E96-8193-E942094A28E1}
  9
$VERSIONGUID
  2
{FAEB1C32-E019-11D5-929B-00C0DF256EC4}
  9
$EXTNAMES
290
     1
  9
$PSVPSCALE
 40
0.0
  9
$OLESTARTUP
290
     0
  9
$SORTENTS
280
   127
  9
$INDEXCTL
280
     0
  9
$HIDETEXT
280
     1
  9
$XCLIPFRAME
280
     2
  9
$HALOGAP
280
     0
  9
$OBSCOLOR
 70
   257
  9
$OBSLTYPE
280
     0
  9
$INTERSECTIONDISPLAY
280
     0
  9
$INTERSECTIONCOLOR
 70
   257
  9
$DIMASSOC
280
     2
  9
$PROJECTNAME
  1

  9
$CAMERADISPLAY
290
     0
  9
$LENSLENGTH
 40
50.0
  9
$CAMERAHEIGHT
 40
0.0
  9
$STEPSPERSEC
 40
2.0
  9
$STEPSIZE
 40
6.0
  9
$3DDWFPREC
 40
2.0
  9
$PSOLWIDTH
 40
0.25
  9
$PSOLHEIGHT
 40
4.0
  9
$LOFTANG1
 40
1.570796326794897
  9
$LOFTANG2
 40
1.570796326794897
  9
$LOFTMAG1
 40
0.0
  9
$LOFTMAG2
 40
0.0
  9
$LOFTPARAM
 70
     7
  9
$LOFTNORMALS
280
     1
  9
$LATITUDE
 40
37.795
  9
$LONGITUDE
 40
-122.394
  9
$NORTHDIRECTION
 40
0.0
  9
$TIMEZONE
 70
 -8000
  9
$LIGHTGLYPHDISPLAY
280
     1
  9
$TILEMODELIGHTSYNCH
280
     1
  9
$CMATERIAL
347
44
  9
$SOLIDHIST
280
     0
  9
$SHOWHIST
280
     1
  9
$DWFFRAME
280
     2
  9
$DGNFRAME
280
     2
  9
$REALWORLDSCALE
290
     1
  9
$INTERFERECOLOR
 62
   256
  9
$CSHADOW
280
     0
  9
$SHADOWPLANELOCATION
 40
0.0
  0
ENDSEC
  0
SECTION
  2
CLASSES
  0
CLASS
  1
ACDBDICTIONARYWDFLT
  2
AcDbDictionaryWithDefault
  3
ObjectDBX Classes
 90
        0
 91
        4
280
     0
281
     0
  0
CLASS
  1
VISUALSTYLE
  2
AcDbVisualStyle
  3
ObjectDBX Classes
 90
     4095
 91
        4
280
     0
281
     0
  0
CLASS
  1
MATERIAL
  2
AcDbMaterial
  3
ObjectDBX Classes
 90
     1153
 91
        4
280
     0
281
     0
  0
CLASS
  1
SCALE
  2
AcDbScale
  3
ObjectDBX Classes
 90
     1153
 91
        4
280
     0
281
     0
  0
CLASS
  1
TABLESTYLE
  2
AcDbTableStyle
  3
ObjectDBX Classes
 90
     4095
 91
        4
280
     0
281
     0
  0
CLASS
  1
MLEADERSTYLE
  2
AcDbMLeaderStyle
  3
ACDB_MLEADERSTYLE_CLASS
 90
     4095
 91
        4
280
     0
281
     0
  0
CLASS
  1
SUN
  2
AcDbSun
  3
SCENEOE
 90
     1153
 91
        4
280
     0
281
     0
  0
CLASS
  1
DICTIONARYVAR
  2
AcDbDictionaryVar
  3
ObjectDBX Classes
 90
        0
 91
        4
280
     0
281
     0
  0
CLASS
  1
CELLSTYLEMAP
  2
AcDbCellStyleMap
  3
ObjectDBX Classes
 90
     1152
 91
        4
280
     0
281
     0
  0
ENDSEC
  0
SECTION
  2
TABLES
  0
TABLE
  2
VPORT
  5
8
330
0
100
AcDbSymbolTable
 70
     1
  0
VPORT
  5
29
330
8
100
AcDbSymbolTableRecord
100
AcDbViewportTableRecord
  2
*Active
 70
     0
 10
0.0
 20
0.0
 11
1.0
 21
1.0
 12
-0.1244791666666671
 22
-0.0103906249999994
 13
0.0
 23
0.0
 14
0.5
 24
0.5
 15
0.5
 25
0.5
 16
0.0
 26
0.0
 36
1.0
 17
0.0
 27
0.0
 37
0.0
 40
8.436196874999998
 41
0.5177614468604966
 42
50.0
 43
0.0
 44
0.0
 50
0.0
 51
0.0
 71
     0
 72
   100
 73
     1
 74
     3
 75
     0
 76
     0
 77
     0
 78
     0
281
     0
 65
     1
110
0.0
120
0.0
130
0.0
111
1.0
121
0.0
131
0.0
112
0.0
122
1.0
132
0.0
 79
     0
146
0.0
348
2F
 60
     3
 61
     5
292
     1
282
     1
141
0.0
142
0.0
 63
   250
361
6D
  0
ENDTAB
  0
TABLE
  2
LTYPE
  5
5
330
0
100
AcDbSymbolTable
 70
     3
  0
LTYPE
  5
14
330
5
100
AcDbSymbolTableRecord
100
AcDbLinetypeTableRecord
  2
ByBlock
 70
     0
  3

 72
    65
 73
     0
 40
0.0
  0
LTYPE
  5
15
330
5
100
AcDbSymbolTableRecord
100
AcDbLinetypeTableRecord
  2
ByLayer
 70
     0
  3

 72
    65
 73
     0
 40
0.0
  0
LTYPE
  5
16
330
5
100
AcDbSymbolTableRecord
100
AcDbLinetypeTableRecord
  2
Continuous
 70
     0
  3
Solid line
 72
    65
 73
     0
 40
0.0
  0
LTYPE
  5
A7
330
5
100
AcDbSymbolTableRecord
100
AcDbLinetypeTableRecord
  2
Dashed
 70
     0
  3

 72
    65
 73
     2
 40
2.0
 49
1.0
 74
     0
 49
-1.0
 74
     0
  0
LTYPE
  5
129
330
5
100
AcDbSymbolTableRecord
100
AcDbLinetypeTableRecord
  2
Center
 70
     0
  3

 72
    65
 73
     4
 40
1.5
 49
0.45
 74
     0
 49
-0.5
 74
     0
 49
0.05
 74
     0
 49
-0.5
 74
     0
  0
ENDTAB
  0
TABLE
  2
LAYER
  5
2
330
0
100
AcDbSymbolTable
 70
     7
  0
LAYER
  5
10
330
2
100
AcDbSymbolTableRecord
100
AcDbLayerTableRecord
  2
0
 70
     0
 62
     7
  6
Continuous
370
    -3
390
F
347
46
348
0
  0
LAYER
  5
72
330
2
100
AcDbSymbolTableRecord
100
AcDbLayerTableRecord
  2
AM_6
 70
     0
 62
    -2
  6
Continuous
370
    35
390
F
347
46
348
0
  0
LAYER
  5
A8
330
2
100
AcDbSymbolTableRecord
100
AcDbLayerTableRecord
  2
AM_9
 70
     0
 62
     6
  6
Dashed
370
    25
390
F
347
46
348
0
  0
LAYER
  5
D2
330
2
100
AcDbSymbolTableRecord
100
AcDbLayerTableRecord
  2
AM_4
 70
     0
 62
     7
  6
Continuous
370
    50
390
F
347
46
348
0
  0
LAYER
  5
FA
330
2
100
AcDbSymbolTableRecord
100
AcDbLayerTableRecord
  2
AM_5
 70
     0
 62
     3
  6
Continuous
370
    25
390
F
347
46
348
0
  0
LAYER
  5
12A
330
2
100
AcDbSymbolTableRecord
100
AcDbLayerTableRecord
  2
AM_7
 70
     0
 62
     7
  6
Center
370
    25
390
F
347
46
348
0
  0
LAYER
  5
232
330
2
100
AcDbSymbolTableRecord
100
AcDbLayerTableRecord
  2
ConnectionPoints
 70
     0
 62
     7
  6
Continuous
370
    50
390
F
347
46
348
0
  0
ENDTAB
  0
TABLE
  2
STYLE
  5
3
330
0
100
AcDbSymbolTable
 70
     1
  0
STYLE
  5
11
330
3
100
AcDbSymbolTableRecord
100
AcDbTextStyleTableRecord
  2
Standard
 70
     0
 40
0.0
 41
1.0
 50
0.0
 71
     0
 42
0.2
  3
txt
  4

  0
ENDTAB
  0
TABLE
  2
VIEW
  5
6
330
0
100
AcDbSymbolTable
 70
     0
  0
ENDTAB
  0
TABLE
  2
UCS
  5
7
330
0
100
AcDbSymbolTable
 70
     0
  0
ENDTAB
  0
TABLE
  2
APPID
  5
9
330
0
100
AcDbSymbolTable
 70
     1
  0
APPID
  5
12
330
9
100
AcDbSymbolTableRecord
100
AcDbRegAppTableRecord
  2
ACAD
 70
     0
  0
ENDTAB
  0
TABLE
  2
DIMSTYLE
  5
A
330
0
100
AcDbSymbolTable
 70
     1
100
AcDbDimStyleTable
  0
DIMSTYLE
105
27
330
A
100
AcDbSymbolTableRecord
100
AcDbDimStyleTableRecord
  2
Standard
 70
     0
178
     0
340
11
  0
ENDTAB
  0
TABLE
  2
BLOCK_RECORD
  5
1
330
0
100
AcDbSymbolTable
 70
     6
  0
BLOCK_RECORD
  5
1F
330
1
100
AcDbSymbolTableRecord
100
AcDbBlockTableRecord
  2
*Model_Space
340
22
 70
     0
280
     1
281
     0
  0
BLOCK_RECORD
  5
1B
330
1
100
AcDbSymbolTableRecord
100
AcDbBlockTableRecord
  2
*Paper_Space
340
1E
 70
     0
280
     1
281
     0
  0
BLOCK_RECORD
  5
23
330
1
100
AcDbSymbolTableRecord
100
AcDbBlockTableRecord
  2
*Paper_Space0
340
26
 70
     0
280
     1
281
     0
  0
BLOCK_RECORD
  5
6E
330
1
100
AcDbSymbolTableRecord
100
AcDbBlockTableRecord
  2
1_070813_2
340
0
102
{BLKREFS
331
6F
102
}
 70
     0
280
     1
281
     0
  0
BLOCK_RECORD
  5
96
330
1
100
AcDbSymbolTableRecord
100
AcDbBlockTableRecord
  2
2_405016_Inch_0_in_070813_2
340
0
102
{BLKREFS
331
97
102
}
 70
     0
280
     1
281
     0
  0
BLOCK_RECORD
  5
FC
330
1
100
AcDbSymbolTableRecord
100
AcDbBlockTableRecord
  2
3_2_3_16CS2i_0_in_070813_2
340
0
102
{BLKREFS
331
FD
102
}
 70
     0
280
     1
281
     0
  0
BLOCK_RECORD
  5
140
330
1
100
AcDbSymbolTableRecord
100
AcDbBlockTableRecord
  2
4_070007i_0_in_070813_2
340
0
102
{BLKREFS
331
141
102
}
 70
     0
280
     1
281
     0
  0
BLOCK_RECORD
  5
1A2
330
1
100
AcDbSymbolTableRecord
100
AcDbBlockTableRecord
  2
5_070813H_0_in_070813_2
340
0
102
{BLKREFS
331
1A3
102
}
 70
     0
280
     1
281
     0
  0
ENDTAB
  0
ENDSEC
  0
SECTION
  2
BLOCKS
  0
BLOCK
  5
20
330
1F
100
AcDbEntity
  8
0
100
AcDbBlockBegin
  2
*Model_Space
 70
     0
 10
0.0
 20
0.0
 30
0.0
  3
*Model_Space
  1

  0
ENDBLK
  5
21
330
1F
100
AcDbEntity
  8
0
100
AcDbBlockEnd
  0
BLOCK
  5
1C
330
1B
100
AcDbEntity
 67
     1
  8
0
100
AcDbBlockBegin
  2
*Paper_Space
 70
     0
 10
0.0
 20
0.0
 30
0.0
  3
*Paper_Space
  1

  0
ENDBLK
  5
1D
330
1B
100
AcDbEntity
 67
     1
  8
0
100
AcDbBlockEnd
  0
BLOCK
  5
24
330
23
100
AcDbEntity
  8
0
100
AcDbBlockBegin
  2
*Paper_Space0
 70
     0
 10
0.0
 20
0.0
 30
0.0
  3
*Paper_Space0
  1

  0
ENDBLK
  5
25
330
23
100
AcDbEntity
  8
0
100
AcDbBlockEnd
  0
BLOCK
  5
70
330
6E
100
AcDbEntity
  8
0
100
AcDbBlockBegin
  2
1_070813_2
 70
     2
 10
0.0
 20
0.0
 30
0.0
  3
1_070813_2
  1

  0
ATTDEF
  5
73
330
6E
100
AcDbEntity
  8
AM_6
100
AcDbText
 10
7.016666666666667
 20
4.125
 30
0.0
 40
0.5
  1
TP Take-Up Trident Seal
100
AcDbAttributeDefinition
  3

  2
NN
 70
     8
280
     0
  0
ATTDEF
  5
74
330
6E
100
AcDbEntity
  8
AM_6
100
AcDbText
 10
7.016666666666667
 20
3.625
 30
0.0
 40
0.5
  1
S-2000 TPHU Take-Up Bearing -Inch
100
AcDbAttributeDefinition
  3

  2
NT
 70
     8
280
     0
  0
ATTDEF
  5
75
330
6E
100
AcDbEntity
  8
AM_6
100
AcDbText
 10
7.016666666666667
 20
3.125
 30
0.0
 40
0.5
  1
070813
100
AcDbAttributeDefinition
  3

  2
NB
 70
     8
280
     0
  0
ATTDEF
  5
76
330
6E
100
AcDbEntity
  8
AM_6
100
AcDbText
 10
7.016666666666667
 20
2.625
 30
0.0
 40
0.5
  1
$PN.
100
AcDbAttributeDefinition
  3

  2
NBSYN
 70
     8
280
     0
  0
ATTDEF
  5
77
330
6E
100
AcDbEntity
  8
AM_6
100
AcDbText
 10
7.016666666666667
 20
2.125
 30
0.0
 40
0.5
  1
070813
100
AcDbAttributeDefinition
  3

  2
LINA
 70
     8
280
     0
  0
ATTDEF
  5
78
330
6E
100
AcDbEntity
  8
AM_6
100
AcDbText
 10
7.016666666666667
 20
1.625
 30
0.0
 40
0.5
  1
2-3/16
100
AcDbAttributeDefinition
  3

  2
SS
 70
     8
280
     0
  0
ATTDEF
  5
79
330
6E
100
AcDbEntity
  8
AM_6
100
AcDbText
 10
7.016666666666667
 20
1.125
 30
0.0
 40
0.5
  1
070813
100
AcDbAttributeDefinition
  3

  2
PN
 70
     8
280
     0
  0
ATTDEF
  5
7A
330
6E
100
AcDbEntity
  8
AM_6
100
AcDbText
 10
7.016666666666667
 20
0.625
 30
0.0
 40
0.5
  1
TPHU-S2-203R
100
AcDbAttributeDefinition
  3

  2
DESCRIPTION
 70
     8
280
     0
  0
ATTDEF
  5
7B
330
6E
100
AcDbEntity
  8
AM_6
100
AcDbText
 10
7.016666666666667
 20
0.125
 30
0.0
 40
0.5
  1
Non-Expansion Type
100
AcDbAttributeDefinition
  3

  2
EF
 70
     8
280
     0
  0
ATTDEF
  5
7C
330
6E
100
AcDbEntity
  8
AM_6
100
AcDbText
 10
7.016666666666667
 20
-0.375
 30
0.0
 40
0.5
  1
Contact Seal
100
AcDbAttributeDefinition
  3

  2
ST
 70
     8
280
     0
  0
ATTDEF
  5
7D
330
6E
100
AcDbEntity
  8
AM_6
100
AcDbText
 10
7.016666666666667
 20
-0.875
 30
0.0
 40
0.5
  1
2-15/16
100
AcDbAttributeDefinition
  3

  2
A
 70
     8
280
     0
  0
ATTDEF
  5
7E
330
6E
100
AcDbEntity
  8
AM_6
100
AcDbText
 10
7.016666666666667
 20
-1.375
 30
0.0
 40
0.5
  1
2-3/4
100
AcDbAttributeDefinition
  3

  2
B
 70
     8
280
     0
  0
ATTDEF
  5
7F
330
6E
100
AcDbEntity
  8
AM_6
100
AcDbText
 10
7.016666666666667
 20
-1.875
 30
0.0
 40
0.5
  1
13/16
100
AcDbAttributeDefinition
  3

  2
C
 70
     8
280
     0
  0
ATTDEF
  5
80
330
6E
100
AcDbEntity
  8
AM_6
100
AcDbText
 10
7.016666666666667
 20
-2.375
 30
0.0
 40
0.5
  1
6-1/4
100
AcDbAttributeDefinition
  3

  2
D
 70
     8
280
     0
  0
ATTDEF
  5
81
330
6E
100
AcDbEntity
  8
AM_6
100
AcDbText
 10
7.016666666666667
 20
-2.875
 30
0.0
 40
0.5
  1
3
100
AcDbAttributeDefinition
  3

  2
E
 70
     8
280
     0
  0
ATTDEF
  5
82
330
6E
100
AcDbEntity
  8
AM_6
100
AcDbText
 10
7.016666666666667
 20
-3.375
 30
0.0
 40
0.5
  1
1-7/16
100
AcDbAttributeDefinition
  3

  2
F
 70
     8
280
     0
  0
ATTDEF
  5
83
330
6E
100
AcDbEntity
  8
AM_6
100
AcDbText
 10
7.016666666666667
 20
-3.875
 30
0.0
 40
0.5
  1
9/16
100
AcDbAttributeDefinition
  3

  2
G
 70
     8
280
     0
  0
ATTDEF
  5
84
330
6E
100
AcDbEntity
  8
AM_6
100
AcDbText
 10
7.016666666666667
 20
-4.375
 30
0.0
 40
0.5
  1
7-1/2
100
AcDbAttributeDefinition
  3

  2
H
 70
     8
280
     0
  0
ATTDEF
  5
85
330
6E
100
AcDbEntity
  8
AM_6
100
AcDbText
 10
7.016666666666667
 20
-4.875
 30
0.0
 40
0.5
  1
7-5/8
100
AcDbAttributeDefinition
  3

  2
J
 70
     8
280
     0
  0
ATTDEF
  5
86
330
6E
100
AcDbEntity
  8
AM_6
100
AcDbText
 10
7.016666666666667
 20
-5.375
 30
0.0
 40
0.5
  1
3-1/2
100
AcDbAttributeDefinition
  3

  2
K
 70
     8
280
     0
  0
ATTDEF
  5
87
330
6E
100
AcDbEntity
  8
AM_6
100
AcDbText
 10
7.016666666666667
 20
-5.875
 30
0.0
 40
0.5
  1
3-3/4
100
AcDbAttributeDefinition
  3

  2
L
 70
     8
280
     0
  0
ATTDEF
  5
88
330
6E
100
AcDbEntity
  8
AM_6
100
AcDbText
 10
7.016666666666667
 20
-6.375
 30
0.0
 40
0.5
  1
7
100
AcDbAttributeDefinition
  3

  2
M
 70
     8
280
     0
  0
ATTDEF
  5
89
330
6E
100
AcDbEntity
  8
AM_6
100
AcDbText
 10
7.016666666666667
 20
-6.875
 30
0.0
 40
0.5
  1
1-15/16
100
AcDbAttributeDefinition
  3

  2
N
 70
     8
280
     0
  0
ATTDEF
  5
8A
330
6E
100
AcDbEntity
  8
AM_6
100
AcDbText
 10
7.016666666666667
 20
-7.375
 30
0.0
 40
0.5
  1
1-3/4
100
AcDbAttributeDefinition
  3

  2
P
 70
     8
280
     0
  0
ATTDEF
  5
8B
330
6E
100
AcDbEntity
  8
AM_6
100
AcDbText
 10
7.016666666666667
 20
-7.875
 30
0.0
 40
0.5
  1
1-1/16
100
AcDbAttributeDefinition
  3

  2
Q
 70
     8
280
     0
  0
ATTDEF
  5
8C
330
6E
100
AcDbEntity
  8
AM_6
100
AcDbText
 10
7.016666666666667
 20
-8.375
 30
0.0
 40
0.5
  1
3-25/64
100
AcDbAttributeDefinition
  3

  2
R
 70
     8
280
     0
  0
ATTDEF
  5
8D
330
6E
100
AcDbEntity
  8
AM_6
100
AcDbText
 10
7.016666666666667
 20
-8.875
 30
0.0
 40
0.5
  1
2-1/64
100
AcDbAttributeDefinition
  3

  2
S
 70
     8
280
     0
  0
ATTDEF
  5
8E
330
6E
100
AcDbEntity
  8
AM_6
100
AcDbText
 10
7.016666666666667
 20
-9.375
 30
0.0
 40
0.5
  1
5/16
100
AcDbAttributeDefinition
  3

  2
T
 70
     8
280
     0
  0
ATTDEF
  5
8F
330
6E
100
AcDbEntity
  8
AM_6
100
AcDbText
 10
7.016666666666667
 20
-9.875
 30
0.0
 40
0.5
  1
1-9/16
100
AcDbAttributeDefinition
  3

  2
U
 70
     8
280
     0
  0
ATTDEF
  5
90
330
6E
100
AcDbEntity
  8
AM_6
100
AcDbText
 10
7.016666666666667
 20
-10.375
 30
0.0
 40
0.5
  1
2-1/4
100
AcDbAttributeDefinition
  3

  2
V
 70
     8
280
     0
  0
ATTDEF
  5
91
330
6E
100
AcDbEntity
  8
AM_6
100
AcDbText
 10
7.016666666666667
 20
-10.875
 30
0.0
 40
0.5
  1
15/16
100
AcDbAttributeDefinition
  3

  2
W
 70
     8
280
     0
  0
ATTDEF
  5
92
330
6E
100
AcDbEntity
  8
AM_6
100
AcDbText
 10
7.016666666666667
 20
-11.375
 30
0.0
 40
0.5
  1
1/4
100
AcDbAttributeDefinition
  3

  2
X
 70
     8
280
     0
  0
ATTDEF
  5
93
330
6E
100
AcDbEntity
  8
AM_6
100
AcDbText
 10
7.016666666666667
 20
-11.875
 30
0.0
 40
0.5
  1
0.025
100
AcDbAttributeDefinition
  3

  2
Y
 70
     8
280
     0
  0
ATTDEF
  5
94
330
6E
100
AcDbEntity
  8
AM_6
100
AcDbText
 10
7.016666666666667
 20
-12.375
 30
0.0
 40
0.5
  1
2-19/32
100
AcDbAttributeDefinition
  3

  2
Z
 70
     8
280
     0
  0
ATTDEF
  5
95
330
6E
100
AcDbEntity
  8
AM_6
100
AcDbText
 10
7.016666666666667
 20
-12.875
 30
0.0
 40
0.5
  1
baldor
100
AcDbAttributeDefinition
  3

  2
COMPANY
 70
     8
280
     0
  0
INSERT
  5
97
330
6E
100
AcDbEntity
  8
0
100
AcDbBlockReference
  2
2_405016_Inch_0_in_070813_2
 10
0.0
 20
0.0
 30
0.0
  0
INSERT
  5
FD
330
6E
100
AcDbEntity
  8
0
100
AcDbBlockReference
  2
3_2_3_16CS2i_0_in_070813_2
 10
0.0
 20
0.0
 30
0.0
  0
INSERT
  5
141
330
6E
100
AcDbEntity
  8
0
100
AcDbBlockReference
  2
4_070007i_0_in_070813_2
 10
0.0
 20
0.0
 30
0.0
  0
INSERT
  5
1A3
330
6E
100
AcDbEntity
  8
0
100
AcDbBlockReference
  2
5_070813H_0_in_070813_2
 10
0.0
 20
0.0
 30
0.0
  0
ENDBLK
  5
71
330
6E
100
AcDbEntity
  8
0
100
AcDbBlockEnd
  0
BLOCK
  5
98
330
96
100
AcDbEntity
  8
0
100
AcDbBlockBegin
  2
2_405016_Inch_0_in_070813_2
 70
     2
 10
0.0
 20
0.0
 30
0.0
  3
2_405016_Inch_0_in_070813_2
  1

  0
ATTDEF
  5
9A
330
96
100
AcDbEntity
  8
AM_6
100
AcDbText
 10
5.21875
 20
0.2525907427704612
 30
0.0
 40
0.5
  1
405016 -Inch
100
AcDbAttributeDefinition
  3

  2
NN
 70
     8
280
     0
  0
ATTDEF
  5
9B
330
96
100
AcDbEntity
  8
AM_6
100
AcDbText
 10
5.21875
 20
-0.2474092572295388
 30
0.0
 40
0.5
  1
Grease Fitting
100
AcDbAttributeDefinition
  3

  2
NT
 70
     8
280
     0
  0
ATTDEF
  5
9C
330
96
100
AcDbEntity
  8
AM_6
100
AcDbText
 10
5.21875
 20
-0.7474092572295388
 30
0.0
 40
0.5
  1
405016-Inch
100
AcDbAttributeDefinition
  3

  2
NB
 70
     8
280
     0
  0
ATTDEF
  5
9D
330
96
100
AcDbEntity
  8
AM_6
100
AcDbText
 10
5.21875
 20
-1.247409257229539
 30
0.0
 40
0.5
  1
$MN.-Inch
100
AcDbAttributeDefinition
  3

  2
NBSYN
 70
     8
280
     0
  0
ATTDEF
  5
9E
330
96
100
AcDbEntity
  8
AM_6
100
AcDbText
 10
5.21875
 20
-1.747409257229539
 30
0.0
 40
0.5
  1
405016
100
AcDbAttributeDefinition
  3

  2
LINA
 70
     8
280
     0
  0
ATTDEF
  5
9F
330
96
100
AcDbEntity
  8
AM_6
100
AcDbText
 10
5.21875
 20
-2.247409257229539
 30
0.0
 40
0.5
  1
405016
100
AcDbAttributeDefinition
  3

  2
MN
 70
     8
280
     0
  0
ATTDEF
  5
A0
330
96
100
AcDbEntity
  8
AM_6
100
AcDbText
 10
5.21875
 20
-2.747409257229539
 30
0.0
 40
0.5
  1
7/16 HEX
100
AcDbAttributeDefinition
  3

  2
H
 70
     8
280
     0
  0
ATTDEF
  5
A1
330
96
100
AcDbEntity
  8
AM_6
100
AcDbText
 10
5.21875
 20
-3.247409257229539
 30
0.0
 40
0.5
  1
0.383
100
AcDbAttributeDefinition
  3

  2
NDR
 70
     8
280
     0
  0
ATTDEF
  5
A2
330
96
100
AcDbEntity
  8
AM_6
100
AcDbText
 10
5.21875
 20
-3.747409257229539
 30
0.0
 40
0.5
  1
0.337
100
AcDbAttributeDefinition
  3

  2
KDR
 70
     8
280
     0
  0
ATTDEF
  5
A3
330
96
100
AcDbEntity
  8
AM_6
100
AcDbText
 10
5.21875
 20
-4.247409257229538
 30
0.0
 40
0.5
  1
0.1575
100
AcDbAttributeDefinition
  3

  2
BZE
 70
     8
280
     0
  0
ATTDEF
  5
A4
330
96
100
AcDbEntity
  8
AM_6
100
AcDbText
 10
5.21875
 20
-4.747409257229538
 30
0.0
 40
0.5
  1
0.4375
100
AcDbAttributeDefinition
  3

  2
HEX
 70
     8
280
     0
  0
ATTDEF
  5
A5
330
96
100
AcDbEntity
  8
AM_6
100
AcDbText
 10
5.21875
 20
-5.247409257229538
 30
0.0
 40
0.5
  1
0.281250
100
AcDbAttributeDefinition
  3

  2
HEX2
 70
     8
280
     0
  0
ATTDEF
  5
A6
330
96
100
AcDbEntity
  8
AM_6
100
AcDbText
 10
5.21875
 20
-5.747409257229538
 30
0.0
 40
0.5
  1
baldor
100
AcDbAttributeDefinition
  3

  2
COMPANY
 70
     8
280
     0
  0
CIRCLE
  5
A9
330
96
100
AcDbEntity
  8
AM_9
100
AcDbCircle
 10
0.0000000000000002
 20
0.0
 30
0.0
 40
0.1616637258772237
  0
CIRCLE
  5
AA
330
96
100
AcDbEntity
  8
AM_9
100
AcDbCircle
 10
0.0000000000000002
 20
0.0
 30
0.0
 40
0.1854172907249859
  0
ARC
  5
AB
330
96
100
AcDbEntity
  8
AM_9
100
AcDbCircle
 10
-0.000000000000083
 20
-0.0000000000004027
 30
0.0
 40
0.2000000000000832
100
AcDbArc
 50
0.0
 51
156.6533232989194
  0
LINE
  5
AC
330
96
100
AcDbEntity
  8
AM_9
100
AcDbLine
 10
-0.2187499999999998
 20
0.1262953713852306
 30
0.0
 11
-0.2187499999999998
 21
-0.1262953713852306
 31
0.0
  0
LINE
  5
AD
330
96
100
AcDbEntity
  8
AM_9
100
AcDbLine
 10
-0.2187499999999998
 20
-0.1262953713852306
 30
0.0
 11
-0.1897547619531385
 21
-0.1430357798768033
 31
0.0
  0
LINE
  5
AE
330
96
100
AcDbEntity
  8
AM_9
100
AcDbLine
 10
-0.1897043345002185
 20
0.1430648941803213
 30
0.0
 11
-0.2187499999999998
 21
0.1262953713852306
 31
0.0
  0
ARC
  5
AF
330
96
100
AcDbEntity
  8
AM_9
100
AcDbCircle
 10
-0.0000000000000197
 20
0.0
 30
0.0
 40
0.2187499999999838
100
AcDbArc
 50
143.9881726303178
 51
215.9491341748771
  0
LINE
  5
B0
330
96
100
AcDbEntity
  8
AM_9
100
AcDbLine
 10
-0.2602304684431302
 20
0.01975639995327
 30
0.0
 11
-0.2602304684431206
 21
-0.0197563999532738
 31
0.0
  0
LINE
  5
B1
330
96
100
AcDbEntity
  8
AM_9
100
AcDbLine
 10
-0.2689146070947219
 20
0.0811898816047911
 30
0.0
 11
-0.2987675689889716
 21
0.0811898816047911
 31
0.0
  0
LINE
  5
B2
330
96
100
AcDbEntity
  8
AM_9
100
AcDbLine
 10
-0.2689146070947219
 20
-0.0811898816047911
 30
0.0
 11
-0.2987675689889716
 21
-0.0811898816047911
 31
0.0
  0
LWPOLYLINE
  5
B3
330
96
100
AcDbEntity
  8
AM_9
100
AcDbPolyline
 90
        3
 70
     0
 43
0.0
 10
-0.2602304684431206
 20
-0.0197563999532738
 10
-0.2616913382589201
 20
-0.0370737721666024
 10
-0.2689146070947219
 20
-0.0811898816047911
  0
LWPOLYLINE
  5
B4
330
96
100
AcDbEntity
  8
AM_9
100
AcDbPolyline
 90
        3
 70
     0
 43
0.0
 10
-0.2689146070947219
 20
0.0811898816047911
 10
-0.2634308483997526
 20
0.0507690464395923
 10
-0.2602304684431302
 20
0.01975639995327
  0
ELLIPSE
  5
B5
330
96
100
AcDbEntity
  8
AM_9
100
AcDbEllipse
 10
-0.201389202824187
 20
-0.0000000000000006
 30
0.0
 11
8.610797806504912E-18
 21
0.1406250000000014
 31
0.0
210
0.0
220
0.0
230
1.0
 40
0.4226182617407006
 41
0.6232286105021609
 42
1.429840066212907
  0
LWPOLYLINE
  5
B6
330
96
100
AcDbEntity
  8
AM_9
100
AcDbPolyline
 90
        3
 70
     0
 43
0.0
 10
-0.2360765106845274
 20
0.1141872583780656
 10
-0.2462091938631848
 20
0.1027100776026271
 10
-0.2689146070947219
 20
0.0811898816047911
  0
ELLIPSE
  5
B7
330
96
100
AcDbEntity
  8
AM_9
100
AcDbEllipse
 10
-0.201389202824189
 20
0.0000000000000005
 30
0.0
 11
8.610797806504864E-18
 21
0.1406250000000006
 31
0.0
210
0.0
220
0.0
230
1.0
 40
0.4226182617406142
 41
1.711752587376911
 42
2.518364043087566
  0
LWPOLYLINE
  5
B8
330
96
100
AcDbEntity
  8
AM_9
100
AcDbPolyline
 90
        3
 70
     0
 43
0.0
 10
-0.2689146070947219
 20
-0.0811898816047911
 10
-0.2512755937295758
 20
-0.0975167708288354
 10
-0.2360765106845272
 20
-0.114187258378066
  0
LWPOLYLINE
  5
B9
330
96
100
AcDbEntity
  8
AM_9
100
AcDbPolyline
 90
        3
 70
     0
 43
0.0
 10
-0.2813919000363597
 20
-0.1141872583780661
 10
-0.291177595274624
 20
-0.0976669589939311
 10
-0.2987675689889716
 20
-0.0811898816047911
  0
LINE
  5
BA
330
96
100
AcDbEntity
  8
AM_9
100
AcDbLine
 10
-0.2987675689889716
 20
-0.0811898816047911
 30
0.0
 11
-0.3055458577949628
 21
-0.0197563999532697
 31
0.0
  0
LWPOLYLINE
  5
BB
330
96
100
AcDbEntity
  8
AM_9
100
AcDbPolyline
 90
        3
 70
     0
 43
0.0
 10
-0.2987675689889716
 20
0.0811898816047911
 10
-0.2912216284034022
 20
0.0975825203205425
 10
-0.2813919000363596
 20
0.1141872583780661
  0
LINE
  5
BC
330
96
100
AcDbEntity
  8
AM_9
100
AcDbLine
 10
-0.3055458577949628
 20
0.0197563999532697
 30
0.0
 11
-0.2987675689889716
 21
0.0811898816047911
 31
0.0
  0
LWPOLYLINE
  5
BD
330
96
100
AcDbEntity
  8
AM_9
100
AcDbPolyline
 90
        3
 70
     0
 43
0.0
 10
-0.2258378743019624
 20
-0.1281745372222428
 10
-0.2189176876709012
 20
-0.14013919758686
 10
-0.2099962668917051
 20
-0.1623797632095822
  0
LINE
  5
BE
330
96
100
AcDbEntity
  8
AM_9
100
AcDbLine
 10
-0.2360765106845272
 20
-0.114187258378066
 30
0.0
 11
-0.2258378743019624
 21
-0.1281745372222428
 31
0.0
  0
LWPOLYLINE
  5
BF
330
96
100
AcDbEntity
  8
AM_9
100
AcDbPolyline
 90
        3
 70
     0
 43
0.0
 10
-0.2099962668917051
 20
0.1623797632095822
 10
-0.216347937124691
 20
0.1454641154142716
 10
-0.2258378743019626
 20
0.1281745372222425
  0
LINE
  5
C0
330
96
100
AcDbEntity
  8
AM_9
100
AcDbLine
 10
-0.2258378743019626
 20
0.1281745372222425
 30
0.0
 11
-0.2360765106845274
 21
0.1141872583780656
 31
0.0
  0
LWPOLYLINE
  5
C1
330
96
100
AcDbEntity
  8
AM_9
100
AcDbPolyline
 90
       13
 70
     0
 43
0.0
 10
-0.1790373738501777
 20
0.0891382003679202
 10
-0.1842628795203938
 20
0.0777636883825141
 10
-0.1892274110627138
 20
0.06473495013335
 10
-0.1936098952159721
 20
0.0501518541477802
 10
-0.1972182994908369
 20
0.0331837612147967
 10
-0.1994144431868152
 20
0.0152931307616317
 10
-0.1999640770715869
 20
-0.0031900807110608
 10
-0.198832111550905
 20
-0.0215822013754014
 10
-0.1961081631011964
 20
-0.0392160055560207
 10
-0.1920694300574955
 20
-0.0557614027566447
 10
-0.187009643149415
 20
-0.0708827954963352
 10
-0.1815005947613927
 20
-0.0840091310588356
 10
-0.1790373738501781
 20
-0.0891382003679202
  0
LINE
  5
C2
330
96
100
AcDbEntity
  8
AM_9
100
AcDbLine
 10
-0.1637075535334888
 20
0.1099999999999999
 30
0.0
 11
-0.2013892028241878
 21
0.1099999999999999
 31
0.0
  0
LINE
  5
C3
330
96
100
AcDbEntity
  8
AM_9
100
AcDbLine
 10
-0.2013892028241878
 20
-0.1099999999999999
 30
0.0
 11
-0.1639909404217726
 21
-0.1099999999999999
 31
0.0
  0
LWPOLYLINE
  5
C4
330
96
100
AcDbEntity
  8
AM_9
100
AcDbPolyline
 90
        5
 70
     0
 43
0.0
 10
-0.1557761074387943
 20
-0.1099999996045751
 10
-0.160179943325958
 20
-0.1093244165839199
 10
-0.1668493358980658
 20
-0.1056462146448629
 10
-0.1731116383367603
 20
-0.0989726456321526
 10
-0.1790373738502112
 20
-0.0891382003679049
  0
LWPOLYLINE
  5
C5
330
96
100
AcDbEntity
  8
AM_9
100
AcDbPolyline
 90
        5
 70
     0
 43
0.0
 10
-0.1790373738501776
 20
0.0891382003679202
 10
-0.1733931390117464
 20
0.0985900119595949
 10
-0.1670729780242508
 20
0.1054645023299315
 10
-0.1606047421316793
 20
0.1091871113029
 10
-0.1557751699345313
 20
0.1099999993542103
  0
ARC
  5
C6
330
96
100
AcDbEntity
  8
AM_9
100
AcDbCircle
 10
-0.0000000000006255
 20
-0.0000000000002992
 30
0.0
 40
0.1999999999993139
100
AcDbArc
 50
197.0747955105806
 51
214.0129949493758
  0
ELLIPSE
  5
C7
330
96
100
AcDbEntity
  8
AM_9
100
AcDbEllipse
 10
-0.2013892028241879
 20
-0.0000000000000002
 30
0.0
 11
8.610797806504814E-18
 21
0.1406249999999998
 31
0.0
210
0.0
220
0.0
230
1.0
 40
0.4226182617407005
 41
2.717623712895351
 42
6.707154247874032
  0
ELLIPSE
  5
C8
330
96
100
AcDbEntity
  8
AM_9
100
AcDbEllipse
 10
-0.2467045921759769
 20
0.0000000000001613
 30
0.0
 11
8.610797806492394E-18
 21
0.1406249999997969
 31
0.0
210
0.0
220
0.0
230
1.0
 40
0.422618261741129
 41
0.6232286105029283
 42
1.429840066214009
  0
LINE
  5
C9
330
96
100
AcDbEntity
  8
AM_9
100
AcDbLine
 10
-0.3055458577949628
 20
-0.0197563999532697
 30
0.0
 11
-0.3055458577949628
 21
0.0197563999532697
 31
0.0
  0
LWPOLYLINE
  5
CA
330
96
100
AcDbEntity
  8
AM_9
100
AcDbPolyline
 90
        5
 70
     0
 43
0.0
 10
-0.2806053774633818
 20
-0.1148433556507742
 10
-0.2807802896503826
 20
-0.1146261171083156
 10
-0.2820653180979339
 20
-0.1127723996728534
 10
-0.2843046040158465
 20
-0.1088876250633113
 10
-0.2847653268177125
 20
-0.1080005146714539
  0
LWPOLYLINE
  5
CB
330
96
100
AcDbEntity
  8
AM_9
100
AcDbPolyline
 90
        4
 70
     0
 43
0.0
 10
-0.284766741319873
 20
0.1079977464528126
 10
-0.2830539421054687
 20
0.1111474755284533
 10
-0.2811529431490805
 20
0.1141258853337748
 10
-0.2806053774633818
 20
0.1148433556507742
  0
LWPOLYLINE
  5
CC
330
96
100
AcDbEntity
  8
AM_9
100
AcDbPolyline
 90
        3
 70
     0
 43
0.0
 10
-0.3445239399801802
 20
0.1148433556507742
 10
-0.3443141986266146
 20
0.1145811394481337
 10
-0.3439103178800312
 20
0.1140334678031749
  0
ELLIPSE
  5
CD
330
96
100
AcDbEntity
  8
AM_9
100
AcDbEllipse
 10
-0.3729962569746639
 20
-0.0000000000000002
 30
0.0
 11
8.155773951865162E-18
 21
0.1331938965184661
 31
0.0
210
0.0
220
0.0
230
1.0
 40
0.4226182617406974
 41
5.746036430735814
 42
9.958551296303057
  0
ELLIPSE
  5
CE
330
96
100
AcDbEntity
  8
AM_9
100
AcDbEllipse
 10
-0.2467045921728054
 20
0.0000000000048194
 30
0.0
 11
8.610797806870256E-18
 21
0.1406250000059679
 31
0.0
210
0.0
220
0.0
230
1.0
 40
0.4226182617479528
 41
1.711752587405599
 42
2.518364043071855
  0
ELLIPSE
  5
CF
330
96
100
AcDbEntity
  8
AM_9
100
AcDbEllipse
 10
-0.3994303217889756
 20
0.0
 30
0.0
 11
8.520391689943312E-18
 21
0.139148556071441
 31
0.0
210
0.0
220
0.0
230
1.0
 40
0.4226182617406974
 41
0.2191938495164196
 42
2.922398804073372
  0
CIRCLE
  5
D0
330
96
100
AcDbEntity
  8
AM_9
100
AcDbCircle
 10
0.0000000000000002
 20
0.0
 30
0.0
 40
0.1915112338502295
  0
ELLIPSE
  5
D1
330
96
100
AcDbEntity
  8
AM_9
100
AcDbEllipse
 10
-0.2013892028241878
 20
0.0
 30
0.0
 11
6.735557395310439E-18
 21
0.1099999999999999
 31
0.0
210
0.0
220
0.0
230
1.0
 40
0.4226182617406989
 41
0.0
 42
6.283185307179586
  0
LINE
  5
D3
330
96
100
AcDbEntity
  8
AM_4
100
AcDbLine
 10
-0.1897547619531385
 20
-0.1430357798768033
 30
0.0
 11
0.0000000000000002
 21
-0.2525907427704612
 31
0.0
  0
LINE
  5
D4
330
96
100
AcDbEntity
  8
AM_4
100
AcDbLine
 10
0.0000000000000002
 20
0.2525907427704612
 30
0.0
 11
-0.1897043345002185
 21
0.1430648941803213
 31
0.0
  0
LINE
  5
D5
330
96
100
AcDbEntity
  8
AM_4
100
AcDbLine
 10
0.2187500000000002
 20
0.1262953713852306
 30
0.0
 11
0.0000000000000002
 21
0.2525907427704612
 31
0.0
  0
LINE
  5
D6
330
96
100
AcDbEntity
  8
AM_4
100
AcDbLine
 10
0.2187500000000002
 20
-0.1262953713852306
 30
0.0
 11
0.2187500000000002
 21
0.1262953713852306
 31
0.0
  0
LINE
  5
D7
330
96
100
AcDbEntity
  8
AM_4
100
AcDbLine
 10
0.0000000000000002
 20
-0.2525907427704612
 30
0.0
 11
0.2187500000000002
 21
-0.1262953713852306
 31
0.0
  0
ARC
  5
D8
330
96
100
AcDbEntity
  8
AM_4
100
AcDbCircle
 10
0.0000000000000002
 20
-0.0000000000000001
 30
0.0
 40
0.2187499999999999
100
AcDbArc
 50
215.9491341748741
 51
143.9881726303209
  0
LINE
  5
D9
330
96
100
AcDbEntity
  8
AM_4
100
AcDbLine
 10
-0.1557793102687525
 20
0.1099999999999999
 30
0.0
 11
-0.1637075535334888
 21
0.1099999999999999
 31
0.0
  0
LINE
  5
DA
330
96
100
AcDbEntity
  8
AM_4
100
AcDbLine
 10
-0.1639909404217726
 20
-0.1099999999999999
 30
0.0
 11
-0.1557791335654665
 21
-0.1099999999999999
 31
0.0
  0
LWPOLYLINE
  5
DB
330
96
100
AcDbEntity
  8
AM_4
100
AcDbPolyline
 90
       21
 70
     0
 43
0.0
 10
-0.1557751699345313
 20
0.1099999993542103
 10
-0.1538031670974774
 20
0.1098642299902842
 10
-0.147233607373639
 20
0.1074361169500106
 10
-0.1407130262602573
 20
0.101829760403791
 10
-0.1347930597680664
 20
0.0935179578124376
 10
-0.1293028157827814
 20
0.0822566453824391
 10
-0.1247141396218189
 20
0.0690147372405694
 10
-0.1208880884981778
 20
0.0533912635798488
 10
-0.1181545989145986
 20
0.0367379904268302
 10
-0.1164278875396125
 20
0.018541691433427
 10
-0.1158549073091551
 20
0.0003663009477912
 10
-0.1164156227038164
 20
-0.0183436549788656
 10
-0.1180609686233498
 20
-0.0360039211946314
 10
-0.1208367673933809
 20
-0.0531364268189174
 10
-0.124510751350602
 20
-0.0683147951973784
 10
-0.1291842652280559
 20
-0.0819658231771869
 10
-0.1344729790611516
 20
-0.0929661484870866
 10
-0.1405186270901956
 20
-0.1016091178663899
 10
-0.1468270783017118
 20
-0.1071833219201679
 10
-0.1535654953592162
 20
-0.109829591708451
 10
-0.1557761074387943
 20
-0.1099999996045751
  0
ARC
  5
DC
330
96
100
AcDbEntity
  8
AM_4
100
AcDbCircle
 10
0.0000000000000002
 20
0.0
 30
0.0
 40
0.2
100
AcDbArc
 50
214.0129949493466
 51
145.9141435813515
  0
LWPOLYLINE
  5
DD
330
96
100
AcDbEntity
  8
AM_4
100
AcDbPolyline
 90
        6
 70
     0
 43
0.0
 10
-0.2099962668917051
 20
-0.1623797632095822
 10
-0.1943573015029056
 20
-0.1479869285061356
 10
-0.18054914203323
 20
-0.1333383958028655
 10
-0.1688997677199806
 20
-0.1182584107681147
 10
-0.1598729403210868
 20
-0.1030720446435313
 10
-0.1510741298357567
 20
-0.0811898816047911
  0
LINE
  5
DE
330
96
100
AcDbEntity
  8
AM_4
100
AcDbLine
 10
-0.2099962668917051
 20
-0.1623797632095822
 30
0.0
 11
-0.2389369657326273
 21
-0.1623797632095822
 31
0.0
  0
LWPOLYLINE
  5
DF
330
96
100
AcDbEntity
  8
AM_4
100
AcDbPolyline
 90
        6
 70
     0
 43
0.0
 10
-0.1510741298357567
 20
0.0811898816047911
 10
-0.156422238446444
 20
0.0957436559643702
 10
-0.1639940363880802
 20
0.1105606069314186
 10
-0.174406321286612
 20
0.1258239699714564
 10
-0.1876759562813855
 20
0.1412050309358237
 10
-0.2099962668917051
 20
0.1623797632095822
  0
LINE
  5
E0
330
96
100
AcDbEntity
  8
AM_4
100
AcDbLine
 10
-0.2099962668917051
 20
0.1623797632095822
 30
0.0
 11
-0.2389369657326273
 21
0.1623797632095822
 31
0.0
  0
LWPOLYLINE
  5
E1
330
96
100
AcDbEntity
  8
AM_4
100
AcDbPolyline
 90
        6
 70
     0
 43
0.0
 10
-0.1510741298357567
 20
-0.0811898816047911
 10
-0.1458778226760517
 20
-0.052155091529337
 10
-0.1427138007556459
 20
-0.0226013472343071
 10
-0.1420496512545703
 20
0.0078295722246356
 10
-0.1441228263802211
 20
0.0384818408139635
 10
-0.1510741298357567
 20
0.0811898816047911
  0
LINE
  5
E2
330
96
100
AcDbEntity
  8
AM_4
100
AcDbLine
 10
-0.1510741298357567
 20
0.0811898816047911
 30
0.0
 11
-0.1791093260592884
 21
0.0811898816047911
 31
0.0
  0
LINE
  5
E3
330
96
100
AcDbEntity
  8
AM_4
100
AcDbLine
 10
-0.1510741298357567
 20
-0.0811898816047911
 30
0.0
 11
-0.1791093260592884
 21
-0.0811898816047911
 31
0.0
  0
LWPOLYLINE
  5
E4
330
96
100
AcDbEntity
  8
AM_4
100
AcDbPolyline
 90
        5
 70
     0
 43
0.0
 10
-0.1791093260592884
 20
0.0811898816047911
 10
-0.1842540823997051
 20
0.0416203625313734
 10
-0.1862220679364948
 20
0.0014176687078843
 10
-0.1844124966919378
 20
-0.0398791041957931
 10
-0.1791093260592884
 20
-0.0811898816047911
  0
LWPOLYLINE
  5
E5
330
96
100
AcDbEntity
  8
AM_4
100
AcDbPolyline
 90
        5
 70
     0
 43
0.0
 10
-0.2389369657326273
 20
0.1623797632095822
 10
-0.2295338871417793
 20
0.1425944959554254
 10
-0.2166871171046318
 20
0.1224916336047983
 10
-0.1996402057054675
 20
0.1018412668053538
 10
-0.1791093260592884
 20
0.0811898816047911
  0
LWPOLYLINE
  5
E6
330
96
100
AcDbEntity
  8
AM_4
100
AcDbPolyline
 90
        3
 70
     0
 43
0.0
 10
-0.2711532636537953
 20
0.1281745372222423
 10
-0.2561815527589918
 20
0.1453001843968683
 10
-0.2389369657326273
 20
0.1623797632095822
  0
LWPOLYLINE
  5
E7
330
96
100
AcDbEntity
  8
AM_4
100
AcDbPolyline
 90
        3
 70
     0
 43
0.0
 10
-0.2389369657326273
 20
-0.1623797632095822
 10
-0.256093971320235
 20
-0.1453926299734447
 10
-0.2711532636537953
 20
-0.1281745372222423
  0
LWPOLYLINE
  5
E8
330
96
100
AcDbEntity
  8
AM_4
100
AcDbPolyline
 90
        5
 70
     0
 43
0.0
 10
-0.1791093260592884
 20
-0.0811898816047911
 10
-0.1988355121406936
 20
-0.1009664231904839
 10
-0.2156330920108722
 20
-0.121062844630589
 10
-0.2290462109660018
 20
-0.1417146509141334
 10
-0.2389369657326273
 20
-0.1623797632095822
  0
LINE
  5
E9
330
96
100
AcDbEntity
  8
AM_4
100
AcDbLine
 10
-0.2711532636537953
 20
-0.1281745372222423
 30
0.0
 11
-0.2813919000363597
 21
-0.1141872583780661
 31
0.0
  0
ELLIPSE
  5
EA
330
96
100
AcDbEntity
  8
AM_4
100
AcDbEllipse
 10
-0.2467045921760205
 20
-0.0000000000000002
 30
0.0
 11
8.610797806504814E-18
 21
0.1406249999999998
 31
0.0
210
0.0
220
0.0
230
1.0
 40
0.4226182617406998
 41
2.717623712895344
 42
6.707154247874034
  0
LINE
  5
EB
330
96
100
AcDbEntity
  8
AM_4
100
AcDbLine
 10
-0.2813919000363596
 20
0.1141872583780661
 30
0.0
 11
-0.2711532636537953
 21
0.1281745372222423
 31
0.0
  0
LWPOLYLINE
  5
EC
330
96
100
AcDbEntity
  8
AM_4
100
AcDbPolyline
 90
       10
 70
     0
 43
0.0
 10
-0.339918350219411
 20
-0.1111169507546337
 10
-0.3340328863646971
 20
-0.1079178730234365
 10
-0.3255454462537052
 20
-0.1050144009551839
 10
-0.314908492102192
 20
-0.1035021632083507
 10
-0.3035605779041994
 20
-0.1041951892271668
 10
-0.2936419852165694
 20
-0.1068645989830537
 10
-0.2866491252325923
 20
-0.110218981932507
 10
-0.2825711341390911
 20
-0.1130355873262971
 10
-0.2808059545411384
 20
-0.1146272929799619
 10
-0.2806053774633818
 20
-0.1148433556507742
  0
LINE
  5
ED
330
96
100
AcDbEntity
  8
AM_4
100
AcDbLine
 10
-0.3429896909627242
 20
-0.1133931838949002
 30
0.0
 11
-0.339918350219411
 21
-0.1111169507546337
 31
0.0
  0
LWPOLYLINE
  5
EE
330
96
100
AcDbEntity
  8
AM_4
100
AcDbPolyline
 90
        3
 70
     0
 43
0.0
 10
-0.3437956098792177
 20
-0.1141094408211946
 10
-0.3433092490397235
 20
-0.1136687835224545
 10
-0.3429896909627242
 20
-0.1133931838949002
  0
LWPOLYLINE
  5
EF
330
96
100
AcDbEntity
  8
AM_4
100
AcDbPolyline
 90
        3
 70
     0
 43
0.0
 10
-0.3425617419916248
 20
0.1130384740385791
 10
-0.3426911271717571
 20
0.1131441097098907
 10
-0.3443605496916625
 20
0.1146660860923713
  0
LWPOLYLINE
  5
F0
330
96
100
AcDbEntity
  8
AM_4
100
AcDbPolyline
 90
       11
 70
     0
 43
0.0
 10
-0.2806053774633818
 20
0.1148433556507742
 10
-0.2806331784339996
 20
0.1148119954380318
 10
-0.2819309923125162
 20
0.1135719885699744
 10
-0.2854364944395969
 20
0.1109702034003277
 10
-0.2914481132796251
 20
0.1077619771412102
 10
-0.3000567119624342
 20
0.1049002903424689
 10
-0.3107698215925153
 20
0.10348153492964
 10
-0.3220999272059166
 20
0.1042864966974322
 10
-0.3318959183752104
 20
0.1070222418404425
 10
-0.3387395893985932
 20
0.110374555451112
 10
-0.3425617419916248
 20
0.1130384740385791
  0
ELLIPSE
  5
F1
330
96
100
AcDbEntity
  8
AM_4
100
AcDbEllipse
 10
-0.3729962569741815
 20
-0.0000000000001397
 30
0.0
 11
8.155773951855133E-18
 21
0.1331938965183023
 31
0.0
210
0.0
220
0.0
230
1.0
 40
0.4226182617389302
 41
3.675365989118458
 42
3.724179638049913
  0
ELLIPSE
  5
F2
330
96
100
AcDbEntity
  8
AM_4
100
AcDbEllipse
 10
-0.3729962569746646
 20
-0.0000000000000003
 30
0.0
 11
8.155773951865216E-18
 21
0.1331938965184669
 31
0.0
210
0.0
220
0.0
230
1.0
 40
0.4226182617407013
 41
3.724179638054579
 42
5.695000268441765
  0
LWPOLYLINE
  5
F3
330
96
100
AcDbEntity
  8
AM_4
100
AcDbPolyline
 90
        9
 70
     0
 43
0.0
 10
-0.3413963168920738
 20
0.1102560893899648
 10
-0.3477759224639437
 20
0.1191628871196504
 10
-0.3562514722997822
 20
0.1280167774762447
 10
-0.3652363042002096
 20
0.134559576443802
 10
-0.3746858945636349
 20
0.1389352072553623
 10
-0.3845275365475651
 20
0.1411804251094786
 10
-0.3953389797028186
 20
0.141161817721293
 10
-0.4055210616795188
 20
0.138761649577362
 10
-0.4130373830671714
 20
0.1353777120886788
  0
LWPOLYLINE
  5
F4
330
96
100
AcDbEntity
  8
AM_4
100
AcDbPolyline
 90
        9
 70
     0
 43
0.0
 10
-0.4125857951371471
 20
-0.1356231218438348
 10
-0.4068263093674848
 20
-0.1382774585231747
 10
-0.397046970886208
 20
-0.1409240297703919
 10
-0.3861481802845702
 20
-0.141340740248665
 10
-0.3758460556873836
 20
-0.1393168043237532
 10
-0.3663468205225911
 20
-0.1351974139042899
 10
-0.3575580629013029
 20
-0.1291327744682424
 10
-0.3493329527762263
 20
-0.1210190381113037
 10
-0.3417236425967837
 20
-0.1107697883383157
  0
ELLIPSE
  5
F5
330
96
100
AcDbEntity
  8
AM_4
100
AcDbEllipse
 10
-0.3729962569745695
 20
-0.0000000000001239
 30
0.0
 11
8.155773951874072E-18
 21
0.1331938965186115
 31
0.0
210
0.0
220
0.0
230
1.0
 40
0.4226182617401836
 41
-0.5881850387364658
 42
-0.5371488764423882
  0
ELLIPSE
  5
F6
330
96
100
AcDbEntity
  8
AM_4
100
AcDbEllipse
 10
-0.3994303217889759
 20
-0.0000000000000001
 30
0.0
 11
8.520391689943295E-18
 21
0.1391485560714407
 31
0.0
210
0.0
220
0.0
230
1.0
 40
0.4226182617407002
 41
2.92239880407338
 42
6.502379156695998
  0
LINE
  5
F7
330
96
100
AcDbEntity
  8
AM_4
100
AcDbLine
 10
-0.4782595695260257
 20
-0.101006617594416
 30
0.0
 11
-0.4122174217232457
 21
-0.1358191566576766
 31
0.0
  0
LINE
  5
F8
330
96
100
AcDbEntity
  8
AM_4
100
AcDbLine
 10
-0.4122174217232457
 20
0.1358191566576766
 30
0.0
 11
-0.4782595695260257
 21
0.101006617594416
 31
0.0
  0
ELLIPSE
  5
F9
330
96
100
AcDbEntity
  8
AM_4
100
AcDbEllipse
 10
-0.4687499999999999
 20
0.0
 30
0.0
 11
6.336484236534233E-18
 21
0.10348264072459
 31
0.0
210
0.0
220
0.0
230
1.0
 40
0.4226182617406934
 41
0.0
 42
6.283185307179586
  0
CIRCLE
  5
FB
330
96
100
AcDbEntity
  8
AM_5
100
AcDbCircle
 10
0.0000000000000002
 20
0.0
 30
0.0
 40
0.168500005
  0
ENDBLK
  5
99
330
96
100
AcDbEntity
  8
0
100
AcDbBlockEnd
  0
BLOCK
  5
FE
330
FC
100
AcDbEntity
  8
0
100
AcDbBlockBegin
  2
3_2_3_16CS2i_0_in_070813_2
 70
     2
 10
0.0
 20
0.0
 30
0.0
  3
3_2_3_16CS2i_0_in_070813_2
  1

  0
ATTDEF
  5
100
330
FC
100
AcDbEntity
  8
AM_6
100
AcDbText
 10
3.618375
 20
1.9045
 30
0.0
 40
0.5
  1
S-2000 Collar -Inch
100
AcDbAttributeDefinition
  3

  2
NN
 70
     8
280
     0
  0
ATTDEF
  5
101
330
FC
100
AcDbEntity
  8
AM_6
100
AcDbText
 10
3.618375
 20
1.4045
 30
0.0
 40
0.5
  1
S-2000 Bearings
100
AcDbAttributeDefinition
  3

  2
NT
 70
     8
280
     0
  0
ATTDEF
  5
102
330
FC
100
AcDbEntity
  8
AM_6
100
AcDbText
 10
3.618375
 20
0.9045000000000001
 30
0.0
 40
0.5
  1
2-3/16CS2i
100
AcDbAttributeDefinition
  3

  2
NB
 70
     8
280
     0
  0
ATTDEF
  5
103
330
FC
100
AcDbEntity
  8
AM_6
100
AcDbText
 10
3.618375
 20
0.4045000000000001
 30
0.0
 40
0.5
  1
$BORE.CS2i
100
AcDbAttributeDefinition
  3

  2
NBSYN
 70
     8
280
     0
  0
ATTDEF
  5
104
330
FC
100
AcDbEntity
  8
AM_6
100
AcDbText
 10
3.618375
 20
-0.0954999999999999
 30
0.0
 40
0.5
  1
2-3/16CS2i
100
AcDbAttributeDefinition
  3

  2
LINA
 70
     8
280
     0
  0
ATTDEF
  5
105
330
FC
100
AcDbEntity
  8
AM_6
100
AcDbText
 10
3.618375
 20
-0.5954999999999999
 30
0.0
 40
0.5
  1
2-3/16
100
AcDbAttributeDefinition
  3

  2
BORE
 70
     8
280
     0
  0
ATTDEF
  5
106
330
FC
100
AcDbEntity
  8
AM_6
100
AcDbText
 10
3.618375
 20
-1.0955
 30
0.0
 40
0.5
  1
2.187500
100
AcDbAttributeDefinition
  3

  2
BORE1
 70
     8
280
     0
  0
ATTDEF
  5
107
330
FC
100
AcDbEntity
  8
AM_6
100
AcDbText
 10
3.618375
 20
-1.5955
 30
0.0
 40
0.5
  1
3-3/4
100
AcDbAttributeDefinition
  3

  2
L1
 70
     8
280
     0
  0
ATTDEF
  5
108
330
FC
100
AcDbEntity
  8
AM_6
100
AcDbText
 10
3.618375
 20
-2.0955
 30
0.0
 40
0.5
  1
3.75000
100
AcDbAttributeDefinition
  3

  2
L
 70
     8
280
     0
  0
ATTDEF
  5
109
330
FC
100
AcDbEntity
  8
AM_6
100
AcDbText
 10
3.618375
 20
-2.5955
 30
0.0
 40
0.5
  1
3.65625
100
AcDbAttributeDefinition
  3

  2
L2
 70
     8
280
     0
  0
ATTDEF
  5
10A
330
FC
100
AcDbEntity
  8
AM_6
100
AcDbText
 10
3.618375
 20
-3.0955
 30
0.0
 40
0.5
  1
3.75
100
AcDbAttributeDefinition
  3

  2
A
 70
     8
280
     0
  0
ATTDEF
  5
10B
330
FC
100
AcDbEntity
  8
AM_6
100
AcDbText
 10
3.618375
 20
-3.5955
 30
0.0
 40
0.5
  1
1.66
100
AcDbAttributeDefinition
  3

  2
B
 70
     8
280
     0
  0
ATTDEF
  5
10C
330
FC
100
AcDbEntity
  8
AM_6
100
AcDbText
 10
3.618375
 20
-4.095499999999999
 30
0.0
 40
0.5
  1
2.62
100
AcDbAttributeDefinition
  3

  2
C
 70
     8
280
     0
  0
ATTDEF
  5
10D
330
FC
100
AcDbEntity
  8
AM_6
100
AcDbText
 10
3.618375
 20
-4.595499999999999
 30
0.0
 40
0.5
  1
3.81
100
AcDbAttributeDefinition
  3

  2
D
 70
     8
280
     0
  0
ATTDEF
  5
10E
330
FC
100
AcDbEntity
  8
AM_6
100
AcDbText
 10
3.618375
 20
-5.095499999999999
 30
0.0
 40
0.5
  1
0.41
100
AcDbAttributeDefinition
  3

  2
E
 70
     8
280
     0
  0
ATTDEF
  5
10F
330
FC
100
AcDbEntity
  8
AM_6
100
AcDbText
 10
3.618375
 20
-5.595499999999999
 30
0.0
 40
0.5
  1
0.317
100
AcDbAttributeDefinition
  3

  2
F
 70
     8
280
     0
  0
ATTDEF
  5
110
330
FC
100
AcDbEntity
  8
AM_6
100
AcDbText
 10
3.618375
 20
-6.095499999999999
 30
0.0
 40
0.5
  1
3/8-16
100
AcDbAttributeDefinition
  3

  2
CS
 70
     8
280
     0
  0
ATTDEF
  5
111
330
FC
100
AcDbEntity
  8
AM_6
100
AcDbText
 10
3.618375
 20
-6.595499999999999
 30
0.0
 40
0.5
  1
0.3750
100
AcDbAttributeDefinition
  3

  2
NDM
 70
     8
280
     0
  0
ATTDEF
  5
112
330
FC
100
AcDbEntity
  8
AM_6
100
AcDbText
 10
3.618375
 20
-7.095499999999999
 30
0.0
 40
0.5
  1
0.3070
100
AcDbAttributeDefinition
  3

  2
KDM
 70
     8
280
     0
  0
ATTDEF
  5
113
330
FC
100
AcDbEntity
  8
AM_6
100
AcDbText
 10
3.618375
 20
-7.595499999999999
 30
0.0
 40
0.5
  1
1
100
AcDbAttributeDefinition
  3

  2
DD
 70
     8
280
     0
  0
ATTDEF
  5
114
330
FC
100
AcDbEntity
  8
AM_6
100
AcDbText
 10
3.618375
 20
-8.0955
 30
0.0
 40
0.5
  1
baldor
100
AcDbAttributeDefinition
  3

  2
COMPANY
 70
     8
280
     0
  0
LINE
  5
115
330
FC
100
AcDbEntity
  8
AM_9
100
AcDbLine
 10
-1.544975
 20
1.318849999999998
 30
0.0
 11
-1.544975
 21
1.84115
 31
0.0
  0
LINE
  5
116
330
FC
100
AcDbEntity
  8
AM_9
100
AcDbLine
 10
-1.852275
 20
1.828083329217944
 30
0.0
 11
-1.852275
 21
1.318849999999998
 31
0.0
  0
LINE
  5
117
330
FC
100
AcDbEntity
  8
AM_9
100
AcDbLine
 10
-1.852275
 20
1.318849999999998
 30
0.0
 11
-1.544975
 21
1.318849999999998
 31
0.0
  0
LINE
  5
118
330
FC
100
AcDbEntity
  8
AM_9
100
AcDbLine
 10
-1.852275
 20
1.318849999999998
 30
0.0
 11
-1.86091057603507
 21
1.310214423964929
 31
0.0
  0
LINE
  5
119
330
FC
100
AcDbEntity
  8
AM_9
100
AcDbLine
 10
-1.536382778627882
 20
1.310257778627881
 30
0.0
 11
-1.544975
 21
1.318849999999998
 31
0.0
  0
LINE
  5
11A
330
FC
100
AcDbEntity
  8
AM_9
100
AcDbLine
 10
-1.698625
 20
1.84115
 30
0.0
 11
-1.544975
 21
1.84115
 31
0.0
  0
LINE
  5
11B
330
FC
100
AcDbEntity
  8
AM_9
100
AcDbLine
 10
-1.544975
 20
1.84115
 30
0.0
 11
-1.511125
 21
1.875
 31
0.0
  0
LWPOLYLINE
  5
11C
330
FC
100
AcDbEntity
  8
AM_9
100
AcDbPolyline
 90
       38
 70
     0
 43
0.0
 10
-1.578364795400335
 20
0.4454553340870209
 10
-1.563727157395506
 20
0.4643138121682407
 10
-1.55203469285707
 20
0.4847808473524228
 10
-1.54220677062218
 20
0.5106664144202897
 10
-1.536982915908209
 20
0.5374299934606555
 10
-1.536586035959137
 20
0.5652383606843941
 10
-1.541219424418918
 20
0.5924289346763261
 10
-1.550955223445364
 20
0.6184493365590064
 10
-1.565507177892986
 20
0.642358272311616
 10
-1.584236480547189
 20
0.663065224660515
 10
-1.606865600676215
 20
0.6804170158894296
 10
-1.631424513172281
 20
0.6931552315099777
 10
-1.658265596075073
 20
0.7018609413282767
 10
-1.684431879059509
 20
0.705941141979617
 10
-1.711038312255015
 20
0.7060923853880126
 10
-1.735983590402661
 20
0.7025249528871632
 10
-1.759897864413716
 20
0.6955229844667069
 10
-1.782396781918626
 20
0.6851391771507512
 10
-1.802705400446549
 20
0.6717929184556499
 10
-1.821353298023223
 20
0.6547784583698778
 10
-1.836713966392302
 20
0.6352898679140677
 10
-1.849149895961858
 20
0.6122153586641237
 10
-1.857280558172998
 20
0.5874328238680538
 10
-1.86096272390218
 20
0.560305729893561
 10
-1.859693765370068
 20
0.5327047496794325
 10
-1.853286891818041
 20
0.5049295051250278
 10
-1.841917117539707
 20
0.478284828221489
 10
-1.82592049681806
 20
0.4538558976382238
 10
-1.805638127851825
 20
0.4322506495427493
 10
-1.782549217417115
 20
0.4150329933045249
 10
-1.756579832298562
 20
0.4019704520501974
 10
-1.730523493763943
 20
0.3942096675082308
 10
-1.703439561680349
 20
0.3909818634271393
 10
-1.677909004110847
 20
0.3923016508464801
 10
-1.652970489956255
 20
0.3976903300900806
 10
-1.629545787962261
 20
0.4068619817596912
 10
-1.607942549032613
 20
0.419424355920897
 10
-1.578364795400335
 20
0.4454553340870212
  0
LINE
  5
11D
330
FC
100
AcDbEntity
  8
AM_9
100
AcDbLine
 10
-2.015625
 20
-1.31
 30
0.0
 11
-1.381625
 21
-1.31
 31
0.0
  0
LINE
  5
11E
330
FC
100
AcDbEntity
  8
AM_9
100
AcDbLine
 10
-1.381625
 20
1.31
 30
0.0
 11
-1.53672554714185
 21
1.31
 31
0.0
  0
LINE
  5
11F
330
FC
100
AcDbEntity
  8
AM_9
100
AcDbLine
 10
-1.860625242803868
 20
1.31
 30
0.0
 11
-2.015625
 21
1.31
 31
0.0
  0
LWPOLYLINE
  5
120
330
FC
100
AcDbEntity
  8
AM_9
100
AcDbPolyline
 90
       21
 70
     0
 43
0.0
 10
-1.861124999999663
 20
1.309999999999953
 10
-1.86092777892769
 20
1.309972087359224
 10
-1.85690141594891
 20
1.309409357790498
 10
-1.84797944446062
 20
1.308210936201127
 10
-1.833832843527011
 20
1.306448665357621
 10
-1.815937488178497
 20
1.304463909932972
 10
-1.793385408416193
 20
1.302355736591321
 10
-1.769509898216065
 20
1.300606511345046
 10
-1.742352222146959
 20
1.29922599636072
 10
-1.716607440638728
 20
1.298520061078894
 10
-1.689459429079859
 20
1.298413625064043
 10
-1.664736648408039
 20
1.298886781313496
 10
-1.640277034726319
 20
1.299888341515009
 10
-1.617860988033972
 20
1.301269778693122
 10
-1.597026601548725
 20
1.302948380784639
 10
-1.578282391076654
 20
1.304780658154192
 10
-1.562341068578944
 20
1.306576741861005
 10
-1.549560850865356
 20
1.30817306980801
 10
-1.540771488292912
 20
1.309351040898662
 10
-1.536489446203771
 20
1.309948445529012
 10
-1.536125000000161
 20
1.309999999999977
  0
LINE
  5
121
330
FC
100
AcDbEntity
  8
AM_9
100
AcDbLine
 10
-1.544975
 20
0.5573700944967208
 30
0.0
 11
-1.544975
 21
0.7781036126038889
 31
0.0
  0
LINE
  5
122
330
FC
100
AcDbEntity
  8
AM_9
100
AcDbLine
 10
-1.852275
 20
0.7725814182623202
 30
0.0
 11
-1.852275
 21
0.5573700944967208
 31
0.0
  0
ELLIPSE
  5
123
330
FC
100
AcDbEntity
  8
AM_9
100
AcDbEllipse
 10
-1.698625000000001
 20
0.5573700944967197
 30
0.0
 11
0.1536500000000014
 21
0.0
 31
0.0
210
0.0
220
0.0
230
1.0
 40
0.9063077870366506
 41
2.264630433990878
 42
7.198174671110777
  0
LINE
  5
124
330
FC
100
AcDbEntity
  8
AM_9
100
AcDbLine
 10
-1.698625
 20
0.6388494211257076
 30
0.0
 11
-1.698625
 21
0.9091195285357462
 31
0.0
  0
LINE
  5
125
330
FC
100
AcDbEntity
  8
AM_5
100
AcDbLine
 10
-1.886125
 20
1.828125
 30
0.0
 11
-1.886125
 21
1.31
 31
0.0
  0
LINE
  5
126
330
FC
100
AcDbEntity
  8
AM_5
100
AcDbLine
 10
-1.792375
 20
1.285
 30
0.0
 11
-1.886125
 21
1.285
 31
0.0
  0
LINE
  5
127
330
FC
100
AcDbEntity
  8
AM_5
100
AcDbLine
 10
-1.511125
 20
1.875
 30
0.0
 11
-1.511125
 21
1.31
 31
0.0
  0
LINE
  5
128
330
FC
100
AcDbEntity
  8
AM_5
100
AcDbLine
 10
-1.604875
 20
1.285
 30
0.0
 11
-1.511125
 21
1.285
 31
0.0
  0
LINE
  5
12B
330
FC
100
AcDbEntity
  8
AM_7
100
AcDbLine
 10
-1.698625
 20
1.9045
 30
0.0
 11
-1.698625
 21
-0.0671794871794872
 31
0.0
  0
ELLIPSE
  5
12C
330
FC
100
AcDbEntity
  8
AM_4
100
AcDbEllipse
 10
-1.698625
 20
0.5573700944967191
 30
0.0
 11
0.1536500000000012
 21
0.0
 31
0.0
210
0.0
220
0.0
230
1.0
 40
0.9063077870366532
 41
1.570796326794897
 42
2.264630433990882
  0
LWPOLYLINE
  5
12D
330
FC
100
AcDbEntity
  8
AM_4
100
AcDbPolyline
 90
       11
 70
     0
 43
0.0
 10
-1.852274999327498
 20
0.7725859809452943
 10
-1.851271716688784
 20
0.7884511023625607
 10
-1.846172203614805
 20
0.8111928557821327
 10
-1.836944800313571
 20
0.8327158002328813
 10
-1.823778009545071
 20
0.8524401189313028
 10
-1.807105178782845
 20
0.8698476952719474
 10
-1.787283694300662
 20
0.884493413076928
 10
-1.764957860650557
 20
0.8959843133612968
 10
-1.740723999109214
 20
0.9039823090238623
 10
-1.715295305966226
 20
0.908329740602742
 10
-1.698625
 20
0.9091195285357463
  0
ELLIPSE
  5
12E
330
FC
100
AcDbEntity
  8
AM_4
100
AcDbEllipse
 10
-1.698625
 20
0.7781036126038889
 30
0.0
 11
0.1536499999999998
 21
0.0
 31
0.0
210
0.0
220
0.0
230
1.0
 40
0.9063077870366497
 41
0.0
 42
1.570796326794897
  0
ELLIPSE
  5
12F
330
FC
100
AcDbEntity
  8
AM_4
100
AcDbEllipse
 10
-1.698625
 20
0.5573700944967208
 30
0.0
 11
0.1536499999999998
 21
0.0
 31
0.0
210
0.0
220
0.0
230
1.0
 40
0.9063077870366512
 41
0.914989363931193
 42
1.570796326794897
  0
LINE
  5
130
330
FC
100
AcDbEntity
  8
AM_4
100
AcDbLine
 10
-1.698625
 20
-1.875
 30
0.0
 11
-1.698625
 21
0.6388494211257076
 31
0.0
  0
ELLIPSE
  5
131
330
FC
100
AcDbEntity
  8
AM_4
100
AcDbEllipse
 10
-1.698625
 20
0.7781036126038887
 30
0.0
 11
0.1536499999999998
 21
0.0
 31
0.0
210
0.0
220
0.0
230
1.0
 40
0.9063077870366497
 41
4.71238898038469
 42
6.283185307179586
  0
LINE
  5
132
330
FC
100
AcDbEntity
  8
AM_4
100
AcDbLine
 10
-2.015625
 20
1.722458333333333
 30
0.0
 11
-2.015625
 21
-1.722458333333333
 31
0.0
  0
ARC
  5
133
330
FC
100
AcDbEntity
  8
AM_4
100
AcDbCircle
 10
-1.909958333333334
 20
-1.722458333333334
 30
0.0
 40
0.1056666666666661
100
AcDbArc
 50
180.0
 51
270.0
  0
ARC
  5
134
330
FC
100
AcDbEntity
  8
AM_4
100
AcDbCircle
 10
-1.909958333333334
 20
1.722458333333334
 30
0.0
 40
0.1056666666666659
100
AcDbArc
 50
90.0
 51
180.0
  0
LWPOLYLINE
  5
135
330
FC
100
AcDbEntity
  8
AM_4
100
AcDbPolyline
 90
       11
 70
     0
 43
0.0
 10
-1.698625
 20
0.6306111455793838
 10
-1.724367001669665
 20
0.6326715615160058
 10
-1.749382162170251
 20
0.6387275175994213
 10
-1.772943464068365
 20
0.6486412483761171
 10
-1.794415533406881
 20
0.6620494027104202
 10
-1.813201072959489
 20
0.678624305216736
 10
-1.828762133692954
 20
0.6977944319457977
 10
-1.84062515575863
 20
0.7190480958209339
 10
-1.848478561651678
 20
0.7417016029853343
 10
-1.852033641025081
 20
0.7650447766126816
 10
-1.852274999327498
 20
0.7725859809452943
  0
LWPOLYLINE
  5
136
330
FC
100
AcDbEntity
  8
AM_4
100
AcDbPolyline
 90
       11
 70
     0
 43
0.0
 10
-1.698625
 20
1.821656579359842
 10
-1.724003581085125
 20
1.821833352835241
 10
-1.749382162170251
 20
1.822363570376827
 10
-1.772628068523618
 20
1.823159111892298
 10
-1.794415533406881
 20
1.824173379757356
 10
-1.812965658393714
 20
1.825241485197755
 10
-1.828762133692954
 20
1.826299090152218
 10
-1.840496482833742
 20
1.827172736980947
 10
-1.848478561651678
 20
1.827809832303321
 10
-1.852028588022121
 20
1.828104306089524
 10
-1.852274999999967
 20
1.828124999999997
  0
LINE
  5
137
330
FC
100
AcDbEntity
  8
AM_4
100
AcDbLine
 10
-1.909958333333333
 20
-1.828125
 30
0.0
 11
-1.698625
 21
-1.828125
 31
0.0
  0
LINE
  5
138
330
FC
100
AcDbEntity
  8
AM_4
100
AcDbLine
 10
-1.851777582670805
 20
1.828125
 30
0.0
 11
-1.909958333333333
 21
1.828125
 31
0.0
  0
LINE
  5
139
330
FC
100
AcDbEntity
  8
AM_4
100
AcDbLine
 10
-1.909958333333333
 20
1.828125
 30
0.0
 11
-1.909958333333333
 21
-1.828125
 31
0.0
  0
LINE
  5
13A
330
FC
100
AcDbEntity
  8
AM_4
100
AcDbLine
 10
-1.698625
 20
1.866441760747098
 30
0.0
 11
-1.698625
 21
0.9091195285357462
 31
0.0
  0
LWPOLYLINE
  5
13B
330
FC
100
AcDbEntity
  8
AM_4
100
AcDbPolyline
 90
       20
 70
     0
 43
0.0
 10
-1.698625
 20
0.9509686837583332
 10
-1.675173747672894
 20
0.9497457225902538
 10
-1.652062321172983
 20
0.9461032026400715
 10
-1.620946107221946
 20
0.9369778880164144
 10
-1.592073797452761
 20
0.9233682836411279
 10
-1.566761994364871
 20
0.905800530010022
 10
-1.545327054368457
 20
0.8845362938933454
 10
-1.529149472185907
 20
0.8610305271157318
 10
-1.517861115849509
 20
0.8351969922119378
 10
-1.5121471591861
 20
0.8090871796794104
 10
-1.511490128966385
 20
0.7822885537201293
 10
-1.515783322171802
 20
0.7564098740115107
 10
-1.524701016102374
 20
0.7313679146634914
 10
-1.538079347795305
 20
0.7077554413852051
 10
-1.555387372346376
 20
0.6863127232992426
 10
-1.576962160993076
 20
0.6669855299075292
 10
-1.601564649917972
 20
0.6510432254022286
 10
-1.629844315209771
 20
0.6384454793256094
 10
-1.65991887625647
 20
0.6302703343762718
 10
-1.698625
 20
0.626616061376045
  0
LINE
  5
13C
330
FC
100
AcDbEntity
  8
AM_4
100
AcDbLine
 10
-1.698625
 20
-1.875
 30
0.0
 11
-1.381625
 21
-1.875
 31
0.0
  0
LINE
  5
13D
330
FC
100
AcDbEntity
  8
AM_4
100
AcDbLine
 10
-1.381625
 20
1.875
 30
0.0
 11
-1.511125
 21
1.875
 31
0.0
  0
LWPOLYLINE
  5
13E
330
FC
100
AcDbEntity
  8
AM_4
100
AcDbPolyline
 90
       11
 70
     0
 43
0.0
 10
-1.51112500000004
 20
1.874999999999996
 10
-1.511490128966385
 20
1.87496683824421
 10
-1.515672077974399
 20
1.874591560735137
 10
-1.524701016102374
 20
1.873809810684511
 10
-1.537861501685282
 20
1.872740227696645
 10
-1.555387372346376
 20
1.871444967628002
 10
-1.576650438991017
 20
1.870072237051632
 10
-1.601564649917972
 20
1.868742094251962
 10
-1.629447784430437
 20
1.867610918815138
 10
-1.65991887625647
 20
1.866807925783103
 10
-1.698625
 20
1.866441760747098
  0
LINE
  5
13F
330
FC
100
AcDbEntity
  8
AM_4
100
AcDbLine
 10
-1.381625
 20
1.875
 30
0.0
 11
-1.381625
 21
-1.875
 31
0.0
  0
ENDBLK
  5
FF
330
FC
100
AcDbEntity
  8
0
100
AcDbBlockEnd
  0
BLOCK
  5
142
330
140
100
AcDbEntity
  8
0
100
AcDbBlockBegin
  2
4_070007i_0_in_070813_2
 70
     2
 10
0.0
 20
0.0
 30
0.0
  3
4_070007i_0_in_070813_2
  1

  0
ATTDEF
  5
144
330
140
100
AcDbEntity
  8
AM_6
100
AcDbText
 10
5.921875
 20
1.9685
 30
0.0
 40
0.5
  1
S-2000 Insert -Inch
100
AcDbAttributeDefinition
  3

  2
NN
 70
     8
280
     0
  0
ATTDEF
  5
145
330
140
100
AcDbEntity
  8
AM_6
100
AcDbText
 10
5.921875
 20
1.4685
 30
0.0
 40
0.5
  1
S-2000 Bearings
100
AcDbAttributeDefinition
  3

  2
NT
 70
     8
280
     0
  0
ATTDEF
  5
146
330
140
100
AcDbEntity
  8
AM_6
100
AcDbText
 10
5.921875
 20
0.9684999999999997
 30
0.0
 40
0.5
  1
070007i
100
AcDbAttributeDefinition
  3

  2
NB
 70
     8
280
     0
  0
ATTDEF
  5
147
330
140
100
AcDbEntity
  8
AM_6
100
AcDbText
 10
5.921875
 20
0.4684999999999997
 30
0.0
 40
0.5
  1
$PN.i
100
AcDbAttributeDefinition
  3

  2
NBSYN
 70
     8
280
     0
  0
ATTDEF
  5
148
330
140
100
AcDbEntity
  8
AM_6
100
AcDbText
 10
5.921875
 20
-0.0315000000000003
 30
0.0
 40
0.5
  1
070007i
100
AcDbAttributeDefinition
  3

  2
LINA
 70
     8
280
     0
  0
ATTDEF
  5
149
330
140
100
AcDbEntity
  8
AM_6
100
AcDbText
 10
5.921875
 20
-0.5315000000000003
 30
0.0
 40
0.5
  1
2-3/16
100
AcDbAttributeDefinition
  3

  2
SS
 70
     8
280
     0
  0
ATTDEF
  5
14A
330
140
100
AcDbEntity
  8
AM_6
100
AcDbText
 10
5.921875
 20
-1.0315
 30
0.0
 40
0.5
  1
2.62
100
AcDbAttributeDefinition
  3

  2
CC
 70
     8
280
     0
  0
ATTDEF
  5
14B
330
140
100
AcDbEntity
  8
AM_6
100
AcDbText
 10
5.921875
 20
-1.5315
 30
0.0
 40
0.5
  1
2.187500
100
AcDbAttributeDefinition
  3

  2
SS1
 70
     8
280
     0
  0
ATTDEF
  5
14C
330
140
100
AcDbEntity
  8
AM_6
100
AcDbText
 10
5.921875
 20
-2.0315
 30
0.0
 40
0.5
  1
070007
100
AcDbAttributeDefinition
  3

  2
PN
 70
     8
280
     0
  0
ATTDEF
  5
14D
330
140
100
AcDbEntity
  8
AM_6
100
AcDbText
 10
5.921875
 20
-2.5315
 30
0.0
 40
0.5
  1
INS-S2-203R
100
AcDbAttributeDefinition
  3

  2
DESCRIPTION
 70
     8
280
     0
  0
ATTDEF
  5
14E
330
140
100
AcDbEntity
  8
AM_6
100
AcDbText
 10
5.921875
 20
-3.0315
 30
0.0
 40
0.5
  1
Contact Seal
100
AcDbAttributeDefinition
  3

  2
ST
 70
     8
280
     0
  0
ATTDEF
  5
14F
330
140
100
AcDbEntity
  8
AM_6
100
AcDbText
 10
5.921875
 20
-3.5315
 30
0.0
 40
0.5
  1
1
100
AcDbAttributeDefinition
  3

  2
ST1
 70
     8
280
     0
  0
ATTDEF
  5
150
330
140
100
AcDbEntity
  8
AM_6
100
AcDbText
 10
5.921875
 20
-4.0315
 30
0.0
 40
0.5
  1
3.9370
100
AcDbAttributeDefinition
  3

  2
A
 70
     8
280
     0
  0
ATTDEF
  5
151
330
140
100
AcDbEntity
  8
AM_6
100
AcDbText
 10
5.921875
 20
-4.5315
 30
0.0
 40
0.5
  1
1-3/64
100
AcDbAttributeDefinition
  3

  2
B
 70
     8
280
     0
  0
ATTDEF
  5
152
330
140
100
AcDbEntity
  8
AM_6
100
AcDbText
 10
5.921875
 20
-5.0315
 30
0.0
 40
0.5
  1
2-15/16
100
AcDbAttributeDefinition
  3

  2
C
 70
     8
280
     0
  0
ATTDEF
  5
153
330
140
100
AcDbEntity
  8
AM_6
100
AcDbText
 10
5.921875
 20
-5.5315
 30
0.0
 40
0.5
  1
1.050
100
AcDbAttributeDefinition
  3

  2
D
 70
     8
280
     0
  0
ATTDEF
  5
154
330
140
100
AcDbEntity
  8
AM_6
100
AcDbText
 10
5.921875
 20
-6.0315
 30
0.0
 40
0.5
  1
3-21/32
100
AcDbAttributeDefinition
  3

  2
E
 70
     8
280
     0
  0
ATTDEF
  5
155
330
140
100
AcDbEntity
  8
AM_6
100
AcDbText
 10
5.921875
 20
-6.5315
 30
0.0
 40
0.5
  1
0.40625
100
AcDbAttributeDefinition
  3

  2
F
 70
     8
280
     0
  0
ATTDEF
  5
156
330
140
100
AcDbEntity
  8
AM_6
100
AcDbText
 10
5.921875
 20
-7.0315
 30
0.0
 40
0.5
  1
1
100
AcDbAttributeDefinition
  3

  2
DD
 70
     8
280
     0
  0
ATTDEF
  5
157
330
140
100
AcDbEntity
  8
AM_6
100
AcDbText
 10
5.921875
 20
-7.5315
 30
0.0
 40
0.5
  1
baldor
100
AcDbAttributeDefinition
  3

  2
COMPANY
 70
     8
280
     0
  0
LINE
  5
158
330
140
100
AcDbEntity
  8
AM_9
100
AcDbLine
 10
-1.903625
 20
1.309893343729898
 30
0.0
 11
-1.903625
 21
1.09375
 31
0.0
  0
LINE
  5
159
330
140
100
AcDbEntity
  8
AM_9
100
AcDbLine
 10
-1.493625
 20
1.09375
 30
0.0
 11
-1.493625
 21
1.309979004003506
 31
0.0
  0
LINE
  5
15A
330
140
100
AcDbEntity
  8
AM_9
100
AcDbLine
 10
-1.903625
 20
0.5536299228803162
 30
0.0
 11
-1.903625
 21
0.4622182288331491
 31
0.0
  0
LINE
  5
15B
330
140
100
AcDbEntity
  8
AM_9
100
AcDbLine
 10
-1.493625
 20
0.4621839774865027
 30
0.0
 11
-1.493625
 21
0.5536299228803162
 31
0.0
  0
LWPOLYLINE
  5
15C
330
140
100
AcDbEntity
  8
AM_9
100
AcDbPolyline
 90
        4
 70
     0
 43
0.0
 10
-1.897426377757419
 20
0.5070975772719793
 10
-1.900074829596604
 20
0.4962786578354733
 10
-1.903596255466083
 20
0.4653476622504734
 10
-1.903624999263455
 20
0.4622544732447242
  0
LWPOLYLINE
  5
15D
330
140
100
AcDbEntity
  8
AM_9
100
AcDbPolyline
 90
        5
 70
     0
 43
0.0
 10
-1.849045194634028
 20
0.5847056740079799
 10
-1.85625519505583
 20
0.577692190416864
 10
-1.87607281651697
 20
0.5531943244937183
 10
-1.890862562367084
 20
0.525789123689773
 10
-1.897426377757419
 20
0.5070975772719793
  0
LWPOLYLINE
  5
15E
330
140
100
AcDbEntity
  8
AM_9
100
AcDbPolyline
 90
        6
 70
     0
 43
0.0
 10
-1.739396134865254
 20
0.6364553927909335
 10
-1.741781960913158
 20
0.6360425348356541
 10
-1.774217788977798
 20
0.6278534448373143
 10
-1.804560554185032
 20
0.6153121716665402
 10
-1.832260862579424
 20
0.5984150989118975
 10
-1.849045194634028
 20
0.5847056740079799
  0
LWPOLYLINE
  5
15F
330
140
100
AcDbEntity
  8
AM_9
100
AcDbPolyline
 90
        7
 70
     0
 43
0.0
 10
-1.549365225185078
 20
0.5857643466631977
 10
-1.551706848137523
 20
0.587846423751119
 10
-1.577821050986026
 20
0.6069940469390253
 10
-1.607369082465577
 20
0.6220514658817197
 10
-1.639636661326747
 20
0.6326485166386171
 10
-1.673625272164696
 20
0.6385763295462018
 10
-1.695248140384737
 20
0.6398171682855092
  0
LWPOLYLINE
  5
160
330
140
100
AcDbEntity
  8
AM_9
100
AcDbPolyline
 90
        5
 70
     0
 43
0.0
 10
-1.500165371987768
 20
0.5082847803023045
 10
-1.501263227981815
 20
0.5118200844270712
 10
-1.513078382857473
 20
0.539765421327479
 10
-1.530091311747424
 20
0.5653453642049191
 10
-1.549365225185078
 20
0.5857643466631977
  0
LWPOLYLINE
  5
161
330
140
100
AcDbEntity
  8
AM_9
100
AcDbPolyline
 90
        3
 70
     0
 43
0.0
 10
-1.493625000598485
 20
0.4622245268108323
 10
-1.494810919992238
 20
0.4821007191227428
 10
-1.500165371987768
 20
0.5082847803023045
  0
LWPOLYLINE
  5
162
330
140
100
AcDbEntity
  8
AM_9
100
AcDbPolyline
 90
       11
 70
     0
 43
0.0
 10
-1.903624999263455
 20
0.4622544732447242
 10
-1.901310776092236
 20
0.4343422182949456
 10
-1.89346902015236
 20
0.4036995398140625
 10
-1.880260464307554
 20
0.3743867523214272
 10
-1.862127689581855
 20
0.3472005841005791
 10
-1.839152891358673
 20
0.3226689183680379
 10
-1.812248733254016
 20
0.3019357855998276
 10
-1.781812443334288
 20
0.2856211346975015
 10
-1.748960312723606
 20
0.2744396870130477
 10
-1.72399313203633
 20
0.2698154075035102
 10
-1.698625
 20
0.2682539413190878
  0
LWPOLYLINE
  5
163
330
140
100
AcDbEntity
  8
AM_9
100
AcDbPolyline
 90
        8
 70
     0
 43
0.0
 10
-1.574964414114484
 20
0.6974843964172739
 10
-1.563682946768477
 20
0.6896166789525782
 10
-1.53982403062212
 20
0.6684084307928593
 10
-1.520281766026592
 20
0.6435572250935263
 10
-1.505785917379447
 20
0.6158884430004011
 10
-1.496862237715455
 20
0.5861937140470106
 10
-1.493632330194224
 20
0.5552006020308803
 10
-1.493625000267581
 20
0.5536394156829167
  0
LWPOLYLINE
  5
164
330
140
100
AcDbEntity
  8
AM_9
100
AcDbPolyline
 90
       10
 70
     0
 43
0.0
 10
-1.826357271223129
 20
0.6947861646093845
 10
-1.818480437236501
 20
0.6998587553742849
 10
-1.788837331163462
 20
0.7149728906240802
 10
-1.756546540617336
 20
0.7255617860156123
 10
-1.722583571218725
 20
0.7314226882240419
 10
-1.688281547522722
 20
0.7323666324403301
 10
-1.654273783836643
 20
0.7285230869284877
 10
-1.621718384884042
 20
0.7199801600845697
 10
-1.591303600926211
 20
0.7069852325773576
 10
-1.574964414114484
 20
0.6974843964172739
  0
LWPOLYLINE
  5
165
330
140
100
AcDbEntity
  8
AM_9
100
AcDbPolyline
 90
        7
 70
     0
 43
0.0
 10
-1.903624999289626
 20
0.553614455644713
 10
-1.902382559447961
 20
0.5739722612883434
 10
-1.895798984341719
 20
0.6038998236435441
 10
-1.883798897281876
 20
0.6320926815568071
 10
-1.8665771331698
 20
0.6578989426016884
 10
-1.84472348665385
 20
0.6806167012475527
 10
-1.826357271223129
 20
0.6947861646093845
  0
LWPOLYLINE
  5
166
330
140
100
AcDbEntity
  8
AM_9
100
AcDbPolyline
 90
       11
 70
     0
 43
0.0
 10
-1.493625000267581
 20
0.5536394156829167
 10
-1.4962197362227
 20
0.5241094091564467
 10
-1.504399543775759
 20
0.4934948914797351
 10
-1.517991491030943
 20
0.4642954315170981
 10
-1.536539395415116
 20
0.4373305067264196
 10
-1.559849482383055
 20
0.4132219087172119
 10
-1.587053635743626
 20
0.3929722563492812
 10
-1.617636909521858
 20
0.3772226223025424
 10
-1.650552054067792
 20
0.3665740063789005
 10
-1.674415928435695
 20
0.3624172260917353
 10
-1.698625
 20
0.3610159801704899
  0
LWPOLYLINE
  5
167
330
140
100
AcDbEntity
  8
AM_9
100
AcDbPolyline
 90
       11
 70
     0
 43
0.0
 10
-1.698625
 20
0.2682539413190878
 10
-1.664551809952118
 20
0.2710889446686107
 10
-1.631447377970733
 20
0.2793995490425911
 10
-1.600283066171018
 20
0.2929478083981996
 10
-1.571853904633594
 20
0.3111883198535711
 10
-1.546706647604525
 20
0.33384279718671
 10
-1.525806480916717
 20
0.3599480618745632
 10
-1.509694561302902
 20
0.3889543411791222
 10
-1.498954080184507
 20
0.4197344304079162
 10
-1.494021399590419
 20
0.4509779725123085
 10
-1.493625000598485
 20
0.4622245268108323
  0
LWPOLYLINE
  5
168
330
140
100
AcDbEntity
  8
AM_9
100
AcDbPolyline
 90
       11
 70
     0
 43
0.0
 10
-1.698625
 20
1.074366819340583
 10
-1.665036188985366
 20
1.074891748375331
 10
-1.631447377970732
 20
1.076464999617501
 10
-1.600692842799307
 20
1.078821009210509
 10
-1.571853904633593
 20
1.081820212937621
 10
-1.547019193220719
 20
1.085010775591283
 10
-1.525806480916717
 20
1.088177514488394
 10
-1.509873788877667
 20
1.090821287929488
 10
-1.498954080184507
 20
1.092763715869064
 10
-1.494030996541589
 20
1.09367397735849
 10
-1.49362500000072
 20
1.093749999999865
  0
LINE
  5
169
330
140
100
AcDbEntity
  8
AM_9
100
AcDbLine
 10
0.921875
 20
1.09375
 30
0.0
 11
-1.493625
 21
1.09375
 31
0.0
  0
LINE
  5
16A
330
140
100
AcDbEntity
  8
AM_9
100
AcDbLine
 10
-1.903625
 20
1.09375
 30
0.0
 11
-2.015625
 21
1.09375
 31
0.0
  0
LINE
  5
16B
330
140
100
AcDbEntity
  8
AM_9
100
AcDbLine
 10
-2.015625
 20
-1.09375
 30
0.0
 11
0.921875
 21
-1.09375
 31
0.0
  0
LINE
  5
16C
330
140
100
AcDbEntity
  8
AM_9
100
AcDbLine
 10
-1.898234746264073
 20
1.092752539829401
 30
0.0
 11
-1.90362499999919
 21
1.093749999999848
 31
0.0
  0
LINE
  5
16D
330
140
100
AcDbEntity
  8
AM_9
100
AcDbLine
 10
-1.685991823913492
 20
1.074441091748643
 30
0.0
 11
-1.703835646843653
 21
1.074379455006717
 31
0.0
  0
LWPOLYLINE
  5
16E
330
140
100
AcDbEntity
  8
AM_9
100
AcDbPolyline
 90
       11
 70
     0
 43
0.0
 10
-1.90362499999919
 20
1.093749999999848
 10
-1.901403757985553
 20
1.093335852878777
 10
-1.89346902015236
 20
1.091892052672394
 10
-1.880495646114056
 20
1.089651776678194
 10
-1.862127689581855
 20
1.086736947011787
 10
-1.83951832738306
 20
1.083565868879723
 10
-1.812248733254016
 20
1.080358466092889
 10
-1.782287079714042
 20
1.077619323361491
 10
-1.748960312723606
 20
1.075545306440869
 10
-1.724195268450788
 20
1.074671066479714
 10
-1.698625
 20
1.074366819340583
  0
LWPOLYLINE
  5
16F
330
140
100
AcDbEntity
  8
AM_9
100
AcDbPolyline
 90
       11
 70
     0
 43
0.0
 10
-1.698625
 20
0.3610159801704899
 10
-1.732801491401275
 20
0.3638286216734344
 10
-1.766008885282032
 20
0.3720808611847762
 10
-1.797276355867768
 20
0.3855525929836366
 10
-1.825788968963368
 20
0.4037159041225188
 10
-1.850905176973312
 20
0.4262256408506708
 10
-1.871753295183939
 20
0.4521882775907386
 10
-1.887756762130507
 20
0.4809951964714891
 10
-1.89839706533389
 20
0.5115971180560214
 10
-1.903257720287751
 20
0.5428162977041567
 10
-1.903624999289626
 20
0.553614455644713
  0
LWPOLYLINE
  5
170
330
140
100
AcDbEntity
  8
AM_9
100
AcDbPolyline
 90
       11
 70
     0
 43
0.0
 10
-1.698625
 20
1.293860502527224
 10
-1.732316942641016
 20
1.294299094876808
 10
-1.766008885282032
 20
1.295613981089932
 10
-1.796862424949583
 20
1.297584521971777
 10
-1.825788968963368
 20
1.30009448695182
 10
-1.850592013607561
 20
1.30275437946867
 10
-1.871753295183939
 20
1.30539205091547
 10
-1.887580425548667
 20
1.307585237315058
 10
-1.89839706533389
 20
1.309192070739724
 10
-1.903249220358585
 20
1.309941247368506
 10
-1.903624999999582
 20
1.309999999999934
  0
LINE
  5
171
330
140
100
AcDbEntity
  8
AM_9
100
AcDbLine
 10
-1.381625
 20
1.31
 30
0.0
 11
-1.49376065181222
 21
1.31
 31
0.0
  0
LINE
  5
172
330
140
100
AcDbEntity
  8
AM_9
100
AcDbLine
 10
-0.975375
 20
1.31
 30
0.0
 11
-1.125
 21
1.31
 31
0.0
  0
LINE
  5
173
330
140
100
AcDbEntity
  8
AM_9
100
AcDbLine
 10
-1.902941511093212
 20
1.31
 30
0.0
 11
-2.015625
 21
1.31
 31
0.0
  0
LINE
  5
174
330
140
100
AcDbEntity
  8
AM_9
100
AcDbLine
 10
-1.125
 20
-1.31
 30
0.0
 11
-0.975375
 21
-1.31
 31
0.0
  0
LINE
  5
175
330
140
100
AcDbEntity
  8
AM_9
100
AcDbLine
 10
-2.015625
 20
-1.31
 30
0.0
 11
-1.381625
 21
-1.31
 31
0.0
  0
LINE
  5
176
330
140
100
AcDbEntity
  8
AM_9
100
AcDbLine
 10
-1.504698689664347
 20
1.308312811922439
 30
0.0
 11
-1.493625000000145
 21
1.309999999999977
 31
0.0
  0
LINE
  5
177
330
140
100
AcDbEntity
  8
AM_9
100
AcDbLine
 10
-1.710714482086713
 20
1.293916981717573
 30
0.0
 11
-1.69248742165621
 21
1.293875059605032
 31
0.0
  0
LWPOLYLINE
  5
178
330
140
100
AcDbEntity
  8
AM_9
100
AcDbPolyline
 90
       11
 70
     0
 43
0.0
 10
-1.493625000000145
 20
1.309999999999977
 10
-1.49612233746582
 20
1.309611518097421
 10
-1.504399543775759
 20
1.30835718664496
 10
-1.517748465982591
 20
1.306442237742699
 10
-1.536539395415116
 20
1.303973444213358
 10
-1.559477140414748
 20
1.301321300381715
 10
-1.587053635743626
 20
1.298662068947125
 10
-1.617163939551794
 20
1.296422347990556
 10
-1.650552054067792
 20
1.294753261486759
 10
-1.674242058809412
 20
1.294090231715356
 10
-1.698625
 20
1.293860502527224
  0
LINE
  5
179
330
140
100
AcDbEntity
  8
AM_9
100
AcDbLine
 10
0.921875
 20
-1.31
 30
0.0
 11
0.921875
 21
1.31
 31
0.0
  0
LINE
  5
17A
330
140
100
AcDbEntity
  8
AM_9
100
AcDbLine
 10
0.921875
 20
1.31
 30
0.0
 11
0.7191250000000001
 21
1.31
 31
0.0
  0
LINE
  5
17B
330
140
100
AcDbEntity
  8
AM_9
100
AcDbLine
 10
0.7191250000000001
 20
-1.31
 30
0.0
 11
0.921875
 21
-1.31
 31
0.0
  0
LINE
  5
17C
330
140
100
AcDbEntity
  8
AM_9
100
AcDbLine
 10
-0.9753750000000001
 20
-1.4701125
 30
0.0
 11
-0.9753750000000001
 21
1.4701125
 31
0.0
  0
ARC
  5
17D
330
140
100
AcDbEntity
  8
AM_9
100
AcDbCircle
 10
-0.8706874999999997
 20
1.470112499999999
 30
0.0
 40
0.1046875000000005
100
AcDbArc
 50
90.0
 51
180.0
  0
ARC
  5
17E
330
140
100
AcDbEntity
  8
AM_9
100
AcDbCircle
 10
-0.8706875
 20
-1.470112499999999
 30
0.0
 40
0.1046875000000002
100
AcDbArc
 50
179.9999991462263
 51
270.0
  0
LINE
  5
17F
330
140
100
AcDbEntity
  8
AM_9
100
AcDbLine
 10
-0.8706875000000001
 20
-1.5748
 30
0.0
 11
-0.8706875000000001
 21
1.5748
 31
0.0
  0
LINE
  5
180
330
140
100
AcDbEntity
  8
AM_9
100
AcDbLine
 10
-0.6515625000000002
 20
1.5748
 30
0.0
 11
-0.8706875000000001
 21
1.5748
 31
0.0
  0
LINE
  5
181
330
140
100
AcDbEntity
  8
AM_9
100
AcDbLine
 10
-0.8706875000000001
 20
-1.5748
 30
0.0
 11
-0.6515625000000002
 21
-1.5748
 31
0.0
  0
LINE
  5
182
330
140
100
AcDbEntity
  8
AM_9
100
AcDbLine
 10
0.7191250000000001
 20
-1.470112500000001
 30
0.0
 11
0.7191250000000001
 21
1.470112500000001
 31
0.0
  0
ARC
  5
183
330
140
100
AcDbEntity
  8
AM_9
100
AcDbCircle
 10
0.6144375000000002
 20
1.4701125
 30
0.0
 40
0.1046874999999999
100
AcDbArc
 50
0.0
 51
90.0
  0
ARC
  5
184
330
140
100
AcDbEntity
  8
AM_9
100
AcDbCircle
 10
0.6144375000000005
 20
-1.4701125
 30
0.0
 40
0.1046874999999998
100
AcDbArc
 50
270.0
 51
0.0
  0
LINE
  5
185
330
140
100
AcDbEntity
  8
AM_9
100
AcDbLine
 10
0.6144375
 20
-1.5748
 30
0.0
 11
0.6144375
 21
1.5748
 31
0.0
  0
LINE
  5
186
330
140
100
AcDbEntity
  8
AM_9
100
AcDbLine
 10
0.6144375
 20
1.5748
 30
0.0
 11
0.3953125000000001
 21
1.5748
 31
0.0
  0
LINE
  5
187
330
140
100
AcDbEntity
  8
AM_9
100
AcDbLine
 10
0.3953125000000001
 20
-1.5748
 30
0.0
 11
0.6144375
 21
-1.5748
 31
0.0
  0
LINE
  5
188
330
140
100
AcDbEntity
  8
AM_9
100
AcDbLine
 10
-0.0757812499999975
 20
1.88976
 30
0.0
 11
-0.1804687500000026
 21
1.88976
 31
0.0
  0
LINE
  5
189
330
140
100
AcDbEntity
  8
AM_9
100
AcDbLine
 10
-0.1804687500000026
 20
-1.88976
 30
0.0
 11
-0.0757812499999975
 21
-1.88976
 31
0.0
  0
LINE
  5
18A
330
140
100
AcDbEntity
  8
AM_9
100
AcDbLine
 10
-0.6515625000000002
 20
-1.8638125
 30
0.0
 11
-0.6515625000000002
 21
1.8638125
 31
0.0
  0
ARC
  5
18B
330
140
100
AcDbEntity
  8
AM_9
100
AcDbCircle
 10
-0.5468750000000009
 20
1.8638125
 30
0.0
 40
0.1046874999999994
100
AcDbArc
 50
90.0
 51
180.0
  0
ARC
  5
18C
330
140
100
AcDbEntity
  8
AM_9
100
AcDbCircle
 10
-0.5468750000000009
 20
-1.8638125
 30
0.0
 40
0.1046874999999993
100
AcDbArc
 50
180.0
 51
270.0
  0
LINE
  5
18D
330
140
100
AcDbEntity
  8
AM_9
100
AcDbLine
 10
0.3953124999999998
 20
-1.863812501559965
 30
0.0
 11
0.3953124999999998
 21
1.863812501559965
 31
0.0
  0
ARC
  5
18E
330
140
100
AcDbEntity
  8
AM_9
100
AcDbCircle
 10
0.2906250000000009
 20
1.863812500000001
 30
0.0
 40
0.104687499999999
100
AcDbArc
 50
0.0000008537736463
 51
90.0
  0
ARC
  5
18F
330
140
100
AcDbEntity
  8
AM_9
100
AcDbCircle
 10
0.2906249999999994
 20
-1.863812499999999
 30
0.0
 40
0.1046875000000003
100
AcDbArc
 50
270.0
 51
0.0000008537736463
  0
LINE
  5
190
330
140
100
AcDbEntity
  8
AM_9
100
AcDbLine
 10
-0.5468750000000006
 20
-1.9685
 30
0.0
 11
-0.5468750000000006
 21
1.9685
 31
0.0
  0
LINE
  5
191
330
140
100
AcDbEntity
  8
AM_9
100
AcDbLine
 10
-0.2259293101959936
 20
1.9685
 30
0.0
 11
-0.5468750000000006
 21
1.9685
 31
0.0
  0
LINE
  5
192
330
140
100
AcDbEntity
  8
AM_9
100
AcDbLine
 10
-0.5468750000000006
 20
-1.9685
 30
0.0
 11
-0.2259293101959936
 21
-1.9685
 31
0.0
  0
LINE
  5
193
330
140
100
AcDbEntity
  8
AM_9
100
AcDbLine
 10
-0.0757812499999975
 20
-1.88976
 30
0.0
 11
-0.0303206898040065
 21
-1.9685
 31
0.0
  0
LINE
  5
194
330
140
100
AcDbEntity
  8
AM_9
100
AcDbLine
 10
-0.0303206898040065
 20
1.968499999999999
 30
0.0
 11
-0.0757812499999975
 21
1.88976
 31
0.0
  0
LINE
  5
195
330
140
100
AcDbEntity
  8
AM_9
100
AcDbLine
 10
-0.0757812499999975
 20
-1.88976
 30
0.0
 11
-0.0757812499999975
 21
1.88976
 31
0.0
  0
LINE
  5
196
330
140
100
AcDbEntity
  8
AM_9
100
AcDbLine
 10
0.290625
 20
1.9685
 30
0.0
 11
-0.0303206898040065
 21
1.9685
 31
0.0
  0
LINE
  5
197
330
140
100
AcDbEntity
  8
AM_9
100
AcDbLine
 10
-0.0303206898040065
 20
-1.9685
 30
0.0
 11
0.290625
 21
-1.9685
 31
0.0
  0
LINE
  5
198
330
140
100
AcDbEntity
  8
AM_9
100
AcDbLine
 10
0.290625
 20
-1.9685
 30
0.0
 11
0.290625
 21
1.9685
 31
0.0
  0
LINE
  5
199
330
140
100
AcDbEntity
  8
AM_9
100
AcDbLine
 10
-0.0303206898040065
 20
-1.9685
 30
0.0
 11
-0.0303206898040065
 21
1.9685
 31
0.0
  0
LINE
  5
19A
330
140
100
AcDbEntity
  8
AM_9
100
AcDbLine
 10
-0.1804687500000026
 20
1.88976
 30
0.0
 11
-0.2259293101959936
 21
1.9685
 31
0.0
  0
LINE
  5
19B
330
140
100
AcDbEntity
  8
AM_9
100
AcDbLine
 10
-0.2259293101959936
 20
-1.968499999999999
 30
0.0
 11
-0.1804687500000026
 21
-1.88976
 31
0.0
  0
LINE
  5
19C
330
140
100
AcDbEntity
  8
AM_9
100
AcDbLine
 10
-0.1804687500000026
 20
-1.88976
 30
0.0
 11
-0.1804687500000026
 21
1.88976
 31
0.0
  0
LINE
  5
19D
330
140
100
AcDbEntity
  8
AM_9
100
AcDbLine
 10
-0.2259293101959936
 20
-1.968499999999999
 30
0.0
 11
-0.2259293101959936
 21
1.9685
 31
0.0
  0
LWPOLYLINE
  5
19E
330
140
100
AcDbEntity
  8
AM_4
100
AcDbPolyline
 90
        3
 70
     0
 43
0.0
 10
-1.697686958620773
 20
0.6398383619863257
 10
-1.707835247936746
 20
0.6396532354069758
 10
-1.739396134865254
 20
0.6364553927909335
  0
LINE
  5
19F
330
140
100
AcDbEntity
  8
AM_4
100
AcDbLine
 10
-1.695248140384737
 20
0.6398171682855092
 30
0.0
 11
-1.697686958620773
 21
0.6398383619863257
 31
0.0
  0
LINE
  5
1A0
330
140
100
AcDbEntity
  8
AM_4
100
AcDbLine
 10
-1.125
 20
1.31
 30
0.0
 11
-1.381625
 21
1.31
 31
0.0
  0
LINE
  5
1A1
330
140
100
AcDbEntity
  8
AM_4
100
AcDbLine
 10
-1.381625
 20
-1.31
 30
0.0
 11
-1.125
 21
-1.31
 31
0.0
  0
ENDBLK
  5
143
330
140
100
AcDbEntity
  8
0
100
AcDbBlockEnd
  0
BLOCK
  5
1A4
330
1A2
100
AcDbEntity
  8
0
100
AcDbBlockBegin
  2
5_070813H_0_in_070813_2
 70
     2
 10
0.0
 20
0.0
 30
0.0
  3
5_070813H_0_in_070813_2
  1

  0
ATTDEF
  5
1A6
330
1A2
100
AcDbEntity
  8
AM_6
100
AcDbText
 10
7.016666666666667
 20
4.125
 30
0.0
 40
0.5
  1
TPHU-S2 -(Contact Seal)-Housing
100
AcDbAttributeDefinition
  3

  2
NN
 70
     8
280
     0
  0
ATTDEF
  5
1A7
330
1A2
100
AcDbEntity
  8
AM_6
100
AcDbText
 10
7.016666666666667
 20
3.625
 30
0.0
 40
0.5
  1
S-2000 TPHU Take-Up Bearing -Inch
100
AcDbAttributeDefinition
  3

  2
NT
 70
     8
280
     0
  0
ATTDEF
  5
1A8
330
1A2
100
AcDbEntity
  8
AM_6
100
AcDbText
 10
7.016666666666667
 20
3.125
 30
0.0
 40
0.5
  1
070813H
100
AcDbAttributeDefinition
  3

  2
NB
 70
     8
280
     0
  0
ATTDEF
  5
1A9
330
1A2
100
AcDbEntity
  8
AM_6
100
AcDbText
 10
7.016666666666667
 20
2.625
 30
0.0
 40
0.5
  1
$PN.H
100
AcDbAttributeDefinition
  3

  2
NBSYN
 70
     8
280
     0
  0
ATTDEF
  5
1AA
330
1A2
100
AcDbEntity
  8
AM_6
100
AcDbText
 10
7.016666666666667
 20
2.125
 30
0.0
 40
0.5
  1
070813
100
AcDbAttributeDefinition
  3

  2
LINA
 70
     8
280
     0
  0
ATTDEF
  5
1AB
330
1A2
100
AcDbEntity
  8
AM_6
100
AcDbText
 10
7.016666666666667
 20
1.625
 30
0.0
 40
0.5
  1
2-3/16
100
AcDbAttributeDefinition
  3

  2
SS
 70
     8
280
     0
  0
ATTDEF
  5
1AC
330
1A2
100
AcDbEntity
  8
AM_6
100
AcDbText
 10
7.016666666666667
 20
1.125
 30
0.0
 40
0.5
  1
3.9370
100
AcDbAttributeDefinition
  3

  2
BORE
 70
     8
280
     0
  0
ATTDEF
  5
1AD
330
1A2
100
AcDbEntity
  8
AM_6
100
AcDbText
 10
7.016666666666667
 20
0.625
 30
0.0
 40
0.5
  1
2.187500
100
AcDbAttributeDefinition
  3

  2
SS1
 70
     8
280
     0
  0
ATTDEF
  5
1AE
330
1A2
100
AcDbEntity
  8
AM_6
100
AcDbText
 10
7.016666666666667
 20
0.125
 30
0.0
 40
0.5
  1
070813
100
AcDbAttributeDefinition
  3

  2
PN
 70
     8
280
     0
  0
ATTDEF
  5
1AF
330
1A2
100
AcDbEntity
  8
AM_6
100
AcDbText
 10
7.016666666666667
 20
-0.375
 30
0.0
 40
0.5
  1
TPHU-S2-203R
100
AcDbAttributeDefinition
  3

  2
DESCRIPTION
 70
     8
280
     0
  0
ATTDEF
  5
1B0
330
1A2
100
AcDbEntity
  8
AM_6
100
AcDbText
 10
7.016666666666667
 20
-0.875
 30
0.0
 40
0.5
  1
Non-Expansion Type
100
AcDbAttributeDefinition
  3

  2
EF
 70
     8
280
     0
  0
ATTDEF
  5
1B1
330
1A2
100
AcDbEntity
  8
AM_6
100
AcDbText
 10
7.016666666666667
 20
-1.375
 30
0.0
 40
0.5
  1
1
100
AcDbAttributeDefinition
  3

  2
EF1
 70
     8
280
     0
  0
ATTDEF
  5
1B2
330
1A2
100
AcDbEntity
  8
AM_6
100
AcDbText
 10
7.016666666666667
 20
-1.875
 30
0.0
 40
0.5
  1
Contact Seal
100
AcDbAttributeDefinition
  3

  2
ST
 70
     8
280
     0
  0
ATTDEF
  5
1B3
330
1A2
100
AcDbEntity
  8
AM_6
100
AcDbText
 10
7.016666666666667
 20
-2.375
 30
0.0
 40
0.5
  1
1
100
AcDbAttributeDefinition
  3

  2
ST1
 70
     8
280
     0
  0
ATTDEF
  5
1B4
330
1A2
100
AcDbEntity
  8
AM_6
100
AcDbText
 10
7.016666666666667
 20
-2.875
 30
0.0
 40
0.5
  1
2-15/16
100
AcDbAttributeDefinition
  3

  2
A
 70
     8
280
     0
  0
ATTDEF
  5
1B5
330
1A2
100
AcDbEntity
  8
AM_6
100
AcDbText
 10
7.016666666666667
 20
-3.375
 30
0.0
 40
0.5
  1
2.9375000
100
AcDbAttributeDefinition
  3

  2
A1
 70
     8
280
     0
  0
ATTDEF
  5
1B6
330
1A2
100
AcDbEntity
  8
AM_6
100
AcDbText
 10
7.016666666666667
 20
-3.875
 30
0.0
 40
0.5
  1
2-3/4
100
AcDbAttributeDefinition
  3

  2
B
 70
     8
280
     0
  0
ATTDEF
  5
1B7
330
1A2
100
AcDbEntity
  8
AM_6
100
AcDbText
 10
7.016666666666667
 20
-4.375
 30
0.0
 40
0.5
  1
2.750000
100
AcDbAttributeDefinition
  3

  2
B1
 70
     8
280
     0
  0
ATTDEF
  5
1B8
330
1A2
100
AcDbEntity
  8
AM_6
100
AcDbText
 10
7.016666666666667
 20
-4.875
 30
0.0
 40
0.5
  1
13/16
100
AcDbAttributeDefinition
  3

  2
C
 70
     8
280
     0
  0
ATTDEF
  5
1B9
330
1A2
100
AcDbEntity
  8
AM_6
100
AcDbText
 10
7.016666666666667
 20
-5.375
 30
0.0
 40
0.5
  1
0.812500
100
AcDbAttributeDefinition
  3

  2
C1
 70
     8
280
     0
  0
ATTDEF
  5
1BA
330
1A2
100
AcDbEntity
  8
AM_6
100
AcDbText
 10
7.016666666666667
 20
-5.875
 30
0.0
 40
0.5
  1
6-1/4
100
AcDbAttributeDefinition
  3

  2
D
 70
     8
280
     0
  0
ATTDEF
  5
1BB
330
1A2
100
AcDbEntity
  8
AM_6
100
AcDbText
 10
7.016666666666667
 20
-6.375
 30
0.0
 40
0.5
  1
6.250000
100
AcDbAttributeDefinition
  3

  2
D1
 70
     8
280
     0
  0
ATTDEF
  5
1BC
330
1A2
100
AcDbEntity
  8
AM_6
100
AcDbText
 10
7.016666666666667
 20
-6.875
 30
0.0
 40
0.5
  1
3
100
AcDbAttributeDefinition
  3

  2
E
 70
     8
280
     0
  0
ATTDEF
  5
1BD
330
1A2
100
AcDbEntity
  8
AM_6
100
AcDbText
 10
7.016666666666667
 20
-7.375
 30
0.0
 40
0.5
  1
3.000000
100
AcDbAttributeDefinition
  3

  2
E1
 70
     8
280
     0
  0
ATTDEF
  5
1BE
330
1A2
100
AcDbEntity
  8
AM_6
100
AcDbText
 10
7.016666666666667
 20
-7.875
 30
0.0
 40
0.5
  1
1-7/16
100
AcDbAttributeDefinition
  3

  2
F
 70
     8
280
     0
  0
ATTDEF
  5
1BF
330
1A2
100
AcDbEntity
  8
AM_6
100
AcDbText
 10
7.016666666666667
 20
-8.375
 30
0.0
 40
0.5
  1
1.437500
100
AcDbAttributeDefinition
  3

  2
F1
 70
     8
280
     0
  0
ATTDEF
  5
1C0
330
1A2
100
AcDbEntity
  8
AM_6
100
AcDbText
 10
7.016666666666667
 20
-8.875
 30
0.0
 40
0.5
  1
9/16
100
AcDbAttributeDefinition
  3

  2
G
 70
     8
280
     0
  0
ATTDEF
  5
1C1
330
1A2
100
AcDbEntity
  8
AM_6
100
AcDbText
 10
7.016666666666667
 20
-9.375
 30
0.0
 40
0.5
  1
0.562500
100
AcDbAttributeDefinition
  3

  2
G1
 70
     8
280
     0
  0
ATTDEF
  5
1C2
330
1A2
100
AcDbEntity
  8
AM_6
100
AcDbText
 10
7.016666666666667
 20
-9.875
 30
0.0
 40
0.5
  1
7-1/2
100
AcDbAttributeDefinition
  3

  2
H
 70
     8
280
     0
  0
ATTDEF
  5
1C3
330
1A2
100
AcDbEntity
  8
AM_6
100
AcDbText
 10
7.016666666666667
 20
-10.375
 30
0.0
 40
0.5
  1
7.500000
100
AcDbAttributeDefinition
  3

  2
H1
 70
     8
280
     0
  0
ATTDEF
  5
1C4
330
1A2
100
AcDbEntity
  8
AM_6
100
AcDbText
 10
7.016666666666667
 20
-10.875
 30
0.0
 40
0.5
  1
7-5/8
100
AcDbAttributeDefinition
  3

  2
J
 70
     8
280
     0
  0
ATTDEF
  5
1C5
330
1A2
100
AcDbEntity
  8
AM_6
100
AcDbText
 10
7.016666666666667
 20
-11.375
 30
0.0
 40
0.5
  1
7.625000
100
AcDbAttributeDefinition
  3

  2
J1
 70
     8
280
     0
  0
ATTDEF
  5
1C6
330
1A2
100
AcDbEntity
  8
AM_6
100
AcDbText
 10
7.016666666666667
 20
-11.875
 30
0.0
 40
0.5
  1
3-1/2
100
AcDbAttributeDefinition
  3

  2
K
 70
     8
280
     0
  0
ATTDEF
  5
1C7
330
1A2
100
AcDbEntity
  8
AM_6
100
AcDbText
 10
7.016666666666667
 20
-12.375
 30
0.0
 40
0.5
  1
3.500000
100
AcDbAttributeDefinition
  3

  2
K1
 70
     8
280
     0
  0
ATTDEF
  5
1C8
330
1A2
100
AcDbEntity
  8
AM_6
100
AcDbText
 10
7.016666666666667
 20
-12.875
 30
0.0
 40
0.5
  1
3-3/4
100
AcDbAttributeDefinition
  3

  2
L
 70
     8
280
     0
  0
ATTDEF
  5
1C9
330
1A2
100
AcDbEntity
  8
AM_6
100
AcDbText
 10
7.016666666666667
 20
-13.375
 30
0.0
 40
0.5
  1
3.7500000
100
AcDbAttributeDefinition
  3

  2
L1
 70
     8
280
     0
  0
ATTDEF
  5
1CA
330
1A2
100
AcDbEntity
  8
AM_6
100
AcDbText
 10
7.016666666666667
 20
-13.875
 30
0.0
 40
0.5
  1
7
100
AcDbAttributeDefinition
  3

  2
M
 70
     8
280
     0
  0
ATTDEF
  5
1CB
330
1A2
100
AcDbEntity
  8
AM_6
100
AcDbText
 10
7.016666666666667
 20
-14.375
 30
0.0
 40
0.5
  1
7.000000
100
AcDbAttributeDefinition
  3

  2
M1
 70
     8
280
     0
  0
ATTDEF
  5
1CC
330
1A2
100
AcDbEntity
  8
AM_6
100
AcDbText
 10
7.016666666666667
 20
-14.875
 30
0.0
 40
0.5
  1
1-15/16
100
AcDbAttributeDefinition
  3

  2
N
 70
     8
280
     0
  0
ATTDEF
  5
1CD
330
1A2
100
AcDbEntity
  8
AM_6
100
AcDbText
 10
7.016666666666667
 20
-15.375
 30
0.0
 40
0.5
  1
1.937500
100
AcDbAttributeDefinition
  3

  2
N1
 70
     8
280
     0
  0
ATTDEF
  5
1CE
330
1A2
100
AcDbEntity
  8
AM_6
100
AcDbText
 10
7.016666666666667
 20
-15.875
 30
0.0
 40
0.5
  1
1-3/4
100
AcDbAttributeDefinition
  3

  2
P
 70
     8
280
     0
  0
ATTDEF
  5
1CF
330
1A2
100
AcDbEntity
  8
AM_6
100
AcDbText
 10
7.016666666666667
 20
-16.375
 30
0.0
 40
0.5
  1
1.750000
100
AcDbAttributeDefinition
  3

  2
P1
 70
     8
280
     0
  0
ATTDEF
  5
1D0
330
1A2
100
AcDbEntity
  8
AM_6
100
AcDbText
 10
7.016666666666667
 20
-16.875
 30
0.0
 40
0.5
  1
1-1/16
100
AcDbAttributeDefinition
  3

  2
Q
 70
     8
280
     0
  0
ATTDEF
  5
1D1
330
1A2
100
AcDbEntity
  8
AM_6
100
AcDbText
 10
7.016666666666667
 20
-17.375
 30
0.0
 40
0.5
  1
1.062500
100
AcDbAttributeDefinition
  3

  2
Q1
 70
     8
280
     0
  0
ATTDEF
  5
1D2
330
1A2
100
AcDbEntity
  8
AM_6
100
AcDbText
 10
7.016666666666667
 20
-17.875
 30
0.0
 40
0.5
  1
3-25/64
100
AcDbAttributeDefinition
  3

  2
R
 70
     8
280
     0
  0
ATTDEF
  5
1D3
330
1A2
100
AcDbEntity
  8
AM_6
100
AcDbText
 10
7.016666666666667
 20
-18.375
 30
0.0
 40
0.5
  1
3.390625
100
AcDbAttributeDefinition
  3

  2
R1
 70
     8
280
     0
  0
ATTDEF
  5
1D4
330
1A2
100
AcDbEntity
  8
AM_6
100
AcDbText
 10
7.016666666666667
 20
-18.875
 30
0.0
 40
0.5
  1
2-1/64
100
AcDbAttributeDefinition
  3

  2
S
 70
     8
280
     0
  0
ATTDEF
  5
1D5
330
1A2
100
AcDbEntity
  8
AM_6
100
AcDbText
 10
7.016666666666667
 20
-19.375
 30
0.0
 40
0.5
  1
2.015625
100
AcDbAttributeDefinition
  3

  2
S1
 70
     8
280
     0
  0
ATTDEF
  5
1D6
330
1A2
100
AcDbEntity
  8
AM_6
100
AcDbText
 10
7.016666666666667
 20
-19.875
 30
0.0
 40
0.5
  1
5/16
100
AcDbAttributeDefinition
  3

  2
T
 70
     8
280
     0
  0
ATTDEF
  5
1D7
330
1A2
100
AcDbEntity
  8
AM_6
100
AcDbText
 10
7.016666666666667
 20
-20.375
 30
0.0
 40
0.5
  1
0.312500
100
AcDbAttributeDefinition
  3

  2
T1
 70
     8
280
     0
  0
ATTDEF
  5
1D8
330
1A2
100
AcDbEntity
  8
AM_6
100
AcDbText
 10
7.016666666666667
 20
-20.875
 30
0.0
 40
0.5
  1
1-9/16
100
AcDbAttributeDefinition
  3

  2
U
 70
     8
280
     0
  0
ATTDEF
  5
1D9
330
1A2
100
AcDbEntity
  8
AM_6
100
AcDbText
 10
7.016666666666667
 20
-21.375
 30
0.0
 40
0.5
  1
1.562500
100
AcDbAttributeDefinition
  3

  2
U1
 70
     8
280
     0
  0
ATTDEF
  5
1DA
330
1A2
100
AcDbEntity
  8
AM_6
100
AcDbText
 10
7.016666666666667
 20
-21.875
 30
0.0
 40
0.5
  1
2-1/4
100
AcDbAttributeDefinition
  3

  2
V
 70
     8
280
     0
  0
ATTDEF
  5
1DB
330
1A2
100
AcDbEntity
  8
AM_6
100
AcDbText
 10
7.016666666666667
 20
-22.375
 30
0.0
 40
0.5
  1
2.250000
100
AcDbAttributeDefinition
  3

  2
V1
 70
     8
280
     0
  0
ATTDEF
  5
1DC
330
1A2
100
AcDbEntity
  8
AM_6
100
AcDbText
 10
7.016666666666667
 20
-22.875
 30
0.0
 40
0.5
  1
15/16
100
AcDbAttributeDefinition
  3

  2
W
 70
     8
280
     0
  0
ATTDEF
  5
1DD
330
1A2
100
AcDbEntity
  8
AM_6
100
AcDbText
 10
7.016666666666667
 20
-23.375
 30
0.0
 40
0.5
  1
0.937500
100
AcDbAttributeDefinition
  3

  2
W1
 70
     8
280
     0
  0
ATTDEF
  5
1DE
330
1A2
100
AcDbEntity
  8
AM_6
100
AcDbText
 10
7.016666666666667
 20
-23.875
 30
0.0
 40
0.5
  1
1/4
100
AcDbAttributeDefinition
  3

  2
X
 70
     8
280
     0
  0
ATTDEF
  5
1DF
330
1A2
100
AcDbEntity
  8
AM_6
100
AcDbText
 10
7.016666666666667
 20
-24.375
 30
0.0
 40
0.5
  1
0.250000
100
AcDbAttributeDefinition
  3

  2
X1
 70
     8
280
     0
  0
ATTDEF
  5
1E0
330
1A2
100
AcDbEntity
  8
AM_6
100
AcDbText
 10
7.016666666666667
 20
-24.875
 30
0.0
 40
0.5
  1
0.025
100
AcDbAttributeDefinition
  3

  2
Y
 70
     8
280
     0
  0
ATTDEF
  5
1E1
330
1A2
100
AcDbEntity
  8
AM_6
100
AcDbText
 10
7.016666666666667
 20
-25.375
 30
0.0
 40
0.5
  1
2-19/32
100
AcDbAttributeDefinition
  3

  2
Z
 70
     8
280
     0
  0
ATTDEF
  5
1E2
330
1A2
100
AcDbEntity
  8
AM_6
100
AcDbText
 10
7.016666666666667
 20
-25.875
 30
0.0
 40
0.5
  1
2.593750
100
AcDbAttributeDefinition
  3

  2
Z1
 70
     8
280
     0
  0
ATTDEF
  5
1E3
330
1A2
100
AcDbEntity
  8
AM_6
100
AcDbText
 10
7.016666666666667
 20
-26.375
 30
0.0
 40
0.5
  1
baldor
100
AcDbAttributeDefinition
  3

  2
COMPANY
 70
     8
280
     0
  0
LINE
  5
1E4
330
1A2
100
AcDbEntity
  8
AM_9
100
AcDbLine
 10
-0.3593749999999999
 20
0.3476343040826091
 30
0.0
 11
-0.3593749999999999
 21
-0.3476343040826091
 31
0.0
  0
LINE
  5
1E5
330
1A2
100
AcDbEntity
  8
AM_9
100
AcDbLine
 10
0.3593749999999999
 20
-0.3476343040826091
 30
0.0
 11
0.3593749999999999
 21
0.347634304082609
 31
0.0
  0
LINE
  5
1E6
330
1A2
100
AcDbEntity
  8
AM_9
100
AcDbLine
 10
0.6816298421125979
 20
-2.055845169862151
 30
0.0
 11
0.6152683315653653
 21
-2.020337493385778
 31
0.0
  0
LINE
  5
1E7
330
1A2
100
AcDbEntity
  8
AM_9
100
AcDbLine
 10
0.9385662950995005
 20
-2.24515259382173
 30
0.0
 11
0.8957918131722988
 21
-2.206840363389435
 31
0.0
  0
LINE
  5
1E8
330
1A2
100
AcDbEntity
  8
AM_9
100
AcDbLine
 10
1.0
 20
-2.306270695591156
 30
0.0
 11
0.9668905159908373
 21
-2.272376488577033
 31
0.0
  0
LWPOLYLINE
  5
1E9
330
1A2
100
AcDbEntity
  8
AM_9
100
AcDbPolyline
 90
        3
 70
     0
 43
0.0
 10
-0.9250014963706363
 20
-2.232651863071404
 10
-0.9514919726783192
 20
-2.257385203292634
 10
-0.9999999999999997
 20
-2.306270695591156
  0
LINE
  5
1EA
330
1A2
100
AcDbEntity
  8
AM_9
100
AcDbLine
 10
-0.906627375350168
 20
-2.216243838100268
 30
0.0
 11
-0.9250014963706363
 21
-2.232651863071404
 31
0.0
  0
LINE
  5
1EB
330
1A2
100
AcDbEntity
  8
AM_9
100
AcDbLine
 10
-0.621463898672618
 20
-2.023457044108674
 30
0.0
 11
-0.695347108856752
 21
-2.063780206620815
 31
0.0
  0
LINE
  5
1EC
330
1A2
100
AcDbEntity
  8
AM_9
100
AcDbLine
 10
-1.375
 20
2.687499999999999
 30
0.0
 11
-0.4677071733467422
 21
2.687499999999999
 31
0.0
  0
LINE
  5
1ED
330
1A2
100
AcDbEntity
  8
AM_9
100
AcDbLine
 10
-1.375
 20
2.5625
 30
0.0
 11
-0.3535533905932736
 21
2.5625
 31
0.0
  0
LINE
  5
1EE
330
1A2
100
AcDbEntity
  8
AM_9
100
AcDbLine
 10
0.4677071733467425
 20
2.687499999999999
 30
0.0
 11
1.375
 21
2.687499999999999
 31
0.0
  0
LINE
  5
1EF
330
1A2
100
AcDbEntity
  8
AM_9
100
AcDbLine
 10
0.3535533905932743
 20
2.5625
 30
0.0
 11
1.375
 21
2.5625
 31
0.0
  0
LINE
  5
1F0
330
1A2
100
AcDbEntity
  8
AM_9
100
AcDbLine
 10
-1.125
 20
-1.9685
 30
0.0
 11
1.125
 21
-1.9685
 31
0.0
  0
LINE
  5
1F1
330
1A2
100
AcDbEntity
  8
AM_9
100
AcDbLine
 10
1.125
 20
1.9685
 30
0.0
 11
-1.125
 21
1.9685
 31
0.0
  0
ARC
  5
1F2
330
1A2
100
AcDbEntity
  8
AM_9
100
AcDbCircle
 10
0.0000000000000002
 20
-3.25
 30
0.0
 40
0.8531250000000001
100
AcDbArc
 50
0.0
 51
180.0
  0
LINE
  5
1F3
330
1A2
100
AcDbEntity
  8
AM_9
100
AcDbLine
 10
0.8531250000000002
 20
-3.5
 30
0.0
 11
0.8531250000000002
 21
-3.25
 31
0.0
  0
LINE
  5
1F4
330
1A2
100
AcDbEntity
  8
AM_9
100
AcDbLine
 10
-0.8531249999999999
 20
-3.25
 30
0.0
 11
-0.8531249999999999
 21
-3.5
 31
0.0
  0
ARC
  5
1F5
330
1A2
100
AcDbEntity
  8
AM_9
100
AcDbCircle
 10
0.0000000000000036
 20
0.0
 30
0.0
 40
0.5000000000000033
100
AcDbArc
 50
169.9655946544137
 51
190.0344053455863
  0
ARC
  5
1F6
330
1A2
100
AcDbEntity
  8
AM_9
100
AcDbCircle
 10
0.0000000000000015
 20
0.0
 30
0.0
 40
0.4500000000000017
100
AcDbArc
 50
163.8351258292456
 51
196.1648741707544
  0
LINE
  5
1F7
330
1A2
100
AcDbEntity
  8
AM_7
100
AcDbLine
 10
2.016666666666667
 20
0.0
 30
0.0
 11
-2.1625
 21
0.0
 31
0.0
  0
LINE
  5
1F8
330
1A2
100
AcDbEntity
  8
AM_7
100
AcDbLine
 10
-0.8957812499999998
 20
-3.25
 30
0.0
 11
0.8957812500000002
 21
-3.25
 31
0.0
  0
LINE
  5
1F9
330
1A2
100
AcDbEntity
  8
AM_7
100
AcDbLine
 10
0.0000000000000002
 20
-4.14578125
 30
0.0
 11
0.0000000000000002
 21
-2.354218749999999
 31
0.0
  0
LINE
  5
1FA
330
1A2
100
AcDbEntity
  8
AM_7
100
AcDbLine
 10
-0.8531249999999992
 20
3.0
 30
0.0
 11
0.8531249999999999
 21
3.0
 31
0.0
  0
LINE
  5
1FB
330
1A2
100
AcDbEntity
  8
AM_7
100
AcDbLine
 10
0.0000000000000003
 20
2.146875000000001
 30
0.0
 11
0.0000000000000003
 21
3.853124999999999
 31
0.0
  0
LINE
  5
1FC
330
1A2
100
AcDbEntity
  8
AM_7
100
AcDbLine
 10
0.0000000000000002
 20
-0.525
 30
0.0
 11
0.0000000000000002
 21
0.525
 31
0.0
  0
LINE
  5
1FD
330
1A2
100
AcDbEntity
  8
AM_4
100
AcDbLine
 10
-0.7187499999999998
 20
4.125
 30
0.0
 11
-1.026785714285714
 21
4.125
 31
0.0
  0
LINE
  5
1FE
330
1A2
100
AcDbEntity
  8
AM_4
100
AcDbLine
 10
1.026785714285715
 20
4.125
 30
0.0
 11
0.71875
 21
4.125
 31
0.0
  0
LINE
  5
1FF
330
1A2
100
AcDbEntity
  8
AM_4
100
AcDbLine
 10
0.5625000000000001
 20
3.0
 30
0.0
 11
0.5625000000000001
 21
3.8125
 31
0.0
  0
LINE
  5
200
330
1A2
100
AcDbEntity
  8
AM_4
100
AcDbLine
 10
0.5625000000000001
 20
3.8125
 30
0.0
 11
0.7187500000000001
 21
3.8125
 31
0.0
  0
ARC
  5
201
330
1A2
100
AcDbEntity
  8
AM_4
100
AcDbCircle
 10
0.0000000000000001
 20
3.0
 30
0.0
 40
0.5625
100
AcDbArc
 50
180.0
 51
0.0
  0
LINE
  5
202
330
1A2
100
AcDbEntity
  8
AM_4
100
AcDbLine
 10
-0.5624999999999999
 20
3.8125
 30
0.0
 11
-0.5624999999999999
 21
3.0
 31
0.0
  0
LINE
  5
203
330
1A2
100
AcDbEntity
  8
AM_4
100
AcDbLine
 10
-0.7187499999999998
 20
4.125
 30
0.0
 11
-0.7187499999999998
 21
3.8125
 31
0.0
  0
LINE
  5
204
330
1A2
100
AcDbEntity
  8
AM_4
100
AcDbLine
 10
-0.7187499999999998
 20
3.8125
 30
0.0
 11
-0.5624999999999999
 21
3.8125
 31
0.0
  0
LINE
  5
205
330
1A2
100
AcDbEntity
  8
AM_4
100
AcDbLine
 10
0.7187500000000001
 20
3.8125
 30
0.0
 11
0.71875
 21
4.125
 31
0.0
  0
LINE
  5
206
330
1A2
100
AcDbEntity
  8
AM_4
100
AcDbLine
 10
-1.125
 20
2.0
 30
0.0
 11
-1.125
 21
-2.459430584957905
 31
0.0
  0
LINE
  5
207
330
1A2
100
AcDbEntity
  8
AM_4
100
AcDbLine
 10
-0.9999999999999994
 20
1.999999999999999
 30
0.0
 11
-0.9999999999999994
 21
-2.306270695591156
 31
0.0
  0
LINE
  5
208
330
1A2
100
AcDbEntity
  8
AM_4
100
AcDbLine
 10
1.125000000000001
 20
2.0
 30
0.0
 11
1.125000000000001
 21
-2.459430584957905
 31
0.0
  0
LINE
  5
209
330
1A2
100
AcDbEntity
  8
AM_4
100
AcDbLine
 10
1.0
 20
2.0
 30
0.0
 11
1.0
 21
-2.306270695591156
 31
0.0
  0
ARC
  5
20A
330
1A2
100
AcDbEntity
  8
AM_4
100
AcDbCircle
 10
0.0000000000000002
 20
0.0000000000000001
 30
0.0
 40
0.5000000000000001
100
AcDbArc
 50
190.0344053455864
 51
73.70770601723899
  0
ARC
  5
20B
330
1A2
100
AcDbEntity
  8
AM_4
100
AcDbCircle
 10
0.0000000000000008
 20
-0.0000000000000004
 30
0.0
 40
0.5000000000000007
100
AcDbArc
 50
106.2922939827611
 51
169.9655946544136
  0
ARC
  5
20C
330
1A2
100
AcDbEntity
  8
AM_4
100
AcDbCircle
 10
0.0000000000000002
 20
0.0
 30
0.0
 40
0.4500000000000005
100
AcDbArc
 50
196.1648741707545
 51
163.8351258292455
  0
LWPOLYLINE
  5
20D
330
1A2
100
AcDbEntity
  8
AM_4
100
AcDbPolyline
 90
        7
 70
     0
 43
0.0
 10
0.1402688085059503
 20
0.4799215158339135
 10
0.0916780488300556
 20
0.4914743043225409
 10
0.0416103097717981
 20
0.4981437713810791
 10
-0.0033247506469301
 20
0.4998433671608857
 10
-0.0486040072495455
 20
0.4975184548663957
 10
-0.0946555900289168
 20
0.4909142270386243
 10
-0.1402688085059499
 20
0.4799215158339135
  0
LINE
  5
20E
330
1A2
100
AcDbEntity
  8
AM_4
100
AcDbLine
 10
-1.375
 20
3.776785714285714
 30
0.0
 11
-1.375
 21
2.177083333333333
 31
0.0
  0
LINE
  5
20F
330
1A2
100
AcDbEntity
  8
AM_4
100
AcDbLine
 10
0.4843750000000003
 20
2.0
 30
0.0
 11
1.197916666666667
 21
2.0
 31
0.0
  0
ARC
  5
210
330
1A2
100
AcDbEntity
  8
AM_4
100
AcDbCircle
 10
-0.4843749999999994
 20
1.875
 30
0.0
 40
0.1249999999999997
100
AcDbArc
 50
0.0
 51
90.0
  0
LINE
  5
211
330
1A2
100
AcDbEntity
  8
AM_4
100
AcDbLine
 10
-1.197916666666667
 20
2.0
 30
0.0
 11
-0.4843749999999997
 21
2.0
 31
0.0
  0
ARC
  5
212
330
1A2
100
AcDbEntity
  8
AM_4
100
AcDbCircle
 10
0.0000000000000003
 20
3.0
 30
0.0
 40
0.8124999999999998
100
AcDbArc
 50
180.0
 51
0.0
  0
ARC
  5
213
330
1A2
100
AcDbEntity
  8
AM_4
100
AcDbCircle
 10
0.4843750000000003
 20
1.875
 30
0.0
 40
0.1250000000000002
100
AcDbArc
 50
90.0
 51
180.0
  0
LINE
  5
214
330
1A2
100
AcDbEntity
  8
AM_4
100
AcDbLine
 10
1.375
 20
3.776785714285714
 30
0.0
 11
1.026785714285715
 21
4.125
 31
0.0
  0
LINE
  5
215
330
1A2
100
AcDbEntity
  8
AM_4
100
AcDbLine
 10
-1.026785714285714
 20
4.125
 30
0.0
 11
-1.375
 21
3.776785714285714
 31
0.0
  0
LINE
  5
216
330
1A2
100
AcDbEntity
  8
AM_4
100
AcDbLine
 10
-0.8124999999999998
 20
4.125
 30
0.0
 11
-0.8124999999999996
 21
3.0
 31
0.0
  0
LINE
  5
217
330
1A2
100
AcDbEntity
  8
AM_4
100
AcDbLine
 10
-1.375
 20
2.177083333333333
 30
0.0
 11
-1.197916666666667
 21
2.0
 31
0.0
  0
LINE
  5
218
330
1A2
100
AcDbEntity
  8
AM_4
100
AcDbLine
 10
1.197916666666667
 20
2.0
 30
0.0
 11
1.375
 21
2.177083333333333
 31
0.0
  0
LINE
  5
219
330
1A2
100
AcDbEntity
  8
AM_4
100
AcDbLine
 10
-0.3593749999999998
 20
1.875
 30
0.0
 11
-0.3593749999999998
 21
0.3476343040826092
 31
0.0
  0
LINE
  5
21A
330
1A2
100
AcDbEntity
  8
AM_4
100
AcDbLine
 10
0.8125000000000001
 20
3.0
 30
0.0
 11
0.8125000000000003
 21
4.125
 31
0.0
  0
LINE
  5
21B
330
1A2
100
AcDbEntity
  8
AM_4
100
AcDbLine
 10
0.359375
 20
0.3476343040826091
 30
0.0
 11
0.3593750000000002
 21
1.875
 31
0.0
  0
LINE
  5
21C
330
1A2
100
AcDbEntity
  8
AM_4
100
AcDbLine
 10
1.375
 20
2.177083333333333
 30
0.0
 11
1.375
 21
3.776785714285714
 31
0.0
  0
LINE
  5
21D
330
1A2
100
AcDbEntity
  8
AM_4
100
AcDbLine
 10
-0.3593749999999998
 20
1.784433507713425
 30
0.0
 11
0.359375
 21
1.784433507713425
 31
0.0
  0
LINE
  5
21E
330
1A2
100
AcDbEntity
  8
AM_4
100
AcDbLine
 10
-0.3593749999999998
 20
1.640004482332898
 30
0.0
 11
0.359375
 21
1.640004482332898
 31
0.0
  0
LWPOLYLINE
  5
21F
330
1A2
100
AcDbEntity
  8
AM_4
100
AcDbPolyline
 90
        5
 70
     0
 43
0.0
 10
0.4440104166666671
 20
-1.948662322880224
 10
0.5058778914037769
 20
-1.97144121801582
 10
0.5660515050665115
 20
-1.996919518302221
 10
0.6247443097179395
 20
-2.025124680845003
 10
0.6813012528063148
 20
-2.055657669290523
  0
LWPOLYLINE
  5
220
330
1A2
100
AcDbEntity
  8
AM_4
100
AcDbPolyline
 90
        5
 70
     0
 43
0.0
 10
-0.6813012528063132
 20
-2.055657669290522
 10
-0.6257890210294292
 20
-2.025658094665126
 10
-0.5677988088190468
 20
-1.997710292023578
 10
-0.5070135037460761
 20
-1.971891120827678
 10
-0.4440104166666667
 20
-1.948662322880224
  0
LINE
  5
221
330
1A2
100
AcDbEntity
  8
AM_4
100
AcDbLine
 10
0.359375
 20
-0.3476343040826092
 30
0.0
 11
0.3593750000000001
 21
-1.830358895824872
 31
0.0
  0
LINE
  5
222
330
1A2
100
AcDbEntity
  8
AM_4
100
AcDbLine
 10
-0.3593749999999998
 20
-1.830358897687517
 30
0.0
 11
-0.3593749999999998
 21
-0.3476343040826092
 31
0.0
  0
LWPOLYLINE
  5
223
330
1A2
100
AcDbEntity
  8
AM_4
100
AcDbPolyline
 90
        8
 70
     0
 43
0.0
 10
-0.3593749999999998
 20
-1.830358897687518
 10
-0.3619649410784909
 20
-1.855637304668929
 10
-0.3696728996399876
 20
-1.880042176293118
 10
-0.3830171603620041
 20
-1.903490994966531
 10
-0.4018757767610865
 20
-1.924267779935026
 10
-0.4167967125820398
 20
-1.935507316065625
 10
-0.4338450791322809
 20
-1.944690551646962
 10
-0.4440104166666665
 20
-1.948662322880225
  0
LWPOLYLINE
  5
224
330
1A2
100
AcDbEntity
  8
AM_4
100
AcDbPolyline
 90
        9
 70
     0
 43
0.0
 10
0.4440104166666671
 20
-1.948662322880224
 10
0.4253269929599638
 20
-1.940519283060435
 10
0.4087821529893788
 20
-1.929911504287389
 10
0.3947420510908226
 20
-1.917479648779387
 10
0.3830624343293773
 20
-1.903576136349159
 10
0.372229125550107
 20
-1.88556297970818
 10
0.3646885311591365
 20
-1.866416479087342
 10
0.3607096788618651
 20
-1.848563688233002
 10
0.3593750000000001
 20
-1.830358895824872
  0
ARC
  5
225
330
1A2
100
AcDbEntity
  8
AM_4
100
AcDbCircle
 10
-0.0000000000000031
 20
-3.25
 30
0.0
 40
1.375000000000003
100
AcDbArc
 50
0.0
 51
48.24063664756789
  0
LINE
  5
226
330
1A2
100
AcDbEntity
  8
AM_4
100
AcDbLine
 10
0.8125000000000001
 20
-3.5
 30
0.0
 11
1.375
 21
-3.5
 31
0.0
  0
LINE
  5
227
330
1A2
100
AcDbEntity
  8
AM_4
100
AcDbLine
 10
0.8125000000000001
 20
-3.5
 30
0.0
 11
0.8125000000000003
 21
-3.25
 31
0.0
  0
ARC
  5
228
330
1A2
100
AcDbEntity
  8
AM_4
100
AcDbCircle
 10
-0.0000000000000002
 20
-3.25
 30
0.0
 40
1.375
100
AcDbArc
 50
131.759363352432
 51
180.0
  0
LINE
  5
229
330
1A2
100
AcDbEntity
  8
AM_4
100
AcDbLine
 10
1.375
 20
-3.5
 30
0.0
 11
1.375
 21
-3.25
 31
0.0
  0
LINE
  5
22A
330
1A2
100
AcDbEntity
  8
AM_4
100
AcDbLine
 10
-1.375
 20
-3.5
 30
0.0
 11
-0.8124999999999996
 21
-3.5
 31
0.0
  0
LINE
  5
22B
330
1A2
100
AcDbEntity
  8
AM_4
100
AcDbLine
 10
-0.8124999999999998
 20
-3.25
 30
0.0
 11
-0.8124999999999996
 21
-3.5
 31
0.0
  0
LINE
  5
22C
330
1A2
100
AcDbEntity
  8
AM_4
100
AcDbLine
 10
-1.375
 20
-3.25
 30
0.0
 11
-1.375
 21
-3.5
 31
0.0
  0
ARC
  5
22D
330
1A2
100
AcDbEntity
  8
AM_4
100
AcDbCircle
 10
0.0000000000000004
 20
-3.25
 30
0.0
 40
0.8125
100
AcDbArc
 50
0.0
 51
180.0
  0
LWPOLYLINE
  5
22E
330
1A2
100
AcDbEntity
  8
AM_4
100
AcDbPolyline
 90
        7
 70
     0
 43
0.0
 10
0.9157549208449305
 20
-2.224320749479499
 10
0.8791357084128855
 20
-2.192765207632015
 10
0.8413825646889849
 20
-2.16247971060886
 10
0.8022274434170368
 20
-2.133283326430304
 10
0.7624447179504719
 20
-2.105752189397145
 10
0.721912074160666
 20
-2.079757308426561
 10
0.6813012528063144
 20
-2.055657669290522
  0
LINE
  5
22F
330
1A2
100
AcDbEntity
  8
AM_4
100
AcDbLine
 10
-0.6813012528063132
 20
-2.055657669290522
 30
0.0
 11
0.6813012528063151
 21
-2.055657669290522
 31
0.0
  0
LWPOLYLINE
  5
230
330
1A2
100
AcDbEntity
  8
AM_4
100
AcDbPolyline
 90
        6
 70
     0
 43
0.0
 10
-0.6813012528063128
 20
-2.055657669290522
 10
-0.7261259359090507
 20
-2.082367298676418
 10
-0.7714014332912742
 20
-2.111771187890516
 10
-0.8174074275953683
 20
-2.14434630317087
 10
-0.8631122445875646
 20
-2.179643866162754
 10
-0.9157549208449287
 20
-2.224320749479498
  0
LINE
  5
231
330
1A2
100
AcDbEntity
  8
AM_4
100
AcDbLine
 10
-0.9157549208449287
 20
-2.224320749479499
 30
0.0
 11
0.9157549208449305
 21
-2.224320749479499
 31
0.0
  0
ENDBLK
  5
1A5
330
1A2
100
AcDbEntity
  8
0
100
AcDbBlockEnd
  0
ENDSEC
  0
SECTION
  2
ENTITIES
  0
INSERT
  5
6F
330
1F
100
AcDbEntity
  8
0
100
AcDbBlockReference
  2
1_070813_2
 10
0.0
 20
0.0
 30
0.0
  0
POINT
  5
233
330
1F
100
AcDbEntity
  8
ConnectionPoints
100
AcDbPoint
 10
-2.015625
 20
0.0
 30
0.0000000000000001
  0
POINT
  5
234
330
1F
100
AcDbEntity
  8
ConnectionPoints
100
AcDbPoint
 10
-2.015625
 20
0.0
 30
0.0000000000000001
  0
POINT
  5
235
330
1F
100
AcDbEntity
  8
ConnectionPoints
100
AcDbPoint
 10
1.759375
 20
0.0
 30
-0.0000000000000001
  0
POINT
  5
236
330
1F
100
AcDbEntity
  8
ConnectionPoints
100
AcDbPoint
 10
-2.015625
 20
0.0
 30
0.0000000000000001
  0
POINT
  5
237
330
1F
100
AcDbEntity
  8
ConnectionPoints
100
AcDbPoint
 10
0.0000000000000002
 20
0.0
 30
3.0125
  0
POINT
  5
238
330
1F
100
AcDbEntity
  8
ConnectionPoints
100
AcDbPoint
 10
-2.265625
 20
0.0
 30
0.0000000000000001
  0
POINT
  5
239
330
1F
100
AcDbEntity
  8
ConnectionPoints
100
AcDbPoint
 10
-2.015625
 20
0.0
 30
0.0000000000000001
  0
ENDSEC
  0
SECTION
  2
OBJECTS
  0
DICTIONARY
  5
C
330
0
100
AcDbDictionary
281
     1
  3
ACAD_DETAILVIEWSTYLE
350
241
  3
ACAD_GROUP
350
D
  3
ACAD_LAYOUT
350
1A
  3
ACAD_MATERIAL
350
43
  3
ACAD_MLEADERSTYLE
350
6B
  3
ACAD_MLINESTYLE
350
17
  3
ACAD_PLOTSETTINGS
350
19
  3
ACAD_PLOTSTYLENAME
350
E
  3
ACAD_SCALELIST
350
47
  3
ACAD_SECTIONVIEWSTYLE
350
242
  3
ACAD_TABLESTYLE
350
69
  3
ACAD_VISUALSTYLE
350
2A
  3
ACDB_RECOMPOSE_DATA
350
23E
  3
AcDbVariableDictionary
350
23A
  0
SUN
  5
6D
330
29
100
AcDbSun
 90
        1
290
     0
 63
     7
421
 16777215
 40
1.0
291
     1
 91
  2455826
 92
 54000000
292
     0
 70
     2
 71
   256
280
     1
  0
DICTIONARY
  5
241
102
{ACAD_REACTORS
330
C
102
}
330
C
100
AcDbDictionary
281
     1
  0
DICTIONARY
  5
D
102
{ACAD_REACTORS
330
C
102
}
330
C
100
AcDbDictionary
281
     1
  0
DICTIONARY
  5
1A
102
{ACAD_REACTORS
330
C
102
}
330
C
100
AcDbDictionary
281
     1
  3
Layout1
350
1E
  3
Layout2
350
26
  3
Model
350
22
  0
DICTIONARY
  5
43
102
{ACAD_REACTORS
330
C
102
}
330
C
100
AcDbDictionary
281
     1
  3
ByBlock
350
45
  3
ByLayer
350
44
  3
Global
350
46
  0
DICTIONARY
  5
6B
102
{ACAD_REACTORS
330
C
102
}
330
C
100
AcDbDictionary
281
     1
  3
Standard
350
6C
  0
DICTIONARY
  5
17
102
{ACAD_REACTORS
330
C
102
}
330
C
100
AcDbDictionary
281
     1
  3
Standard
350
18
  0
DICTIONARY
  5
19
102
{ACAD_REACTORS
330
C
102
}
330
C
100
AcDbDictionary
281
     1
  0
ACDBDICTIONARYWDFLT
  5
E
102
{ACAD_REACTORS
330
C
102
}
330
C
100
AcDbDictionary
281
     1
  3
Normal
350
F
100
AcDbDictionaryWithDefault
340
F
  0
DICTIONARY
  5
47
102
{ACAD_REACTORS
330
C
102
}
330
C
100
AcDbDictionary
281
     1
  3
A0
350
48
  3
A1
350
49
  3
A2
350
4A
  3
A3
350
4B
  3
A4
350
4C
  3
A5
350
4D
  3
A6
350
4E
  3
A7
350
4F
  3
A8
350
50
  3
A9
350
51
  3
B0
350
52
  3
B1
350
53
  3
B2
350
54
  3
B3
350
55
  3
B4
350
56
  3
B5
350
57
  3
B6
350
58
  3
B7
350
59
  3
B8
350
5A
  3
B9
350
5B
  3
C0
350
5C
  3
C1
350
5D
  3
C2
350
5E
  3
C3
350
5F
  3
C4
350
60
  3
C5
350
61
  3
C6
350
62
  3
C7
350
63
  3
C8
350
64
  3
C9
350
65
  3
D0
350
66
  3
D1
350
67
  3
D2
350
68
  0
DICTIONARY
  5
242
102
{ACAD_REACTORS
330
C
102
}
330
C
100
AcDbDictionary
281
     1
  0
DICTIONARY
  5
69
102
{ACAD_REACTORS
330
C
102
}
330
C
100
AcDbDictionary
281
     1
  3
Standard
350
6A
  0
DICTIONARY
  5
2A
102
{ACAD_REACTORS
330
C
102
}
330
C
100
AcDbDictionary
281
     1
  3
2dWireframe
350
2F
  3
Basic
350
32
  3
Brighten
350
36
  3
ColorChange
350
3A
  3
Conceptual
350
34
  3
Dim
350
35
  3
EdgeColorOff
350
3D
  3
Facepattern
350
39
  3
Flat
350
2B
  3
FlatWithEdges
350
2C
  3
Gouraud
350
2D
  3
GouraudWithEdges
350
2E
  3
Hidden
350
31
  3
JitterOff
350
3B
  3
Linepattern
350
38
  3
OverhangOff
350
3C
  3
Realistic
350
33
  3
Shaded
350
42
  3
Shaded with edges
350
41
  3
Shades of Gray
350
3E
  3
Sketchy
350
3F
  3
Thicken
350
37
  3
Wireframe
350
30
  3
X-Ray
350
40
  0
XRECORD
  5
23E
102
{ACAD_REACTORS
330
C
102
}
330
C
100
AcDbXrecord
280
     1
 90
        1
330
6A
  0
DICTIONARY
  5
23A
102
{ACAD_REACTORS
330
C
102
}
330
C
100
AcDbDictionary
281
     1
  3
CANNOSCALE
350
23B
  3
CMLEADERSTYLE
350
240
  3
CTABLESTYLE
350
23F
  0
LAYOUT
  5
1E
102
{ACAD_REACTORS
330
1A
102
}
330
1A
100
AcDbPlotSettings
  1

  2
none_device
  4

  6

 40
0.0
 41
0.0
 42
0.0
 43
0.0
 44
0.0
 45
0.0
 46
0.0
 47
0.0
 48
0.0
 49
0.0
140
0.0
141
0.0
142
1.0
143
1.0
 70
   688
 72
     0
 73
     0
 74
     5
  7

 75
    16
 76
     0
 77
     2
 78
   300
147
1.0
148
0.0
149
0.0
100
AcDbLayout
  1
Layout1
 70
     1
 71
     1
 10
0.0
 20
0.0
 11
12.0
 21
9.0
 12
0.0
 22
0.0
 32
0.0
 14
1.000000000000000E+20
 24
1.000000000000000E+20
 34
1.000000000000000E+20
 15
-1.000000000000000E+20
 25
-1.000000000000000E+20
 35
-1.000000000000000E+20
146
0.0
 13
0.0
 23
0.0
 33
0.0
 16
1.0
 26
0.0
 36
0.0
 17
0.0
 27
1.0
 37
0.0
 76
     0
330
1B
  0
LAYOUT
  5
26
102
{ACAD_REACTORS
330
1A
102
}
330
1A
100
AcDbPlotSettings
  1

  2
none_device
  4

  6

 40
0.0
 41
0.0
 42
0.0
 43
0.0
 44
0.0
 45
0.0
 46
0.0
 47
0.0
 48
0.0
 49
0.0
140
0.0
141
0.0
142
1.0
143
1.0
 70
   688
 72
     0
 73
     0
 74
     5
  7

 75
    16
 76
     0
 77
     2
 78
   300
147
1.0
148
0.0
149
0.0
100
AcDbLayout
  1
Layout2
 70
     1
 71
     2
 10
0.0
 20
0.0
 11
0.0
 21
0.0
 12
0.0
 22
0.0
 32
0.0
 14
0.0
 24
0.0
 34
0.0
 15
0.0
 25
0.0
 35
0.0
146
0.0
 13
0.0
 23
0.0
 33
0.0
 16
1.0
 26
0.0
 36
0.0
 17
0.0
 27
1.0
 37
0.0
 76
     0
330
23
  0
LAYOUT
  5
22
102
{ACAD_REACTORS
330
1A
102
}
330
1A
100
AcDbPlotSettings
  1

  2
none_device
  4
Letter_(8.50_x_11.00_Inches)
  6

 40
6.35
 41
6.35
 42
6.35000508
 43
6.35000508
 44
215.9
 45
279.4
 46
0.0
 47
0.0
 48
0.0
 49
0.0
140
0.0
141
0.0
142
1.0
143
1.0
 70
  1712
 72
     0
 73
     0
 74
     0
  7

 75
     0
 76
     0
 77
     2
 78
   300
147
1.0
148
0.0
149
0.0
100
AcDbLayout
  1
Model
 70
     1
 71
     0
 10
0.0
 20
0.0
 11
12.0
 21
9.0
 12
0.0
 22
0.0
 32
0.0
 14
1.000000000000000E+20
 24
1.000000000000000E+20
 34
1.000000000000000E+20
 15
-1.000000000000000E+20
 25
-1.000000000000000E+20
 35
-1.000000000000000E+20
146
0.0
 13
0.0
 23
0.0
 33
0.0
 16
1.0
 26
0.0
 36
0.0
 17
0.0
 27
1.0
 37
0.0
 76
     0
330
1F
331
29
  0
MATERIAL
  5
45
102
{ACAD_REACTORS
330
43
102
}
330
43
100
AcDbMaterial
  1
ByBlock
 72
     1
 94
      127
  0
MATERIAL
  5
44
102
{ACAD_REACTORS
330
43
102
}
330
43
100
AcDbMaterial
  1
ByLayer
 72
     1
 94
      127
  0
MATERIAL
  5
46
102
{ACAD_REACTORS
330
43
102
}
330
43
100
AcDbMaterial
  1
Global
 72
     1
 94
      127
  0
MLEADERSTYLE
  5
6C
102
{ACAD_REACTORS
330
6B
102
}
330
6B
100
AcDbMLeaderStyle
179
     2
170
     2
171
     1
172
     0
 90
        2
 40
0.0
 41
0.0
173
     1
 91
-1056964608
340
14
 92
       -2
290
     1
 42
0.09
291
     1
 43
0.36
  3
Standard
341
0
 44
0.18
300

342
11
174
     1
178
     6
175
     1
176
     0
 93
-1056964608
 45
0.18
292
     0
297
     0
 46
0.18
343
0
 94
-1056964608
 47
1.0
 49
1.0
140
1.0
293
     1
141
0.0
294
     1
177
     0
142
1.0
295
     0
296
     0
143
0.125
271
     0
272
     9
273
     9
298
     0
  0
MLINESTYLE
  5
18
102
{ACAD_REACTORS
330
17
102
}
330
17
100
AcDbMlineStyle
  2
Standard
 70
     0
  3

 62
   256
 51
90.0
 52
90.0
 71
     2
 49
0.5
 62
   256
  6
BYLAYER
 49
-0.5
 62
   256
  6
BYLAYER
  0
ACDBPLACEHOLDER
  5
F
102
{ACAD_REACTORS
330
E
102
}
330
E
  0
SCALE
  5
48
102
{ACAD_REACTORS
330
47
102
}
330
47
100
AcDbScale
 70
     0
300
1:1
140
1.0
141
1.0
290
     1
  0
SCALE
  5
49
102
{ACAD_REACTORS
330
47
102
}
330
47
100
AcDbScale
 70
     0
300
1:2
140
1.0
141
2.0
290
     0
  0
SCALE
  5
4A
102
{ACAD_REACTORS
330
47
102
}
330
47
100
AcDbScale
 70
     0
300
1:4
140
1.0
141
4.0
290
     0
  0
SCALE
  5
4B
102
{ACAD_REACTORS
330
47
102
}
330
47
100
AcDbScale
 70
     0
300
1:5
140
1.0
141
5.0
290
     0
  0
SCALE
  5
4C
102
{ACAD_REACTORS
330
47
102
}
330
47
100
AcDbScale
 70
     0
300
1:8
140
1.0
141
8.0
290
     0
  0
SCALE
  5
4D
102
{ACAD_REACTORS
330
47
102
}
330
47
100
AcDbScale
 70
     0
300
1:10
140
1.0
141
10.0
290
     0
  0
SCALE
  5
4E
102
{ACAD_REACTORS
330
47
102
}
330
47
100
AcDbScale
 70
     0
300
1:16
140
1.0
141
16.0
290
     0
  0
SCALE
  5
4F
102
{ACAD_REACTORS
330
47
102
}
330
47
100
AcDbScale
 70
     0
300
1:20
140
1.0
141
20.0
290
     0
  0
SCALE
  5
50
102
{ACAD_REACTORS
330
47
102
}
330
47
100
AcDbScale
 70
     0
300
1:30
140
1.0
141
30.0
290
     0
  0
SCALE
  5
51
102
{ACAD_REACTORS
330
47
102
}
330
47
100
AcDbScale
 70
     0
300
1:40
140
1.0
141
40.0
290
     0
  0
SCALE
  5
52
102
{ACAD_REACTORS
330
47
102
}
330
47
100
AcDbScale
 70
     0
300
1:50
140
1.0
141
50.0
290
     0
  0
SCALE
  5
53
102
{ACAD_REACTORS
330
47
102
}
330
47
100
AcDbScale
 70
     0
300
1:100
140
1.0
141
100.0
290
     0
  0
SCALE
  5
54
102
{ACAD_REACTORS
330
47
102
}
330
47
100
AcDbScale
 70
     0
300
2:1
140
2.0
141
1.0
290
     0
  0
SCALE
  5
55
102
{ACAD_REACTORS
330
47
102
}
330
47
100
AcDbScale
 70
     0
300
4:1
140
4.0
141
1.0
290
     0
  0
SCALE
  5
56
102
{ACAD_REACTORS
330
47
102
}
330
47
100
AcDbScale
 70
     0
300
8:1
140
8.0
141
1.0
290
     0
  0
SCALE
  5
57
102
{ACAD_REACTORS
330
47
102
}
330
47
100
AcDbScale
 70
     0
300
10:1
140
10.0
141
1.0
290
     0
  0
SCALE
  5
58
102
{ACAD_REACTORS
330
47
102
}
330
47
100
AcDbScale
 70
     0
300
100:1
140
100.0
141
1.0
290
     0
  0
SCALE
  5
59
102
{ACAD_REACTORS
330
47
102
}
330
47
100
AcDbScale
 70
     0
300
1/128" = 1'-0"
140
0.0078125
141
12.0
290
     0
  0
SCALE
  5
5A
102
{ACAD_REACTORS
330
47
102
}
330
47
100
AcDbScale
 70
     0
300
1/64" = 1'-0"
140
0.015625
141
12.0
290
     0
  0
SCALE
  5
5B
102
{ACAD_REACTORS
330
47
102
}
330
47
100
AcDbScale
 70
     0
300
1/32" = 1'-0"
140
0.03125
141
12.0
290
     0
  0
SCALE
  5
5C
102
{ACAD_REACTORS
330
47
102
}
330
47
100
AcDbScale
 70
     0
300
1/16" = 1'-0"
140
0.0625
141
12.0
290
     0
  0
SCALE
  5
5D
102
{ACAD_REACTORS
330
47
102
}
330
47
100
AcDbScale
 70
     0
300
3/32" = 1'-0"
140
0.09375
141
12.0
290
     0
  0
SCALE
  5
5E
102
{ACAD_REACTORS
330
47
102
}
330
47
100
AcDbScale
 70
     0
300
1/8" = 1'-0"
140
0.125
141
12.0
290
     0
  0
SCALE
  5
5F
102
{ACAD_REACTORS
330
47
102
}
330
47
100
AcDbScale
 70
     0
300
3/16" = 1'-0"
140
0.1875
141
12.0
290
     0
  0
SCALE
  5
60
102
{ACAD_REACTORS
330
47
102
}
330
47
100
AcDbScale
 70
     0
300
1/4" = 1'-0"
140
0.25
141
12.0
290
     0
  0
SCALE
  5
61
102
{ACAD_REACTORS
330
47
102
}
330
47
100
AcDbScale
 70
     0
300
3/8" = 1'-0"
140
0.375
141
12.0
290
     0
  0
SCALE
  5
62
102
{ACAD_REACTORS
330
47
102
}
330
47
100
AcDbScale
 70
     0
300
1/2" = 1'-0"
140
0.5
141
12.0
290
     0
  0
SCALE
  5
63
102
{ACAD_REACTORS
330
47
102
}
330
47
100
AcDbScale
 70
     0
300
3/4" = 1'-0"
140
0.75
141
12.0
290
     0
  0
SCALE
  5
64
102
{ACAD_REACTORS
330
47
102
}
330
47
100
AcDbScale
 70
     0
300
1" = 1'-0"
140
1.0
141
12.0
290
     0
  0
SCALE
  5
65
102
{ACAD_REACTORS
330
47
102
}
330
47
100
AcDbScale
 70
     0
300
1-1/2" = 1'-0"
140
1.5
141
12.0
290
     0
  0
SCALE
  5
66
102
{ACAD_REACTORS
330
47
102
}
330
47
100
AcDbScale
 70
     0
300
3" = 1'-0"
140
3.0
141
12.0
290
     0
  0
SCALE
  5
67
102
{ACAD_REACTORS
330
47
102
}
330
47
100
AcDbScale
 70
     0
300
6" = 1'-0"
140
6.0
141
12.0
290
     0
  0
SCALE
  5
68
102
{ACAD_REACTORS
330
47
102
}
330
47
100
AcDbScale
 70
     0
300
1'-0" = 1'-0"
140
12.0
141
12.0
290
     0
  0
TABLESTYLE
  5
6A
102
{ACAD_REACTORS
330
69
102
}
102
{ACAD_XDICTIONARY
360
23C
102
}
330
69
100
AcDbTableStyle
  3
Standard
 70
     0
 71
     0
 40
0.06
 41
0.06
280
     0
281
     0
  7
Standard
140
0.18
170
     2
 62
     0
 63
   257
283
     0
 90
        4
 91
        0
  1

274
    -2
284
     1
 64
     0
275
    -2
285
     1
 65
     0
276
    -2
286
     1
 66
     0
277
    -2
287
     1
 67
     0
278
    -2
288
     1
 68
     0
279
    -2
289
     1
 69
     0
  7
Standard
140
0.25
170
     5
 62
     0
 63
   257
283
     0
 90
        4
 91
        0
  1

274
    -2
284
     1
 64
     0
275
    -2
285
     1
 65
     0
276
    -2
286
     1
 66
     0
277
    -2
287
     1
 67
     0
278
    -2
288
     1
 68
     0
279
    -2
289
     1
 69
     0
  7
Standard
140
0.18
170
     5
 62
     0
 63
   257
283
     0
 90
        4
 91
        0
  1

274
    -2
284
     1
 64
     0
275
    -2
285
     1
 65
     0
276
    -2
286
     1
 66
     0
277
    -2
287
     1
 67
     0
278
    -2
288
     1
 68
     0
279
    -2
289
     1
 69
     0
  0
VISUALSTYLE
  5
2F
102
{ACAD_REACTORS
330
2A
102
}
330
2A
100
AcDbVisualStyle
  2
2dWireframe
 70
     4
177
     3
291
     0
 70
    58
 90
        0
176
     1
 90
        2
176
     1
 90
        0
176
     1
 90
        0
176
     1
 40
0.6
176
     1
 40
30.0
176
     1
 62
     7
420
 16777215
176
     1
 90
        1
176
     1
 90
        4
176
     1
 62
     7
176
     1
 62
   257
176
     1
 90
        1
176
     1
 90
        1
176
     1
 40
1.0
176
     1
 90
        0
176
     1
 62
   257
176
     1
 40
1.0
176
     1
 90
        1
176
     1
 90
        6
176
     1
 90
        2
176
     1
 62
     7
176
     1
 90
        5
176
     1
 90
        0
176
     1
 90
        0
176
     1
290
     0
176
     1
 90
        1
176
     1
 40
0.0
176
     1
 90
        0
176
     1
290
     1
176
     1
290
     1
176
     1
290
     0
176
     1
290
     0
176
     1
290
     0
176
     1
290
     0
176
     1
290
     0
176
     1
290
     0
176
     1
290
     0
176
     1
 90
       50
176
     1
 40
0.0
176
     1
 40
1.0
176
     1
 90
        0
176
     1
 62
    18
420
        0
176
     1
 90
       50
176
     1
 90
        3
176
     1
 62
     5
420
      255
176
     1
290
     0
176
     1
 90
       50
176
     1
 90
       50
176
     1
 90
       50
176
     1
290
     0
176
     1
 90
       50
176
     1
 62
   256
176
     0
 40
1.0
176
     0
 90
        2
176
     1
  1
strokes_ogs.tif
176
     1
290
     0
176
     1
 40
1.0
176
     1
 40
1.0
176
     1
  0
VISUALSTYLE
  5
32
102
{ACAD_REACTORS
330
2A
102
}
330
2A
100
AcDbVisualStyle
  2
Basic
 70
     7
177
     3
291
     1
 70
    58
 90
        1
176
     1
 90
        0
176
     1
 90
        1
176
     1
 90
        0
176
     1
 40
0.6
176
     1
 40
30.0
176
     1
 62
     7
420
 16777215
176
     1
 90
        0
176
     1
 90
        4
176
     1
 62
     7
176
     1
 62
   257
176
     1
 90
        1
176
     1
 90
        1
176
     1
 40
1.0
176
     1
 90
        8
176
     1
 62
     7
176
     1
 40
1.0
176
     1
 90
        1
176
     1
 90
        6
176
     1
 90
        2
176
     1
 62
     7
176
     1
 90
        5
176
     1
 90
        0
176
     1
 90
        0
176
     1
290
     0
176
     1
 90
        1
176
     1
 40
0.0
176
     1
 90
        0
176
     1
290
     0
176
     1
290
     1
176
     1
290
     1
176
     1
290
     0
176
     1
290
     0
176
     1
290
     0
176
     1
290
     0
176
     1
290
     0
176
     1
290
     0
176
     1
 90
       50
176
     1
 40
0.0
176
     1
 40
1.0
176
     1
 90
        0
176
     1
 62
    18
420
        0
176
     1
 90
       50
176
     1
 90
        3
176
     1
 62
     5
420
      255
176
     1
290
     0
176
     1
 90
       50
176
     1
 90
       50
176
     1
 90
       50
176
     1
290
     0
176
     1
 90
       50
176
     1
 62
   256
176
     0
 40
1.0
176
     0
 90
        2
176
     1
  1
strokes_ogs.tif
176
     1
290
     0
176
     1
 40
1.0
176
     1
 40
1.0
176
     1
  0
VISUALSTYLE
  5
36
102
{ACAD_REACTORS
330
2A
102
}
330
2A
100
AcDbVisualStyle
  2
Brighten
 70
    12
177
     3
291
     1
 70
    58
 90
        2
176
     1
 90
        2
176
     1
 90
        0
176
     1
 90
        0
176
     1
 40
0.6
176
     1
 40
30.0
176
     1
 62
     7
420
 16777215
176
     1
 90
        1
176
     1
 90
        4
176
     1
 62
     7
176
     1
 62
   257
176
     1
 90
        1
176
     1
 90
        1
176
     1
 40
1.0
176
     1
 90
        8
176
     1
 62
     7
176
     1
 40
1.0
176
     1
 90
        1
176
     1
 90
        6
176
     1
 90
        2
176
     1
 62
     7
176
     1
 90
        5
176
     1
 90
        0
176
     1
 90
        0
176
     1
290
     0
176
     1
 90
        1
176
     1
 40
50.0
176
     1
 90
        0
176
     1
290
     0
176
     1
290
     1
176
     1
290
     1
176
     1
290
     0
176
     1
290
     0
176
     1
290
     0
176
     1
290
     0
176
     1
290
     0
176
     1
290
     0
176
     1
 90
       50
176
     1
 40
0.0
176
     1
 40
1.0
176
     1
 90
        0
176
     1
 62
    18
420
        0
176
     1
 90
       50
176
     1
 90
        3
176
     1
 62
     5
420
      255
176
     1
290
     0
176
     1
 90
       50
176
     1
 90
       50
176
     1
 90
       50
176
     1
290
     0
176
     1
 90
       50
176
     1
 62
   256
176
     0
 40
1.0
176
     0
 90
        2
176
     1
  1
strokes_ogs.tif
176
     1
290
     0
176
     1
 40
1.0
176
     1
 40
1.0
176
     1
  0
VISUALSTYLE
  5
3A
102
{ACAD_REACTORS
330
2A
102
}
330
2A
100
AcDbVisualStyle
  2
ColorChange
 70
    16
177
     3
291
     1
 70
    58
 90
        2
176
     1
 90
        2
176
     1
 90
        3
176
     1
 90
        0
176
     1
 40
0.6
176
     1
 40
30.0
176
     1
 62
     8
420
  8421504
176
     1
 90
        1
176
     1
 90
        4
176
     1
 62
     7
176
     1
 62
   257
176
     1
 90
        1
176
     1
 90
        1
176
     1
 40
1.0
176
     1
 90
        8
176
     1
 62
     8
420
  8421504
176
     1
 40
1.0
176
     1
 90
        1
176
     1
 90
        6
176
     1
 90
        2
176
     1
 62
     7
176
     1
 90
        5
176
     1
 90
        0
176
     1
 90
        0
176
     1
290
     0
176
     1
 90
        1
176
     1
 40
0.0
176
     1
 90
        0
176
     1
290
     0
176
     1
290
     1
176
     1
290
     1
176
     1
290
     0
176
     1
290
     0
176
     1
290
     0
176
     1
290
     0
176
     1
290
     0
176
     1
290
     0
176
     1
 90
       50
176
     1
 40
0.0
176
     1
 40
1.0
176
     1
 90
        0
176
     1
 62
    18
420
        0
176
     1
 90
       50
176
     1
 90
        3
176
     1
 62
     5
420
      255
176
     1
290
     0
176
     1
 90
       50
176
     1
 90
       50
176
     1
 90
       50
176
     1
290
     0
176
     1
 90
       50
176
     1
 62
   256
176
     0
 40
1.0
176
     0
 90
        2
176
     1
  1
strokes_ogs.tif
176
     1
290
     0
176
     1
 40
1.0
176
     1
 40
1.0
176
     1
  0
VISUALSTYLE
  5
34
102
{ACAD_REACTORS
330
2A
102
}
330
2A
100
AcDbVisualStyle
  2
Conceptual
 70
     9
177
     3
291
     0
 70
    58
 90
        3
176
     1
 90
        2
176
     1
 90
        0
176
     1
 90
        0
176
     1
 40
0.6
176
     1
 40
30.0
176
     1
 62
     7
420
 16777215
176
     1
 90
        2
176
     1
 90
        2
176
     1
 62
     7
176
     1
 62
   257
176
     1
 90
        1
176
     1
 90
        1
176
     1
 40
179.0
176
     1
 90
        8
176
     1
 62
     7
176
     1
 40
1.0
176
     1
 90
        1
176
     1
 90
        6
176
     1
 90
        2
176
     1
 62
     7
176
     1
 90
        3
176
     1
 90
        0
176
     1
 90
        0
176
     1
290
     0
176
     1
 90
        1
176
     1
 40
0.0
176
     1
 90
        0
176
     1
290
     0
176
     1
290
     1
176
     1
290
     1
176
     1
290
     0
176
     1
290
     0
176
     1
290
     0
176
     1
290
     0
176
     1
290
     0
176
     1
290
     0
176
     1
 90
       50
176
     1
 40
0.0
176
     1
 40
1.0
176
     1
 90
        0
176
     1
 62
    18
420
        0
176
     1
 90
       50
176
     1
 90
        3
176
     1
 62
     5
420
      255
176
     1
290
     0
176
     1
 90
       50
176
     1
 90
       50
176
     1
 90
       50
176
     1
290
     0
176
     1
 90
       50
176
     1
 62
   256
176
     0
 40
1.0
176
     0
 90
        2
176
     1
  1
strokes_ogs.tif
176
     1
290
     0
176
     1
 40
1.0
176
     1
 40
1.0
176
     1
  0
VISUALSTYLE
  5
35
102
{ACAD_REACTORS
330
2A
102
}
330
2A
100
AcDbVisualStyle
  2
Dim
 70
    11
177
     3
291
     1
 70
    58
 90
        2
176
     1
 90
        2
176
     1
 90
        0
176
     1
 90
        0
176
     1
 40
0.6
176
     1
 40
30.0
176
     1
 62
     7
420
 16777215
176
     1
 90
        1
176
     1
 90
        4
176
     1
 62
     7
176
     1
 62
   257
176
     1
 90
        1
176
     1
 90
        1
176
     1
 40
1.0
176
     1
 90
        8
176
     1
 62
     7
176
     1
 40
1.0
176
     1
 90
        1
176
     1
 90
        6
176
     1
 90
        2
176
     1
 62
     7
176
     1
 90
        5
176
     1
 90
        0
176
     1
 90
        0
176
     1
290
     0
176
     1
 90
        1
176
     1
 40
-50.0
176
     1
 90
        0
176
     1
290
     0
176
     1
290
     1
176
     1
290
     1
176
     1
290
     0
176
     1
290
     0
176
     1
290
     0
176
     1
290
     0
176
     1
290
     0
176
     1
290
     0
176
     1
 90
       50
176
     1
 40
0.0
176
     1
 40
1.0
176
     1
 90
        0
176
     1
 62
    18
420
        0
176
     1
 90
       50
176
     1
 90
        3
176
     1
 62
     5
420
      255
176
     1
290
     0
176
     1
 90
       50
176
     1
 90
       50
176
     1
 90
       50
176
     1
290
     0
176
     1
 90
       50
176
     1
 62
   256
176
     0
 40
1.0
176
     0
 90
        2
176
     1
  1
strokes_ogs.tif
176
     1
290
     0
176
     1
 40
1.0
176
     1
 40
1.0
176
     1
  0
VISUALSTYLE
  5
3D
102
{ACAD_REACTORS
330
2A
102
}
330
2A
100
AcDbVisualStyle
  2
EdgeColorOff
 70
    22
177
     3
291
     1
 70
    58
 90
        2
176
     0
 90
        2
176
     0
 90
        0
176
     0
 90
        0
176
     0
 40
0.6
176
     0
 40
30.0
176
     0
 62
     7
420
 16777215
176
     0
 90
        1
176
     0
 90
        4
176
     0
 62
     7
176
     0
 62
   257
176
     0
 90
        1
176
     0
 90
        1
176
     0
 40
1.0
176
     0
 90
        8
176
     2
 62
     7
176
     0
 40
1.0
176
     0
 90
        1
176
     0
 90
        6
176
     0
 90
        2
176
     0
 62
     7
176
     0
 90
        5
176
     0
 90
        0
176
     0
 90
        0
176
     0
290
     0
176
     0
 90
        1
176
     0
 40
0.0
176
     0
 90
        0
176
     0
290
     0
176
     0
290
     1
176
     0
290
     1
176
     0
290
     0
176
     0
290
     0
176
     0
290
     0
176
     0
290
     0
176
     0
290
     0
176
     0
290
     0
176
     0
 90
       50
176
     0
 40
0.0
176
     0
 40
1.0
176
     0
 90
        0
176
     0
 62
    18
420
        0
176
     0
 90
       50
176
     0
 90
        3
176
     0
 62
     5
420
      255
176
     0
290
     0
176
     0
 90
       50
176
     0
 90
       50
176
     0
 90
       50
176
     0
290
     0
176
     0
 90
       50
176
     0
 62
   256
176
     0
 40
1.0
176
     0
 90
        2
176
     0
  1
strokes_ogs.tif
176
     0
290
     0
176
     0
 40
1.0
176
     0
 40
1.0
176
     0
  0
VISUALSTYLE
  5
39
102
{ACAD_REACTORS
330
2A
102
}
330
2A
100
AcDbVisualStyle
  2
Facepattern
 70
    15
177
     3
291
     1
 70
    58
 90
        2
176
     1
 90
        2
176
     1
 90
        0
176
     1
 90
        0
176
     1
 40
0.6
176
     1
 40
30.0
176
     1
 62
     7
420
 16777215
176
     1
 90
        1
176
     1
 90
        4
176
     1
 62
     7
176
     1
 62
   257
176
     1
 90
        1
176
     1
 90
        1
176
     1
 40
1.0
176
     1
 90
        8
176
     1
 62
     7
176
     1
 40
1.0
176
     1
 90
        1
176
     1
 90
        6
176
     1
 90
        2
176
     1
 62
     7
176
     1
 90
        5
176
     1
 90
        0
176
     1
 90
        0
176
     1
290
     0
176
     1
 90
        1
176
     1
 40
0.0
176
     1
 90
        0
176
     1
290
     0
176
     1
290
     1
176
     1
290
     1
176
     1
290
     0
176
     1
290
     0
176
     1
290
     0
176
     1
290
     0
176
     1
290
     0
176
     1
290
     0
176
     1
 90
       50
176
     1
 40
0.0
176
     1
 40
1.0
176
     1
 90
        0
176
     1
 62
    18
420
        0
176
     1
 90
       50
176
     1
 90
        3
176
     1
 62
     5
420
      255
176
     1
290
     0
176
     1
 90
       50
176
     1
 90
       50
176
     1
 90
       50
176
     1
290
     0
176
     1
 90
       50
176
     1
 62
   256
176
     0
 40
1.0
176
     0
 90
        2
176
     1
  1
strokes_ogs.tif
176
     1
290
     0
176
     1
 40
1.0
176
     1
 40
1.0
176
     1
  0
VISUALSTYLE
  5
2B
102
{ACAD_REACTORS
330
2A
102
}
330
2A
100
AcDbVisualStyle
  2
Flat
 70
     0
177
     3
291
     1
 70
    58
 90
        2
176
     1
 90
        1
176
     1
 90
        1
176
     1
 90
        2
176
     1
 40
0.6
176
     1
 40
30.0
176
     1
 62
     7
420
 16777215
176
     1
 90
        0
176
     1
 90
        0
176
     1
 62
     7
176
     1
 62
   257
176
     1
 90
        1
176
     1
 90
        1
176
     1
 40
1.0
176
     1
 90
        8
176
     1
 62
     7
176
     1
 40
1.0
176
     1
 90
        1
176
     1
 90
        6
176
     1
 90
        2
176
     1
 62
     7
176
     1
 90
        5
176
     1
 90
        0
176
     1
 90
        0
176
     1
290
     0
176
     1
 90
       13
176
     1
 40
0.0
176
     1
 90
        0
176
     1
290
     0
176
     1
290
     1
176
     1
290
     1
176
     1
290
     0
176
     1
290
     0
176
     1
290
     0
176
     1
290
     0
176
     1
290
     0
176
     1
290
     0
176
     1
 90
       50
176
     1
 40
0.0
176
     1
 40
1.0
176
     1
 90
        0
176
     1
 62
    18
420
        0
176
     1
 90
       50
176
     1
 90
        3
176
     1
 62
     5
420
      255
176
     1
290
     0
176
     1
 90
       50
176
     1
 90
       50
176
     1
 90
       50
176
     1
290
     0
176
     1
 90
       50
176
     1
 62
   256
176
     0
 40
1.0
176
     0
 90
        2
176
     1
  1
strokes_ogs.tif
176
     1
290
     0
176
     1
 40
1.0
176
     1
 40
1.0
176
     1
  0
VISUALSTYLE
  5
2C
102
{ACAD_REACTORS
330
2A
102
}
330
2A
100
AcDbVisualStyle
  2
FlatWithEdges
 70
     1
177
     3
291
     1
 70
    58
 90
        2
176
     1
 90
        1
176
     1
 90
        1
176
     1
 90
        2
176
     1
 40
0.6
176
     1
 40
30.0
176
     1
 62
     7
420
 16777215
176
     1
 90
        1
176
     1
 90
        0
176
     1
 62
     7
176
     1
 62
   257
176
     1
 90
        1
176
     1
 90
        1
176
     1
 40
1.0
176
     1
 90
        0
176
     1
 62
   257
176
     1
 40
1.0
176
     1
 90
        1
176
     1
 90
        6
176
     1
 90
        2
176
     1
 62
     7
176
     1
 90
        5
176
     1
 90
        0
176
     1
 90
        0
176
     1
290
     0
176
     1
 90
       13
176
     1
 40
0.0
176
     1
 90
        0
176
     1
290
     0
176
     1
290
     1
176
     1
290
     1
176
     1
290
     0
176
     1
290
     0
176
     1
290
     0
176
     1
290
     0
176
     1
290
     0
176
     1
290
     0
176
     1
 90
       50
176
     1
 40
0.0
176
     1
 40
1.0
176
     1
 90
        0
176
     1
 62
    18
420
        0
176
     1
 90
       50
176
     1
 90
        3
176
     1
 62
     5
420
      255
176
     1
290
     0
176
     1
 90
       50
176
     1
 90
       50
176
     1
 90
       50
176
     1
290
     0
176
     1
 90
       50
176
     1
 62
   256
176
     0
 40
1.0
176
     0
 90
        2
176
     1
  1
strokes_ogs.tif
176
     1
290
     0
176
     1
 40
1.0
176
     1
 40
1.0
176
     1
  0
VISUALSTYLE
  5
2D
102
{ACAD_REACTORS
330
2A
102
}
330
2A
100
AcDbVisualStyle
  2
Gouraud
 70
     2
177
     3
291
     1
 70
    58
 90
        2
176
     1
 90
        2
176
     1
 90
        1
176
     1
 90
        2
176
     1
 40
0.6
176
     1
 40
30.0
176
     1
 62
     7
420
 16777215
176
     1
 90
        0
176
     1
 90
        0
176
     1
 62
     7
176
     1
 62
   257
176
     1
 90
        1
176
     1
 90
        1
176
     1
 40
1.0
176
     1
 90
        0
176
     1
 62
     7
176
     1
 40
1.0
176
     1
 90
        1
176
     1
 90
        6
176
     1
 90
        2
176
     1
 62
     7
176
     1
 90
        5
176
     1
 90
        0
176
     1
 90
        0
176
     1
290
     0
176
     1
 90
       13
176
     1
 40
0.0
176
     1
 90
        0
176
     1
290
     0
176
     1
290
     1
176
     1
290
     1
176
     1
290
     0
176
     1
290
     0
176
     1
290
     0
176
     1
290
     0
176
     1
290
     0
176
     1
290
     0
176
     1
 90
       50
176
     1
 40
0.0
176
     1
 40
1.0
176
     1
 90
        0
176
     1
 62
    18
420
        0
176
     1
 90
       50
176
     1
 90
        3
176
     1
 62
     5
420
      255
176
     1
290
     0
176
     1
 90
       50
176
     1
 90
       50
176
     1
 90
       50
176
     1
290
     0
176
     1
 90
       50
176
     1
 62
   256
176
     0
 40
1.0
176
     0
 90
        2
176
     1
  1
strokes_ogs.tif
176
     1
290
     0
176
     1
 40
1.0
176
     1
 40
1.0
176
     1
  0
VISUALSTYLE
  5
2E
102
{ACAD_REACTORS
330
2A
102
}
330
2A
100
AcDbVisualStyle
  2
GouraudWithEdges
 70
     3
177
     3
291
     1
 70
    58
 90
        2
176
     1
 90
        2
176
     1
 90
        1
176
     1
 90
        2
176
     1
 40
0.6
176
     1
 40
30.0
176
     1
 62
     7
420
 16777215
176
     1
 90
        1
176
     1
 90
        0
176
     1
 62
     7
176
     1
 62
   257
176
     1
 90
        1
176
     1
 90
        1
176
     1
 40
1.0
176
     1
 90
        0
176
     1
 62
   257
176
     1
 40
1.0
176
     1
 90
        1
176
     1
 90
        6
176
     1
 90
        2
176
     1
 62
     7
176
     1
 90
        5
176
     1
 90
        0
176
     1
 90
        0
176
     1
290
     0
176
     1
 90
       13
176
     1
 40
0.0
176
     1
 90
        0
176
     1
290
     0
176
     1
290
     1
176
     1
290
     1
176
     1
290
     0
176
     1
290
     0
176
     1
290
     0
176
     1
290
     0
176
     1
290
     0
176
     1
290
     0
176
     1
 90
       50
176
     1
 40
0.0
176
     1
 40
1.0
176
     1
 90
        0
176
     1
 62
    18
420
        0
176
     1
 90
       50
176
     1
 90
        3
176
     1
 62
     5
420
      255
176
     1
290
     0
176
     1
 90
       50
176
     1
 90
       50
176
     1
 90
       50
176
     1
290
     0
176
     1
 90
       50
176
     1
 62
   256
176
     0
 40
1.0
176
     0
 90
        2
176
     1
  1
strokes_ogs.tif
176
     1
290
     0
176
     1
 40
1.0
176
     1
 40
1.0
176
     1
  0
VISUALSTYLE
  5
31
102
{ACAD_REACTORS
330
2A
102
}
330
2A
100
AcDbVisualStyle
  2
Hidden
 70
     6
177
     3
291
     0
 70
    58
 90
        1
176
     1
 90
        2
176
     1
 90
        2
176
     1
 90
        0
176
     1
 40
0.6
176
     1
 40
30.0
176
     1
 62
     7
420
 16777215
176
     1
 90
        2
176
     1
 90
        2
176
     1
 62
     7
176
     1
 62
   257
176
     1
 90
        2
176
     1
 90
        1
176
     1
 40
40.0
176
     1
 90
        0
176
     1
 62
   257
176
     1
 40
1.0
176
     1
 90
        1
176
     1
 90
        6
176
     1
 90
        2
176
     1
 62
     7
176
     1
 90
        3
176
     1
 90
        0
176
     1
 90
        0
176
     1
290
     0
176
     1
 90
        1
176
     1
 40
0.0
176
     1
 90
        0
176
     1
290
     0
176
     1
290
     1
176
     1
290
     1
176
     1
290
     0
176
     1
290
     0
176
     1
290
     0
176
     1
290
     0
176
     1
290
     0
176
     1
290
     0
176
     1
 90
       50
176
     1
 40
0.0
176
     1
 40
1.0
176
     1
 90
        0
176
     1
 62
    18
420
        0
176
     1
 90
       50
176
     1
 90
        3
176
     1
 62
     5
420
      255
176
     1
290
     0
176
     1
 90
       50
176
     1
 90
       50
176
     1
 90
       50
176
     1
290
     0
176
     1
 90
       50
176
     1
 62
   256
176
     0
 40
1.0
176
     0
 90
        2
176
     1
  1
strokes_ogs.tif
176
     1
290
     0
176
     1
 40
1.0
176
     1
 40
1.0
176
     1
  0
VISUALSTYLE
  5
3B
102
{ACAD_REACTORS
330
2A
102
}
330
2A
100
AcDbVisualStyle
  2
JitterOff
 70
    20
177
     3
291
     1
 70
    58
 90
        2
176
     0
 90
        2
176
     0
 90
        0
176
     0
 90
        0
176
     0
 40
0.6
176
     0
 40
30.0
176
     0
 62
     7
420
 16777215
176
     0
 90
        1
176
     0
 90
        4
176
     0
 62
     7
176
     0
 62
   257
176
     0
 90
        1
176
     0
 90
        1
176
     0
 40
1.0
176
     0
 90
       10
176
     2
 62
     7
176
     0
 40
1.0
176
     0
 90
        1
176
     0
 90
        6
176
     0
 90
        2
176
     0
 62
     7
176
     0
 90
        5
176
     0
 90
        0
176
     0
 90
        0
176
     0
290
     0
176
     0
 90
        1
176
     0
 40
0.0
176
     0
 90
        0
176
     0
290
     0
176
     0
290
     1
176
     0
290
     1
176
     0
290
     0
176
     0
290
     0
176
     0
290
     0
176
     0
290
     0
176
     0
290
     0
176
     0
290
     0
176
     0
 90
       50
176
     0
 40
0.0
176
     0
 40
1.0
176
     0
 90
        0
176
     0
 62
    18
420
        0
176
     0
 90
       50
176
     0
 90
        3
176
     0
 62
     5
420
      255
176
     0
290
     0
176
     0
 90
       50
176
     0
 90
       50
176
     0
 90
       50
176
     0
290
     0
176
     0
 90
       50
176
     0
 62
   256
176
     0
 40
1.0
176
     0
 90
        2
176
     0
  1
strokes_ogs.tif
176
     0
290
     0
176
     0
 40
1.0
176
     0
 40
1.0
176
     0
  0
VISUALSTYLE
  5
38
102
{ACAD_REACTORS
330
2A
102
}
330
2A
100
AcDbVisualStyle
  2
Linepattern
 70
    14
177
     3
291
     1
 70
    58
 90
        2
176
     1
 90
        2
176
     1
 90
        0
176
     1
 90
        0
176
     1
 40
0.6
176
     1
 40
30.0
176
     1
 62
     7
420
 16777215
176
     1
 90
        1
176
     1
 90
        4
176
     1
 62
     7
176
     1
 62
   257
176
     1
 90
        7
176
     1
 90
        7
176
     1
 40
1.0
176
     1
 90
        8
176
     1
 62
     7
176
     1
 40
1.0
176
     1
 90
        1
176
     1
 90
        6
176
     1
 90
        2
176
     1
 62
     7
176
     1
 90
        5
176
     1
 90
        0
176
     1
 90
        0
176
     1
290
     0
176
     1
 90
        1
176
     1
 40
0.0
176
     1
 90
        0
176
     1
290
     0
176
     1
290
     1
176
     1
290
     1
176
     1
290
     0
176
     1
290
     0
176
     1
290
     0
176
     1
290
     0
176
     1
290
     0
176
     1
290
     0
176
     1
 90
       50
176
     1
 40
0.0
176
     1
 40
1.0
176
     1
 90
        0
176
     1
 62
    18
420
        0
176
     1
 90
       50
176
     1
 90
        3
176
     1
 62
     5
420
      255
176
     1
290
     0
176
     1
 90
       50
176
     1
 90
       50
176
     1
 90
       50
176
     1
290
     0
176
     1
 90
       50
176
     1
 62
   256
176
     0
 40
1.0
176
     0
 90
        2
176
     1
  1
strokes_ogs.tif
176
     1
290
     0
176
     1
 40
1.0
176
     1
 40
1.0
176
     1
  0
VISUALSTYLE
  5
3C
102
{ACAD_REACTORS
330
2A
102
}
330
2A
100
AcDbVisualStyle
  2
OverhangOff
 70
    21
177
     3
291
     1
 70
    58
 90
        2
176
     0
 90
        2
176
     0
 90
        0
176
     0
 90
        0
176
     0
 40
0.6
176
     0
 40
30.0
176
     0
 62
     7
420
 16777215
176
     0
 90
        1
176
     0
 90
        4
176
     0
 62
     7
176
     0
 62
   257
176
     0
 90
        1
176
     0
 90
        1
176
     0
 40
1.0
176
     0
 90
        9
176
     2
 62
     7
176
     0
 40
1.0
176
     0
 90
        1
176
     0
 90
        6
176
     0
 90
        2
176
     0
 62
     7
176
     0
 90
        5
176
     0
 90
        0
176
     0
 90
        0
176
     0
290
     0
176
     0
 90
        1
176
     0
 40
0.0
176
     0
 90
        0
176
     0
290
     0
176
     0
290
     1
176
     0
290
     1
176
     0
290
     0
176
     0
290
     0
176
     0
290
     0
176
     0
290
     0
176
     0
290
     0
176
     0
290
     0
176
     0
 90
       50
176
     0
 40
0.0
176
     0
 40
1.0
176
     0
 90
        0
176
     0
 62
    18
420
        0
176
     0
 90
       50
176
     0
 90
        3
176
     0
 62
     5
420
      255
176
     0
290
     0
176
     0
 90
       50
176
     0
 90
       50
176
     0
 90
       50
176
     0
290
     0
176
     0
 90
       50
176
     0
 62
   256
176
     0
 40
1.0
176
     0
 90
        2
176
     0
  1
strokes_ogs.tif
176
     0
290
     0
176
     0
 40
1.0
176
     0
 40
1.0
176
     0
  0
VISUALSTYLE
  5
33
102
{ACAD_REACTORS
330
2A
102
}
330
2A
100
AcDbVisualStyle
  2
Realistic
 70
     8
177
     3
291
     0
 70
    58
 90
        2
176
     1
 90
        3
176
     1
 90
        0
176
     1
 90
        2
176
     1
 40
0.6
176
     1
 40
30.0
176
     1
 62
     7
420
 16777215
176
     1
 90
        0
176
     1
 90
        0
176
     1
 62
     7
176
     1
 62
   257
176
     1
 90
        1
176
     1
 90
        1
176
     1
 40
1.0
176
     1
 90
        8
176
     1
 62
   257
176
     1
 40
1.0
176
     1
 90
        1
176
     1
 90
        6
176
     1
 90
        2
176
     1
 62
     7
176
     1
 90
        3
176
     1
 90
        0
176
     1
 90
        0
176
     1
290
     0
176
     1
 90
       13
176
     1
 40
0.0
176
     1
 90
        0
176
     1
290
     0
176
     1
290
     1
176
     1
290
     1
176
     1
290
     0
176
     1
290
     0
176
     1
290
     0
176
     1
290
     0
176
     1
290
     0
176
     1
290
     0
176
     1
 90
       50
176
     1
 40
0.0
176
     1
 40
1.0
176
     1
 90
        0
176
     1
 62
    18
420
        0
176
     1
 90
       50
176
     1
 90
        3
176
     1
 62
     5
420
      255
176
     1
290
     0
176
     1
 90
       50
176
     1
 90
       50
176
     1
 90
       50
176
     1
290
     0
176
     1
 90
       50
176
     1
 62
   256
176
     0
 40
1.0
176
     0
 90
        2
176
     1
  1
strokes_ogs.tif
176
     1
290
     0
176
     1
 40
1.0
176
     1
 40
1.0
176
     1
  0
VISUALSTYLE
  5
42
102
{ACAD_REACTORS
330
2A
102
}
330
2A
100
AcDbVisualStyle
  2
Shaded
 70
    27
177
     3
291
     0
 70
    58
 90
        2
176
     1
 90
        2
176
     1
 90
        1
176
     1
 90
        2
176
     1
 40
0.6
176
     1
 40
30.0
176
     1
 62
     7
420
 16777215
176
     1
 90
        0
176
     1
 90
        4
176
     1
 62
     7
176
     1
 62
   257
176
     1
 90
        1
176
     1
 90
        1
176
     1
 40
1.0
176
     1
 90
        8
176
     1
 62
   257
176
     1
 40
1.0
176
     1
 90
        1
176
     1
 90
        6
176
     1
 90
        2
176
     1
 62
     8
420
  7895160
176
     1
 90
        3
176
     1
 90
        0
176
     1
 90
        0
176
     1
290
     0
176
     1
 90
        5
176
     1
 40
0.0
176
     1
 90
        0
176
     1
290
     0
176
     1
290
     1
176
     1
290
     1
176
     1
290
     0
176
     1
290
     0
176
     1
290
     0
176
     1
290
     0
176
     1
290
     0
176
     1
290
     0
176
     1
 90
       50
176
     1
 40
0.0
176
     1
 40
1.0
176
     1
 90
        0
176
     1
 62
    18
420
        0
176
     1
 90
       50
176
     1
 90
        3
176
     1
 62
     5
420
      255
176
     1
290
     0
176
     1
 90
       50
176
     1
 90
       50
176
     1
 90
       50
176
     1
290
     0
176
     1
 90
       50
176
     1
 62
   256
176
     0
 40
1.0
176
     0
 90
        2
176
     1
  1
strokes_ogs.tif
176
     1
290
     0
176
     1
 40
1.0
176
     1
 40
1.0
176
     1
  0
VISUALSTYLE
  5
41
102
{ACAD_REACTORS
330
2A
102
}
330
2A
100
AcDbVisualStyle
  2
Shaded with edges
 70
    26
177
     3
291
     0
 70
    58
 90
        2
176
     1
 90
        2
176
     1
 90
        1
176
     1
 90
        2
176
     1
 40
0.6
176
     1
 40
30.0
176
     1
 62
     7
420
 16777215
176
     1
 90
        1
176
     1
 90
       10
176
     1
 62
     7
176
     1
 62
   257
176
     1
 90
        2
176
     1
 90
        1
176
     1
 40
1.0
176
     1
 90
        8
176
     1
 62
   257
176
     1
 40
1.0
176
     1
 90
        1
176
     1
 90
        6
176
     1
 90
        2
176
     1
 62
     7
176
     1
 90
        3
176
     1
 90
        0
176
     1
 90
        0
176
     1
290
     0
176
     1
 90
        5
176
     1
 40
0.0
176
     1
 90
        0
176
     1
290
     0
176
     1
290
     1
176
     1
290
     1
176
     1
290
     0
176
     1
290
     0
176
     1
290
     0
176
     1
290
     0
176
     1
290
     0
176
     1
290
     0
176
     1
 90
       50
176
     1
 40
0.0
176
     1
 40
1.0
176
     1
 90
        0
176
     1
 62
    18
420
        0
176
     1
 90
       50
176
     1
 90
        3
176
     1
 62
     5
420
      255
176
     1
290
     0
176
     1
 90
       50
176
     1
 90
       50
176
     1
 90
       50
176
     1
290
     0
176
     1
 90
       50
176
     1
 62
   256
176
     0
 40
1.0
176
     0
 90
        2
176
     1
  1
strokes_ogs.tif
176
     1
290
     0
176
     1
 40
1.0
176
     1
 40
1.0
176
     1
  0
VISUALSTYLE
  5
3E
102
{ACAD_REACTORS
330
2A
102
}
330
2A
100
AcDbVisualStyle
  2
Shades of Gray
 70
    23
177
     3
291
     0
 70
    58
 90
        2
176
     1
 90
        2
176
     1
 90
        3
176
     1
 90
        0
176
     1
 40
0.6
176
     1
 40
30.0
176
     1
 62
     7
420
 16777215
176
     1
 90
        2
176
     1
 90
        2
176
     1
 62
     7
176
     1
 62
     7
176
     1
 90
        1
176
     1
 90
        1
176
     1
 40
40.0
176
     1
 90
        8
176
     1
 62
     7
176
     1
 40
1.0
176
     1
 90
        1
176
     1
 90
        6
176
     1
 90
        2
176
     1
 62
     7
176
     1
 90
        3
176
     1
 90
        0
176
     1
 90
        0
176
     1
290
     0
176
     1
 90
        1
176
     1
 40
0.0
176
     1
 90
        0
176
     1
290
     0
176
     1
290
     1
176
     1
290
     1
176
     1
290
     0
176
     1
290
     0
176
     1
290
     0
176
     1
290
     0
176
     1
290
     0
176
     1
290
     0
176
     1
 90
       50
176
     1
 40
0.0
176
     1
 40
1.0
176
     1
 90
        0
176
     1
 62
    18
420
        0
176
     1
 90
       50
176
     1
 90
        3
176
     1
 62
     5
420
      255
176
     1
290
     0
176
     1
 90
       50
176
     1
 90
       50
176
     1
 90
       50
176
     1
290
     0
176
     1
 90
       50
176
     1
 62
   256
176
     0
 40
1.0
176
     0
 90
        2
176
     1
  1
strokes_ogs.tif
176
     1
290
     0
176
     1
 40
1.0
176
     1
 40
1.0
176
     1
  0
VISUALSTYLE
  5
3F
102
{ACAD_REACTORS
330
2A
102
}
330
2A
100
AcDbVisualStyle
  2
Sketchy
 70
    24
177
     3
291
     0
 70
    58
 90
        1
176
     1
 90
        2
176
     1
 90
        2
176
     1
 90
        0
176
     1
 40
0.6
176
     1
 40
30.0
176
     1
 62
     7
420
 16777215
176
     1
 90
        2
176
     1
 90
        2
176
     1
 62
     7
176
     1
 62
     7
176
     1
 90
        1
176
     1
 90
        1
176
     1
 40
40.0
176
     1
 90
       11
176
     1
 62
     7
176
     1
 40
1.0
176
     1
 90
        1
176
     1
 90
        6
176
     1
 90
        2
176
     1
 62
     7
176
     1
 90
        6
176
     1
 90
        0
176
     1
 90
        0
176
     1
290
     0
176
     1
 90
        1
176
     1
 40
0.0
176
     1
 90
        0
176
     1
290
     0
176
     1
290
     1
176
     1
290
     1
176
     1
290
     0
176
     1
290
     0
176
     1
290
     0
176
     1
290
     0
176
     1
290
     0
176
     1
290
     0
176
     1
 90
       50
176
     1
 40
0.0
176
     1
 40
1.0
176
     1
 90
        0
176
     1
 62
    18
420
        0
176
     1
 90
       50
176
     1
 90
        3
176
     1
 62
     5
420
      255
176
     1
290
     0
176
     1
 90
       50
176
     1
 90
       50
176
     1
 90
       50
176
     1
290
     0
176
     1
 90
       50
176
     1
 62
   256
176
     0
 40
1.0
176
     0
 90
        2
176
     1
  1
strokes_ogs.tif
176
     1
290
     0
176
     1
 40
1.0
176
     1
 40
1.0
176
     1
  0
VISUALSTYLE
  5
37
102
{ACAD_REACTORS
330
2A
102
}
330
2A
100
AcDbVisualStyle
  2
Thicken
 70
    13
177
     3
291
     1
 70
    58
 90
        2
176
     1
 90
        2
176
     1
 90
        0
176
     1
 90
        0
176
     1
 40
0.6
176
     1
 40
30.0
176
     1
 62
     7
420
 16777215
176
     1
 90
        1
176
     1
 90
        4
176
     1
 62
     7
176
     1
 62
   257
176
     1
 90
        1
176
     1
 90
        1
176
     1
 40
1.0
176
     1
 90
       12
176
     1
 62
     7
176
     1
 40
1.0
176
     1
 90
        1
176
     1
 90
        6
176
     1
 90
        2
176
     1
 62
     7
176
     1
 90
        5
176
     1
 90
        0
176
     1
 90
        0
176
     1
290
     0
176
     1
 90
        1
176
     1
 40
0.0
176
     1
 90
        0
176
     1
290
     0
176
     1
290
     1
176
     1
290
     1
176
     1
290
     0
176
     1
290
     0
176
     1
290
     0
176
     1
290
     0
176
     1
290
     0
176
     1
290
     0
176
     1
 90
       50
176
     1
 40
0.0
176
     1
 40
1.0
176
     1
 90
        0
176
     1
 62
    18
420
        0
176
     1
 90
       50
176
     1
 90
        3
176
     1
 62
     5
420
      255
176
     1
290
     0
176
     1
 90
       50
176
     1
 90
       50
176
     1
 90
       50
176
     1
290
     0
176
     1
 90
       50
176
     1
 62
   256
176
     0
 40
1.0
176
     0
 90
        2
176
     1
  1
strokes_ogs.tif
176
     1
290
     0
176
     1
 40
1.0
176
     1
 40
1.0
176
     1
  0
VISUALSTYLE
  5
30
102
{ACAD_REACTORS
330
2A
102
}
330
2A
100
AcDbVisualStyle
  2
Wireframe
 70
     5
177
     3
291
     0
 70
    58
 90
        0
176
     1
 90
        2
176
     1
 90
        0
176
     1
 90
        0
176
     1
 40
0.6
176
     1
 40
30.0
176
     1
 62
     7
420
 16777215
176
     1
 90
        1
176
     1
 90
        4
176
     1
 62
     7
176
     1
 62
   257
176
     1
 90
        1
176
     1
 90
        1
176
     1
 40
1.0
176
     1
 90
        0
176
     1
 62
   257
176
     1
 40
1.0
176
     1
 90
        1
176
     1
 90
        6
176
     1
 90
        2
176
     1
 62
     7
176
     1
 90
        3
176
     1
 90
        0
176
     1
 90
        0
176
     1
290
     0
176
     1
 90
        1
176
     1
 40
0.0
176
     1
 90
        0
176
     1
290
     0
176
     1
290
     1
176
     1
290
     1
176
     1
290
     0
176
     1
290
     0
176
     1
290
     0
176
     1
290
     0
176
     1
290
     0
176
     1
290
     0
176
     1
 90
       50
176
     1
 40
0.0
176
     1
 40
1.0
176
     1
 90
        0
176
     1
 62
    18
420
        0
176
     1
 90
       50
176
     1
 90
        3
176
     1
 62
     5
420
      255
176
     1
290
     0
176
     1
 90
       50
176
     1
 90
       50
176
     1
 90
       50
176
     1
290
     0
176
     1
 90
       50
176
     1
 62
   256
176
     0
 40
1.0
176
     0
 90
        2
176
     1
  1
strokes_ogs.tif
176
     1
290
     0
176
     1
 40
1.0
176
     1
 40
1.0
176
     1
  0
VISUALSTYLE
  5
40
102
{ACAD_REACTORS
330
2A
102
}
330
2A
100
AcDbVisualStyle
  2
X-Ray
 70
    25
177
     3
291
     0
 70
    58
 90
        2
176
     1
 90
        2
176
     1
 90
        1
176
     1
 90
        1
176
     1
 40
0.5
176
     1
 40
30.0
176
     1
 62
     7
420
 16777215
176
     1
 90
        1
176
     1
 90
        0
176
     1
 62
     7
176
     1
 62
   257
176
     1
 90
        1
176
     1
 90
        1
176
     1
 40
1.0
176
     1
 90
        8
176
     1
 62
     7
176
     1
 40
1.0
176
     1
 90
        1
176
     1
 90
        6
176
     1
 90
        2
176
     1
 62
     7
176
     1
 90
        3
176
     1
 90
        0
176
     1
 90
        0
176
     1
290
     0
176
     1
 90
       13
176
     1
 40
0.0
176
     1
 90
        0
176
     1
290
     0
176
     1
290
     1
176
     1
290
     1
176
     1
290
     0
176
     1
290
     0
176
     1
290
     0
176
     1
290
     0
176
     1
290
     0
176
     1
290
     0
176
     1
 90
       50
176
     1
 40
0.0
176
     1
 40
1.0
176
     1
 90
        0
176
     1
 62
    18
420
        0
176
     1
 90
       50
176
     1
 90
        3
176
     1
 62
     5
420
      255
176
     1
290
     0
176
     1
 90
       50
176
     1
 90
       50
176
     1
 90
       50
176
     1
290
     0
176
     1
 90
       50
176
     1
 62
   256
176
     0
 40
1.0
176
     0
 90
        2
176
     1
  1
strokes_ogs.tif
176
     1
290
     0
176
     1
 40
1.0
176
     1
 40
1.0
176
     1
  0
DICTIONARYVAR
  5
23B
102
{ACAD_REACTORS
330
23A
102
}
330
23A
100
DictionaryVariables
280
     0
  1
1:1
  0
DICTIONARYVAR
  5
240
102
{ACAD_REACTORS
330
23A
102
}
330
23A
100
DictionaryVariables
280
     0
  1
Standard
  0
DICTIONARYVAR
  5
23F
102
{ACAD_REACTORS
330
23A
102
}
330
23A
100
DictionaryVariables
280
     0
  1
Standard
  0
DICTIONARY
  5
23C
330
6A
100
AcDbDictionary
280
     1
281
     1
  3
ACAD_ROUNDTRIP_2008_TABLESTYLE_CELLSTYLEMAP
360
23D
  0
CELLSTYLEMAP
  5
23D
102
{ACAD_REACTORS
330
23C
102
}
330
23C
100
AcDbCellStyleMap
 90
        3
300
CELLSTYLE
  1
TABLEFORMAT_BEGIN
 90
        5
170
     1
 91
        0
 92
    32768
 62
   257
 93
        1
300
CONTENTFORMAT
  1
CONTENTFORMAT_BEGIN
 90
        0
 91
        0
 92
        4
 93
        0
300

 40
0.0
140
1.0
 94
        5
 62
     0
340
11
144
0.25
309
CONTENTFORMAT_END
171
     1
301
MARGIN
  1
CELLMARGIN_BEGIN
 40
0.06
 40
0.06
 40
0.06
 40
0.06
 40
0.06
 40
0.06
309
CELLMARGIN_END
 94
        6
 95
        1
302
GRIDFORMAT
  1
GRIDFORMAT_BEGIN
 90
        0
 91
        1
 62
     0
 92
       -2
340
14
 93
        0
 40
0.045
309
GRIDFORMAT_END
 95
        2
302
GRIDFORMAT
  1
GRIDFORMAT_BEGIN
 90
        0
 91
        1
 62
     0
 92
       -2
340
14
 93
        0
 40
0.045
309
GRIDFORMAT_END
 95
        4
302
GRIDFORMAT
  1
GRIDFORMAT_BEGIN
 90
        0
 91
        1
 62
     0
 92
       -2
340
14
 93
        0
 40
0.045
309
GRIDFORMAT_END
 95
        8
302
GRIDFORMAT
  1
GRIDFORMAT_BEGIN
 90
        0
 91
        1
 62
     0
 92
       -2
340
14
 93
        0
 40
0.045
309
GRIDFORMAT_END
 95
       16
302
GRIDFORMAT
  1
GRIDFORMAT_BEGIN
 90
        0
 91
        1
 62
     0
 92
       -2
340
14
 93
        0
 40
0.045
309
GRIDFORMAT_END
 95
       32
302
GRIDFORMAT
  1
GRIDFORMAT_BEGIN
 90
        0
 91
        1
 62
     0
 92
       -2
340
14
 93
        0
 40
0.045
309
GRIDFORMAT_END
309
TABLEFORMAT_END
  1
CELLSTYLE_BEGIN
 90
        1
 91
        1
300
_TITLE
309
CELLSTYLE_END
300
CELLSTYLE
  1
TABLEFORMAT_BEGIN
 90
        5
170
     1
 91
        0
 92
        0
 62
   257
 93
        1
300
CONTENTFORMAT
  1
CONTENTFORMAT_BEGIN
 90
        0
 91
        0
 92
        4
 93
        0
300

 40
0.0
140
1.0
 94
        5
 62
     0
340
11
144
0.18
309
CONTENTFORMAT_END
171
     1
301
MARGIN
  1
CELLMARGIN_BEGIN
 40
0.06
 40
0.06
 40
0.06
 40
0.06
 40
0.06
 40
0.06
309
CELLMARGIN_END
 94
        6
 95
        1
302
GRIDFORMAT
  1
GRIDFORMAT_BEGIN
 90
        0
 91
        1
 62
     0
 92
       -2
340
14
 93
        0
 40
0.045
309
GRIDFORMAT_END
 95
        2
302
GRIDFORMAT
  1
GRIDFORMAT_BEGIN
 90
        0
 91
        1
 62
     0
 92
       -2
340
14
 93
        0
 40
0.045
309
GRIDFORMAT_END
 95
        4
302
GRIDFORMAT
  1
GRIDFORMAT_BEGIN
 90
        0
 91
        1
 62
     0
 92
       -2
340
14
 93
        0
 40
0.045
309
GRIDFORMAT_END
 95
        8
302
GRIDFORMAT
  1
GRIDFORMAT_BEGIN
 90
        0
 91
        1
 62
     0
 92
       -2
340
14
 93
        0
 40
0.045
309
GRIDFORMAT_END
 95
       16
302
GRIDFORMAT
  1
GRIDFORMAT_BEGIN
 90
        0
 91
        1
 62
     0
 92
       -2
340
14
 93
        0
 40
0.045
309
GRIDFORMAT_END
 95
       32
302
GRIDFORMAT
  1
GRIDFORMAT_BEGIN
 90
        0
 91
        1
 62
     0
 92
       -2
340
14
 93
        0
 40
0.045
309
GRIDFORMAT_END
309
TABLEFORMAT_END
  1
CELLSTYLE_BEGIN
 90
        2
 91
        1
300
_HEADER
309
CELLSTYLE_END
300
CELLSTYLE
  1
TABLEFORMAT_BEGIN
 90
        5
170
     1
 91
        0
 92
        0
 62
   257
 93
        1
300
CONTENTFORMAT
  1
CONTENTFORMAT_BEGIN
 90
        0
 91
        0
 92
        4
 93
        0
300

 40
0.0
140
1.0
 94
        2
 62
     0
340
11
144
0.18
309
CONTENTFORMAT_END
171
     1
301
MARGIN
  1
CELLMARGIN_BEGIN
 40
0.06
 40
0.06
 40
0.06
 40
0.06
 40
0.06
 40
0.06
309
CELLMARGIN_END
 94
        6
 95
        1
302
GRIDFORMAT
  1
GRIDFORMAT_BEGIN
 90
        0
 91
        1
 62
     0
 92
       -2
340
14
 93
        0
 40
0.045
309
GRIDFORMAT_END
 95
        2
302
GRIDFORMAT
  1
GRIDFORMAT_BEGIN
 90
        0
 91
        1
 62
     0
 92
       -2
340
14
 93
        0
 40
0.045
309
GRIDFORMAT_END
 95
        4
302
GRIDFORMAT
  1
GRIDFORMAT_BEGIN
 90
        0
 91
        1
 62
     0
 92
       -2
340
14
 93
        0
 40
0.045
309
GRIDFORMAT_END
 95
        8
302
GRIDFORMAT
  1
GRIDFORMAT_BEGIN
 90
        0
 91
        1
 62
     0
 92
       -2
340
14
 93
        0
 40
0.045
309
GRIDFORMAT_END
 95
       16
302
GRIDFORMAT
  1
GRIDFORMAT_BEGIN
 90
        0
 91
        1
 62
     0
 92
       -2
340
14
 93
        0
 40
0.045
309
GRIDFORMAT_END
 95
       32
302
GRIDFORMAT
  1
GRIDFORMAT_BEGIN
 90
        0
 91
        1
 62
     0
 92
       -2
340
14
 93
        0
 40
0.045
309
GRIDFORMAT_END
309
TABLEFORMAT_END
  1
CELLSTYLE_BEGIN
 90
        3
 91
        2
300
_DATA
309
CELLSTYLE_END
  0
ENDSEC
  0
EOF