0
SECTION
  2
HEADER
  9
$ACADVER
  1
AC1027
  9
$ACADMAINTVER
 70
     8
  9
$DWGCODEPAGE
  3
ANSI_1252
  9
$REQUIREDVERSIONS
160
                 0
  9
$COMMENTS
  1
File was created by Cadenas
  9
$CUSTOMPROPERTYTAG
  1
NN
  9
$CUSTOMPROPERTY
  1
TP Take-Up Trident Seal
  9
$CUSTOMPROPERTYTAG
  1
NT
  9
$CUSTOMPROPERTY
  1
S-2000 TPHU Take-Up Bearing -Inch
  9
$CUSTOMPROPERTYTAG
  1
NB
  9
$CUSTOMPROPERTY
  1
070811
  9
$CUSTOMPROPERTYTAG
  1
NBSYN
  9
$CUSTOMPROPERTY
  1
$PN.
  9
$CUSTOMPROPERTYTAG
  1
LINA
  9
$CUSTOMPROPERTY
  1
070811
  9
$CUSTOMPROPERTYTAG
  1
SS
  9
$CUSTOMPROPERTY
  1
1-15/16
  9
$CUSTOMPROPERTYTAG
  1
PN
  9
$CUSTOMPROPERTY
  1
070811
  9
$CUSTOMPROPERTYTAG
  1
DESCRIPTION
  9
$CUSTOMPROPERTY
  1
TPHU-S2-115R
  9
$CUSTOMPROPERTYTAG
  1
EF
  9
$CUSTOMPROPERTY
  1
Non-Expansion Type
  9
$CUSTOMPROPERTYTAG
  1
ST
  9
$CUSTOMPROPERTY
  1
Contact Seal
  9
$CUSTOMPROPERTYTAG
  1
A
  9
$CUSTOMPROPERTY
  1
2-27/32
  9
$CUSTOMPROPERTYTAG
  1
B
  9
$CUSTOMPROPERTY
  1
2-3/8
  9
$CUSTOMPROPERTYTAG
  1
C
  9
$CUSTOMPROPERTY
  1
13/16
  9
$CUSTOMPROPERTYTAG
  1
D
  9
$CUSTOMPROPERTY
  1
5-1/4
  9
$CUSTOMPROPERTYTAG
  1
E
  9
$CUSTOMPROPERTY
  1
2-3/8
  9
$CUSTOMPROPERTYTAG
  1
F
  9
$CUSTOMPROPERTY
  1
1-1/16
  9
$CUSTOMPROPERTYTAG
  1
G
  9
$CUSTOMPROPERTY
  1
7/16
  9
$CUSTOMPROPERTYTAG
  1
H
  9
$CUSTOMPROPERTY
  1
6-1/2
  9
$CUSTOMPROPERTYTAG
  1
J
  9
$CUSTOMPROPERTY
  1
6-7/16
  9
$CUSTOMPROPERTYTAG
  1
K
  9
$CUSTOMPROPERTY
  1
3-1/16
  9
$CUSTOMPROPERTYTAG
  1
L
  9
$CUSTOMPROPERTY
  1
3-7/16
  9
$CUSTOMPROPERTYTAG
  1
M
  9
$CUSTOMPROPERTY
  1
6
  9
$CUSTOMPROPERTYTAG
  1
N
  9
$CUSTOMPROPERTY
  1
1-21/32
  9
$CUSTOMPROPERTYTAG
  1
P
  9
$CUSTOMPROPERTY
  1
1-1/4
  9
$CUSTOMPROPERTYTAG
  1
Q
  9
$CUSTOMPROPERTY
  1
13/16
  9
$CUSTOMPROPERTYTAG
  1
R
  9
$CUSTOMPROPERTY
  1
3-3/16
  9
$CUSTOMPROPERTYTAG
  1
S
  9
$CUSTOMPROPERTY
  1
2
  9
$CUSTOMPROPERTYTAG
  1
T
  9
$CUSTOMPROPERTY
  1
5/16
  9
$CUSTOMPROPERTYTAG
  1
U
  9
$CUSTOMPROPERTY
  1
1-1/16
  9
$CUSTOMPROPERTYTAG
  1
V
  9
$CUSTOMPROPERTY
  1
2
  9
$CUSTOMPROPERTYTAG
  1
W
  9
$CUSTOMPROPERTY
  1
7/8
  9
$CUSTOMPROPERTYTAG
  1
X
  9
$CUSTOMPROPERTY
  1
1/4
  9
$CUSTOMPROPERTYTAG
  1
Y
  9
$CUSTOMPROPERTY
  1
0.020
  9
$CUSTOMPROPERTYTAG
  1
Z
  9
$CUSTOMPROPERTY
  1
2-19/64
  9
$CUSTOMPROPERTYTAG
  1
COMPANY
  9
$CUSTOMPROPERTY
  1
baldor
  9
$INSBASE
 10
0.0
 20
0.0
 30
0.0
  9
$EXTMIN
 10
1.000000000000000E+20
 20
1.000000000000000E+20
 30
1.000000000000000E+20
  9
$EXTMAX
 10
-1.000000000000000E+20
 20
-1.000000000000000E+20
 30
-1.000000000000000E+20
  9
$LIMMIN
 10
0.0
 20
0.0
  9
$LIMMAX
 10
12.0
 20
9.0
  9
$ORTHOMODE
 70
     0
  9
$REGENMODE
 70
     1
  9
$FILLMODE
 70
     1
  9
$QTEXTMODE
 70
     0
  9
$MIRRTEXT
 70
     1
  9
$LTSCALE
 40
1.0
  9
$ATTMODE
 70
     1
  9
$TEXTSIZE
 40
0.2
  9
$TRACEWID
 40
0.05
  9
$TEXTSTYLE
  7
Standard
  9
$CLAYER
  8
0
  9
$CELTYPE
  6
ByLayer
  9
$CECOLOR
 62
   256
  9
$CELTSCALE
 40
1.0
  9
$DISPSILH
 70
     0
  9
$DIMSCALE
 40
1.0
  9
$DIMASZ
 40
0.18
  9
$DIMEXO
 40
0.0625
  9
$DIMDLI
 40
0.38
  9
$DIMRND
 40
0.0
  9
$DIMDLE
 40
0.0
  9
$DIMEXE
 40
0.18
  9
$DIMTP
 40
0.0
  9
$DIMTM
 40
0.0
  9
$DIMTXT
 40
0.18
  9
$DIMCEN
 40
0.09
  9
$DIMTSZ
 40
0.0
  9
$DIMTOL
 70
     0
  9
$DIMLIM
 70
     0
  9
$DIMTIH
 70
     1
  9
$DIMTOH
 70
     1
  9
$DIMSE1
 70
     0
  9
$DIMSE2
 70
     0
  9
$DIMTAD
 70
     0
  9
$DIMZIN
 70
     0
  9
$DIMBLK
  1

  9
$DIMASO
 70
     1
  9
$DIMSHO
 70
     1
  9
$DIMPOST
  1

  9
$DIMAPOST
  1

  9
$DIMALT
 70
     0
  9
$DIMALTD
 70
     2
  9
$DIMALTF
 40
25.4
  9
$DIMLFAC
 40
1.0
  9
$DIMTOFL
 70
     0
  9
$DIMTVP
 40
0.0
  9
$DIMTIX
 70
     0
  9
$DIMSOXD
 70
     0
  9
$DIMSAH
 70
     0
  9
$DIMBLK1
  1

  9
$DIMBLK2
  1

  9
$DIMSTYLE
  2
Standard
  9
$DIMCLRD
 70
     0
  9
$DIMCLRE
 70
     0
  9
$DIMCLRT
 70
     0
  9
$DIMTFAC
 40
1.0
  9
$DIMGAP
 40
0.09
  9
$DIMJUST
 70
     0
  9
$DIMSD1
 70
     0
  9
$DIMSD2
 70
     0
  9
$DIMTOLJ
 70
     1
  9
$DIMTZIN
 70
     0
  9
$DIMALTZ
 70
     0
  9
$DIMALTTZ
 70
     0
  9
$DIMUPT
 70
     0
  9
$DIMDEC
 70
     4
  9
$DIMTDEC
 70
     4
  9
$DIMALTU
 70
     2
  9
$DIMALTTD
 70
     2
  9
$DIMTXSTY
  7
Standard
  9
$DIMAUNIT
 70
     0
  9
$DIMADEC
 70
     0
  9
$DIMALTRND
 40
0.0
  9
$DIMAZIN
 70
     0
  9
$DIMDSEP
 70
    46
  9
$DIMATFIT
 70
     3
  9
$DIMFRAC
 70
     0
  9
$DIMLDRBLK
  1

  9
$DIMLUNIT
 70
     2
  9
$DIMLWD
 70
    -2
  9
$DIMLWE
 70
    -2
  9
$DIMTMOVE
 70
     0
  9
$DIMFXL
 40
1.0
  9
$DIMFXLON
 70
     0
  9
$DIMJOGANG
 40
0.7853981633974483
  9
$DIMTFILL
 70
     0
  9
$DIMTFILLCLR
 70
     0
  9
$DIMARCSYM
 70
     0
  9
$DIMLTYPE
  6

  9
$DIMLTEX1
  6

  9
$DIMLTEX2
  6

  9
$DIMTXTDIRECTION
 70
     0
  9
$LUNITS
 70
     2
  9
$LUPREC
 70
     4
  9
$SKETCHINC
 40
0.1
  9
$FILLETRAD
 40
0.5
  9
$AUNITS
 70
     0
  9
$AUPREC
 70
     0
  9
$MENU
  1
.
  9
$ELEVATION
 40
0.0
  9
$PELEVATION
 40
0.0
  9
$THICKNESS
 40
0.0
  9
$LIMCHECK
 70
     0
  9
$CHAMFERA
 40
0.0
  9
$CHAMFERB
 40
0.0
  9
$CHAMFERC
 40
0.0
  9
$CHAMFERD
 40
0.0
  9
$SKPOLY
 70
     0
  9
$TDCREATE
 40
2458168.983858461
  9
$TDUCREATE
 40
2458168.942191794
  9
$TDUPDATE
 40
2458168.983858634
  9
$TDUUPDATE
 40
2458168.942191968
  9
$TDINDWG
 40
0.0000000116
  9
$TDUSRTIMER
 40
0.0000000116
  9
$USRTIMER
 70
     1
  9
$ANGBASE
 50
0.0
  9
$ANGDIR
 70
     0
  9
$PDMODE
 70
     0
  9
$PDSIZE
 40
0.0
  9
$PLINEWID
 40
0.0
  9
$SPLFRAME
 70
     0
  9
$SPLINETYPE
 70
     6
  9
$SPLINESEGS
 70
     8
  9
$HANDSEED
  5
266
  9
$SURFTAB1
 70
     6
  9
$SURFTAB2
 70
     6
  9
$SURFTYPE
 70
     6
  9
$SURFU
 70
     6
  9
$SURFV
 70
     6
  9
$UCSBASE
  2

  9
$UCSNAME
  2

  9
$UCSORG
 10
0.0
 20
0.0
 30
0.0
  9
$UCSXDIR
 10
1.0
 20
0.0
 30
0.0
  9
$UCSYDIR
 10
0.0
 20
1.0
 30
0.0
  9
$UCSORTHOREF
  2

  9
$UCSORTHOVIEW
 70
     0
  9
$UCSORGTOP
 10
0.0
 20
0.0
 30
0.0
  9
$UCSORGBOTTOM
 10
0.0
 20
0.0
 30
0.0
  9
$UCSORGLEFT
 10
0.0
 20
0.0
 30
0.0
  9
$UCSORGRIGHT
 10
0.0
 20
0.0
 30
0.0
  9
$UCSORGFRONT
 10
0.0
 20
0.0
 30
0.0
  9
$UCSORGBACK
 10
0.0
 20
0.0
 30
0.0
  9
$PUCSBASE
  2

  9
$PUCSNAME
  2

  9
$PUCSORG
 10
0.0
 20
0.0
 30
0.0
  9
$PUCSXDIR
 10
1.0
 20
0.0
 30
0.0
  9
$PUCSYDIR
 10
0.0
 20
1.0
 30
0.0
  9
$PUCSORTHOREF
  2

  9
$PUCSORTHOVIEW
 70
     0
  9
$PUCSORGTOP
 10
0.0
 20
0.0
 30
0.0
  9
$PUCSORGBOTTOM
 10
0.0
 20
0.0
 30
0.0
  9
$PUCSORGLEFT
 10
0.0
 20
0.0
 30
0.0
  9
$PUCSORGRIGHT
 10
0.0
 20
0.0
 30
0.0
  9
$PUCSORGFRONT
 10
0.0
 20
0.0
 30
0.0
  9
$PUCSORGBACK
 10
0.0
 20
0.0
 30
0.0
  9
$USERI1
 70
     0
  9
$USERI2
 70
     0
  9
$USERI3
 70
     0
  9
$USERI4
 70
     0
  9
$USERI5
 70
     0
  9
$USERR1
 40
0.0
  9
$USERR2
 40
0.0
  9
$USERR3
 40
0.0
  9
$USERR4
 40
0.0
  9
$USERR5
 40
0.0
  9
$WORLDVIEW
 70
     1
  9
$SHADEDGE
 70
     3
  9
$SHADEDIF
 70
    70
  9
$TILEMODE
 70
     1
  9
$MAXACTVP
 70
    64
  9
$PINSBASE
 10
0.0
 20
0.0
 30
0.0
  9
$PLIMCHECK
 70
     0
  9
$PEXTMIN
 10
1.000000000000000E+20
 20
1.000000000000000E+20
 30
1.000000000000000E+20
  9
$PEXTMAX
 10
-1.000000000000000E+20
 20
-1.000000000000000E+20
 30
-1.000000000000000E+20
  9
$PLIMMIN
 10
0.0
 20
0.0
  9
$PLIMMAX
 10
12.0
 20
9.0
  9
$UNITMODE
 70
     0
  9
$VISRETAIN
 70
     1
  9
$PLINEGEN
 70
     0
  9
$PSLTSCALE
 70
     1
  9
$TREEDEPTH
 70
  3020
  9
$CMLSTYLE
  2
Standard
  9
$CMLJUST
 70
     0
  9
$CMLSCALE
 40
1.0
  9
$PROXYGRAPHICS
 70
     1
  9
$MEASUREMENT
 70
     0
  9
$CELWEIGHT
370
    -1
  9
$ENDCAPS
280
     0
  9
$JOINSTYLE
280
     0
  9
$LWDISPLAY
290
     0
  9
$INSUNITS
 70
     1
  9
$HYPERLINKBASE
  1

  9
$STYLESHEET
  1

  9
$XEDIT
290
     1
  9
$CEPSNTYPE
380
     0
  9
$PSTYLEMODE
290
     1
  9
$FINGERPRINTGUID
  2
{C2C486F9-A3EF-49CB-A0AF-A939E1D29189}
  9
$VERSIONGUID
  2
{FAEB1C32-E019-11D5-929B-00C0DF256EC4}
  9
$EXTNAMES
290
     1
  9
$PSVPSCALE
 40
0.0
  9
$OLESTARTUP
290
     0
  9
$SORTENTS
280
   127
  9
$INDEXCTL
280
     0
  9
$HIDETEXT
280
     1
  9
$XCLIPFRAME
280
     2
  9
$HALOGAP
280
     0
  9
$OBSCOLOR
 70
   257
  9
$OBSLTYPE
280
     0
  9
$INTERSECTIONDISPLAY
280
     0
  9
$INTERSECTIONCOLOR
 70
   257
  9
$DIMASSOC
280
     2
  9
$PROJECTNAME
  1

  9
$CAMERADISPLAY
290
     0
  9
$LENSLENGTH
 40
50.0
  9
$CAMERAHEIGHT
 40
0.0
  9
$STEPSPERSEC
 40
2.0
  9
$STEPSIZE
 40
6.0
  9
$3DDWFPREC
 40
2.0
  9
$PSOLWIDTH
 40
0.25
  9
$PSOLHEIGHT
 40
4.0
  9
$LOFTANG1
 40
1.570796326794897
  9
$LOFTANG2
 40
1.570796326794897
  9
$LOFTMAG1
 40
0.0
  9
$LOFTMAG2
 40
0.0
  9
$LOFTPARAM
 70
     7
  9
$LOFTNORMALS
280
     1
  9
$LATITUDE
 40
37.795
  9
$LONGITUDE
 40
-122.394
  9
$NORTHDIRECTION
 40
0.0
  9
$TIMEZONE
 70
 -8000
  9
$LIGHTGLYPHDISPLAY
280
     1
  9
$TILEMODELIGHTSYNCH
280
     1
  9
$CMATERIAL
347
44
  9
$SOLIDHIST
280
     0
  9
$SHOWHIST
280
     1
  9
$DWFFRAME
280
     2
  9
$DGNFRAME
280
     2
  9
$REALWORLDSCALE
290
     1
  9
$INTERFERECOLOR
 62
   256
  9
$CSHADOW
280
     0
  9
$SHADOWPLANELOCATION
 40
0.0
  0
ENDSEC
  0
SECTION
  2
CLASSES
  0
CLASS
  1
ACDBDICTIONARYWDFLT
  2
AcDbDictionaryWithDefault
  3
ObjectDBX Classes
 90
        0
 91
        4
280
     0
281
     0
  0
CLASS
  1
VISUALSTYLE
  2
AcDbVisualStyle
  3
ObjectDBX Classes
 90
     4095
 91
        4
280
     0
281
     0
  0
CLASS
  1
MATERIAL
  2
AcDbMaterial
  3
ObjectDBX Classes
 90
     1153
 91
        4
280
     0
281
     0
  0
CLASS
  1
SCALE
  2
AcDbScale
  3
ObjectDBX Classes
 90
     1153
 91
        4
280
     0
281
     0
  0
CLASS
  1
TABLESTYLE
  2
AcDbTableStyle
  3
ObjectDBX Classes
 90
     4095
 91
        4
280
     0
281
     0
  0
CLASS
  1
MLEADERSTYLE
  2
AcDbMLeaderStyle
  3
ACDB_MLEADERSTYLE_CLASS
 90
     4095
 91
        4
280
     0
281
     0
  0
CLASS
  1
SUN
  2
AcDbSun
  3
SCENEOE
 90
     1153
 91
        4
280
     0
281
     0
  0
CLASS
  1
DICTIONARYVAR
  2
AcDbDictionaryVar
  3
ObjectDBX Classes
 90
        0
 91
        4
280
     0
281
     0
  0
CLASS
  1
CELLSTYLEMAP
  2
AcDbCellStyleMap
  3
ObjectDBX Classes
 90
     1152
 91
        4
280
     0
281
     0
  0
ENDSEC
  0
SECTION
  2
TABLES
  0
TABLE
  2
VPORT
  5
8
330
0
100
AcDbSymbolTable
 70
     1
  0
VPORT
  5
29
330
8
100
AcDbSymbolTableRecord
100
AcDbViewportTableRecord
  2
*Active
 70
     0
 10
0.0
 20
0.0
 11
1.0
 21
1.0
 12
0.0
 22
-0.2541666666666664
 13
0.0
 23
0.0
 14
0.5
 24
0.5
 15
0.5
 25
0.5
 16
0.0
 26
0.0
 36
1.0
 17
0.0
 27
0.0
 37
0.0
 40
4.0715
 41
1.62839248434238
 42
50.0
 43
0.0
 44
0.0
 50
0.0
 51
0.0
 71
     0
 72
   100
 73
     1
 74
     3
 75
     0
 76
     0
 77
     0
 78
     0
281
     0
 65
     1
110
0.0
120
0.0
130
0.0
111
1.0
121
0.0
131
0.0
112
0.0
122
1.0
132
0.0
 79
     0
146
0.0
348
2F
 60
     3
 61
     5
292
     1
282
     1
141
0.0
142
0.0
 63
   250
361
6D
  0
ENDTAB
  0
TABLE
  2
LTYPE
  5
5
330
0
100
AcDbSymbolTable
 70
     3
  0
LTYPE
  5
14
330
5
100
AcDbSymbolTableRecord
100
AcDbLinetypeTableRecord
  2
ByBlock
 70
     0
  3

 72
    65
 73
     0
 40
0.0
  0
LTYPE
  5
15
330
5
100
AcDbSymbolTableRecord
100
AcDbLinetypeTableRecord
  2
ByLayer
 70
     0
  3

 72
    65
 73
     0
 40
0.0
  0
LTYPE
  5
16
330
5
100
AcDbSymbolTableRecord
100
AcDbLinetypeTableRecord
  2
Continuous
 70
     0
  3
Solid line
 72
    65
 73
     0
 40
0.0
  0
LTYPE
  5
A7
330
5
100
AcDbSymbolTableRecord
100
AcDbLinetypeTableRecord
  2
Dashed
 70
     0
  3

 72
    65
 73
     2
 40
2.0
 49
1.0
 74
     0
 49
-1.0
 74
     0
  0
LTYPE
  5
D9
330
5
100
AcDbSymbolTableRecord
100
AcDbLinetypeTableRecord
  2
Center
 70
     0
  3

 72
    65
 73
     4
 40
1.5
 49
0.45
 74
     0
 49
-0.5
 74
     0
 49
0.05
 74
     0
 49
-0.5
 74
     0
  0
ENDTAB
  0
TABLE
  2
LAYER
  5
2
330
0
100
AcDbSymbolTable
 70
     7
  0
LAYER
  5
10
330
2
100
AcDbSymbolTableRecord
100
AcDbLayerTableRecord
  2
0
 70
     0
 62
     7
  6
Continuous
370
    -3
390
F
347
46
348
0
  0
LAYER
  5
72
330
2
100
AcDbSymbolTableRecord
100
AcDbLayerTableRecord
  2
AM_6
 70
     0
 62
    -2
  6
Continuous
370
    35
390
F
347
46
348
0
  0
LAYER
  5
A8
330
2
100
AcDbSymbolTableRecord
100
AcDbLayerTableRecord
  2
AM_9
 70
     0
 62
     6
  6
Dashed
370
    25
390
F
347
46
348
0
  0
LAYER
  5
D3
330
2
100
AcDbSymbolTableRecord
100
AcDbLayerTableRecord
  2
AM_5
 70
     0
 62
     3
  6
Continuous
370
    25
390
F
347
46
348
0
  0
LAYER
  5
DA
330
2
100
AcDbSymbolTableRecord
100
AcDbLayerTableRecord
  2
AM_7
 70
     0
 62
     7
  6
Center
370
    25
390
F
347
46
348
0
  0
LAYER
  5
DC
330
2
100
AcDbSymbolTableRecord
100
AcDbLayerTableRecord
  2
AM_4
 70
     0
 62
     7
  6
Continuous
370
    50
390
F
347
46
348
0
  0
LAYER
  5
255
330
2
100
AcDbSymbolTableRecord
100
AcDbLayerTableRecord
  2
ConnectionPoints
 70
     0
 62
     7
  6
Continuous
370
    50
390
F
347
46
348
0
  0
ENDTAB
  0
TABLE
  2
STYLE
  5
3
330
0
100
AcDbSymbolTable
 70
     1
  0
STYLE
  5
11
330
3
100
AcDbSymbolTableRecord
100
AcDbTextStyleTableRecord
  2
Standard
 70
     0
 40
0.0
 41
1.0
 50
0.0
 71
     0
 42
0.2
  3
txt
  4

  0
ENDTAB
  0
TABLE
  2
VIEW
  5
6
330
0
100
AcDbSymbolTable
 70
     0
  0
ENDTAB
  0
TABLE
  2
UCS
  5
7
330
0
100
AcDbSymbolTable
 70
     0
  0
ENDTAB
  0
TABLE
  2
APPID
  5
9
330
0
100
AcDbSymbolTable
 70
     1
  0
APPID
  5
12
330
9
100
AcDbSymbolTableRecord
100
AcDbRegAppTableRecord
  2
ACAD
 70
     0
  0
ENDTAB
  0
TABLE
  2
DIMSTYLE
  5
A
330
0
100
AcDbSymbolTable
 70
     1
100
AcDbDimStyleTable
  0
DIMSTYLE
105
27
330
A
100
AcDbSymbolTableRecord
100
AcDbDimStyleTableRecord
  2
Standard
 70
     0
178
     0
340
11
  0
ENDTAB
  0
TABLE
  2
BLOCK_RECORD
  5
1
330
0
100
AcDbSymbolTable
 70
     6
  0
BLOCK_RECORD
  5
1F
330
1
100
AcDbSymbolTableRecord
100
AcDbBlockTableRecord
  2
*Model_Space
340
22
 70
     0
280
     1
281
     0
  0
BLOCK_RECORD
  5
1B
330
1
100
AcDbSymbolTableRecord
100
AcDbBlockTableRecord
  2
*Paper_Space
340
1E
 70
     0
280
     1
281
     0
  0
BLOCK_RECORD
  5
23
330
1
100
AcDbSymbolTableRecord
100
AcDbBlockTableRecord
  2
*Paper_Space0
340
26
 70
     0
280
     1
281
     0
  0
BLOCK_RECORD
  5
6E
330
1
100
AcDbSymbolTableRecord
100
AcDbBlockTableRecord
  2
1_070811_4
340
0
102
{BLKREFS
331
6F
102
}
 70
     0
280
     1
281
     0
  0
BLOCK_RECORD
  5
96
330
1
100
AcDbSymbolTableRecord
100
AcDbBlockTableRecord
  2
2_405016_Inch_0_in_070811_4
340
0
102
{BLKREFS
331
97
102
}
 70
     0
280
     1
281
     0
  0
BLOCK_RECORD
  5
EF
330
1
100
AcDbSymbolTableRecord
100
AcDbBlockTableRecord
  2
3_1_15_16CS2i_0_in_070811_4
340
0
102
{BLKREFS
331
F0
102
}
 70
     0
280
     1
281
     0
  0
BLOCK_RECORD
  5
130
330
1
100
AcDbSymbolTableRecord
100
AcDbBlockTableRecord
  2
4_070005i_0_in_070811_4
340
0
102
{BLKREFS
331
131
102
}
 70
     0
280
     1
281
     0
  0
BLOCK_RECORD
  5
184
330
1
100
AcDbSymbolTableRecord
100
AcDbBlockTableRecord
  2
5_070811H_0_in_070811_4
340
0
102
{BLKREFS
331
185
102
}
 70
     0
280
     1
281
     0
  0
ENDTAB
  0
ENDSEC
  0
SECTION
  2
BLOCKS
  0
BLOCK
  5
20
330
1F
100
AcDbEntity
  8
0
100
AcDbBlockBegin
  2
*Model_Space
 70
     0
 10
0.0
 20
0.0
 30
0.0
  3
*Model_Space
  1

  0
ENDBLK
  5
21
330
1F
100
AcDbEntity
  8
0
100
AcDbBlockEnd
  0
BLOCK
  5
1C
330
1B
100
AcDbEntity
 67
     1
  8
0
100
AcDbBlockBegin
  2
*Paper_Space
 70
     0
 10
0.0
 20
0.0
 30
0.0
  3
*Paper_Space
  1

  0
ENDBLK
  5
1D
330
1B
100
AcDbEntity
 67
     1
  8
0
100
AcDbBlockEnd
  0
BLOCK
  5
24
330
23
100
AcDbEntity
  8
0
100
AcDbBlockBegin
  2
*Paper_Space0
 70
     0
 10
0.0
 20
0.0
 30
0.0
  3
*Paper_Space0
  1

  0
ENDBLK
  5
25
330
23
100
AcDbEntity
  8
0
100
AcDbBlockEnd
  0
BLOCK
  5
70
330
6E
100
AcDbEntity
  8
0
100
AcDbBlockBegin
  2
1_070811_4
 70
     2
 10
0.0
 20
0.0
 30
0.0
  3
1_070811_4
  1

  0
ATTDEF
  5
73
330
6E
100
AcDbEntity
  8
AM_6
100
AcDbText
 10
8.25
 20
1.741666666666667
 30
0.0
 40
0.5
  1
TP Take-Up Trident Seal
100
AcDbAttributeDefinition
  3

  2
NN
 70
     8
280
     0
  0
ATTDEF
  5
74
330
6E
100
AcDbEntity
  8
AM_6
100
AcDbText
 10
8.25
 20
1.241666666666667
 30
0.0
 40
0.5
  1
S-2000 TPHU Take-Up Bearing -Inch
100
AcDbAttributeDefinition
  3

  2
NT
 70
     8
280
     0
  0
ATTDEF
  5
75
330
6E
100
AcDbEntity
  8
AM_6
100
AcDbText
 10
8.25
 20
0.7416666666666667
 30
0.0
 40
0.5
  1
070811
100
AcDbAttributeDefinition
  3

  2
NB
 70
     8
280
     0
  0
ATTDEF
  5
76
330
6E
100
AcDbEntity
  8
AM_6
100
AcDbText
 10
8.25
 20
0.2416666666666667
 30
0.0
 40
0.5
  1
$PN.
100
AcDbAttributeDefinition
  3

  2
NBSYN
 70
     8
280
     0
  0
ATTDEF
  5
77
330
6E
100
AcDbEntity
  8
AM_6
100
AcDbText
 10
8.25
 20
-0.2583333333333333
 30
0.0
 40
0.5
  1
070811
100
AcDbAttributeDefinition
  3

  2
LINA
 70
     8
280
     0
  0
ATTDEF
  5
78
330
6E
100
AcDbEntity
  8
AM_6
100
AcDbText
 10
8.25
 20
-0.7583333333333333
 30
0.0
 40
0.5
  1
1-15/16
100
AcDbAttributeDefinition
  3

  2
SS
 70
     8
280
     0
  0
ATTDEF
  5
79
330
6E
100
AcDbEntity
  8
AM_6
100
AcDbText
 10
8.25
 20
-1.258333333333333
 30
0.0
 40
0.5
  1
070811
100
AcDbAttributeDefinition
  3

  2
PN
 70
     8
280
     0
  0
ATTDEF
  5
7A
330
6E
100
AcDbEntity
  8
AM_6
100
AcDbText
 10
8.25
 20
-1.758333333333333
 30
0.0
 40
0.5
  1
TPHU-S2-115R
100
AcDbAttributeDefinition
  3

  2
DESCRIPTION
 70
     8
280
     0
  0
ATTDEF
  5
7B
330
6E
100
AcDbEntity
  8
AM_6
100
AcDbText
 10
8.25
 20
-2.258333333333333
 30
0.0
 40
0.5
  1
Non-Expansion Type
100
AcDbAttributeDefinition
  3

  2
EF
 70
     8
280
     0
  0
ATTDEF
  5
7C
330
6E
100
AcDbEntity
  8
AM_6
100
AcDbText
 10
8.25
 20
-2.758333333333333
 30
0.0
 40
0.5
  1
Contact Seal
100
AcDbAttributeDefinition
  3

  2
ST
 70
     8
280
     0
  0
ATTDEF
  5
7D
330
6E
100
AcDbEntity
  8
AM_6
100
AcDbText
 10
8.25
 20
-3.258333333333333
 30
0.0
 40
0.5
  1
2-27/32
100
AcDbAttributeDefinition
  3

  2
A
 70
     8
280
     0
  0
ATTDEF
  5
7E
330
6E
100
AcDbEntity
  8
AM_6
100
AcDbText
 10
8.25
 20
-3.758333333333333
 30
0.0
 40
0.5
  1
2-3/8
100
AcDbAttributeDefinition
  3

  2
B
 70
     8
280
     0
  0
ATTDEF
  5
7F
330
6E
100
AcDbEntity
  8
AM_6
100
AcDbText
 10
8.25
 20
-4.258333333333333
 30
0.0
 40
0.5
  1
13/16
100
AcDbAttributeDefinition
  3

  2
C
 70
     8
280
     0
  0
ATTDEF
  5
80
330
6E
100
AcDbEntity
  8
AM_6
100
AcDbText
 10
8.25
 20
-4.758333333333333
 30
0.0
 40
0.5
  1
5-1/4
100
AcDbAttributeDefinition
  3

  2
D
 70
     8
280
     0
  0
ATTDEF
  5
81
330
6E
100
AcDbEntity
  8
AM_6
100
AcDbText
 10
8.25
 20
-5.258333333333333
 30
0.0
 40
0.5
  1
2-3/8
100
AcDbAttributeDefinition
  3

  2
E
 70
     8
280
     0
  0
ATTDEF
  5
82
330
6E
100
AcDbEntity
  8
AM_6
100
AcDbText
 10
8.25
 20
-5.758333333333333
 30
0.0
 40
0.5
  1
1-1/16
100
AcDbAttributeDefinition
  3

  2
F
 70
     8
280
     0
  0
ATTDEF
  5
83
330
6E
100
AcDbEntity
  8
AM_6
100
AcDbText
 10
8.25
 20
-6.258333333333333
 30
0.0
 40
0.5
  1
7/16
100
AcDbAttributeDefinition
  3

  2
G
 70
     8
280
     0
  0
ATTDEF
  5
84
330
6E
100
AcDbEntity
  8
AM_6
100
AcDbText
 10
8.25
 20
-6.758333333333333
 30
0.0
 40
0.5
  1
6-1/2
100
AcDbAttributeDefinition
  3

  2
H
 70
     8
280
     0
  0
ATTDEF
  5
85
330
6E
100
AcDbEntity
  8
AM_6
100
AcDbText
 10
8.25
 20
-7.258333333333333
 30
0.0
 40
0.5
  1
6-7/16
100
AcDbAttributeDefinition
  3

  2
J
 70
     8
280
     0
  0
ATTDEF
  5
86
330
6E
100
AcDbEntity
  8
AM_6
100
AcDbText
 10
8.25
 20
-7.758333333333333
 30
0.0
 40
0.5
  1
3-1/16
100
AcDbAttributeDefinition
  3

  2
K
 70
     8
280
     0
  0
ATTDEF
  5
87
330
6E
100
AcDbEntity
  8
AM_6
100
AcDbText
 10
8.25
 20
-8.258333333333333
 30
0.0
 40
0.5
  1
3-7/16
100
AcDbAttributeDefinition
  3

  2
L
 70
     8
280
     0
  0
ATTDEF
  5
88
330
6E
100
AcDbEntity
  8
AM_6
100
AcDbText
 10
8.25
 20
-8.758333333333333
 30
0.0
 40
0.5
  1
6
100
AcDbAttributeDefinition
  3

  2
M
 70
     8
280
     0
  0
ATTDEF
  5
89
330
6E
100
AcDbEntity
  8
AM_6
100
AcDbText
 10
8.25
 20
-9.258333333333333
 30
0.0
 40
0.5
  1
1-21/32
100
AcDbAttributeDefinition
  3

  2
N
 70
     8
280
     0
  0
ATTDEF
  5
8A
330
6E
100
AcDbEntity
  8
AM_6
100
AcDbText
 10
8.25
 20
-9.758333333333333
 30
0.0
 40
0.5
  1
1-1/4
100
AcDbAttributeDefinition
  3

  2
P
 70
     8
280
     0
  0
ATTDEF
  5
8B
330
6E
100
AcDbEntity
  8
AM_6
100
AcDbText
 10
8.25
 20
-10.25833333333333
 30
0.0
 40
0.5
  1
13/16
100
AcDbAttributeDefinition
  3

  2
Q
 70
     8
280
     0
  0
ATTDEF
  5
8C
330
6E
100
AcDbEntity
  8
AM_6
100
AcDbText
 10
8.25
 20
-10.75833333333333
 30
0.0
 40
0.5
  1
3-3/16
100
AcDbAttributeDefinition
  3

  2
R
 70
     8
280
     0
  0
ATTDEF
  5
8D
330
6E
100
AcDbEntity
  8
AM_6
100
AcDbText
 10
8.25
 20
-11.25833333333333
 30
0.0
 40
0.5
  1
2
100
AcDbAttributeDefinition
  3

  2
S
 70
     8
280
     0
  0
ATTDEF
  5
8E
330
6E
100
AcDbEntity
  8
AM_6
100
AcDbText
 10
8.25
 20
-11.75833333333333
 30
0.0
 40
0.5
  1
5/16
100
AcDbAttributeDefinition
  3

  2
T
 70
     8
280
     0
  0
ATTDEF
  5
8F
330
6E
100
AcDbEntity
  8
AM_6
100
AcDbText
 10
8.25
 20
-12.25833333333333
 30
0.0
 40
0.5
  1
1-1/16
100
AcDbAttributeDefinition
  3

  2
U
 70
     8
280
     0
  0
ATTDEF
  5
90
330
6E
100
AcDbEntity
  8
AM_6
100
AcDbText
 10
8.25
 20
-12.75833333333333
 30
0.0
 40
0.5
  1
2
100
AcDbAttributeDefinition
  3

  2
V
 70
     8
280
     0
  0
ATTDEF
  5
91
330
6E
100
AcDbEntity
  8
AM_6
100
AcDbText
 10
8.25
 20
-13.25833333333333
 30
0.0
 40
0.5
  1
7/8
100
AcDbAttributeDefinition
  3

  2
W
 70
     8
280
     0
  0
ATTDEF
  5
92
330
6E
100
AcDbEntity
  8
AM_6
100
AcDbText
 10
8.25
 20
-13.75833333333333
 30
0.0
 40
0.5
  1
1/4
100
AcDbAttributeDefinition
  3

  2
X
 70
     8
280
     0
  0
ATTDEF
  5
93
330
6E
100
AcDbEntity
  8
AM_6
100
AcDbText
 10
8.25
 20
-14.25833333333333
 30
0.0
 40
0.5
  1
0.020
100
AcDbAttributeDefinition
  3

  2
Y
 70
     8
280
     0
  0
ATTDEF
  5
94
330
6E
100
AcDbEntity
  8
AM_6
100
AcDbText
 10
8.25
 20
-14.75833333333333
 30
0.0
 40
0.5
  1
2-19/64
100
AcDbAttributeDefinition
  3

  2
Z
 70
     8
280
     0
  0
ATTDEF
  5
95
330
6E
100
AcDbEntity
  8
AM_6
100
AcDbText
 10
8.25
 20
-15.25833333333333
 30
0.0
 40
0.5
  1
baldor
100
AcDbAttributeDefinition
  3

  2
COMPANY
 70
     8
280
     0
  0
INSERT
  5
97
330
6E
100
AcDbEntity
  8
0
100
AcDbBlockReference
  2
2_405016_Inch_0_in_070811_4
 10
0.0
 20
0.0
 30
0.0
  0
INSERT
  5
F0
330
6E
100
AcDbEntity
  8
0
100
AcDbBlockReference
  2
3_1_15_16CS2i_0_in_070811_4
 10
0.0
 20
0.0
 30
0.0
  0
INSERT
  5
131
330
6E
100
AcDbEntity
  8
0
100
AcDbBlockReference
  2
4_070005i_0_in_070811_4
 10
0.0
 20
0.0
 30
0.0
  0
INSERT
  5
185
330
6E
100
AcDbEntity
  8
0
100
AcDbBlockReference
  2
5_070811H_0_in_070811_4
 10
0.0
 20
0.0
 30
0.0
  0
ENDBLK
  5
71
330
6E
100
AcDbEntity
  8
0
100
AcDbBlockEnd
  0
BLOCK
  5
98
330
96
100
AcDbEntity
  8
0
100
AcDbBlockBegin
  2
2_405016_Inch_0_in_070811_4
 70
     2
 10
0.0
 20
0.0
 30
0.0
  3
2_405016_Inch_0_in_070811_4
  1

  0
ATTDEF
  5
9A
330
96
100
AcDbEntity
  8
AM_6
100
AcDbText
 10
8.2
 20
0.21875
 30
0.0
 40
0.5
  1
405016 -Inch
100
AcDbAttributeDefinition
  3

  2
NN
 70
     8
280
     0
  0
ATTDEF
  5
9B
330
96
100
AcDbEntity
  8
AM_6
100
AcDbText
 10
8.2
 20
-0.28125
 30
0.0
 40
0.5
  1
Grease Fitting
100
AcDbAttributeDefinition
  3

  2
NT
 70
     8
280
     0
  0
ATTDEF
  5
9C
330
96
100
AcDbEntity
  8
AM_6
100
AcDbText
 10
8.2
 20
-0.78125
 30
0.0
 40
0.5
  1
405016-Inch
100
AcDbAttributeDefinition
  3

  2
NB
 70
     8
280
     0
  0
ATTDEF
  5
9D
330
96
100
AcDbEntity
  8
AM_6
100
AcDbText
 10
8.2
 20
-1.28125
 30
0.0
 40
0.5
  1
$MN.-Inch
100
AcDbAttributeDefinition
  3

  2
NBSYN
 70
     8
280
     0
  0
ATTDEF
  5
9E
330
96
100
AcDbEntity
  8
AM_6
100
AcDbText
 10
8.2
 20
-1.78125
 30
0.0
 40
0.5
  1
405016
100
AcDbAttributeDefinition
  3

  2
LINA
 70
     8
280
     0
  0
ATTDEF
  5
9F
330
96
100
AcDbEntity
  8
AM_6
100
AcDbText
 10
8.2
 20
-2.28125
 30
0.0
 40
0.5
  1
405016
100
AcDbAttributeDefinition
  3

  2
MN
 70
     8
280
     0
  0
ATTDEF
  5
A0
330
96
100
AcDbEntity
  8
AM_6
100
AcDbText
 10
8.2
 20
-2.78125
 30
0.0
 40
0.5
  1
7/16 HEX
100
AcDbAttributeDefinition
  3

  2
H
 70
     8
280
     0
  0
ATTDEF
  5
A1
330
96
100
AcDbEntity
  8
AM_6
100
AcDbText
 10
8.2
 20
-3.28125
 30
0.0
 40
0.5
  1
0.383
100
AcDbAttributeDefinition
  3

  2
NDR
 70
     8
280
     0
  0
ATTDEF
  5
A2
330
96
100
AcDbEntity
  8
AM_6
100
AcDbText
 10
8.2
 20
-3.78125
 30
0.0
 40
0.5
  1
0.337
100
AcDbAttributeDefinition
  3

  2
KDR
 70
     8
280
     0
  0
ATTDEF
  5
A3
330
96
100
AcDbEntity
  8
AM_6
100
AcDbText
 10
8.2
 20
-4.28125
 30
0.0
 40
0.5
  1
0.1575
100
AcDbAttributeDefinition
  3

  2
BZE
 70
     8
280
     0
  0
ATTDEF
  5
A4
330
96
100
AcDbEntity
  8
AM_6
100
AcDbText
 10
8.2
 20
-4.78125
 30
0.0
 40
0.5
  1
0.4375
100
AcDbAttributeDefinition
  3

  2
HEX
 70
     8
280
     0
  0
ATTDEF
  5
A5
330
96
100
AcDbEntity
  8
AM_6
100
AcDbText
 10
8.2
 20
-5.28125
 30
0.0
 40
0.5
  1
0.281250
100
AcDbAttributeDefinition
  3

  2
HEX2
 70
     8
280
     0
  0
ATTDEF
  5
A6
330
96
100
AcDbEntity
  8
AM_6
100
AcDbText
 10
8.2
 20
-5.78125
 30
0.0
 40
0.5
  1
baldor
100
AcDbAttributeDefinition
  3

  2
COMPANY
 70
     8
280
     0
  0
LINE
  5
A9
330
96
100
AcDbEntity
  8
AM_9
100
AcDbLine
 10
2.876485901430354
 20
-0.305545857794963
 30
0.0
 11
2.855354988343319
 21
-0.2602304684431305
 31
0.0
  0
LINE
  5
AA
330
96
100
AcDbEntity
  8
AM_9
100
AcDbLine
 10
2.859521122673159
 20
-0.2
 30
0.0
 11
2.881846633100651
 21
-0.2478772116156649
 31
0.0
  0
LINE
  5
AB
330
96
100
AcDbEntity
  8
AM_9
100
AcDbLine
 10
2.947777160155095
 20
-0.4582370426796164
 30
0.0
 11
3.0
 21
-0.502057208332506
 31
0.0
  0
ARC
  5
AC
330
96
100
AcDbEntity
  8
AM_9
100
AcDbCircle
 10
2.85840326416709
 20
-0.3941587959651974
 30
0.0
 40
0.0896158688558198
100
AcDbArc
 50
336.9222389899024
 51
78.38307280990787
  0
LINE
  5
AD
330
96
100
AcDbEntity
  8
AM_9
100
AcDbLine
 10
2.999999999999999
 20
-0.4017031697991009
 30
0.0
 11
2.940847507618029
 21
-0.4292864299957689
 31
0.0
  0
LINE
  5
AE
330
96
100
AcDbEntity
  8
AM_9
100
AcDbLine
 10
3.0
 20
-0.4338851325293354
 30
0.0
 11
2.947777160155095
 21
-0.4582370426796164
 31
0.0
  0
ARC
  5
AF
330
96
100
AcDbEntity
  8
AM_9
100
AcDbCircle
 10
2.96384685039726
 20
-0.4390859316016414
 30
0.0
 40
0.025000000000001
100
AcDbArc
 50
156.922238989904
 51
229.9999999999988
  0
LINE
  5
B0
330
96
100
AcDbEntity
  8
AM_9
100
AcDbLine
 10
3.0
 20
-0.2479502877418259
 30
0.0
 11
2.876485901430354
 21
-0.305545857794963
 31
0.0
  0
LINE
  5
B1
330
96
100
AcDbEntity
  8
AM_9
100
AcDbLine
 10
2.999688825273624
 20
-0.1999542978458691
 30
0.0
 11
2.987092915312688
 21
-0.2099962668917053
 31
0.0
  0
LINE
  5
B2
330
96
100
AcDbEntity
  8
AM_9
100
AcDbLine
 10
2.999999999999999
 20
-0.1927813917937015
 30
0.0
 11
2.855354988343319
 21
-0.2602304684431305
 31
0.0
  0
LWPOLYLINE
  5
B3
330
96
100
AcDbEntity
  8
AM_9
100
AcDbPolyline
 90
        3
 70
     0
 43
0.0
 10
2.987092915312688
 20
-0.2099962668917053
 10
2.957727141375751
 20
-0.2163479371246912
 10
2.929110144493329
 20
-0.2258378743019628
  0
LWPOLYLINE
  5
B4
330
96
100
AcDbEntity
  8
AM_9
100
AcDbPolyline
 90
        3
 70
     0
 43
0.0
 10
2.907153317914338
 20
-0.2360765106845276
 10
2.889944149569911
 20
-0.246209193863185
 10
2.859404468701036
 20
-0.2689146070947221
  0
LWPOLYLINE
  5
B5
330
96
100
AcDbEntity
  8
AM_9
100
AcDbPolyline
 90
        3
 70
     0
 43
0.0
 10
2.873325133450934
 20
-0.2987675689889717
 10
2.901134483864593
 20
-0.2912216284034024
 10
2.928284231001374
 20
-0.2813919000363598
  0
LWPOLYLINE
  5
B6
330
96
100
AcDbEntity
  8
AM_9
100
AcDbPolyline
 90
        3
 70
     0
 43
0.0
 10
2.950241057580365
 20
-0.2711532636537956
 10
2.975988571746168
 20
-0.256181552758992
 10
3.000588184814568
 20
-0.2389369657326275
  0
LINE
  5
B7
330
96
100
AcDbEntity
  8
AM_9
100
AcDbLine
 10
2.987092915312688
 20
-0.2099962668917053
 30
0.0
 11
3.0
 21
-0.2376755993272479
 31
0.0
  0
LINE
  5
B8
330
96
100
AcDbEntity
  8
AM_9
100
AcDbLine
 10
2.35625
 20
0.1616637258772237
 30
0.0
 11
2.35625
 21
-0.1616637258772237
 31
0.0
  0
LINE
  5
B9
330
96
100
AcDbEntity
  8
AM_9
100
AcDbLine
 10
2.35625
 20
-0.1616637258772237
 30
0.0
 11
2.380003564847762
 21
-0.1854172907249859
 31
0.0
  0
LINE
  5
BA
330
96
100
AcDbEntity
  8
AM_9
100
AcDbLine
 10
2.380003564847762
 20
0.1854172907249859
 30
0.0
 11
2.35625
 21
0.1616637258772237
 31
0.0
  0
LINE
  5
BB
330
96
100
AcDbEntity
  8
AM_9
100
AcDbLine
 10
2.653125
 20
0.21875
 30
0.0
 11
2.653125
 21
-0.21875
 31
0.0
  0
LINE
  5
BC
330
96
100
AcDbEntity
  8
AM_9
100
AcDbLine
 10
2.653125
 20
-0.21875
 30
0.0
 11
2.753125
 21
-0.21875
 31
0.0
  0
LINE
  5
BD
330
96
100
AcDbEntity
  8
AM_9
100
AcDbLine
 10
2.753125
 20
0.21875
 30
0.0
 11
2.753125
 21
-0.21875
 31
0.0
  0
LINE
  5
BE
330
96
100
AcDbEntity
  8
AM_9
100
AcDbLine
 10
2.753125
 20
0.21875
 30
0.0
 11
2.653125
 21
0.21875
 31
0.0
  0
LINE
  5
BF
330
96
100
AcDbEntity
  8
AM_9
100
AcDbLine
 10
2.380003564847762
 20
0.1854172907249859
 30
0.0
 11
2.380003564847762
 21
-0.1854172907249859
 31
0.0
  0
LINE
  5
C0
330
96
100
AcDbEntity
  8
AM_9
100
AcDbLine
 10
2.380003564847762
 20
-0.1854172907249859
 30
0.0
 11
2.575
 21
-0.1915112338502295
 31
0.0
  0
LINE
  5
C1
330
96
100
AcDbEntity
  8
AM_9
100
AcDbLine
 10
2.575
 20
0.1915112338502295
 30
0.0
 11
2.380003564847762
 21
0.1854172907249859
 31
0.0
  0
LINE
  5
C2
330
96
100
AcDbEntity
  8
AM_9
100
AcDbLine
 10
2.575
 20
-0.2
 30
0.0
 11
2.653125
 21
-0.2
 31
0.0
  0
LINE
  5
C3
330
96
100
AcDbEntity
  8
AM_9
100
AcDbLine
 10
2.653125
 20
0.2
 30
0.0
 11
2.575
 21
0.2
 31
0.0
  0
LWPOLYLINE
  5
C4
330
96
100
AcDbEntity
  8
AM_9
100
AcDbPolyline
 90
        7
 70
     0
 43
0.0
 10
2.9
 20
-0.1790373738501783
 10
2.887711773328742
 20
-0.184262879520394
 10
2.877857912812704
 20
-0.1891729979031392
 10
2.869890090732852
 20
-0.1936098952159723
 10
2.863950819230624
 20
-0.1971856748420371
 10
2.860426786929245
 20
-0.1994144431868154
 10
2.859521122719427
 20
-0.1999999999699528
  0
LINE
  5
C5
330
96
100
AcDbEntity
  8
AM_9
100
AcDbLine
 10
2.753125
 20
-0.2
 30
0.0
 11
2.859521122673158
 21
-0.2
 31
0.0
  0
LINE
  5
C6
330
96
100
AcDbEntity
  8
AM_9
100
AcDbLine
 10
2.9
 20
0.2
 30
0.0
 11
2.753125
 21
0.2
 31
0.0
  0
LINE
  5
C7
330
96
100
AcDbEntity
  8
AM_9
100
AcDbLine
 10
2.9
 20
-0.1790373738501778
 30
0.0
 11
3.000028995973225
 21
-0.1403714653442273
 31
0.0
  0
ARC
  5
C8
330
96
100
AcDbEntity
  8
AM_9
100
AcDbCircle
 10
2.900000000000002
 20
0.0000000000000049
 30
0.0
 40
0.1999999999999949
100
AcDbArc
 50
60.00000000000001
 51
90.0
  0
LINE
  5
C9
330
96
100
AcDbEntity
  8
AM_9
100
AcDbLine
 10
2.9
 20
0.2
 30
0.0
 11
2.9
 21
-0.1790373738501778
 31
0.0
  0
LWPOLYLINE
  5
CA
330
96
100
AcDbEntity
  8
AM_9
100
AcDbPolyline
 90
        3
 70
     0
 43
0.0
 10
2.753125
 20
-0.1093749999999999
 10
2.750731619214966
 20
-0.1640625
 10
2.744057400303386
 20
-0.21875
  0
LWPOLYLINE
  5
CB
330
96
100
AcDbEntity
  8
AM_9
100
AcDbPolyline
 90
        3
 70
     0
 43
0.0
 10
2.653125
 20
-0.109375
 10
2.655518380785035
 20
-0.0546875
 10
2.662192599696615
 20
0.0
  0
LWPOLYLINE
  5
CC
330
96
100
AcDbEntity
  8
AM_9
100
AcDbPolyline
 90
        3
 70
     0
 43
0.0
 10
2.662192599696615
 20
-0.21875
 10
2.65553952494962
 20
-0.1643083897258504
 10
2.653125
 20
-0.109375
  0
LINE
  5
CD
330
96
100
AcDbEntity
  8
AM_9
100
AcDbLine
 10
2.744057400303386
 20
0.0
 30
0.0
 11
2.662192599696615
 21
0.0
 31
0.0
  0
LWPOLYLINE
  5
CE
330
96
100
AcDbEntity
  8
AM_9
100
AcDbPolyline
 90
        3
 70
     0
 43
0.0
 10
2.744057400303386
 20
0.21875
 10
2.75071047505038
 20
0.1643083897258504
 10
2.753125
 20
0.109375
  0
LWPOLYLINE
  5
CF
330
96
100
AcDbEntity
  8
AM_9
100
AcDbPolyline
 90
        3
 70
     0
 43
0.0
 10
2.653125
 20
0.109375
 10
2.655518380785035
 20
0.1640625
 10
2.662192599696615
 20
0.21875
  0
LWPOLYLINE
  5
D0
330
96
100
AcDbEntity
  8
AM_9
100
AcDbPolyline
 90
        3
 70
     0
 43
0.0
 10
2.662192599696615
 20
0.0
 10
2.65553952494962
 20
0.0544416102741496
 10
2.653125
 20
0.109375
  0
LWPOLYLINE
  5
D1
330
96
100
AcDbEntity
  8
AM_9
100
AcDbPolyline
 90
        3
 70
     0
 43
0.0
 10
2.753125
 20
0.109375
 10
2.750731619214966
 20
0.0546875
 10
2.744057400303386
 20
0.0
  0
LWPOLYLINE
  5
D2
330
96
100
AcDbEntity
  8
AM_9
100
AcDbPolyline
 90
        3
 70
     0
 43
0.0
 10
2.744057400303386
 20
0.0
 10
2.75071047505038
 20
-0.0544416102741496
 10
2.753125
 20
-0.1093749999999999
  0
LINE
  5
D4
330
96
100
AcDbEntity
  8
AM_5
100
AcDbLine
 10
2.532862509955052
 20
0.1671831426298035
 30
0.0
 11
2.35625
 21
0.1616637258772237
 31
0.0
  0
LINE
  5
D5
330
96
100
AcDbEntity
  8
AM_5
100
AcDbLine
 10
2.575
 20
0.1915112338502292
 30
0.0
 11
2.532862509955052
 21
0.1671831426298035
 31
0.0
  0
LINE
  5
D6
330
96
100
AcDbEntity
  8
AM_5
100
AcDbLine
 10
2.532862509955052
 20
0.1901943714800329
 30
0.0
 11
2.532862509955052
 21
-0.1901943714800329
 31
0.0
  0
LINE
  5
D7
330
96
100
AcDbEntity
  8
AM_5
100
AcDbLine
 10
2.532862509955052
 20
-0.1671831426298035
 30
0.0
 11
2.35625
 21
-0.1616637258772237
 31
0.0
  0
LINE
  5
D8
330
96
100
AcDbEntity
  8
AM_5
100
AcDbLine
 10
2.575
 20
-0.1915112338502292
 30
0.0
 11
2.532862509955052
 21
-0.1671831426298035
 31
0.0
  0
LINE
  5
DB
330
96
100
AcDbEntity
  8
AM_7
100
AcDbLine
 10
2.84483579112304
 20
0.0917749692859806
 30
0.0
 11
3.136208030815163
 21
-0.533074815178147
 31
0.0
  0
LINE
  5
DD
330
96
100
AcDbEntity
  8
AM_4
100
AcDbLine
 10
3.081234346248714
 20
-0.1549011940327111
 30
0.0
 11
3.063026660150522
 21
-0.1158546851886725
 31
0.0
  0
LINE
  5
DE
330
96
100
AcDbEntity
  8
AM_4
100
AcDbLine
 10
3.2
 20
-0.4250163462566365
 30
0.0
 11
3.012425753776377
 21
-0.5124836537433635
 31
0.0
  0
LINE
  5
DF
330
96
100
AcDbEntity
  8
AM_4
100
AcDbLine
 10
3.2
 20
-0.4250163462566365
 30
0.0
 11
3.2
 21
-0.3406236008983355
 31
0.0
  0
LINE
  5
E0
330
96
100
AcDbEntity
  8
AM_4
100
AcDbLine
 10
3.0
 20
-0.502057208332506
 30
0.0
 11
3.012425753776377
 21
-0.5124836537433635
 31
0.0
  0
ARC
  5
E1
330
96
100
AcDbEntity
  8
AM_4
100
AcDbCircle
 10
3.208361648150116
 20
-0.230970521478365
 30
0.0
 40
0.0896158688558195
100
AcDbArc
 50
150.8170969074255
 51
253.0777610100976
  0
LINE
  5
E2
330
96
100
AcDbEntity
  8
AM_4
100
AcDbLine
 10
3.182276838818908
 20
-0.3167060839535595
 30
0.0
 11
2.999999999999999
 21
-0.4017031697991009
 31
0.0
  0
LINE
  5
E3
330
96
100
AcDbEntity
  8
AM_4
100
AcDbLine
 10
3.2
 20
-0.3406236008983355
 30
0.0
 11
3.0
 21
-0.4338851325293354
 31
0.0
  0
ARC
  5
E4
330
96
100
AcDbEntity
  8
AM_4
100
AcDbCircle
 10
3.174999999999998
 20
-0.3406236008983366
 30
0.0
 40
0.0250000000000021
100
AcDbArc
 50
0.0
 51
73.07776101009428
  0
LINE
  5
E5
330
96
100
AcDbEntity
  8
AM_4
100
AcDbLine
 10
3.130120935313746
 20
-0.1872738991187349
 30
0.0
 11
3.131187596476801
 21
-0.1862072379556804
 31
0.0
  0
LINE
  5
E6
330
96
100
AcDbEntity
  8
AM_4
100
AcDbLine
 10
3.130120935313746
 20
-0.1872738991187349
 30
0.0
 11
3.0
 21
-0.2479502877418259
 31
0.0
  0
LWPOLYLINE
  5
E7
330
96
100
AcDbEntity
  8
AM_4
100
AcDbPolyline
 90
        5
 70
     0
 43
0.0
 10
3.000588184814568
 20
-0.2389369657326275
 10
3.034015212398109
 20
-0.2295338871417795
 10
3.066443378377864
 20
-0.216687117104632
 10
3.097959325649376
 20
-0.1996402057054678
 10
3.127852618119652
 20
-0.1791093260592886
  0
LWPOLYLINE
  5
E8
330
96
100
AcDbEntity
  8
AM_4
100
AcDbPolyline
 90
        6
 70
     0
 43
0.0
 10
3.114779591422741
 20
-0.1510741298357569
 10
3.089459640964115
 20
-0.1564222384464442
 10
3.064673655314264
 20
-0.1639940363880804
 10
3.040359069419333
 20
-0.1744063212866122
 10
3.01715195447448
 20
-0.1876759562813857
 10
2.999688825273624
 20
-0.1999542978458691
  0
LINE
  5
E9
330
96
100
AcDbEntity
  8
AM_4
100
AcDbLine
 10
3.11065103198678
 20
-0.1419585097669022
 30
0.0
 11
3.108990022226711
 21
-0.1419585097669022
 31
0.0
  0
LINE
  5
EA
330
96
100
AcDbEntity
  8
AM_4
100
AcDbLine
 10
3.110528907998513
 20
-0.1419585098156049
 30
0.0
 11
3.131169344127473
 21
-0.186222067936495
 31
0.0
  0
LINE
  5
EB
330
96
100
AcDbEntity
  8
AM_4
100
AcDbLine
 10
3.108990022226711
 20
-0.1419585097669022
 30
0.0
 11
2.999999999999999
 21
-0.1927813917937015
 31
0.0
  0
LINE
  5
EC
330
96
100
AcDbEntity
  8
AM_4
100
AcDbLine
 10
3.0
 20
-0.2376755993272479
 30
0.0
 11
3.000588184814568
 21
-0.2389369657326275
 31
0.0
  0
LINE
  5
ED
330
96
100
AcDbEntity
  8
AM_4
100
AcDbLine
 10
3.000028995973225
 20
-0.1403714653442273
 30
0.0
 11
3.063026652663616
 21
-0.1158546881094491
 31
0.0
  0
ARC
  5
EE
330
96
100
AcDbEntity
  8
AM_4
100
AcDbCircle
 10
2.9
 20
0.0000000000000002
 30
0.0
 40
0.2
100
AcDbArc
 50
324.5873761107931
 51
60.00000000000027
  0
ENDBLK
  5
99
330
96
100
AcDbEntity
  8
0
100
AcDbBlockEnd
  0
BLOCK
  5
F1
330
EF
100
AcDbEntity
  8
0
100
AcDbBlockBegin
  2
3_1_15_16CS2i_0_in_070811_4
 70
     2
 10
0.0
 20
0.0
 30
0.0
  3
3_1_15_16CS2i_0_in_070811_4
  1

  0
ATTDEF
  5
F3
330
EF
100
AcDbEntity
  8
AM_6
100
AcDbText
 10
6.71875
 20
-1.366
 30
0.0
 40
0.5
  1
S-2000 Collar -Inch
100
AcDbAttributeDefinition
  3

  2
NN
 70
     8
280
     0
  0
ATTDEF
  5
F4
330
EF
100
AcDbEntity
  8
AM_6
100
AcDbText
 10
6.71875
 20
-1.866
 30
0.0
 40
0.5
  1
S-2000 Bearings
100
AcDbAttributeDefinition
  3

  2
NT
 70
     8
280
     0
  0
ATTDEF
  5
F5
330
EF
100
AcDbEntity
  8
AM_6
100
AcDbText
 10
6.71875
 20
-2.366
 30
0.0
 40
0.5
  1
1-15/16CS2i
100
AcDbAttributeDefinition
  3

  2
NB
 70
     8
280
     0
  0
ATTDEF
  5
F6
330
EF
100
AcDbEntity
  8
AM_6
100
AcDbText
 10
6.71875
 20
-2.866
 30
0.0
 40
0.5
  1
$BORE.CS2i
100
AcDbAttributeDefinition
  3

  2
NBSYN
 70
     8
280
     0
  0
ATTDEF
  5
F7
330
EF
100
AcDbEntity
  8
AM_6
100
AcDbText
 10
6.71875
 20
-3.366
 30
0.0
 40
0.5
  1
1-15/16CS2i
100
AcDbAttributeDefinition
  3

  2
LINA
 70
     8
280
     0
  0
ATTDEF
  5
F8
330
EF
100
AcDbEntity
  8
AM_6
100
AcDbText
 10
6.71875
 20
-3.866
 30
0.0
 40
0.5
  1
1-15/16
100
AcDbAttributeDefinition
  3

  2
BORE
 70
     8
280
     0
  0
ATTDEF
  5
F9
330
EF
100
AcDbEntity
  8
AM_6
100
AcDbText
 10
6.71875
 20
-4.366
 30
0.0
 40
0.5
  1
1.937500
100
AcDbAttributeDefinition
  3

  2
BORE1
 70
     8
280
     0
  0
ATTDEF
  5
FA
330
EF
100
AcDbEntity
  8
AM_6
100
AcDbText
 10
6.71875
 20
-4.866
 30
0.0
 40
0.5
  1
3-7/16
100
AcDbAttributeDefinition
  3

  2
L1
 70
     8
280
     0
  0
ATTDEF
  5
FB
330
EF
100
AcDbEntity
  8
AM_6
100
AcDbText
 10
6.71875
 20
-5.366
 30
0.0
 40
0.5
  1
3.43750
100
AcDbAttributeDefinition
  3

  2
L
 70
     8
280
     0
  0
ATTDEF
  5
FC
330
EF
100
AcDbEntity
  8
AM_6
100
AcDbText
 10
6.71875
 20
-5.866
 30
0.0
 40
0.5
  1
3.34375
100
AcDbAttributeDefinition
  3

  2
L2
 70
     8
280
     0
  0
ATTDEF
  5
FD
330
EF
100
AcDbEntity
  8
AM_6
100
AcDbText
 10
6.71875
 20
-6.366
 30
0.0
 40
0.5
  1
3.50
100
AcDbAttributeDefinition
  3

  2
A
 70
     8
280
     0
  0
ATTDEF
  5
FE
330
EF
100
AcDbEntity
  8
AM_6
100
AcDbText
 10
6.71875
 20
-6.866
 30
0.0
 40
0.5
  1
1.62
100
AcDbAttributeDefinition
  3

  2
B
 70
     8
280
     0
  0
ATTDEF
  5
FF
330
EF
100
AcDbEntity
  8
AM_6
100
AcDbText
 10
6.71875
 20
-7.366
 30
0.0
 40
0.5
  1
2.31
100
AcDbAttributeDefinition
  3

  2
C
 70
     8
280
     0
  0
ATTDEF
  5
100
330
EF
100
AcDbEntity
  8
AM_6
100
AcDbText
 10
6.71875
 20
-7.866
 30
0.0
 40
0.5
  1
3.50
100
AcDbAttributeDefinition
  3

  2
D
 70
     8
280
     0
  0
ATTDEF
  5
101
330
EF
100
AcDbEntity
  8
AM_6
100
AcDbText
 10
6.71875
 20
-8.366
 30
0.0
 40
0.5
  1
0.41
100
AcDbAttributeDefinition
  3

  2
E
 70
     8
280
     0
  0
ATTDEF
  5
102
330
EF
100
AcDbEntity
  8
AM_6
100
AcDbText
 10
6.71875
 20
-8.866
 30
0.0
 40
0.5
  1
0.317
100
AcDbAttributeDefinition
  3

  2
F
 70
     8
280
     0
  0
ATTDEF
  5
103
330
EF
100
AcDbEntity
  8
AM_6
100
AcDbText
 10
6.71875
 20
-9.366
 30
0.0
 40
0.5
  1
3/8-16
100
AcDbAttributeDefinition
  3

  2
CS
 70
     8
280
     0
  0
ATTDEF
  5
104
330
EF
100
AcDbEntity
  8
AM_6
100
AcDbText
 10
6.71875
 20
-9.866
 30
0.0
 40
0.5
  1
0.3750
100
AcDbAttributeDefinition
  3

  2
NDM
 70
     8
280
     0
  0
ATTDEF
  5
105
330
EF
100
AcDbEntity
  8
AM_6
100
AcDbText
 10
6.71875
 20
-10.366
 30
0.0
 40
0.5
  1
0.3070
100
AcDbAttributeDefinition
  3

  2
KDM
 70
     8
280
     0
  0
ATTDEF
  5
106
330
EF
100
AcDbEntity
  8
AM_6
100
AcDbText
 10
6.71875
 20
-10.866
 30
0.0
 40
0.5
  1
1
100
AcDbAttributeDefinition
  3

  2
DD
 70
     8
280
     0
  0
ATTDEF
  5
107
330
EF
100
AcDbEntity
  8
AM_6
100
AcDbText
 10
6.71875
 20
-11.366
 30
0.0
 40
0.5
  1
baldor
100
AcDbAttributeDefinition
  3

  2
COMPANY
 70
     8
280
     0
  0
LINE
  5
108
330
EF
100
AcDbEntity
  8
AM_9
100
AcDbLine
 10
1.08508614371301
 20
-1.547077735467823
 30
0.0
 11
1.076997333078978
 21
-1.536988670469748
 31
0.0
  0
LINE
  5
109
330
EF
100
AcDbEntity
  8
AM_9
100
AcDbLine
 10
1.077118752485536
 20
-1.828859884733209
 30
0.0
 11
1.08508614371301
 21
-1.818922264532177
 31
0.0
  0
LWPOLYLINE
  5
10A
330
EF
100
AcDbEntity
  8
AM_9
100
AcDbPolyline
 90
       26
 70
     0
 43
0.0
 10
1.076987422341317
 20
-1.536976308963633
 10
1.076852235758493
 20
-1.536808271443683
 10
1.066278981138374
 20
-1.526801432537048
 10
1.054569711275849
 20
-1.521431658753938
 10
1.041481947595278
 20
-1.520922827735138
 10
1.0278006900604
 20
-1.52550684088404
 10
1.013830421402534
 20
-1.535264255474738
 10
1.000232460804837
 20
-1.549916029846859
 10
0.987830224755597
 20
-1.568828571350549
 10
0.9769926350917173
 20
-1.591740925088392
 10
0.9688299740288342
 20
-1.616509356111882
 10
0.9631497418277855
 20
-1.643615795223777
 10
0.9605386608941846
 20
-1.669671165229202
 10
0.9605148356925725
 20
-1.696147638067584
 10
0.962909491879545
 20
-1.720697315440199
 10
0.9674605839073526
 20
-1.744212472618771
 10
0.9740576435160456
 20
-1.76640029802289
 10
0.9822865829736409
 20
-1.786437085965839
 10
0.9925219865207319
 20
-1.805064809653995
 10
1.003775738539055
 20
-1.820445301954541
 10
1.016601818437457
 20
-1.833080868890707
 10
1.029653900797198
 20
-1.841404421512373
 10
1.043155529328197
 20
-1.845292849706192
 10
1.056026013204927
 20
-1.844176650013289
 10
1.068107647222918
 20
-1.837858942332216
 10
1.076985474286909
 20
-1.82902612059274
  0
LWPOLYLINE
  5
10B
330
EF
100
AcDbEntity
  8
AM_9
100
AcDbPolyline
 90
        7
 70
     0
 43
0.0
 10
1.108937853387737
 20
-1.683
 10
1.108513499617112
 20
-1.662021520915244
 10
1.106903610330475
 20
-1.637419242035971
 10
1.104130104245032
 20
-1.614355322039372
 10
1.100216007379131
 20
-1.593078384257335
 10
1.096179993962825
 20
-1.577336269731259
 10
1.091418091293067
 20
-1.563270700757612
  0
LWPOLYLINE
  5
10C
330
EF
100
AcDbEntity
  8
AM_9
100
AcDbPolyline
 90
        8
 70
     0
 43
0.0
 10
1.081642455702503
 20
-1.822492381591278
 10
1.088143681974203
 20
-1.810432303738319
 10
1.095791412491812
 20
-1.789972829888135
 10
1.101517109163569
 20
-1.766678283758052
 10
1.105650976577941
 20
-1.740411069580451
 10
1.107986640313107
 20
-1.714336514347769
 10
1.108920889922899
 20
-1.687224615848441
 10
1.108937853387737
 20
-1.683
  0
LWPOLYLINE
  5
10D
330
EF
100
AcDbEntity
  8
AM_9
100
AcDbPolyline
 90
        3
 70
     0
 43
0.0
 10
1.076985474286909
 20
-1.82902612059274
 10
1.07891168616397
 20
-1.826504583658788
 10
1.081642455702503
 20
-1.822492381591278
  0
LINE
  5
10E
330
EF
100
AcDbEntity
  8
AM_9
100
AcDbLine
 10
1.054806317942603
 20
-1.83665
 30
0.0
 11
1.515191975249613
 21
-1.83665
 31
0.0
  0
LINE
  5
10F
330
EF
100
AcDbEntity
  8
AM_9
100
AcDbLine
 10
1.527037990378052
 20
-1.52935
 30
0.0
 11
1.054806317942603
 21
-1.52935
 31
0.0
  0
ELLIPSE
  5
110
330
EF
100
AcDbEntity
  8
AM_9
100
AcDbEllipse
 10
1.527037990378064
 20
-1.683000000000002
 30
0.0
 11
-2.822504710334908E-17
 21
-0.1536500000000025
 31
0.0
210
0.0
220
0.0
230
1.0
 40
0.4226182617407211
 41
3.454507445535496
 42
4.71238898038469
  0
LINE
  5
111
330
EF
100
AcDbEntity
  8
AM_9
100
AcDbLine
 10
1.518973950997345
 20
-1.519368283113232
 30
0.0
 11
1.496758164607646
 21
-1.54707773546782
 31
0.0
  0
LWPOLYLINE
  5
112
330
EF
100
AcDbEntity
  8
AM_9
100
AcDbPolyline
 90
       39
 70
     0
 43
0.0
 10
-0.1218661424184465
 20
-1.565988104473679
 10
-0.1391103719975643
 20
-1.583713367160157
 10
-0.1538241570126183
 20
-1.604296829177464
 10
-0.1659591348966734
 20
-1.629123368754636
 10
-0.173643560517859
 20
-1.656676700585799
 10
-0.1759834116462795
 20
-1.682097550752589
 10
-0.1738155228219684
 20
-1.708344761521261
 10
-0.1677103660053227
 20
-1.73206765495865
 10
-0.1575987202424182
 20
-1.755086348440226
 10
-0.1438821518135295
 20
-1.776322772457578
 10
-0.1266166456928774
 20
-1.795629049811224
 10
-0.105504820089655
 20
-1.812875588346393
 10
-0.0813558454577697
 20
-1.826972487909666
 10
-0.0539914003972061
 20
-1.837606359131617
 10
-0.0244872070150616
 20
-1.84390701089962
 10
0.0061185726449097
 20
-1.845400986662971
 10
0.0374137059144485
 20
-1.84175712012805
 10
0.0671175628243077
 20
-1.833131994249787
 10
0.0957253333484078
 20
-1.819198885410673
 10
0.1203013277651083
 20
-1.801385052348584
 10
0.1419776755493766
 20
-1.778771329989636
 10
0.1577445699724264
 20
-1.754815148278001
 10
0.1692317451698796
 20
-1.727423654001466
 10
0.1747996578234413
 20
-1.701763695572541
 10
0.1757512957912935
 20
-1.674641036554752
 10
0.1723446896408934
 20
-1.650239733160896
 10
0.1647554934992659
 20
-1.626078803751199
 10
0.1535827526292065
 20
-1.603897546785491
 10
0.1387143058527731
 20
-1.583242928870743
 10
0.1200516691142442
 20
-1.564398942507808
 10
0.0981529894304415
 20
-1.548287017588642
 10
0.0726576953317616
 20
-1.535095250353041
 10
0.044658099968931
 20
-1.525858838042087
 10
0.0147106004738815
 20
-1.521073151141624
 10
-0.0164706900634701
 20
-1.521218821511385
 10
-0.0469582668698165
 20
-1.526435477134437
 10
-0.0769691017304316
 20
-1.536975947194301
 10
-0.1002663144367957
 20
-1.549624464030879
 10
-0.1218661424184465
 20
-1.565988104473679
  0
LINE
  5
113
330
EF
100
AcDbEntity
  8
AM_9
100
AcDbLine
 10
1.082797318677393
 20
-1.545372892700574
 30
0.0
 11
1.076987422341317
 21
-1.536976308963633
 31
0.0
  0
LWPOLYLINE
  5
114
330
EF
100
AcDbEntity
  8
AM_9
100
AcDbPolyline
 90
        3
 70
     0
 43
0.0
 10
1.091418091293067
 20
-1.563270700757612
 10
1.084631795879397
 20
-1.548573278082185
 10
1.082797318677393
 20
-1.545372892700574
  0
LINE
  5
115
330
EF
100
AcDbEntity
  8
AM_9
100
AcDbLine
 10
1.155
 20
-2.0
 30
0.0
 11
1.155
 21
-1.366
 31
0.0
  0
LINE
  5
116
330
EF
100
AcDbEntity
  8
AM_9
100
AcDbLine
 10
-1.155
 20
-1.366
 30
0.0
 11
-1.155
 21
-2.0
 31
0.0
  0
LINE
  5
117
330
EF
100
AcDbEntity
  8
AM_9
100
AcDbLine
 10
0.15365
 20
-1.683
 30
0.0
 11
-0.15365
 21
-1.683
 31
0.0
  0
LINE
  5
118
330
EF
100
AcDbEntity
  8
AM_9
100
AcDbLine
 10
1.573756133159429
 20
-1.683
 30
0.0
 11
1.473993545755674
 21
-1.683
 31
0.0
  0
ELLIPSE
  5
119
330
EF
100
AcDbEntity
  8
AM_9
100
AcDbEllipse
 10
1.054806317942603
 20
-1.683
 30
0.0
 11
-2.822504710334851E-17
 21
-0.1536499999999994
 31
0.0
210
0.0
220
0.0
230
1.0
 40
0.4226182617406993
 41
0.0
 42
6.283185307179586
  0
LINE
  5
11A
330
EF
100
AcDbEntity
  8
AM_7
100
AcDbLine
 10
-0.1613324999999999
 20
-1.683
 30
0.0
 11
0.1613324999999999
 21
-1.683
 31
0.0
  0
LWPOLYLINE
  5
11B
330
EF
100
AcDbEntity
  8
AM_4
100
AcDbPolyline
 90
       11
 70
     0
 43
0.0
 10
1.515239356550272
 20
-1.83664999933858
 10
1.507763524485459
 20
-1.8356525561079
 10
1.496667547102831
 20
-1.830566316752001
 10
1.485781387980508
 20
-1.82135769827306
 10
1.475458036057593
 20
-1.808211551078412
 10
1.466073414835014
 20
-1.791562016143881
 10
1.457965860580665
 20
-1.771752309063228
 10
1.451470006097114
 20
-1.749434647229059
 10
1.446877023847643
 20
-1.725203436775501
 10
1.444350174859911
 20
-1.69977282237596
 10
1.443885541326512
 20
-1.683
  0
ELLIPSE
  5
11C
330
EF
100
AcDbEntity
  8
AM_4
100
AcDbEllipse
 10
1.527037990378049
 20
-1.683000000000019
 30
0.0
 11
-2.822504710335214E-17
 21
-0.1536500000000192
 31
0.0
210
0.0
220
0.0
230
1.0
 40
0.4226182617406984
 41
1.570796326794897
 42
3.454507445535256
  0
LWPOLYLINE
  5
11D
330
EF
100
AcDbEntity
  8
AM_4
100
AcDbPolyline
 90
       14
 70
     0
 43
0.0
 10
1.519213707271476
 20
-1.519069240305264
 10
1.524290685623603
 20
-1.513224687719382
 10
1.537457204063934
 20
-1.502030813820807
 10
1.550154160379468
 20
-1.496449539195479
 10
1.562639184269448
 20
-1.495907654116658
 10
1.574133807459225
 20
-1.500273576111536
 10
1.58478731941901
 20
-1.509211959468604
 10
1.594417443009241
 20
-1.522567395536487
 10
1.602820377984683
 20
-1.539799729506366
 10
1.610141559725512
 20
-1.56132216553087
 10
1.615985871747971
 20
-1.585842373331685
 10
1.62049977674168
 20
-1.614119991438691
 10
1.623369631490096
 20
-1.644185709632391
 10
1.624643131723091
 20
-1.683
  0
LINE
  5
11E
330
EF
100
AcDbEntity
  8
AM_4
100
AcDbLine
 10
-1.566208333333333
 20
-2.0
 30
0.0
 11
1.566208333328259
 21
-2.0
 31
0.0
  0
ARC
  5
11F
330
EF
100
AcDbEntity
  8
AM_4
100
AcDbCircle
 10
1.566208333333333
 20
-1.894333333333333
 30
0.0
 40
0.105666666666667
100
AcDbArc
 50
270.0
 51
0.0000008537736463
  0
ARC
  5
120
330
EF
100
AcDbEntity
  8
AM_4
100
AcDbCircle
 10
-1.566208333333333
 20
-1.894333333333333
 30
0.0
 40
0.105666666666667
100
AcDbArc
 50
179.9999991462263
 51
270.0
  0
LWPOLYLINE
  5
121
330
EF
100
AcDbEntity
  8
AM_4
100
AcDbPolyline
 90
       20
 70
     0
 43
0.0
 10
0.15365
 20
-1.683
 10
0.1515412694445523
 20
-1.708368605699438
 10
0.1450312307038234
 20
-1.733737211398877
 10
0.1346708348373996
 20
-1.756973567875274
 10
0.1201655527325503
 20
-1.778752610598775
 10
0.1026765235323728
 20
-1.797305966665376
 10
0.0817333511065433
 20
-1.813107577861147
 10
0.0590450685483378
 20
-1.824852043975835
 10
0.0339867986220785
 20
-1.832843985596427
 10
0.0087460581217331
 20
-1.836400876683711
 10
-0.0174791193635276
 20
-1.8356525561079
 10
-0.0424028756734224
 20
-1.830683169774434
 10
-0.0668241709906001
 20
-1.82135769827306
 10
-0.0887358475497578
 20
-1.80843632591728
 10
-0.1087318313594313
 20
-1.791562016143881
 10
-0.1252034677818453
 20
-1.772064101384342
 10
-0.1385451556264255
 20
-1.749434647229059
 10
-0.1476357031138611
 20
-1.725567847797086
 10
-0.1527317744594899
 20
-1.69977282237596
 10
-0.15365
 20
-1.683
  0
LINE
  5
122
330
EF
100
AcDbEntity
  8
AM_4
100
AcDbLine
 10
-1.671875
 20
-1.894333333333333
 30
0.0
 11
1.671875
 21
-1.894333333333333
 31
0.0
  0
LWPOLYLINE
  5
123
330
EF
100
AcDbEntity
  8
AM_4
100
AcDbPolyline
 90
       11
 70
     0
 43
0.0
 10
1.573756133159429
 20
-1.683
 10
1.573015071878
 20
-1.708732005179207
 10
1.570814229013893
 20
-1.733737211398877
 10
1.567157603925145
 20
-1.757288552679179
 10
1.562098591303606
 20
-1.778752610598775
 10
1.555660497643052
 20
-1.797541329003416
 10
1.547963579992137
 20
-1.813107577861147
 10
1.539102244394075
 20
-1.824980991528923
 10
1.529283655734509
 20
-1.832843985596427
 10
1.518750153668723
 20
-1.836406032941591
 10
1.515239356550272
 20
-1.83664999933858
  0
LINE
  5
124
330
EF
100
AcDbEntity
  8
AM_4
100
AcDbLine
 10
1.671875
 20
-1.894333333333333
 30
0.0
 11
1.671875
 21
-1.683
 31
0.0
  0
LINE
  5
125
330
EF
100
AcDbEntity
  8
AM_4
100
AcDbLine
 10
-1.671875
 20
-1.683
 30
0.0
 11
-1.671875
 21
-1.894333333333333
 31
0.0
  0
LINE
  5
126
330
EF
100
AcDbEntity
  8
AM_4
100
AcDbLine
 10
-0.15365
 20
-1.683
 30
0.0
 11
-1.71875
 21
-1.683
 31
0.0
  0
ARC
  5
127
330
EF
100
AcDbEntity
  8
AM_4
100
AcDbCircle
 10
0.0
 20
-1.683
 30
0.0
 40
0.15365
100
AcDbArc
 50
0.0000008537736463
 51
180.0
  0
LINE
  5
128
330
EF
100
AcDbEntity
  8
AM_4
100
AcDbLine
 10
1.473993545755674
 20
-1.683
 30
0.0
 11
0.15365
 21
-1.683
 31
0.0
  0
LINE
  5
129
330
EF
100
AcDbEntity
  8
AM_4
100
AcDbLine
 10
1.573756133159429
 20
-1.683
 30
0.0
 11
1.71875
 21
-1.683
 31
0.0
  0
LWPOLYLINE
  5
12A
330
EF
100
AcDbEntity
  8
AM_4
100
AcDbPolyline
 90
       20
 70
     0
 43
0.0
 10
-0.1782336444086849
 20
-1.683
 10
-0.1768404770250377
 20
-1.659627529797446
 10
-0.172594104448499
 20
-1.636255059594891
 10
-0.1622643682690862
 20
-1.605497135914977
 10
-0.1463833419380951
 20
-1.576110789565219
 10
-0.1266290430121704
 20
-1.551123123540388
 10
-0.1020456390273909
 20
-1.529327849004654
 10
-0.0759816788828216
 20
-1.513424811512154
 10
-0.0465835641519924
 20
-1.502030813820807
 10
-0.0181428954258231
 20
-1.496476048069603
 10
0.011733938982014
 20
-1.495907654116658
 10
0.0394569760159933
 20
-1.500161980617995
 10
0.0668434714206103
 20
-1.509211959468603
 10
0.0918356627371703
 20
-1.522351993982014
 10
0.1149820182676184
 20
-1.539799729506366
 10
0.1352928976098358
 20
-1.561013923217217
 10
0.1523940596023233
 20
-1.585842373331685
 10
0.1655979895872318
 20
-1.613725531611538
 10
0.1743647230742378
 20
-1.64418570963239
 10
0.1782336444086846
 20
-1.683
  0
LWPOLYLINE
  5
12B
330
EF
100
AcDbEntity
  8
AM_4
100
AcDbPolyline
 90
        8
 70
     0
 43
0.0
 10
1.473993545755674
 20
-1.683
 10
1.474727029096502
 20
-1.659456540255968
 10
1.476901296848806
 20
-1.636255059594891
 10
1.48229234462532
 20
-1.605055468457822
 10
1.490192371020866
 20
-1.576110789565219
 10
1.500144557017985
 20
-1.550768936387202
 10
1.511842231730635
 20
-1.529327849004654
 10
1.519213707271476
 20
-1.519069240305264
  0
LINE
  5
12C
330
EF
100
AcDbEntity
  8
AM_4
100
AcDbLine
 10
-1.71875
 20
-1.366
 30
0.0
 11
1.71875
 21
-1.366
 31
0.0
  0
LINE
  5
12D
330
EF
100
AcDbEntity
  8
AM_4
100
AcDbLine
 10
1.71875
 20
-1.683
 30
0.0
 11
1.71875
 21
-1.366
 31
0.0
  0
LINE
  5
12E
330
EF
100
AcDbEntity
  8
AM_4
100
AcDbLine
 10
-1.71875
 20
-1.366
 30
0.0
 11
-1.71875
 21
-1.683
 31
0.0
  0
CIRCLE
  5
12F
330
EF
100
AcDbEntity
  8
AM_5
100
AcDbCircle
 10
0.0
 20
-1.683
 30
0.0
 40
0.1874999999999999
  0
ENDBLK
  5
F2
330
EF
100
AcDbEntity
  8
0
100
AcDbBlockEnd
  0
BLOCK
  5
132
330
130
100
AcDbEntity
  8
0
100
AcDbBlockBegin
  2
4_070005i_0_in_070811_4
 70
     2
 10
0.0
 20
0.0
 30
0.0
  3
4_070005i_0_in_070811_4
  1

  0
ATTDEF
  5
134
330
130
100
AcDbEntity
  8
AM_6
100
AcDbText
 10
6.77165
 20
0.8437499999999999
 30
0.0
 40
0.5
  1
S-2000 Insert -Inch
100
AcDbAttributeDefinition
  3

  2
NN
 70
     8
280
     0
  0
ATTDEF
  5
135
330
130
100
AcDbEntity
  8
AM_6
100
AcDbText
 10
6.77165
 20
0.3437499999999999
 30
0.0
 40
0.5
  1
S-2000 Bearings
100
AcDbAttributeDefinition
  3

  2
NT
 70
     8
280
     0
  0
ATTDEF
  5
136
330
130
100
AcDbEntity
  8
AM_6
100
AcDbText
 10
6.77165
 20
-0.1562500000000001
 30
0.0
 40
0.5
  1
070005i
100
AcDbAttributeDefinition
  3

  2
NB
 70
     8
280
     0
  0
ATTDEF
  5
137
330
130
100
AcDbEntity
  8
AM_6
100
AcDbText
 10
6.77165
 20
-0.6562500000000001
 30
0.0
 40
0.5
  1
$PN.i
100
AcDbAttributeDefinition
  3

  2
NBSYN
 70
     8
280
     0
  0
ATTDEF
  5
138
330
130
100
AcDbEntity
  8
AM_6
100
AcDbText
 10
6.77165
 20
-1.15625
 30
0.0
 40
0.5
  1
070005i
100
AcDbAttributeDefinition
  3

  2
LINA
 70
     8
280
     0
  0
ATTDEF
  5
139
330
130
100
AcDbEntity
  8
AM_6
100
AcDbText
 10
6.77165
 20
-1.65625
 30
0.0
 40
0.5
  1
1-15/16
100
AcDbAttributeDefinition
  3

  2
SS
 70
     8
280
     0
  0
ATTDEF
  5
13A
330
130
100
AcDbEntity
  8
AM_6
100
AcDbText
 10
6.77165
 20
-2.15625
 30
0.0
 40
0.5
  1
2.31
100
AcDbAttributeDefinition
  3

  2
CC
 70
     8
280
     0
  0
ATTDEF
  5
13B
330
130
100
AcDbEntity
  8
AM_6
100
AcDbText
 10
6.77165
 20
-2.65625
 30
0.0
 40
0.5
  1
1.937500
100
AcDbAttributeDefinition
  3

  2
SS1
 70
     8
280
     0
  0
ATTDEF
  5
13C
330
130
100
AcDbEntity
  8
AM_6
100
AcDbText
 10
6.77165
 20
-3.15625
 30
0.0
 40
0.5
  1
070005
100
AcDbAttributeDefinition
  3

  2
PN
 70
     8
280
     0
  0
ATTDEF
  5
13D
330
130
100
AcDbEntity
  8
AM_6
100
AcDbText
 10
6.77165
 20
-3.65625
 30
0.0
 40
0.5
  1
INS-S2-115R
100
AcDbAttributeDefinition
  3

  2
DESCRIPTION
 70
     8
280
     0
  0
ATTDEF
  5
13E
330
130
100
AcDbEntity
  8
AM_6
100
AcDbText
 10
6.77165
 20
-4.15625
 30
0.0
 40
0.5
  1
Contact Seal
100
AcDbAttributeDefinition
  3

  2
ST
 70
     8
280
     0
  0
ATTDEF
  5
13F
330
130
100
AcDbEntity
  8
AM_6
100
AcDbText
 10
6.77165
 20
-4.65625
 30
0.0
 40
0.5
  1
1
100
AcDbAttributeDefinition
  3

  2
ST1
 70
     8
280
     0
  0
ATTDEF
  5
140
330
130
100
AcDbEntity
  8
AM_6
100
AcDbText
 10
6.77165
 20
-5.15625
 30
0.0
 40
0.5
  1
3.5433
100
AcDbAttributeDefinition
  3

  2
A
 70
     8
280
     0
  0
ATTDEF
  5
141
330
130
100
AcDbEntity
  8
AM_6
100
AcDbText
 10
6.77165
 20
-5.65625
 30
0.0
 40
0.5
  1
61/64
100
AcDbAttributeDefinition
  3

  2
B
 70
     8
280
     0
  0
ATTDEF
  5
142
330
130
100
AcDbEntity
  8
AM_6
100
AcDbText
 10
6.77165
 20
-6.15625
 30
0.0
 40
0.5
  1
2-27/32
100
AcDbAttributeDefinition
  3

  2
C
 70
     8
280
     0
  0
ATTDEF
  5
143
330
130
100
AcDbEntity
  8
AM_6
100
AcDbText
 10
6.77165
 20
-6.65625
 30
0.0
 40
0.5
  1
0.977
100
AcDbAttributeDefinition
  3

  2
D
 70
     8
280
     0
  0
ATTDEF
  5
144
330
130
100
AcDbEntity
  8
AM_6
100
AcDbText
 10
6.77165
 20
-7.15625
 30
0.0
 40
0.5
  1
3-11/32
100
AcDbAttributeDefinition
  3

  2
E
 70
     8
280
     0
  0
ATTDEF
  5
145
330
130
100
AcDbEntity
  8
AM_6
100
AcDbText
 10
6.77165
 20
-7.65625
 30
0.0
 40
0.5
  1
0.53125
100
AcDbAttributeDefinition
  3

  2
F
 70
     8
280
     0
  0
ATTDEF
  5
146
330
130
100
AcDbEntity
  8
AM_6
100
AcDbText
 10
6.77165
 20
-8.15625
 30
0.0
 40
0.5
  1
1
100
AcDbAttributeDefinition
  3

  2
DD
 70
     8
280
     0
  0
ATTDEF
  5
147
330
130
100
AcDbEntity
  8
AM_6
100
AcDbText
 10
6.77165
 20
-8.65625
 30
0.0
 40
0.5
  1
baldor
100
AcDbAttributeDefinition
  3

  2
COMPANY
 70
     8
280
     0
  0
LINE
  5
148
330
130
100
AcDbEntity
  8
AM_9
100
AcDbLine
 10
1.046785494027331
 20
-1.478
 30
0.0
 11
0.8778514735323312
 21
-1.478
 31
0.0
  0
LINE
  5
149
330
130
100
AcDbEntity
  8
AM_9
100
AcDbLine
 10
0.8779175601227214
 20
-1.888
 30
0.0
 11
1.046785494027331
 21
-1.888
 31
0.0
  0
LWPOLYLINE
  5
14A
330
130
100
AcDbEntity
  8
AM_9
100
AcDbPolyline
 90
       21
 70
     0
 43
0.0
 10
0.8779917248000181
 20
-1.478000000500865
 10
0.8686600272509438
 20
-1.479136064059495
 10
0.8534299311188637
 20
-1.48547134857059
 10
0.8379451662994553
 20
-1.497121992397568
 10
0.8226810723867076
 20
-1.513946965601481
 10
0.8083735677259102
 20
-1.535347258118033
 10
0.7954399579495606
 20
-1.561341342376678
 10
0.7847821503469808
 20
-1.590798434943482
 10
0.7769891968686357
 20
-1.623046348718526
 10
0.7724840240243986
 20
-1.657060385800203
 10
0.7715842496352304
 20
-1.691190842116225
 10
0.7741583931103473
 20
-1.725086076776439
 10
0.780034860592613
 20
-1.757410510139437
 10
0.7888423747892611
 20
-1.787684066716186
 10
0.8003440937032912
 20
-1.815448712124414
 10
0.8138239919235123
 20
-1.839558288531906
 10
0.828942236635851
 20
-1.859623180344152
 10
0.8447884082803124
 20
-1.874678285948385
 10
0.8605962753457657
 20
-1.884153715279822
 10
0.8758747940761308
 20
-1.887939807045839
 10
0.8779767602753128
 20
-1.887999998916321
  0
LINE
  5
14B
330
130
100
AcDbEntity
  8
AM_9
100
AcDbLine
 10
0.944418277045671
 20
-1.707027705242114
 30
0.0
 11
0.94473916165808
 21
-1.683
 31
0.0
  0
LWPOLYLINE
  5
14C
330
130
100
AcDbEntity
  8
AM_9
100
AcDbPolyline
 90
       11
 70
     0
 43
0.0
 10
0.8779767602753128
 20
-1.887999998916321
 10
0.8898217297964296
 20
-1.885924362693867
 10
0.9024068296472313
 20
-1.878383226411992
 10
0.9133292775253236
 20
-1.865517528997691
 10
0.9225499414332596
 20
-1.847757328877598
 10
0.9301512452456988
 20
-1.825092169532938
 10
0.9360460839572847
 20
-1.798469681517259
 10
0.940368684971874
 20
-1.768172214352253
 10
0.9431752866390828
 20
-1.735382986684229
 10
0.9443502577865401
 20
-1.709419867213706
 10
0.944418277045671
 20
-1.707027705242114
  0
LWPOLYLINE
  5
14D
330
130
100
AcDbEntity
  8
AM_9
100
AcDbPolyline
 90
       12
 70
     0
 43
0.0
 10
0.943528677941797
 20
-1.683
 10
0.9436760816826892
 20
-1.673404582061244
 10
0.9462636383494186
 20
-1.639437555419073
 10
0.9520253790500312
 20
-1.606960575943977
 10
0.9606178153233742
 20
-1.576592745364521
 10
0.9717845859103307
 20
-1.548918559939227
 10
0.9848882345298692
 20
-1.524969404785717
 10
0.9995452976131667
 20
-1.505245335435469
 10
1.014971602783868
 20
-1.490555624917102
 10
1.030474736511694
 20
-1.481441907098632
 10
1.045575929214714
 20
-1.478019874684364
 10
1.046778995239891
 20
-1.478000000576729
  0
LWPOLYLINE
  5
14E
330
130
100
AcDbEntity
  8
AM_9
100
AcDbPolyline
 90
       11
 70
     0
 43
0.0
 10
1.046792319612884
 20
-1.887999999363772
 10
1.037212380740092
 20
-1.886794998115517
 10
1.022073626267102
 20
-1.880298212665202
 10
1.006831899331695
 20
-1.868420443226721
 10
0.9919710612922389
 20
-1.85133651427101
 10
0.9781609653212456
 20
-1.829639899355452
 10
0.9658545939737122
 20
-1.803481352391879
 10
0.9558004459324831
 20
-1.773900303144283
 10
0.9485317704945353
 20
-1.74162500327932
 10
0.9443991701300949
 20
-1.707645425831918
 10
0.943528677941797
 20
-1.683
  0
LWPOLYLINE
  5
14F
330
130
100
AcDbEntity
  8
AM_9
100
AcDbPolyline
 90
        4
 70
     0
 43
0.0
 10
1.114575785460463
 20
-1.62465978240622
 10
1.115210699933459
 20
-1.633435264890733
 10
1.116404845571592
 20
-1.658026989680055
 10
1.116802165255484
 20
-1.683
  0
LWPOLYLINE
  5
150
330
130
100
AcDbEntity
  8
AM_9
100
AcDbPolyline
 90
        9
 70
     0
 43
0.0
 10
1.046778995239891
 20
-1.478000000576729
 10
1.05957968897145
 20
-1.480407761293978
 10
1.072357626657006
 20
-1.488363953789169
 10
1.083608099732247
 20
-1.501702571434621
 10
1.093234560244893
 20
-1.519976360126783
 10
1.101246283655223
 20
-1.543066196985514
 10
1.107543787395097
 20
-1.570073889191244
 10
1.112189287714433
 20
-1.600560959345697
 10
1.114575785460463
 20
-1.62465978240622
  0
LWPOLYLINE
  5
151
330
130
100
AcDbEntity
  8
AM_9
100
AcDbPolyline
 90
       11
 70
     0
 43
0.0
 10
0.9445409473906804
 20
-1.664091809955871
 10
0.9440918520117886
 20
-1.649020758055889
 10
0.9421279883788914
 20
-1.616010007254815
 10
0.9387699821893257
 20
-1.584939613290677
 10
0.933920640395688
 20
-1.556586626444858
 10
0.927344397168786
 20
-1.531411888553895
 10
0.9190215336726001
 20
-1.510465047962213
 10
0.9087707654745032
 20
-1.494254046756649
 10
0.8967527428801372
 20
-1.48342199397038
 10
0.8833222917013552
 20
-1.478423780560767
 10
0.8779917248000181
 20
-1.478000000500865
  0
LINE
  5
152
330
130
100
AcDbEntity
  8
AM_9
100
AcDbLine
 10
0.94473916165808
 20
-1.683
 30
0.0
 11
0.9445409473906804
 21
-1.664091809955871
 31
0.0
  0
LINE
  5
153
330
130
100
AcDbEntity
  8
AM_9
100
AcDbLine
 10
-0.96875
 20
0.8437499999999999
 30
0.0
 11
-0.96875
 21
-2.0
 31
0.0
  0
LINE
  5
154
330
130
100
AcDbEntity
  8
AM_9
100
AcDbLine
 10
0.96875
 20
-2.0
 30
0.0
 11
0.96875
 21
0.8437499999999999
 31
0.0
  0
LWPOLYLINE
  5
155
330
130
100
AcDbEntity
  8
AM_9
100
AcDbPolyline
 90
       10
 70
     0
 43
0.0
 10
1.114597000012967
 20
-1.741070981015752
 10
1.113809380737061
 20
-1.750248002252064
 10
1.110009442682595
 20
-1.781447523479572
 10
1.104606423986586
 20
-1.809905193923415
 10
1.097442290854296
 20
-1.835041955311809
 10
1.088549139716656
 20
-1.855924449120014
 10
1.077839767615082
 20
-1.871999307750009
 10
1.065507167045844
 20
-1.882705549264893
 10
1.051886068210213
 20
-1.887613652474625
 10
1.046792319612884
 20
-1.887999999363772
  0
LWPOLYLINE
  5
156
330
130
100
AcDbEntity
  8
AM_9
100
AcDbPolyline
 90
        3
 70
     0
 43
0.0
 10
1.116802165255484
 20
-1.683
 10
1.116055710871377
 20
-1.71710843538501
 10
1.114597000012967
 20
-1.741070981015752
  0
LWPOLYLINE
  5
157
330
130
100
AcDbEntity
  8
AM_9
100
AcDbPolyline
 90
       21
 70
     0
 43
0.0
 10
-0.205
 20
-1.683
 10
-0.2047980003563593
 20
-1.673901700706359
 10
-0.2003180306965243
 20
-1.639437555419073
 10
-0.190549195096018
 20
-1.60739573921888
 10
-0.1752212777060494
 20
-1.576592745364521
 10
-0.1553738176201073
 20
-1.549269013320945
 10
-0.130580745043898
 20
-1.524969404785717
 10
-0.1025237405266751
 20
-1.505478500940255
 10
-0.0706410822323171
 20
-1.490555624917102
 10
-0.0377943961290886
 20
-1.481514060983806
 10
-0.0028545096927904
 20
-1.478019874684364
 10
0.0307098913801232
 20
-1.480313289603336
 10
0.0643568917476232
 20
-1.488363953789169
 10
0.095236302073934
 20
-1.501464750620486
 10
0.1242911615622268
 20
-1.519976360126783
 10
0.1494672277504474
 20
-1.542698368403657
 10
0.1710926459483536
 20
-1.570073889191244
 10
0.1874844207229777
 20
-1.600086840693594
 10
0.1989179153157106
 20
-1.633435264890733
 10
0.2034495371294953
 20
-1.657834828794659
 10
0.2049999999999999
 20
-1.683
  0
LWPOLYLINE
  5
158
330
130
100
AcDbEntity
  8
AM_9
100
AcDbPolyline
 90
       20
 70
     0
 43
0.0
 10
0.2049999999999999
 20
-1.683
 10
0.2022237042195514
 20
-1.716624001126033
 10
0.1936561545448694
 20
-1.750248002252064
 10
0.1800385435420809
 20
-1.78103633428095
 10
0.1609971172265528
 20
-1.809905193923415
 10
0.1378522813137548
 20
-1.834729194740476
 10
0.1101005671944506
 20
-1.855924449120014
 10
0.0798223260686158
 20
-1.871821069430812
 10
0.0462892384124774
 20
-1.882705549264893
 10
0.0127289676164413
 20
-1.887604431485292
 10
-0.0221945656208091
 20
-1.886794998115517
 10
-0.0551308921996137
 20
-1.880447675917633
 10
-0.0874314544863926
 20
-1.868420443226721
 10
-0.1165818286953598
 20
-1.851622884621411
 10
-0.1432541095990719
 20
-1.829639899355452
 10
-0.1655592266691508
 20
-1.803893103462161
 10
-0.1837447547231688
 20
-1.773900303144283
 10
-0.1962895823481186
 20
-1.742121906782522
 10
-0.2035131518736895
 20
-1.707645425831918
 10
-0.205
 20
-1.683
  0
LINE
  5
159
330
130
100
AcDbEntity
  8
AM_9
100
AcDbLine
 10
-1.155
 20
-1.366
 30
0.0
 11
-1.155
 21
-2.0
 31
0.0
  0
LINE
  5
15A
330
130
100
AcDbEntity
  8
AM_9
100
AcDbLine
 10
-1.155
 20
-0.8347500000000002
 30
0.0
 11
-1.155
 21
-1.1875
 31
0.0
  0
LINE
  5
15B
330
130
100
AcDbEntity
  8
AM_9
100
AcDbLine
 10
1.155
 20
-1.1875
 30
0.0
 11
1.155
 21
-0.8347500000000002
 31
0.0
  0
LINE
  5
15C
330
130
100
AcDbEntity
  8
AM_9
100
AcDbLine
 10
1.155
 20
-2.0
 30
0.0
 11
1.155
 21
-1.366
 31
0.0
  0
LINE
  5
15D
330
130
100
AcDbEntity
  8
AM_9
100
AcDbLine
 10
-1.155
 20
0.8437499999999999
 30
0.0
 11
-1.155
 21
0.5682500000000006
 31
0.0
  0
LINE
  5
15E
330
130
100
AcDbEntity
  8
AM_9
100
AcDbLine
 10
1.155
 20
0.5682500000000006
 30
0.0
 11
1.155
 21
0.8437499999999999
 31
0.0
  0
LINE
  5
15F
330
130
100
AcDbEntity
  8
AM_9
100
AcDbLine
 10
1.155
 20
0.8437499999999999
 30
0.0
 11
-1.155
 21
0.8437499999999999
 31
0.0
  0
LINE
  5
160
330
130
100
AcDbEntity
  8
AM_9
100
AcDbLine
 10
1.3220075
 20
0.5682500000000006
 30
0.0
 11
-1.3220075
 21
0.5682500000000006
 31
0.0
  0
ARC
  5
161
330
130
100
AcDbEntity
  8
AM_9
100
AcDbCircle
 10
-1.3220075
 20
0.4729375000000009
 30
0.0
 40
0.0953124999999997
100
AcDbArc
 50
90.0
 51
180.0
  0
ARC
  5
162
330
130
100
AcDbEntity
  8
AM_9
100
AcDbCircle
 10
1.3220075
 20
0.4729375000000009
 30
0.0
 40
0.0953124999999995
100
AcDbArc
 50
0.0000008537736463
 51
90.0
  0
LINE
  5
163
330
130
100
AcDbEntity
  8
AM_9
100
AcDbLine
 10
1.3220075
 20
-0.8347500000000002
 30
0.0
 11
-1.3220075
 21
-0.8347500000000002
 31
0.0
  0
ARC
  5
164
330
130
100
AcDbEntity
  8
AM_9
100
AcDbCircle
 10
-1.3220075
 20
-0.7394375000000005
 30
0.0
 40
0.0953124999999997
100
AcDbArc
 50
180.0
 51
270.0
  0
ARC
  5
165
330
130
100
AcDbEntity
  8
AM_9
100
AcDbCircle
 10
1.3220075
 20
-0.7394375000000004
 30
0.0
 40
0.0953124999999998
100
AcDbArc
 50
270.0
 51
0.0
  0
LINE
  5
166
330
130
100
AcDbEntity
  8
AM_9
100
AcDbLine
 10
-1.41732
 20
0.4729375000000001
 30
0.0
 11
-1.41732
 21
0.3433125
 31
0.0
  0
LINE
  5
167
330
130
100
AcDbEntity
  8
AM_9
100
AcDbLine
 10
1.41732
 20
0.3433125
 30
0.0
 11
1.41732
 21
0.4729375000000001
 31
0.0
  0
LINE
  5
168
330
130
100
AcDbEntity
  8
AM_9
100
AcDbLine
 10
1.41732
 20
0.4729375000000001
 30
0.0
 11
-1.41732
 21
0.4729375000000001
 31
0.0
  0
LINE
  5
169
330
130
100
AcDbEntity
  8
AM_9
100
AcDbLine
 10
-1.41732
 20
-0.6098124999999998
 30
0.0
 11
-1.41732
 21
-0.7394375000000004
 31
0.0
  0
LINE
  5
16A
330
130
100
AcDbEntity
  8
AM_9
100
AcDbLine
 10
1.41732
 20
-0.7394375000000004
 30
0.0
 11
1.41732
 21
-0.6098124999999998
 31
0.0
  0
LINE
  5
16B
330
130
100
AcDbEntity
  8
AM_9
100
AcDbLine
 10
1.41732
 20
-0.7394375000000004
 30
0.0
 11
-1.41732
 21
-0.7394375000000004
 31
0.0
  0
LINE
  5
16C
330
130
100
AcDbEntity
  8
AM_9
100
AcDbLine
 10
-1.700784
 20
-0.0855937499999991
 30
0.0
 11
-1.700784
 21
-0.1809062500000004
 31
0.0
  0
LINE
  5
16D
330
130
100
AcDbEntity
  8
AM_9
100
AcDbLine
 10
1.700784
 20
-0.1809062500000004
 30
0.0
 11
1.700784
 21
-0.0855937499999991
 31
0.0
  0
LINE
  5
16E
330
130
100
AcDbEntity
  8
AM_9
100
AcDbLine
 10
1.6763375
 20
-0.6098124999999998
 30
0.0
 11
-1.6763375
 21
-0.6098124999999998
 31
0.0
  0
ARC
  5
16F
330
130
100
AcDbEntity
  8
AM_9
100
AcDbCircle
 10
-1.676337500000053
 20
-0.5145000000000528
 30
0.0
 40
0.0953124999999471
100
AcDbArc
 50
180.0
 51
270.0
  0
ARC
  5
170
330
130
100
AcDbEntity
  8
AM_9
100
AcDbCircle
 10
1.6763375
 20
-0.5144999999999997
 30
0.0
 40
0.0953125
100
AcDbArc
 50
270.0
 51
0.0
  0
LINE
  5
171
330
130
100
AcDbEntity
  8
AM_9
100
AcDbLine
 10
-1.77165
 20
-0.2218207541763925
 30
0.0
 11
-1.77165
 21
-0.5145000000000001
 31
0.0
  0
LINE
  5
172
330
130
100
AcDbEntity
  8
AM_9
100
AcDbLine
 10
1.77165
 20
-0.5145000000000001
 30
0.0
 11
1.77165
 21
-0.2218207541763925
 31
0.0
  0
LINE
  5
173
330
130
100
AcDbEntity
  8
AM_9
100
AcDbLine
 10
1.77165
 20
-0.5145000000000001
 30
0.0
 11
-1.77165
 21
-0.5145000000000001
 31
0.0
  0
LINE
  5
174
330
130
100
AcDbEntity
  8
AM_9
100
AcDbLine
 10
1.676337499999999
 20
0.3433125
 30
0.0
 11
-1.676337499999999
 21
0.3433125
 31
0.0
  0
ARC
  5
175
330
130
100
AcDbEntity
  8
AM_9
100
AcDbCircle
 10
-1.676337499999999
 20
0.2479999999999994
 30
0.0
 40
0.0953125000000006
100
AcDbArc
 50
90.0
 51
180.0
  0
ARC
  5
176
330
130
100
AcDbEntity
  8
AM_9
100
AcDbCircle
 10
1.676337499999999
 20
0.2479999999999994
 30
0.0
 40
0.0953125000000006
100
AcDbArc
 50
0.0
 51
90.0
  0
LINE
  5
177
330
130
100
AcDbEntity
  8
AM_9
100
AcDbLine
 10
-1.77165
 20
0.2480000000000001
 30
0.0
 11
-1.77165
 21
-0.0446792458236072
 31
0.0
  0
LINE
  5
178
330
130
100
AcDbEntity
  8
AM_9
100
AcDbLine
 10
1.77165
 20
-0.0446792458236072
 30
0.0
 11
1.77165
 21
0.2480000000000001
 31
0.0
  0
LINE
  5
179
330
130
100
AcDbEntity
  8
AM_9
100
AcDbLine
 10
1.77165
 20
0.2480000000000001
 30
0.0
 11
-1.77165
 21
0.2480000000000001
 31
0.0
  0
LINE
  5
17A
330
130
100
AcDbEntity
  8
AM_9
100
AcDbLine
 10
1.700784
 20
-0.0855937499999991
 30
0.0
 11
1.77165
 21
-0.0446792458236072
 31
0.0
  0
LINE
  5
17B
330
130
100
AcDbEntity
  8
AM_9
100
AcDbLine
 10
-1.77165
 20
-0.0446792458236072
 30
0.0
 11
-1.700784
 21
-0.0855937499999991
 31
0.0
  0
LINE
  5
17C
330
130
100
AcDbEntity
  8
AM_9
100
AcDbLine
 10
1.77165
 20
-0.0446792458236072
 30
0.0
 11
-1.77165
 21
-0.0446792458236072
 31
0.0
  0
LINE
  5
17D
330
130
100
AcDbEntity
  8
AM_9
100
AcDbLine
 10
1.700784
 20
-0.0855937499999991
 30
0.0
 11
-1.700784
 21
-0.0855937499999991
 31
0.0
  0
LINE
  5
17E
330
130
100
AcDbEntity
  8
AM_9
100
AcDbLine
 10
-1.700784
 20
-0.1809062500000004
 30
0.0
 11
-1.77165
 21
-0.2218207541763925
 31
0.0
  0
LINE
  5
17F
330
130
100
AcDbEntity
  8
AM_9
100
AcDbLine
 10
1.77165
 20
-0.2218207541763925
 30
0.0
 11
1.700784
 21
-0.1809062500000004
 31
0.0
  0
LINE
  5
180
330
130
100
AcDbEntity
  8
AM_9
100
AcDbLine
 10
1.700784
 20
-0.1809062500000004
 30
0.0
 11
-1.700784
 21
-0.1809062500000004
 31
0.0
  0
LINE
  5
181
330
130
100
AcDbEntity
  8
AM_9
100
AcDbLine
 10
1.77165
 20
-0.2218207541763925
 30
0.0
 11
-1.77165
 21
-0.2218207541763925
 31
0.0
  0
LINE
  5
182
330
130
100
AcDbEntity
  8
AM_4
100
AcDbLine
 10
-1.155
 20
-1.1875
 30
0.0
 11
-1.155
 21
-1.366
 31
0.0
  0
LINE
  5
183
330
130
100
AcDbEntity
  8
AM_4
100
AcDbLine
 10
1.155
 20
-1.366
 30
0.0
 11
1.155
 21
-1.1875
 31
0.0
  0
ENDBLK
  5
133
330
130
100
AcDbEntity
  8
0
100
AcDbBlockEnd
  0
BLOCK
  5
186
330
184
100
AcDbEntity
  8
0
100
AcDbBlockBegin
  2
5_070811H_0_in_070811_4
 70
     2
 10
0.0
 20
0.0
 30
0.0
  3
5_070811H_0_in_070811_4
  1

  0
ATTDEF
  5
188
330
184
100
AcDbEntity
  8
AM_6
100
AcDbText
 10
8.25
 20
1.741666666666667
 30
0.0
 40
0.5
  1
TPHU-S2 -(Contact Seal)-Housing
100
AcDbAttributeDefinition
  3

  2
NN
 70
     8
280
     0
  0
ATTDEF
  5
189
330
184
100
AcDbEntity
  8
AM_6
100
AcDbText
 10
8.25
 20
1.241666666666667
 30
0.0
 40
0.5
  1
S-2000 TPHU Take-Up Bearing -Inch
100
AcDbAttributeDefinition
  3

  2
NT
 70
     8
280
     0
  0
ATTDEF
  5
18A
330
184
100
AcDbEntity
  8
AM_6
100
AcDbText
 10
8.25
 20
0.7416666666666667
 30
0.0
 40
0.5
  1
070811H
100
AcDbAttributeDefinition
  3

  2
NB
 70
     8
280
     0
  0
ATTDEF
  5
18B
330
184
100
AcDbEntity
  8
AM_6
100
AcDbText
 10
8.25
 20
0.2416666666666667
 30
0.0
 40
0.5
  1
$PN.H
100
AcDbAttributeDefinition
  3

  2
NBSYN
 70
     8
280
     0
  0
ATTDEF
  5
18C
330
184
100
AcDbEntity
  8
AM_6
100
AcDbText
 10
8.25
 20
-0.2583333333333333
 30
0.0
 40
0.5
  1
070811
100
AcDbAttributeDefinition
  3

  2
LINA
 70
     8
280
     0
  0
ATTDEF
  5
18D
330
184
100
AcDbEntity
  8
AM_6
100
AcDbText
 10
8.25
 20
-0.7583333333333333
 30
0.0
 40
0.5
  1
1-15/16
100
AcDbAttributeDefinition
  3

  2
SS
 70
     8
280
     0
  0
ATTDEF
  5
18E
330
184
100
AcDbEntity
  8
AM_6
100
AcDbText
 10
8.25
 20
-1.258333333333333
 30
0.0
 40
0.5
  1
3.5433
100
AcDbAttributeDefinition
  3

  2
BORE
 70
     8
280
     0
  0
ATTDEF
  5
18F
330
184
100
AcDbEntity
  8
AM_6
100
AcDbText
 10
8.25
 20
-1.758333333333333
 30
0.0
 40
0.5
  1
1.937500
100
AcDbAttributeDefinition
  3

  2
SS1
 70
     8
280
     0
  0
ATTDEF
  5
190
330
184
100
AcDbEntity
  8
AM_6
100
AcDbText
 10
8.25
 20
-2.258333333333333
 30
0.0
 40
0.5
  1
070811
100
AcDbAttributeDefinition
  3

  2
PN
 70
     8
280
     0
  0
ATTDEF
  5
191
330
184
100
AcDbEntity
  8
AM_6
100
AcDbText
 10
8.25
 20
-2.758333333333333
 30
0.0
 40
0.5
  1
TPHU-S2-115R
100
AcDbAttributeDefinition
  3

  2
DESCRIPTION
 70
     8
280
     0
  0
ATTDEF
  5
192
330
184
100
AcDbEntity
  8
AM_6
100
AcDbText
 10
8.25
 20
-3.258333333333333
 30
0.0
 40
0.5
  1
Non-Expansion Type
100
AcDbAttributeDefinition
  3

  2
EF
 70
     8
280
     0
  0
ATTDEF
  5
193
330
184
100
AcDbEntity
  8
AM_6
100
AcDbText
 10
8.25
 20
-3.758333333333333
 30
0.0
 40
0.5
  1
1
100
AcDbAttributeDefinition
  3

  2
EF1
 70
     8
280
     0
  0
ATTDEF
  5
194
330
184
100
AcDbEntity
  8
AM_6
100
AcDbText
 10
8.25
 20
-4.258333333333333
 30
0.0
 40
0.5
  1
Contact Seal
100
AcDbAttributeDefinition
  3

  2
ST
 70
     8
280
     0
  0
ATTDEF
  5
195
330
184
100
AcDbEntity
  8
AM_6
100
AcDbText
 10
8.25
 20
-4.758333333333333
 30
0.0
 40
0.5
  1
1
100
AcDbAttributeDefinition
  3

  2
ST1
 70
     8
280
     0
  0
ATTDEF
  5
196
330
184
100
AcDbEntity
  8
AM_6
100
AcDbText
 10
8.25
 20
-5.258333333333333
 30
0.0
 40
0.5
  1
2-27/32
100
AcDbAttributeDefinition
  3

  2
A
 70
     8
280
     0
  0
ATTDEF
  5
197
330
184
100
AcDbEntity
  8
AM_6
100
AcDbText
 10
8.25
 20
-5.758333333333333
 30
0.0
 40
0.5
  1
2.8437500
100
AcDbAttributeDefinition
  3

  2
A1
 70
     8
280
     0
  0
ATTDEF
  5
198
330
184
100
AcDbEntity
  8
AM_6
100
AcDbText
 10
8.25
 20
-6.258333333333333
 30
0.0
 40
0.5
  1
2-3/8
100
AcDbAttributeDefinition
  3

  2
B
 70
     8
280
     0
  0
ATTDEF
  5
199
330
184
100
AcDbEntity
  8
AM_6
100
AcDbText
 10
8.25
 20
-6.758333333333333
 30
0.0
 40
0.5
  1
2.375000
100
AcDbAttributeDefinition
  3

  2
B1
 70
     8
280
     0
  0
ATTDEF
  5
19A
330
184
100
AcDbEntity
  8
AM_6
100
AcDbText
 10
8.25
 20
-7.258333333333333
 30
0.0
 40
0.5
  1
13/16
100
AcDbAttributeDefinition
  3

  2
C
 70
     8
280
     0
  0
ATTDEF
  5
19B
330
184
100
AcDbEntity
  8
AM_6
100
AcDbText
 10
8.25
 20
-7.758333333333333
 30
0.0
 40
0.5
  1
0.812500
100
AcDbAttributeDefinition
  3

  2
C1
 70
     8
280
     0
  0
ATTDEF
  5
19C
330
184
100
AcDbEntity
  8
AM_6
100
AcDbText
 10
8.25
 20
-8.258333333333333
 30
0.0
 40
0.5
  1
5-1/4
100
AcDbAttributeDefinition
  3

  2
D
 70
     8
280
     0
  0
ATTDEF
  5
19D
330
184
100
AcDbEntity
  8
AM_6
100
AcDbText
 10
8.25
 20
-8.758333333333333
 30
0.0
 40
0.5
  1
5.250000
100
AcDbAttributeDefinition
  3

  2
D1
 70
     8
280
     0
  0
ATTDEF
  5
19E
330
184
100
AcDbEntity
  8
AM_6
100
AcDbText
 10
8.25
 20
-9.258333333333333
 30
0.0
 40
0.5
  1
2-3/8
100
AcDbAttributeDefinition
  3

  2
E
 70
     8
280
     0
  0
ATTDEF
  5
19F
330
184
100
AcDbEntity
  8
AM_6
100
AcDbText
 10
8.25
 20
-9.758333333333333
 30
0.0
 40
0.5
  1
2.375000
100
AcDbAttributeDefinition
  3

  2
E1
 70
     8
280
     0
  0
ATTDEF
  5
1A0
330
184
100
AcDbEntity
  8
AM_6
100
AcDbText
 10
8.25
 20
-10.25833333333333
 30
0.0
 40
0.5
  1
1-1/16
100
AcDbAttributeDefinition
  3

  2
F
 70
     8
280
     0
  0
ATTDEF
  5
1A1
330
184
100
AcDbEntity
  8
AM_6
100
AcDbText
 10
8.25
 20
-10.75833333333333
 30
0.0
 40
0.5
  1
1.062500
100
AcDbAttributeDefinition
  3

  2
F1
 70
     8
280
     0
  0
ATTDEF
  5
1A2
330
184
100
AcDbEntity
  8
AM_6
100
AcDbText
 10
8.25
 20
-11.25833333333333
 30
0.0
 40
0.5
  1
7/16
100
AcDbAttributeDefinition
  3

  2
G
 70
     8
280
     0
  0
ATTDEF
  5
1A3
330
184
100
AcDbEntity
  8
AM_6
100
AcDbText
 10
8.25
 20
-11.75833333333333
 30
0.0
 40
0.5
  1
0.437500
100
AcDbAttributeDefinition
  3

  2
G1
 70
     8
280
     0
  0
ATTDEF
  5
1A4
330
184
100
AcDbEntity
  8
AM_6
100
AcDbText
 10
8.25
 20
-12.25833333333333
 30
0.0
 40
0.5
  1
6-1/2
100
AcDbAttributeDefinition
  3

  2
H
 70
     8
280
     0
  0
ATTDEF
  5
1A5
330
184
100
AcDbEntity
  8
AM_6
100
AcDbText
 10
8.25
 20
-12.75833333333333
 30
0.0
 40
0.5
  1
6.500000
100
AcDbAttributeDefinition
  3

  2
H1
 70
     8
280
     0
  0
ATTDEF
  5
1A6
330
184
100
AcDbEntity
  8
AM_6
100
AcDbText
 10
8.25
 20
-13.25833333333333
 30
0.0
 40
0.5
  1
6-7/16
100
AcDbAttributeDefinition
  3

  2
J
 70
     8
280
     0
  0
ATTDEF
  5
1A7
330
184
100
AcDbEntity
  8
AM_6
100
AcDbText
 10
8.25
 20
-13.75833333333333
 30
0.0
 40
0.5
  1
6.437500
100
AcDbAttributeDefinition
  3

  2
J1
 70
     8
280
     0
  0
ATTDEF
  5
1A8
330
184
100
AcDbEntity
  8
AM_6
100
AcDbText
 10
8.25
 20
-14.25833333333333
 30
0.0
 40
0.5
  1
3-1/16
100
AcDbAttributeDefinition
  3

  2
K
 70
     8
280
     0
  0
ATTDEF
  5
1A9
330
184
100
AcDbEntity
  8
AM_6
100
AcDbText
 10
8.25
 20
-14.75833333333333
 30
0.0
 40
0.5
  1
3.062500
100
AcDbAttributeDefinition
  3

  2
K1
 70
     8
280
     0
  0
ATTDEF
  5
1AA
330
184
100
AcDbEntity
  8
AM_6
100
AcDbText
 10
8.25
 20
-15.25833333333333
 30
0.0
 40
0.5
  1
3-7/16
100
AcDbAttributeDefinition
  3

  2
L
 70
     8
280
     0
  0
ATTDEF
  5
1AB
330
184
100
AcDbEntity
  8
AM_6
100
AcDbText
 10
8.25
 20
-15.75833333333333
 30
0.0
 40
0.5
  1
3.4375000
100
AcDbAttributeDefinition
  3

  2
L1
 70
     8
280
     0
  0
ATTDEF
  5
1AC
330
184
100
AcDbEntity
  8
AM_6
100
AcDbText
 10
8.25
 20
-16.25833333333333
 30
0.0
 40
0.5
  1
6
100
AcDbAttributeDefinition
  3

  2
M
 70
     8
280
     0
  0
ATTDEF
  5
1AD
330
184
100
AcDbEntity
  8
AM_6
100
AcDbText
 10
8.25
 20
-16.75833333333333
 30
0.0
 40
0.5
  1
6.000000
100
AcDbAttributeDefinition
  3

  2
M1
 70
     8
280
     0
  0
ATTDEF
  5
1AE
330
184
100
AcDbEntity
  8
AM_6
100
AcDbText
 10
8.25
 20
-17.25833333333333
 30
0.0
 40
0.5
  1
1-21/32
100
AcDbAttributeDefinition
  3

  2
N
 70
     8
280
     0
  0
ATTDEF
  5
1AF
330
184
100
AcDbEntity
  8
AM_6
100
AcDbText
 10
8.25
 20
-17.75833333333333
 30
0.0
 40
0.5
  1
1.656250
100
AcDbAttributeDefinition
  3

  2
N1
 70
     8
280
     0
  0
ATTDEF
  5
1B0
330
184
100
AcDbEntity
  8
AM_6
100
AcDbText
 10
8.25
 20
-18.25833333333333
 30
0.0
 40
0.5
  1
1-1/4
100
AcDbAttributeDefinition
  3

  2
P
 70
     8
280
     0
  0
ATTDEF
  5
1B1
330
184
100
AcDbEntity
  8
AM_6
100
AcDbText
 10
8.25
 20
-18.75833333333333
 30
0.0
 40
0.5
  1
1.250000
100
AcDbAttributeDefinition
  3

  2
P1
 70
     8
280
     0
  0
ATTDEF
  5
1B2
330
184
100
AcDbEntity
  8
AM_6
100
AcDbText
 10
8.25
 20
-19.25833333333333
 30
0.0
 40
0.5
  1
13/16
100
AcDbAttributeDefinition
  3

  2
Q
 70
     8
280
     0
  0
ATTDEF
  5
1B3
330
184
100
AcDbEntity
  8
AM_6
100
AcDbText
 10
8.25
 20
-19.75833333333333
 30
0.0
 40
0.5
  1
0.812500
100
AcDbAttributeDefinition
  3

  2
Q1
 70
     8
280
     0
  0
ATTDEF
  5
1B4
330
184
100
AcDbEntity
  8
AM_6
100
AcDbText
 10
8.25
 20
-20.25833333333333
 30
0.0
 40
0.5
  1
3-3/16
100
AcDbAttributeDefinition
  3

  2
R
 70
     8
280
     0
  0
ATTDEF
  5
1B5
330
184
100
AcDbEntity
  8
AM_6
100
AcDbText
 10
8.25
 20
-20.75833333333333
 30
0.0
 40
0.5
  1
3.187500
100
AcDbAttributeDefinition
  3

  2
R1
 70
     8
280
     0
  0
ATTDEF
  5
1B6
330
184
100
AcDbEntity
  8
AM_6
100
AcDbText
 10
8.25
 20
-21.25833333333333
 30
0.0
 40
0.5
  1
2
100
AcDbAttributeDefinition
  3

  2
S
 70
     8
280
     0
  0
ATTDEF
  5
1B7
330
184
100
AcDbEntity
  8
AM_6
100
AcDbText
 10
8.25
 20
-21.75833333333333
 30
0.0
 40
0.5
  1
2.000000
100
AcDbAttributeDefinition
  3

  2
S1
 70
     8
280
     0
  0
ATTDEF
  5
1B8
330
184
100
AcDbEntity
  8
AM_6
100
AcDbText
 10
8.25
 20
-22.25833333333333
 30
0.0
 40
0.5
  1
5/16
100
AcDbAttributeDefinition
  3

  2
T
 70
     8
280
     0
  0
ATTDEF
  5
1B9
330
184
100
AcDbEntity
  8
AM_6
100
AcDbText
 10
8.25
 20
-22.75833333333333
 30
0.0
 40
0.5
  1
0.312500
100
AcDbAttributeDefinition
  3

  2
T1
 70
     8
280
     0
  0
ATTDEF
  5
1BA
330
184
100
AcDbEntity
  8
AM_6
100
AcDbText
 10
8.25
 20
-23.25833333333333
 30
0.0
 40
0.5
  1
1-1/16
100
AcDbAttributeDefinition
  3

  2
U
 70
     8
280
     0
  0
ATTDEF
  5
1BB
330
184
100
AcDbEntity
  8
AM_6
100
AcDbText
 10
8.25
 20
-23.75833333333333
 30
0.0
 40
0.5
  1
1.062500
100
AcDbAttributeDefinition
  3

  2
U1
 70
     8
280
     0
  0
ATTDEF
  5
1BC
330
184
100
AcDbEntity
  8
AM_6
100
AcDbText
 10
8.25
 20
-24.25833333333333
 30
0.0
 40
0.5
  1
2
100
AcDbAttributeDefinition
  3

  2
V
 70
     8
280
     0
  0
ATTDEF
  5
1BD
330
184
100
AcDbEntity
  8
AM_6
100
AcDbText
 10
8.25
 20
-24.75833333333333
 30
0.0
 40
0.5
  1
2.000000
100
AcDbAttributeDefinition
  3

  2
V1
 70
     8
280
     0
  0
ATTDEF
  5
1BE
330
184
100
AcDbEntity
  8
AM_6
100
AcDbText
 10
8.25
 20
-25.25833333333333
 30
0.0
 40
0.5
  1
7/8
100
AcDbAttributeDefinition
  3

  2
W
 70
     8
280
     0
  0
ATTDEF
  5
1BF
330
184
100
AcDbEntity
  8
AM_6
100
AcDbText
 10
8.25
 20
-25.75833333333333
 30
0.0
 40
0.5
  1
0.875000
100
AcDbAttributeDefinition
  3

  2
W1
 70
     8
280
     0
  0
ATTDEF
  5
1C0
330
184
100
AcDbEntity
  8
AM_6
100
AcDbText
 10
8.25
 20
-26.25833333333333
 30
0.0
 40
0.5
  1
1/4
100
AcDbAttributeDefinition
  3

  2
X
 70
     8
280
     0
  0
ATTDEF
  5
1C1
330
184
100
AcDbEntity
  8
AM_6
100
AcDbText
 10
8.25
 20
-26.75833333333333
 30
0.0
 40
0.5
  1
0.250000
100
AcDbAttributeDefinition
  3

  2
X1
 70
     8
280
     0
  0
ATTDEF
  5
1C2
330
184
100
AcDbEntity
  8
AM_6
100
AcDbText
 10
8.25
 20
-27.25833333333333
 30
0.0
 40
0.5
  1
0.020
100
AcDbAttributeDefinition
  3

  2
Y
 70
     8
280
     0
  0
ATTDEF
  5
1C3
330
184
100
AcDbEntity
  8
AM_6
100
AcDbText
 10
8.25
 20
-27.75833333333333
 30
0.0
 40
0.5
  1
2-19/64
100
AcDbAttributeDefinition
  3

  2
Z
 70
     8
280
     0
  0
ATTDEF
  5
1C4
330
184
100
AcDbEntity
  8
AM_6
100
AcDbText
 10
8.25
 20
-28.25833333333333
 30
0.0
 40
0.5
  1
2.296875
100
AcDbAttributeDefinition
  3

  2
Z1
 70
     8
280
     0
  0
ATTDEF
  5
1C5
330
184
100
AcDbEntity
  8
AM_6
100
AcDbText
 10
8.25
 20
-28.75833333333333
 30
0.0
 40
0.5
  1
baldor
100
AcDbAttributeDefinition
  3

  2
COMPANY
 70
     8
280
     0
  0
LINE
  5
1C6
330
184
100
AcDbEntity
  8
AM_9
100
AcDbLine
 10
3.25
 20
0.8124999999999999
 30
0.0
 11
2.0
 21
0.8124999999999999
 31
0.0
  0
LINE
  5
1C7
330
184
100
AcDbEntity
  8
AM_9
100
AcDbLine
 10
3.25
 20
-0.8125000000000001
 30
0.0
 11
2.0
 21
-0.8125000000000001
 31
0.0
  0
LINE
  5
1C8
330
184
100
AcDbEntity
  8
AM_9
100
AcDbLine
 10
-1.999999999999998
 20
0.8124999999999999
 30
0.0
 11
-3.249999999999998
 21
0.8124999999999999
 31
0.0
  0
LINE
  5
1C9
330
184
100
AcDbEntity
  8
AM_9
100
AcDbLine
 10
-2.0
 20
-0.8125000000000001
 30
0.0
 11
-3.249999999999998
 21
-0.8125000000000001
 31
0.0
  0
LINE
  5
1CA
330
184
100
AcDbEntity
  8
AM_9
100
AcDbLine
 10
-2.0
 20
0.8531249999999998
 30
0.0
 11
-2.0
 21
-0.8531250000000002
 31
0.0
  0
LINE
  5
1CB
330
184
100
AcDbEntity
  8
AM_9
100
AcDbLine
 10
2.0
 20
0.8531249999999998
 30
0.0
 11
-2.0
 21
0.8531249999999998
 31
0.0
  0
LINE
  5
1CC
330
184
100
AcDbEntity
  8
AM_9
100
AcDbLine
 10
2.0
 20
0.8531249999999998
 30
0.0
 11
2.0
 21
-0.8531250000000002
 31
0.0
  0
LINE
  5
1CD
330
184
100
AcDbEntity
  8
AM_9
100
AcDbLine
 10
2.0
 20
-0.8531250000000002
 30
0.0
 11
-2.0
 21
-0.8531250000000002
 31
0.0
  0
LINE
  5
1CE
330
184
100
AcDbEntity
  8
AM_9
100
AcDbLine
 10
3.109445025462685
 20
-0.3534226282876194
 30
0.0
 11
1.615072087578791
 21
-0.3534226282876192
 31
0.0
  0
LINE
  5
1CF
330
184
100
AcDbEntity
  8
AM_9
100
AcDbLine
 10
-1.615072087578791
 20
-0.3534226282876195
 30
0.0
 11
-2.999999999999996
 21
-0.3534226282876194
 31
0.0
  0
LINE
  5
1D0
330
184
100
AcDbEntity
  8
AM_9
100
AcDbLine
 10
-1.615072090684475
 20
0.3534226190476188
 30
0.0
 11
-2.999999999999996
 21
0.3534226190476188
 31
0.0
  0
LINE
  5
1D1
330
184
100
AcDbEntity
  8
AM_9
100
AcDbLine
 10
3.0
 20
0.3534226190476188
 30
0.0
 11
1.615072090684476
 21
0.3534226190476188
 31
0.0
  0
LWPOLYLINE
  5
1D2
330
184
100
AcDbEntity
  8
AM_9
100
AcDbPolyline
 90
        8
 70
     0
 43
0.0
 10
3.002072634976262
 20
-0.2656250000000001
 10
3.022538025689267
 20
-0.2679690268600092
 10
3.042871837540955
 20
-0.27494185082739
 10
3.065167394108625
 20
-0.2885579298829877
 10
3.085502832570377
 20
-0.3084110150553325
 10
3.095749834432282
 20
-0.3228547064018819
 10
3.104352274160976
 20
-0.3394496900989033
 10
3.109445025462685
 20
-0.3534226282876193
  0
LWPOLYLINE
  5
1D3
330
184
100
AcDbEntity
  8
AM_9
100
AcDbPolyline
 90
        3
 70
     0
 43
0.0
 10
3.144206495448201
 20
-0.4511551322872131
 10
3.138197062467138
 20
-0.4363076441450551
 10
3.109445025462685
 20
-0.3534226282876194
  0
LINE
  5
1D4
330
184
100
AcDbEntity
  8
AM_9
100
AcDbLine
 10
3.172889525935637
 20
-0.4376581679290613
 30
0.0
 11
3.172889525935637
 21
-0.3132671343879163
 31
0.0
  0
LWPOLYLINE
  5
1D5
330
184
100
AcDbEntity
  8
AM_9
100
AcDbPolyline
 90
       11
 70
     0
 43
0.0
 10
2.485152376494093
 20
0.2656249999999999
 10
2.488873393036582
 20
0.2103890987980557
 10
2.49198291408894
 20
0.1518126920403459
 10
2.493994378517879
 20
0.097403147544651
 10
2.49516671788544
 20
0.0415685939986452
 10
2.495411297026182
 20
-0.0146208529583343
 10
2.494686646698014
 20
-0.0700373504760264
 10
2.493084371267982
 20
-0.1247454885092273
 10
2.490723180472464
 20
-0.177722924386546
 10
2.488105158909428
 20
-0.2227559580556571
 10
2.485152376494093
 20
-0.265625
  0
LINE
  5
1D6
330
184
100
AcDbEntity
  8
AM_9
100
AcDbLine
 10
2.375
 20
-0.4999999999999999
 30
0.0
 11
2.525
 21
-0.5
 31
0.0
  0
LINE
  5
1D7
330
184
100
AcDbEntity
  8
AM_9
100
AcDbLine
 10
2.525
 20
0.5
 30
0.0
 11
2.375
 21
0.5
 31
0.0
  0
LWPOLYLINE
  5
1D8
330
184
100
AcDbEntity
  8
AM_9
100
AcDbPolyline
 90
       12
 70
     0
 43
0.0
 10
2.543698631111825
 20
0.265625
 10
2.550895983597946
 20
0.2091572184896849
 10
2.556391275051086
 20
0.1483911550832927
 10
2.559219956215019
 20
0.1015849759598897
 10
2.56096020795779
 20
0.0540645470832773
 10
2.561631269472842
 20
0.0048189144886473
 10
2.561179798407432
 20
-0.0444590097012695
 10
2.559638286249939
 20
-0.0925006828982442
 10
2.5569916920841
 20
-0.1398908410123784
 10
2.553074340896193
 20
-0.187786293169827
 10
2.548001118884462
 20
-0.2339605493392822
 10
2.543698631111883
 20
-0.2656249999999999
  0
LINE
  5
1D9
330
184
100
AcDbEntity
  8
AM_9
100
AcDbLine
 10
2.575
 20
0.4499999999999995
 30
0.0
 11
2.575
 21
-0.4499999998645905
 31
0.0
  0
ARC
  5
1DA
330
184
100
AcDbEntity
  8
AM_9
100
AcDbCircle
 10
2.524999999999999
 20
-0.4499999999999994
 30
0.0
 40
0.0500000000000006
100
AcDbArc
 50
270.0
 51
0.0
  0
ARC
  5
1DB
330
184
100
AcDbEntity
  8
AM_9
100
AcDbCircle
 10
2.524999999999999
 20
0.4499999999999997
 30
0.0
 40
0.0500000000000003
100
AcDbArc
 50
0.0
 51
90.0
  0
LINE
  5
1DC
330
184
100
AcDbEntity
  8
AM_9
100
AcDbLine
 10
2.525
 20
0.5
 30
0.0
 11
2.525
 21
-0.5
 31
0.0
  0
LINE
  5
1DD
330
184
100
AcDbEntity
  8
AM_9
100
AcDbLine
 10
-2.46956066992684
 20
-0.265625
 30
0.0
 11
-2.46956066992684
 21
0.265625
 31
0.0
  0
LINE
  5
1DE
330
184
100
AcDbEntity
  8
AM_9
100
AcDbLine
 10
2.947590508796513
 20
-0.2656249999999999
 30
0.0
 11
2.947590508796513
 21
0.2656250000000001
 31
0.0
  0
LINE
  5
1DF
330
184
100
AcDbEntity
  8
AM_9
100
AcDbLine
 10
-2.947590512024119
 20
-0.2656249999999999
 30
0.0
 11
-2.947590512024119
 21
0.2656250000000001
 31
0.0
  0
LINE
  5
1E0
330
184
100
AcDbEntity
  8
AM_9
100
AcDbLine
 10
3.0
 20
0.8854166666666671
 30
0.0
 11
1.769637115609862
 21
0.8854166666666671
 31
0.0
  0
LINE
  5
1E1
330
184
100
AcDbEntity
  8
AM_9
100
AcDbLine
 10
1.770220482187333
 20
-0.3906249999999999
 30
0.0
 11
1.770220482187334
 21
-0.8749999999999994
 31
0.0
  0
LWPOLYLINE
  5
1E2
330
184
100
AcDbEntity
  8
AM_9
100
AcDbPolyline
 90
       13
 70
     0
 43
0.0
 10
2.336917123182805
 20
-0.2656249999999999
 10
2.342069269604669
 20
-0.307674281711273
 10
2.34753755593022
 20
-0.3468538258443077
 10
2.351953464659264
 20
-0.375578789980608
 10
2.356268405439871
 20
-0.401716066985318
 10
2.360477930005848
 20
-0.4257132119450792
 10
2.364335758987234
 20
-0.4466078606851217
 10
2.367643137770136
 20
-0.4638003230367532
 10
2.37042110632661
 20
-0.4777773763152374
 10
2.372643786137304
 20
-0.488688426589767
 10
2.374157613537032
 20
-0.4959832395513538
 10
2.374894042086392
 20
-0.499499161658955
 10
2.374999999999999
 20
-0.4999999999999953
  0
LWPOLYLINE
  5
1E3
330
184
100
AcDbEntity
  8
AM_9
100
AcDbPolyline
 90
       10
 70
     0
 43
0.0
 10
1.160484471226471
 20
-0.8749999999999997
 10
1.232308428600669
 20
-0.8346240842800813
 10
1.300269609497624
 20
-0.7889209468101507
 10
1.365350136635767
 20
-0.7362654502086539
 10
1.425361742278804
 20
-0.6774968806887595
 10
1.471142797936139
 20
-0.6237267723556132
 10
1.512752714685167
 20
-0.5657002815934562
 10
1.550868718010459
 20
-0.5017804251735609
 10
1.584057945211575
 20
-0.4338034273663344
 10
1.615072087578791
 20
-0.3534226282876194
  0
LWPOLYLINE
  5
1E4
330
184
100
AcDbEntity
  8
AM_9
100
AcDbPolyline
 90
        9
 70
     0
 43
0.0
 10
1.734882658574035
 20
-0.2656249999999716
 10
1.725217772267245
 20
-0.2660481266333928
 10
1.699601215609004
 20
-0.2712041032973531
 10
1.674518746955566
 20
-0.2822267958701808
 10
1.656233014301563
 20
-0.2947703888161766
 10
1.639405522486499
 20
-0.3111063910979336
 10
1.62879284207345
 20
-0.3252024996914958
 10
1.619855673092511
 20
-0.3413697349579363
 10
1.615072087578791
 20
-0.3534226282876192
  0
LINE
  5
1E5
330
184
100
AcDbEntity
  8
AM_9
100
AcDbLine
 10
1.734882658574035
 20
-0.2656249999999716
 30
0.0
 11
3.0
 21
-0.2656249999999999
 31
0.0
  0
LINE
  5
1E6
330
184
100
AcDbEntity
  8
AM_9
100
AcDbLine
 10
2.375
 20
-0.8749999999999996
 30
0.0
 11
2.375
 21
-0.5
 31
0.0
  0
LINE
  5
1E7
330
184
100
AcDbEntity
  8
AM_9
100
AcDbLine
 10
-1.76963711560986
 20
0.8854166666666671
 30
0.0
 11
-2.999999999999997
 21
0.8854166666666671
 31
0.0
  0
LINE
  5
1E8
330
184
100
AcDbEntity
  8
AM_9
100
AcDbLine
 10
3.0
 20
0.2656250000000001
 30
0.0
 11
1.734882658574036
 21
0.2656249999999999
 31
0.0
  0
LINE
  5
1E9
330
184
100
AcDbEntity
  8
AM_9
100
AcDbLine
 10
3.0
 20
0.3906249999999999
 30
0.0
 11
1.770220482187334
 21
0.3906249999999999
 31
0.0
  0
LINE
  5
1EA
330
184
100
AcDbEntity
  8
AM_9
100
AcDbLine
 10
3.0
 20
-0.3906249999999999
 30
0.0
 11
1.770220482187333
 21
-0.3906249999999999
 31
0.0
  0
LWPOLYLINE
  5
1EB
330
184
100
AcDbEntity
  8
AM_9
100
AcDbPolyline
 90
       11
 70
     0
 43
0.0
 10
1.770220482187333
 20
-0.3906249999999999
 10
1.771014623573837
 20
-0.375749105688972
 10
1.773488271191766
 20
-0.3605938106885805
 10
1.777608331291396
 20
-0.3458383745049192
 10
1.783363791650071
 20
-0.3315906810938058
 10
1.790488659957548
 20
-0.3184297298568828
 10
1.802706341469181
 20
-0.3017629271025244
 10
1.816793406686167
 20
-0.2879787751431864
 10
1.835296825986244
 20
-0.2756656786979593
 10
1.855100810450091
 20
-0.2680786688871815
 10
1.874536979866998
 20
-0.2656249999999999
  0
LINE
  5
1EC
330
184
100
AcDbEntity
  8
AM_9
100
AcDbLine
 10
-1.770220482187333
 20
-0.3906249999999999
 30
0.0
 11
-2.999999999999997
 21
-0.3906249999999999
 31
0.0
  0
LINE
  5
1ED
330
184
100
AcDbEntity
  8
AM_9
100
AcDbLine
 10
-1.734882658574035
 20
-0.2656250000000001
 30
0.0
 11
-2.999999999999997
 21
-0.2656249999999999
 31
0.0
  0
LINE
  5
1EE
330
184
100
AcDbEntity
  8
AM_9
100
AcDbLine
 10
-1.770220482187334
 20
-0.8749999999999994
 30
0.0
 11
-1.770220482187333
 21
-0.3906249999999999
 31
0.0
  0
LWPOLYLINE
  5
1EF
330
184
100
AcDbEntity
  8
AM_9
100
AcDbPolyline
 90
       11
 70
     0
 43
0.0
 10
-1.874536979866998
 20
-0.2656249999999999
 10
-1.864177206887365
 20
-0.2663260079308104
 10
-1.843849746275752
 20
-0.2717425238311048
 10
-1.824053700322219
 20
-0.2824705252409064
 10
-1.808990294172719
 20
-0.2950481355337236
 10
-1.79528836509207
 20
-0.3111948391986483
 10
-1.786154817445229
 20
-0.3260199094355165
 10
-1.778659718594021
 20
-0.3428591521304737
 10
-1.774031837379656
 20
-0.3582641040133877
 10
-1.771143138473349
 20
-0.3745945221539418
 10
-1.770220482187333
 20
-0.3906249999999999
  0
LWPOLYLINE
  5
1F0
330
184
100
AcDbEntity
  8
AM_9
100
AcDbPolyline
 90
        8
 70
     0
 43
0.0
 10
-1.615072087578791
 20
-0.3534226282876195
 10
-1.621846610721145
 20
-0.3372557791419118
 10
-1.630413479991433
 20
-0.3227701991582811
 10
-1.64454508014698
 20
-0.3054919829766417
 10
-1.660384254270332
 20
-0.2915242043024682
 10
-1.683804209598541
 20
-0.2773971595959605
 10
-1.708218601503753
 20
-0.2688147702660462
 10
-1.734882658574035
 20
-0.2656250000000001
  0
LWPOLYLINE
  5
1F1
330
184
100
AcDbEntity
  8
AM_9
100
AcDbPolyline
 90
       10
 70
     0
 43
0.0
 10
-1.61507208757879
 20
-0.3534226282876195
 10
-1.58665037078188
 20
-0.4278118277068686
 10
-1.55273394286361
 20
-0.498329369121445
 10
-1.512059188067772
 20
-0.5667380976071866
 10
-1.466042463316352
 20
-0.6301921475092622
 10
-1.416903943222667
 20
-0.6864903903177342
 10
-1.363460683694294
 20
-0.7379530282635355
 10
-1.304663759216203
 20
-0.7856608847868648
 10
-1.242118816505066
 20
-0.8285260426327011
 10
-1.160484471226471
 20
-0.8749999999999997
  0
LINE
  5
1F2
330
184
100
AcDbEntity
  8
AM_9
100
AcDbLine
 10
-2.375
 20
-0.265625
 30
0.0
 11
-2.375
 21
-0.8749999999999996
 31
0.0
  0
LINE
  5
1F3
330
184
100
AcDbEntity
  8
AM_9
100
AcDbLine
 10
-1.770220482187331
 20
0.3906249999999999
 30
0.0
 11
-2.999999999999997
 21
0.3906249999999999
 31
0.0
  0
LINE
  5
1F4
330
184
100
AcDbEntity
  8
AM_9
100
AcDbLine
 10
-1.734882658574036
 20
0.2656249999999999
 30
0.0
 11
-2.999999999999997
 21
0.2656250000000001
 31
0.0
  0
LWPOLYLINE
  5
1F5
330
184
100
AcDbEntity
  8
AM_9
100
AcDbPolyline
 90
        9
 70
     0
 43
0.0
 10
1.615072090684476
 20
0.3534226190476188
 10
1.615941989665464
 20
0.3509257551364185
 10
1.623280301623701
 20
0.3345024835725725
 10
1.632437554603084
 20
0.3198980517652512
 10
1.647382733490544
 20
0.3026493535517043
 10
1.664005354981577
 20
0.2888949688405996
 10
1.68814696275678
 20
0.2754513273477534
 10
1.713170250442833
 20
0.267743636521129
 10
1.734882658574036
 20
0.2656249999999997
  0
LWPOLYLINE
  5
1F6
330
184
100
AcDbEntity
  8
AM_9
100
AcDbPolyline
 90
       11
 70
     0
 43
0.0
 10
1.615072090684476
 20
0.3534226190476188
 10
1.592981193069852
 20
0.4127513555252922
 10
1.567401918457478
 20
0.4697034034533429
 10
1.535533159194773
 20
0.528995076453015
 10
1.499779406582961
 20
0.5849156421554957
 10
1.459353928110323
 20
0.6384589963544165
 10
1.415284440051083
 20
0.6881949772910381
 10
1.358535023317718
 20
0.7422654681998443
 10
1.297412915418473
 20
0.791015311074378
 10
1.230792523854758
 20
0.8355539854014138
 10
1.16048447122647
 20
0.8750000000000006
  0
LINE
  5
1F7
330
184
100
AcDbEntity
  8
AM_9
100
AcDbLine
 10
1.770220482187334
 20
0.8750000000000001
 30
0.0
 11
1.770220482187334
 21
0.3906249999999999
 31
0.0
  0
LWPOLYLINE
  5
1F8
330
184
100
AcDbEntity
  8
AM_9
100
AcDbPolyline
 90
       10
 70
     0
 43
0.0
 10
1.874536979866999
 20
0.2656250000000001
 10
1.854936482279565
 20
0.2681248477486694
 10
1.835510596569015
 20
0.2755548819448447
 10
1.815611064289717
 20
0.2889767322499732
 10
1.79752942148296
 20
0.3081467116041921
 10
1.787981274747192
 20
0.3226825723612394
 10
1.780013244740065
 20
0.3393128770578231
 10
1.774931610008637
 20
0.3547018195607626
 10
1.771587746066566
 20
0.3711274763163561
 10
1.770220482187334
 20
0.3906249999999999
  0
LINE
  5
1F9
330
184
100
AcDbEntity
  8
AM_9
100
AcDbLine
 10
2.375
 20
0.5
 30
0.0
 11
2.375
 21
0.875
 31
0.0
  0
LWPOLYLINE
  5
1FA
330
184
100
AcDbEntity
  8
AM_9
100
AcDbPolyline
 90
       14
 70
     0
 43
0.0
 10
2.375
 20
0.5
 10
2.374644725226308
 20
0.4983123691218855
 10
2.373593316322374
 20
0.4932750057424839
 10
2.371809101292315
 20
0.4846193209533818
 10
2.36936825444273
 20
0.4725261105600306
 10
2.366430451580038
 20
0.4575691055937339
 10
2.363016059273893
 20
0.4395678518571651
 10
2.359100095520045
 20
0.4180055940699789
 10
2.354883891795375
 20
0.3935138419894945
 10
2.350547564304521
 20
0.3666714937146509
 10
2.346149141664695
 20
0.3373289120932045
 10
2.341685763419222
 20
0.304737071375114
 10
2.337410067865129
 20
0.2699274446166357
 10
2.336917123182805
 20
0.265625
  0
LINE
  5
1FB
330
184
100
AcDbEntity
  8
AM_9
100
AcDbLine
 10
3.0
 20
-0.8854166666666665
 30
0.0
 11
1.769637115609865
 21
-0.8854166666666629
 31
0.0
  0
LINE
  5
1FC
330
184
100
AcDbEntity
  8
AM_9
100
AcDbLine
 10
-1.769637115609861
 20
-0.8854166666666664
 30
0.0
 11
-2.999999999999997
 21
-0.8854166666666665
 31
0.0
  0
LWPOLYLINE
  5
1FD
330
184
100
AcDbEntity
  8
AM_9
100
AcDbPolyline
 90
       11
 70
     0
 43
0.0
 10
-1.160484471226469
 20
0.8749999999999998
 10
-1.232308428600667
 20
0.8346240842800816
 10
-1.300269609497622
 20
0.7889209468101509
 10
-1.365350136635765
 20
0.7362654502086545
 10
-1.425361742278803
 20
0.6774968806887605
 10
-1.478680325555334
 20
0.6139362948737768
 10
-1.526190696254679
 20
0.5445477934364545
 10
-1.555455696367643
 20
0.4931764364830566
 10
-1.58164805402306
 20
0.4392240484176254
 10
-1.604600904514516
 20
0.3830185080504033
 10
-1.615072090684475
 20
0.3534226190476188
  0
LWPOLYLINE
  5
1FE
330
184
100
AcDbEntity
  8
AM_9
100
AcDbPolyline
 90
        8
 70
     0
 43
0.0
 10
-1.734882658574035
 20
0.2656249999999997
 10
-1.707778201177881
 20
0.2689199994608163
 10
-1.681003685659448
 20
0.2787586589892392
 10
-1.661316210902459
 20
0.2908267175836458
 10
-1.643043051056857
 20
0.3070671039260814
 10
-1.631619305340521
 20
0.3210443763589322
 10
-1.62184087814844
 20
0.3372531837377387
 10
-1.615072090684475
 20
0.3534226190476188
  0
LWPOLYLINE
  5
1FF
330
184
100
AcDbEntity
  8
AM_9
100
AcDbPolyline
 90
       11
 70
     0
 43
0.0
 10
-1.770220482187331
 20
0.3906249999999999
 10
-1.771355259783332
 20
0.3728543238964508
 10
-1.774176907808587
 20
0.3576528647808268
 10
-1.778508804276699
 20
0.3432736706853372
 10
-1.784649884209903
 20
0.3289446949742548
 10
-1.792008022371671
 20
0.3160242516632638
 10
-1.804914050021741
 20
0.2992903807234114
 10
-1.819294056293892
 20
0.2859739673395243
 10
-1.838432153232761
 20
0.2741107258047414
 10
-1.858254930236976
 20
0.2673493997121183
 10
-1.874536979866998
 20
0.2656250000000001
  0
LINE
  5
200
330
184
100
AcDbEntity
  8
AM_9
100
AcDbLine
 10
-1.770220482187331
 20
0.3906249999999999
 30
0.0
 11
-1.770220482187334
 21
0.8750000000000001
 31
0.0
  0
LINE
  5
201
330
184
100
AcDbEntity
  8
AM_9
100
AcDbLine
 10
-2.375
 20
0.875
 30
0.0
 11
-2.375
 21
0.265625
 31
0.0
  0
LWPOLYLINE
  5
202
330
184
100
AcDbEntity
  8
AM_9
100
AcDbPolyline
 90
        9
 70
     0
 43
0.0
 10
-1.769637115609861
 20
-0.8854166666666664
 10
-1.74500889781096
 20
-0.9070330922605528
 10
-1.717087742694642
 20
-0.9266829299071149
 10
-1.686645390730636
 20
-0.9442711944069814
 10
-1.633360699240093
 20
-0.9682754918034633
 10
-1.575696299023832
 20
-0.9864907237825922
 10
-1.538716620563388
 20
-0.994344917082038
 10
-1.500720591184532
 20
-0.9990524077194787
 10
-1.476339728197936
 20
-0.9999999999999999
  0
LWPOLYLINE
  5
203
330
184
100
AcDbEntity
  8
AM_9
100
AcDbPolyline
 90
        3
 70
     0
 43
0.0
 10
-1.770220482187334
 20
-0.8749999999999994
 10
-1.770166338661779
 20
-0.8781760593714878
 10
-1.769637115609861
 20
-0.8854166666666664
  0
LINE
  5
204
330
184
100
AcDbEntity
  8
AM_9
100
AcDbLine
 10
-1.160484471226471
 20
-0.8749999999999997
 30
0.0
 11
-2.375
 21
-0.8749999999999996
 31
0.0
  0
LWPOLYLINE
  5
205
330
184
100
AcDbEntity
  8
AM_9
100
AcDbPolyline
 90
       12
 70
     0
 43
0.0
 10
-0.2630906336545127
 20
-1.0
 10
-0.2747374863150839
 20
-0.9999923847183781
 10
-0.3962234924767201
 20
-0.9987524759145431
 10
-0.517488019553854
 20
-0.994761684786656
 10
-0.6393901575559183
 20
-0.9871090302200525
 10
-0.7601755163384742
 20
-0.9750362639116651
 10
-0.8400198144295626
 20
-0.9640390631712553
 10
-0.9187063748821618
 20
-0.9502227848286083
 10
-0.9970247053598855
 20
-0.9327476311734193
 10
-1.072777507466279
 20
-0.9108056641339366
 10
-1.117638212761567
 20
-0.8944244558714995
 10
-1.160484471226471
 20
-0.8749999999999997
  0
ARC
  5
206
330
184
100
AcDbEntity
  8
AM_9
100
AcDbCircle
 10
-2.25
 20
-0.8750000000000001
 30
0.0
 40
0.125
100
AcDbArc
 50
180.0
 51
270.0
  0
LWPOLYLINE
  5
207
330
184
100
AcDbEntity
  8
AM_9
100
AcDbPolyline
 90
       10
 70
     0
 43
0.0
 10
1.769637115609862
 20
0.8854166666666671
 10
1.75169906108308
 20
0.9016333410162899
 10
1.731903422068602
 20
0.9167380548889199
 10
1.686645390730636
 20
0.9442711944069818
 10
1.63395370347546
 20
0.968028602803211
 10
1.605322616880408
 20
0.9780478855410878
 10
1.575696299023832
 20
0.9864907237825926
 10
1.538974787249859
 20
0.9942875253619459
 10
1.500720591184532
 20
0.9990524077194791
 10
1.476339731036681
 20
1.0
  0
LWPOLYLINE
  5
208
330
184
100
AcDbEntity
  8
AM_9
100
AcDbPolyline
 90
       11
 70
     0
 43
0.0
 10
0.2630906495841896
 20
1.0
 10
0.3702790310974339
 20
0.9992301157507555
 10
0.48319172535109
 20
0.9962218324534788
 10
0.5957119888875666
 20
0.9903167915063037
 10
0.7087273698433261
 20
0.9807978070203669
 10
0.8204285746127992
 20
0.9669877197807085
 10
0.8943338555961846
 20
0.9548654330645758
 10
0.9669597878372469
 20
0.9399546357669031
 10
1.039087988758183
 20
0.9213288327087044
 10
1.108292439465089
 20
0.8981112497487055
 10
1.16048447122647
 20
0.875
  0
LINE
  5
209
330
184
100
AcDbEntity
  8
AM_9
100
AcDbLine
 10
1.770220482187334
 20
0.8750000000000001
 30
0.0
 11
1.769637115609862
 21
0.8854166666666671
 31
0.0
  0
LINE
  5
20A
330
184
100
AcDbEntity
  8
AM_9
100
AcDbLine
 10
1.16048447122647
 20
0.875
 30
0.0
 11
2.375
 21
0.875
 31
0.0
  0
ARC
  5
20B
330
184
100
AcDbEntity
  8
AM_9
100
AcDbCircle
 10
2.25
 20
0.8749999999999999
 30
0.0
 40
0.1250000000000004
100
AcDbArc
 50
0.0
 51
90.0
  0
LWPOLYLINE
  5
20C
330
184
100
AcDbEntity
  8
AM_9
100
AcDbPolyline
 90
       11
 70
     0
 43
0.0
 10
-1.476339731036681
 20
1.0
 10
-1.500260558814482
 20
0.9990866489500135
 10
-1.526048618033609
 20
0.9963064272580939
 10
-1.5514180741561
 20
0.9919819948632287
 10
-1.601733505207164
 20
0.9791714169231412
 10
-1.634102285550332
 20
0.9679737182996113
 10
-1.665050239506535
 20
0.9549181869305773
 10
-1.695210182640973
 20
0.9396532863316734
 10
-1.723363975255462
 20
0.9225848499984031
 10
-1.747803334625479
 20
0.9048049501476545
 10
-1.76963711560986
 20
0.8854166666666671
  0
LWPOLYLINE
  5
20D
330
184
100
AcDbEntity
  8
AM_9
100
AcDbPolyline
 90
       14
 70
     0
 43
0.0
 10
-1.16048447122647
 20
0.8750000000000001
 10
-1.117763811955268
 20
0.894373780837927
 10
-1.072346060623949
 20
0.910948647703475
 10
-1.024556610835569
 20
0.9254255358514318
 10
-0.9754357023340315
 20
0.9379847086056113
 10
-0.9123721184251518
 20
0.9514660132569033
 10
-0.8482586939039373
 20
0.9627355279791553
 10
-0.7827914788764135
 20
0.9721930087544488
 10
-0.7167120340905816
 20
0.9799573896988824
 10
-0.6488368740776576
 20
0.9863320886059203
 10
-0.5806025521140902
 20
0.9913022461474391
 10
-0.4428487191972169
 20
0.9976019420101342
 10
-0.3530376177873282
 20
0.9994727102203045
 10
-0.2630906495841896
 20
1.0
  0
LINE
  5
20E
330
184
100
AcDbEntity
  8
AM_9
100
AcDbLine
 10
-1.16048447122647
 20
0.8750000000000001
 30
0.0
 11
-2.375
 21
0.875
 31
0.0
  0
LWPOLYLINE
  5
20F
330
184
100
AcDbEntity
  8
AM_9
100
AcDbPolyline
 90
        3
 70
     0
 43
0.0
 10
-1.76963711560986
 20
0.8854166666666671
 10
-1.770166338661779
 20
0.8781760593714881
 10
-1.770220482187334
 20
0.8750000000000001
  0
LINE
  5
210
330
184
100
AcDbEntity
  8
AM_9
100
AcDbLine
 10
-2.250000001862645
 20
1.0
 30
0.0
 11
2.250000001862645
 21
1.0
 31
0.0
  0
ARC
  5
211
330
184
100
AcDbEntity
  8
AM_9
100
AcDbCircle
 10
-2.249999999999999
 20
0.8749999999999994
 30
0.0
 40
0.1250000000000008
100
AcDbArc
 50
90.0
 51
180.0
  0
LWPOLYLINE
  5
212
330
184
100
AcDbEntity
  8
AM_9
100
AcDbPolyline
 90
       10
 70
     0
 43
0.0
 10
1.476339728197936
 20
-0.9999999999999999
 10
1.500260558814485
 20
-0.9990866489500131
 10
1.53493964255717
 20
-0.9949906775691492
 10
1.568892656219147
 20
-0.9881866148647461
 10
1.601733505207167
 20
-0.9791714169231397
 10
1.645165838806598
 20
-0.9636051777258327
 10
1.6859888150197
 20
-0.9446398057337057
 10
1.723363975255464
 20
-0.9225848499984015
 10
1.747803334625482
 20
-0.9048049501476515
 10
1.769637115609865
 20
-0.8854166666666629
  0
LWPOLYLINE
  5
213
330
184
100
AcDbEntity
  8
AM_9
100
AcDbPolyline
 90
        3
 70
     0
 43
0.0
 10
1.769637115609865
 20
-0.8854166666666629
 10
1.770088951112973
 20
-0.8799496820993514
 10
1.770220482187334
 20
-0.8749999999999994
  0
LINE
  5
214
330
184
100
AcDbEntity
  8
AM_9
100
AcDbLine
 10
-2.25
 20
-1.0
 30
0.0
 11
2.25
 21
-1.0
 31
0.0
  0
LWPOLYLINE
  5
215
330
184
100
AcDbEntity
  8
AM_9
100
AcDbPolyline
 90
       12
 70
     0
 43
0.0
 10
1.160484471226471
 20
-0.8749999999999997
 10
1.11776381195527
 20
-0.894373780837927
 10
1.072346060623952
 20
-0.9109486477034752
 10
1.024556610835571
 20
-0.9254255358514317
 10
0.9754357023340333
 20
-0.9379847086056113
 10
0.924071168104438
 20
-0.9491581714189458
 10
0.8719731741449059
 20
-0.9588178862059048
 10
0.7654982466653617
 20
-0.9743847760670448
 10
0.6559172027013935
 20
-0.9857360566408748
 10
0.5449808096142458
 20
-0.9933812632400589
 10
0.4043770064492761
 20
-0.9985928734289163
 10
0.2630906336545127
 20
-1.0
  0
LINE
  5
216
330
184
100
AcDbEntity
  8
AM_9
100
AcDbLine
 10
1.160484471226471
 20
-0.8749999999999997
 30
0.0
 11
2.375
 21
-0.8749999999999996
 31
0.0
  0
ARC
  5
217
330
184
100
AcDbEntity
  8
AM_9
100
AcDbCircle
 10
2.25
 20
-0.8750000000000001
 30
0.0
 40
0.1249999999999999
100
AcDbArc
 50
270.0
 51
0.0
  0
LWPOLYLINE
  5
218
330
184
100
AcDbEntity
  8
AM_9
100
AcDbPolyline
 90
        8
 70
     0
 43
0.0
 10
-0.5057892007106898
 20
0.9999999999999997
 10
-0.3558813318930898
 20
1.037621347929961
 10
-0.2032649912527602
 20
1.062034203622336
 10
-0.0491016812942396
 20
1.073052770504422
 10
0.105435322107336
 20
1.070593190629052
 10
0.2591698990440866
 20
1.054674182884215
 10
0.4109320365580481
 20
1.025416900531007
 10
0.5057892007106889
 20
1.0
  0
LWPOLYLINE
  5
219
330
184
100
AcDbEntity
  8
AM_9
100
AcDbPolyline
 90
        8
 70
     0
 43
0.0
 10
0.505789200710688
 20
-0.9999999999999997
 10
0.3558813318930881
 20
-1.037621347929961
 10
0.2032649912527584
 20
-1.062034203622336
 10
0.0491016812942378
 20
-1.073052770504421
 10
-0.1054353221073378
 20
-1.070593190629052
 10
-0.2591698990440884
 20
-1.054674182884214
 10
-0.4109320365580499
 20
-1.025416900531006
 10
-0.5057892007106876
 20
-1.0
  0
LINE
  5
21A
330
184
100
AcDbEntity
  8
AM_9
100
AcDbLine
 10
1.77165
 20
-1.0
 30
0.0
 11
1.77165
 21
0.9999999999999997
 31
0.0
  0
LINE
  5
21B
330
184
100
AcDbEntity
  8
AM_9
100
AcDbLine
 10
-1.77165
 20
0.9999999999999997
 30
0.0
 11
-1.77165
 21
-1.0
 31
0.0
  0
LINE
  5
21C
330
184
100
AcDbEntity
  8
AM_7
100
AcDbLine
 10
-0.12875
 20
0.0
 30
0.0
 11
3.1371875
 21
0.0
 31
0.0
  0
LINE
  5
21D
330
184
100
AcDbEntity
  8
AM_7
100
AcDbLine
 10
0.0
 20
1.741666666666667
 30
0.0
 11
0.0
 21
-2.1421875
 31
0.0
  0
LWPOLYLINE
  5
21E
330
184
100
AcDbEntity
  8
AM_4
100
AcDbPolyline
 90
        7
 70
     0
 43
0.0
 10
-3.25
 20
-0.7862426383115882
 10
-3.248011362508212
 20
-0.7491018861207507
 10
-3.242381430087168
 20
-0.7109249183378171
 10
-3.23328747219911
 20
-0.6709152078570407
 10
-3.22120303918132
 20
-0.630299391569269
 10
-3.199651921234861
 20
-0.572481228231644
 10
-3.172889525935638
 20
-0.5139650790038139
  0
LINE
  5
21F
330
184
100
AcDbEntity
  8
AM_4
100
AcDbLine
 10
3.25
 20
-1.1875
 30
0.0
 11
-3.249999999999998
 21
-1.1875
 31
0.0
  0
LWPOLYLINE
  5
220
330
184
100
AcDbEntity
  8
AM_4
100
AcDbPolyline
 90
        7
 70
     0
 43
0.0
 10
3.172889525935637
 20
-0.5139650790038107
 10
3.19671308923366
 20
-0.5654791513409683
 10
3.216764231558746
 20
-0.6172342710318298
 10
3.232936368992925
 20
-0.6696001328944118
 10
3.244249334493208
 20
-0.7214191357830084
 10
3.248498160834723
 20
-0.7541410192645807
 10
3.25
 20
-0.7862426383115895
  0
LWPOLYLINE
  5
221
330
184
100
AcDbEntity
  8
AM_4
100
AcDbPolyline
 90
        7
 70
     0
 43
0.0
 10
3.25
 20
0.7862426383115892
 10
3.248011362508212
 20
0.7491018861207513
 10
3.242381430087169
 20
0.7109249183378173
 10
3.23328747219911
 20
0.6709152078570407
 10
3.221203039181321
 20
0.6302993915692688
 10
3.199651921234861
 20
0.5724812282316426
 10
3.172889525935637
 20
0.5139650790038105
  0
LINE
  5
222
330
184
100
AcDbEntity
  8
AM_4
100
AcDbLine
 10
3.25
 20
1.1875
 30
0.0
 11
3.25
 21
-1.1875
 31
0.0
  0
LINE
  5
223
330
184
100
AcDbEntity
  8
AM_4
100
AcDbLine
 10
3.25
 20
1.1875
 30
0.0
 11
-3.249999999999998
 21
1.1875
 31
0.0
  0
LINE
  5
224
330
184
100
AcDbEntity
  8
AM_4
100
AcDbLine
 10
-3.249999999999998
 20
-1.1875
 30
0.0
 11
-3.249999999999998
 21
1.1875
 31
0.0
  0
LWPOLYLINE
  5
225
330
184
100
AcDbEntity
  8
AM_4
100
AcDbPolyline
 90
        7
 70
     0
 43
0.0
 10
-3.172889525935639
 20
0.5139650790038137
 10
-3.196713089233662
 20
0.565479151340971
 10
-3.216764231558748
 20
0.6172342710318324
 10
-3.232936368992925
 20
0.6696001328944142
 10
-3.244249334493209
 20
0.7214191357830111
 10
-3.248498160834723
 20
0.754141019264581
 10
-3.25
 20
0.786242638311588
  0
LINE
  5
226
330
184
100
AcDbEntity
  8
AM_4
100
AcDbLine
 10
-2.999999999999996
 20
-0.3534226282876194
 30
0.0
 11
-3.109445025462684
 21
-0.3534226282876194
 31
0.0
  0
LINE
  5
227
330
184
100
AcDbEntity
  8
AM_4
100
AcDbLine
 10
-2.999999999999996
 20
0.3534226190476188
 30
0.0
 11
-3.109445022681321
 21
0.3534226190476188
 31
0.0
  0
LINE
  5
228
330
184
100
AcDbEntity
  8
AM_4
100
AcDbLine
 10
3.109445022681322
 20
0.3534226190476188
 30
0.0
 11
3.0
 21
0.3534226190476188
 31
0.0
  0
LINE
  5
229
330
184
100
AcDbEntity
  8
AM_4
100
AcDbLine
 10
3.172889525935637
 20
-0.5139650790038115
 30
0.0
 11
3.144206495448201
 21
-0.4511551322872131
 31
0.0
  0
LINE
  5
22A
330
184
100
AcDbEntity
  8
AM_4
100
AcDbLine
 10
3.172889525935637
 20
-0.3132671343879163
 30
0.0
 11
3.172889525935637
 21
0.5139650790038114
 31
0.0
  0
LINE
  5
22B
330
184
100
AcDbEntity
  8
AM_4
100
AcDbLine
 10
3.172889525935637
 20
-0.5139650790038115
 30
0.0
 11
3.172889525935637
 21
-0.4376581679290613
 31
0.0
  0
LWPOLYLINE
  5
22C
330
184
100
AcDbEntity
  8
AM_4
100
AcDbPolyline
 90
        3
 70
     0
 43
0.0
 10
3.109445022681322
 20
0.353422619047619
 10
3.137882343427304
 20
0.4355107407067173
 10
3.172889525935639
 20
0.5139650790038112
  0
LWPOLYLINE
  5
22D
330
184
100
AcDbEntity
  8
AM_4
100
AcDbPolyline
 90
        8
 70
     0
 43
0.0
 10
3.109445022681321
 20
0.353422619047619
 10
3.102251723624499
 20
0.3348441558068475
 10
3.092902923314761
 20
0.3184005510502773
 10
3.079238564768901
 20
0.3013046247679249
 10
3.063991051401747
 20
0.2876549037148943
 10
3.043024252311418
 20
0.2750139006766742
 10
3.021285006320014
 20
0.2676898663711063
 10
3.002072634976262
 20
0.2656249999999997
  0
LWPOLYLINE
  5
22E
330
184
100
AcDbEntity
  8
AM_4
100
AcDbPolyline
 90
        3
 70
     0
 43
0.0
 10
-3.109445025462684
 20
-0.3534226282876195
 10
-3.137882345188242
 20
-0.4355107451711956
 10
-3.172889525935638
 20
-0.5139650790038125
  0
LWPOLYLINE
  5
22F
330
184
100
AcDbEntity
  8
AM_4
100
AcDbPolyline
 90
        8
 70
     0
 43
0.0
 10
-3.109445025462684
 20
-0.3534226282876194
 10
-3.102251728140373
 20
-0.3348441652750692
 10
-3.092902929519574
 20
-0.3184005603204333
 10
-3.079238573177666
 20
-0.3013046336307487
 10
-3.063991061885763
 20
-0.287654911637067
 10
-3.043024264467753
 20
-0.2750139063162695
 10
-3.02128501981073
 20
-0.2676898692570314
 10
-3.002072634976262
 20
-0.2656250000000001
  0
LWPOLYLINE
  5
230
330
184
100
AcDbEntity
  8
AM_4
100
AcDbPolyline
 90
        8
 70
     0
 43
0.0
 10
-3.002072634976261
 20
0.2656249999999997
 10
-3.022538025689265
 20
0.2679690268600088
 10
-3.042871837540953
 20
0.2749418508273895
 10
-3.065167394108623
 20
0.2885579298829873
 10
-3.085502832570376
 20
0.308411015055332
 10
-3.095749834772706
 20
0.3228547069595316
 10
-3.104352274704876
 20
0.3394496913623217
 10
-3.109445022681321
 20
0.3534226190476185
  0
LWPOLYLINE
  5
231
330
184
100
AcDbEntity
  8
AM_4
100
AcDbPolyline
 90
        3
 70
     0
 43
0.0
 10
-3.172889525935637
 20
0.5139650790038125
 10
-3.138197060755243
 20
0.4363076398157684
 10
-3.109445022681321
 20
0.3534226190476191
  0
LINE
  5
232
330
184
100
AcDbEntity
  8
AM_4
100
AcDbLine
 10
-3.172889525935637
 20
-0.5139650790038125
 30
0.0
 11
-3.172889525935639
 21
0.5139650790038137
 31
0.0
  0
LINE
  5
233
330
184
100
AcDbEntity
  8
AM_4
100
AcDbLine
 10
1.625
 20
-0.433012701892219
 30
0.0
 11
-1.624999999999999
 21
-0.433012701892219
 31
0.0
  0
LINE
  5
234
330
184
100
AcDbEntity
  8
AM_4
100
AcDbLine
 10
-1.624999999999999
 20
0.4330127018922193
 30
0.0
 11
1.625
 21
0.4330127018922193
 31
0.0
  0
LINE
  5
235
330
184
100
AcDbEntity
  8
AM_4
100
AcDbLine
 10
-1.733253175473055
 20
-0.4374999999999998
 30
0.0
 11
-2.1875
 21
-0.4374999999999998
 31
0.0
  0
LWPOLYLINE
  5
236
330
184
100
AcDbEntity
  8
AM_4
100
AcDbPolyline
 90
        7
 70
     0
 43
0.0
 10
-1.625
 20
-0.433012701892219
 10
-1.645599496774747
 20
-0.4332559396294939
 10
-1.666198993549495
 20
-0.4339634621273786
 10
-1.68506329019639
 20
-0.4349546956978375
 10
-1.70275067337577
 20
-0.4360673626177399
 10
-1.719385695567937
 20
-0.4370672943718819
 10
-1.733253175473055
 20
-0.4374999999999998
  0
LINE
  5
237
330
184
100
AcDbEntity
  8
AM_4
100
AcDbLine
 10
-1.625
 20
-1.1875
 30
0.0
 11
-1.624999999999999
 21
-0.433012701892219
 31
0.0
  0
LINE
  5
238
330
184
100
AcDbEntity
  8
AM_4
100
AcDbLine
 10
-2.1875
 20
0.4375000000000002
 30
0.0
 11
-1.733253175473055
 21
0.4375000000000001
 31
0.0
  0
LWPOLYLINE
  5
239
330
184
100
AcDbEntity
  8
AM_4
100
AcDbPolyline
 90
        7
 70
     0
 43
0.0
 10
-1.733253175473055
 20
0.4375000000000001
 10
-1.721479358183651
 20
0.4371704491193238
 10
-1.706619810114058
 20
0.436315333241115
 10
-1.689933781288137
 20
0.4352502490930199
 10
-1.67092772694925
 20
0.4341848181263855
 10
-1.648800319225343
 20
0.4333366047468448
 10
-1.625
 20
0.4330127018922193
  0
LINE
  5
23A
330
184
100
AcDbEntity
  8
AM_4
100
AcDbLine
 10
-1.624999999999999
 20
0.4330127018922193
 30
0.0
 11
-1.625
 21
1.1875
 31
0.0
  0
LINE
  5
23B
330
184
100
AcDbEntity
  8
AM_4
100
AcDbLine
 10
2.1875
 20
-0.4374999999999998
 30
0.0
 11
1.733253175473055
 21
-0.4374999999999998
 31
0.0
  0
LWPOLYLINE
  5
23C
330
184
100
AcDbEntity
  8
AM_4
100
AcDbPolyline
 90
        7
 70
     0
 43
0.0
 10
1.733253175473055
 20
-0.4374999999999998
 10
1.721479358183651
 20
-0.4371704491193236
 10
1.706619810114057
 20
-0.4363153332411148
 10
1.689933781288136
 20
-0.4352502490930198
 10
1.670927726949249
 20
-0.4341848181263851
 10
1.648800319225343
 20
-0.4333366047468445
 10
1.625
 20
-0.433012701892219
  0
LINE
  5
23D
330
184
100
AcDbEntity
  8
AM_4
100
AcDbLine
 10
1.625
 20
-1.1875
 30
0.0
 11
1.625
 21
-0.433012701892219
 31
0.0
  0
LINE
  5
23E
330
184
100
AcDbEntity
  8
AM_4
100
AcDbLine
 10
1.733253175473055
 20
0.4375000000000001
 30
0.0
 11
2.1875
 21
0.4375000000000002
 31
0.0
  0
LINE
  5
23F
330
184
100
AcDbEntity
  8
AM_4
100
AcDbLine
 10
1.625
 20
0.4330127018922193
 30
0.0
 11
1.625
 21
1.1875
 31
0.0
  0
LWPOLYLINE
  5
240
330
184
100
AcDbEntity
  8
AM_4
100
AcDbPolyline
 90
        7
 70
     0
 43
0.0
 10
1.625
 20
0.4330127018922193
 10
1.645599496774748
 20
0.433255939629494
 10
1.666198993549495
 20
0.4339634621273788
 10
1.68506329019639
 20
0.4349546956978377
 10
1.702750673375771
 20
0.4360673626177399
 10
1.719385695567937
 20
0.4370672943718821
 10
1.733253175473055
 20
0.4375
  0
LINE
  5
241
330
184
100
AcDbEntity
  8
AM_4
100
AcDbLine
 10
-1.75
 20
-0.4374999999999998
 30
0.0
 11
-1.75
 21
-1.1875
 31
0.0
  0
LINE
  5
242
330
184
100
AcDbEntity
  8
AM_4
100
AcDbLine
 10
1.75
 20
0.4375000000000002
 30
0.0
 11
1.75
 21
1.1875
 31
0.0
  0
LINE
  5
243
330
184
100
AcDbEntity
  8
AM_4
100
AcDbLine
 10
-1.75
 20
1.1875
 30
0.0
 11
-1.75
 21
0.4375000000000002
 31
0.0
  0
LINE
  5
244
330
184
100
AcDbEntity
  8
AM_4
100
AcDbLine
 10
-2.999999999999997
 20
-1.1875
 30
0.0
 11
-2.999999999999997
 21
1.1875
 31
0.0
  0
LINE
  5
245
330
184
100
AcDbEntity
  8
AM_4
100
AcDbLine
 10
2.1875
 20
0.6562500000000002
 30
0.0
 11
3.0
 21
0.6562500000000002
 31
0.0
  0
LINE
  5
246
330
184
100
AcDbEntity
  8
AM_4
100
AcDbLine
 10
2.1875
 20
0.5312500000000002
 30
0.0
 11
1.75
 21
0.5312500000000002
 31
0.0
  0
LINE
  5
247
330
184
100
AcDbEntity
  8
AM_4
100
AcDbLine
 10
3.0
 20
0.7589285714285717
 30
0.0
 11
1.75
 21
0.7589285714285714
 31
0.0
  0
LINE
  5
248
330
184
100
AcDbEntity
  8
AM_4
100
AcDbLine
 10
3.0
 20
-0.6562499999999998
 30
0.0
 11
2.1875
 21
-0.6562499999999998
 31
0.0
  0
LINE
  5
249
330
184
100
AcDbEntity
  8
AM_4
100
AcDbLine
 10
2.1875
 20
0.6562500000000002
 30
0.0
 11
2.1875
 21
-0.6562499999999998
 31
0.0
  0
LINE
  5
24A
330
184
100
AcDbEntity
  8
AM_4
100
AcDbLine
 10
1.75
 20
-0.5312499999999998
 30
0.0
 11
2.1875
 21
-0.5312499999999998
 31
0.0
  0
LINE
  5
24B
330
184
100
AcDbEntity
  8
AM_4
100
AcDbLine
 10
-2.1875
 20
0.6562500000000002
 30
0.0
 11
-2.1875
 21
-0.6562499999999998
 31
0.0
  0
LINE
  5
24C
330
184
100
AcDbEntity
  8
AM_4
100
AcDbLine
 10
-2.1875
 20
0.6562500000000002
 30
0.0
 11
-3.0
 21
0.6562500000000002
 31
0.0
  0
LINE
  5
24D
330
184
100
AcDbEntity
  8
AM_4
100
AcDbLine
 10
-1.75
 20
0.5312500000000002
 30
0.0
 11
-2.1875
 21
0.5312500000000002
 31
0.0
  0
LINE
  5
24E
330
184
100
AcDbEntity
  8
AM_4
100
AcDbLine
 10
-1.75
 20
0.7589285714285714
 30
0.0
 11
-2.999999999999997
 21
0.7589285714285717
 31
0.0
  0
LINE
  5
24F
330
184
100
AcDbEntity
  8
AM_4
100
AcDbLine
 10
1.75
 20
-1.1875
 30
0.0
 11
1.75
 21
-0.4374999999999998
 31
0.0
  0
LINE
  5
250
330
184
100
AcDbEntity
  8
AM_4
100
AcDbLine
 10
3.0
 20
1.1875
 30
0.0
 11
3.0
 21
-1.1875
 31
0.0
  0
LINE
  5
251
330
184
100
AcDbEntity
  8
AM_4
100
AcDbLine
 10
3.0
 20
-0.7589285714285712
 30
0.0
 11
1.75
 21
-0.7589285714285712
 31
0.0
  0
LINE
  5
252
330
184
100
AcDbEntity
  8
AM_4
100
AcDbLine
 10
-3.0
 20
-0.6562499999999998
 30
0.0
 11
-2.1875
 21
-0.6562499999999998
 31
0.0
  0
LINE
  5
253
330
184
100
AcDbEntity
  8
AM_4
100
AcDbLine
 10
-1.75
 20
-0.7589285714285712
 30
0.0
 11
-2.999999999999997
 21
-0.7589285714285712
 31
0.0
  0
LINE
  5
254
330
184
100
AcDbEntity
  8
AM_4
100
AcDbLine
 10
-2.1875
 20
-0.5312499999999998
 30
0.0
 11
-1.75
 21
-0.5312499999999998
 31
0.0
  0
ENDBLK
  5
187
330
184
100
AcDbEntity
  8
0
100
AcDbBlockEnd
  0
ENDSEC
  0
SECTION
  2
ENTITIES
  0
INSERT
  5
6F
330
1F
100
AcDbEntity
  8
0
100
AcDbBlockReference
  2
1_070811_4
 10
0.0
 20
0.0
 30
0.0
  0
POINT
  5
256
330
1F
100
AcDbEntity
  8
ConnectionPoints
100
AcDbPoint
 10
0.0
 20
-2.0
 30
0.0000000000000001
  0
POINT
  5
257
330
1F
100
AcDbEntity
  8
ConnectionPoints
100
AcDbPoint
 10
0.0
 20
-2.0
 30
0.0000000000000001
  0
POINT
  5
258
330
1F
100
AcDbEntity
  8
ConnectionPoints
100
AcDbPoint
 10
0.0
 20
1.7335
 30
-0.0000000000000001
  0
POINT
  5
259
330
1F
100
AcDbEntity
  8
ConnectionPoints
100
AcDbPoint
 10
0.0
 20
-2.0
 30
0.0000000000000001
  0
POINT
  5
25A
330
1F
100
AcDbEntity
  8
ConnectionPoints
100
AcDbPoint
 10
2.575
 20
0.0
 30
0.0
  0
POINT
  5
25B
330
1F
100
AcDbEntity
  8
ConnectionPoints
100
AcDbPoint
 10
0.0
 20
-2.25
 30
0.0000000000000001
  0
POINT
  5
25C
330
1F
100
AcDbEntity
  8
ConnectionPoints
100
AcDbPoint
 10
0.0
 20
-2.0
 30
0.0000000000000001
  0
ENDSEC
  0
SECTION
  2
OBJECTS
  0
DICTIONARY
  5
C
330
0
100
AcDbDictionary
281
     1
  3
ACAD_DETAILVIEWSTYLE
350
264
  3
ACAD_GROUP
350
D
  3
ACAD_LAYOUT
350
1A
  3
ACAD_MATERIAL
350
43
  3
ACAD_MLEADERSTYLE
350
6B
  3
ACAD_MLINESTYLE
350
17
  3
ACAD_PLOTSETTINGS
350
19
  3
ACAD_PLOTSTYLENAME
350
E
  3
ACAD_SCALELIST
350
47
  3
ACAD_SECTIONVIEWSTYLE
350
265
  3
ACAD_TABLESTYLE
350
69
  3
ACAD_VISUALSTYLE
350
2A
  3
ACDB_RECOMPOSE_DATA
350
261
  3
AcDbVariableDictionary
350
25D
  0
SUN
  5
6D
330
29
100
AcDbSun
 90
        1
290
     0
 63
     7
421
 16777215
 40
1.0
291
     1
 91
  2455826
 92
 54000000
292
     0
 70
     2
 71
   256
280
     1
  0
DICTIONARY
  5
264
102
{ACAD_REACTORS
330
C
102
}
330
C
100
AcDbDictionary
281
     1
  0
DICTIONARY
  5
D
102
{ACAD_REACTORS
330
C
102
}
330
C
100
AcDbDictionary
281
     1
  0
DICTIONARY
  5
1A
102
{ACAD_REACTORS
330
C
102
}
330
C
100
AcDbDictionary
281
     1
  3
Layout1
350
1E
  3
Layout2
350
26
  3
Model
350
22
  0
DICTIONARY
  5
43
102
{ACAD_REACTORS
330
C
102
}
330
C
100
AcDbDictionary
281
     1
  3
ByBlock
350
45
  3
ByLayer
350
44
  3
Global
350
46
  0
DICTIONARY
  5
6B
102
{ACAD_REACTORS
330
C
102
}
330
C
100
AcDbDictionary
281
     1
  3
Standard
350
6C
  0
DICTIONARY
  5
17
102
{ACAD_REACTORS
330
C
102
}
330
C
100
AcDbDictionary
281
     1
  3
Standard
350
18
  0
DICTIONARY
  5
19
102
{ACAD_REACTORS
330
C
102
}
330
C
100
AcDbDictionary
281
     1
  0
ACDBDICTIONARYWDFLT
  5
E
102
{ACAD_REACTORS
330
C
102
}
330
C
100
AcDbDictionary
281
     1
  3
Normal
350
F
100
AcDbDictionaryWithDefault
340
F
  0
DICTIONARY
  5
47
102
{ACAD_REACTORS
330
C
102
}
330
C
100
AcDbDictionary
281
     1
  3
A0
350
48
  3
A1
350
49
  3
A2
350
4A
  3
A3
350
4B
  3
A4
350
4C
  3
A5
350
4D
  3
A6
350
4E
  3
A7
350
4F
  3
A8
350
50
  3
A9
350
51
  3
B0
350
52
  3
B1
350
53
  3
B2
350
54
  3
B3
350
55
  3
B4
350
56
  3
B5
350
57
  3
B6
350
58
  3
B7
350
59
  3
B8
350
5A
  3
B9
350
5B
  3
C0
350
5C
  3
C1
350
5D
  3
C2
350
5E
  3
C3
350
5F
  3
C4
350
60
  3
C5
350
61
  3
C6
350
62
  3
C7
350
63
  3
C8
350
64
  3
C9
350
65
  3
D0
350
66
  3
D1
350
67
  3
D2
350
68
  0
DICTIONARY
  5
265
102
{ACAD_REACTORS
330
C
102
}
330
C
100
AcDbDictionary
281
     1
  0
DICTIONARY
  5
69
102
{ACAD_REACTORS
330
C
102
}
330
C
100
AcDbDictionary
281
     1
  3
Standard
350
6A
  0
DICTIONARY
  5
2A
102
{ACAD_REACTORS
330
C
102
}
330
C
100
AcDbDictionary
281
     1
  3
2dWireframe
350
2F
  3
Basic
350
32
  3
Brighten
350
36
  3
ColorChange
350
3A
  3
Conceptual
350
34
  3
Dim
350
35
  3
EdgeColorOff
350
3D
  3
Facepattern
350
39
  3
Flat
350
2B
  3
FlatWithEdges
350
2C
  3
Gouraud
350
2D
  3
GouraudWithEdges
350
2E
  3
Hidden
350
31
  3
JitterOff
350
3B
  3
Linepattern
350
38
  3
OverhangOff
350
3C
  3
Realistic
350
33
  3
Shaded
350
42
  3
Shaded with edges
350
41
  3
Shades of Gray
350
3E
  3
Sketchy
350
3F
  3
Thicken
350
37
  3
Wireframe
350
30
  3
X-Ray
350
40
  0
XRECORD
  5
261
102
{ACAD_REACTORS
330
C
102
}
330
C
100
AcDbXrecord
280
     1
 90
        1
330
6A
  0
DICTIONARY
  5
25D
102
{ACAD_REACTORS
330
C
102
}
330
C
100
AcDbDictionary
281
     1
  3
CANNOSCALE
350
25E
  3
CMLEADERSTYLE
350
263
  3
CTABLESTYLE
350
262
  0
LAYOUT
  5
1E
102
{ACAD_REACTORS
330
1A
102
}
330
1A
100
AcDbPlotSettings
  1

  2
none_device
  4

  6

 40
0.0
 41
0.0
 42
0.0
 43
0.0
 44
0.0
 45
0.0
 46
0.0
 47
0.0
 48
0.0
 49
0.0
140
0.0
141
0.0
142
1.0
143
1.0
 70
   688
 72
     0
 73
     0
 74
     5
  7

 75
    16
 76
     0
 77
     2
 78
   300
147
1.0
148
0.0
149
0.0
100
AcDbLayout
  1
Layout1
 70
     1
 71
     1
 10
0.0
 20
0.0
 11
12.0
 21
9.0
 12
0.0
 22
0.0
 32
0.0
 14
1.000000000000000E+20
 24
1.000000000000000E+20
 34
1.000000000000000E+20
 15
-1.000000000000000E+20
 25
-1.000000000000000E+20
 35
-1.000000000000000E+20
146
0.0
 13
0.0
 23
0.0
 33
0.0
 16
1.0
 26
0.0
 36
0.0
 17
0.0
 27
1.0
 37
0.0
 76
     0
330
1B
  0
LAYOUT
  5
26
102
{ACAD_REACTORS
330
1A
102
}
330
1A
100
AcDbPlotSettings
  1

  2
none_device
  4

  6

 40
0.0
 41
0.0
 42
0.0
 43
0.0
 44
0.0
 45
0.0
 46
0.0
 47
0.0
 48
0.0
 49
0.0
140
0.0
141
0.0
142
1.0
143
1.0
 70
   688
 72
     0
 73
     0
 74
     5
  7

 75
    16
 76
     0
 77
     2
 78
   300
147
1.0
148
0.0
149
0.0
100
AcDbLayout
  1
Layout2
 70
     1
 71
     2
 10
0.0
 20
0.0
 11
0.0
 21
0.0
 12
0.0
 22
0.0
 32
0.0
 14
0.0
 24
0.0
 34
0.0
 15
0.0
 25
0.0
 35
0.0
146
0.0
 13
0.0
 23
0.0
 33
0.0
 16
1.0
 26
0.0
 36
0.0
 17
0.0
 27
1.0
 37
0.0
 76
     0
330
23
  0
LAYOUT
  5
22
102
{ACAD_REACTORS
330
1A
102
}
330
1A
100
AcDbPlotSettings
  1

  2
none_device
  4
Letter_(8.50_x_11.00_Inches)
  6

 40
6.35
 41
6.35
 42
6.35000508
 43
6.35000508
 44
215.9
 45
279.4
 46
0.0
 47
0.0
 48
0.0
 49
0.0
140
0.0
141
0.0
142
1.0
143
1.0
 70
  1712
 72
     0
 73
     0
 74
     0
  7

 75
     0
 76
     0
 77
     2
 78
   300
147
1.0
148
0.0
149
0.0
100
AcDbLayout
  1
Model
 70
     1
 71
     0
 10
0.0
 20
0.0
 11
12.0
 21
9.0
 12
0.0
 22
0.0
 32
0.0
 14
1.000000000000000E+20
 24
1.000000000000000E+20
 34
1.000000000000000E+20
 15
-1.000000000000000E+20
 25
-1.000000000000000E+20
 35
-1.000000000000000E+20
146
0.0
 13
0.0
 23
0.0
 33
0.0
 16
1.0
 26
0.0
 36
0.0
 17
0.0
 27
1.0
 37
0.0
 76
     0
330
1F
331
29
  0
MATERIAL
  5
45
102
{ACAD_REACTORS
330
43
102
}
330
43
100
AcDbMaterial
  1
ByBlock
 72
     1
 94
      127
  0
MATERIAL
  5
44
102
{ACAD_REACTORS
330
43
102
}
330
43
100
AcDbMaterial
  1
ByLayer
 72
     1
 94
      127
  0
MATERIAL
  5
46
102
{ACAD_REACTORS
330
43
102
}
330
43
100
AcDbMaterial
  1
Global
 72
     1
 94
      127
  0
MLEADERSTYLE
  5
6C
102
{ACAD_REACTORS
330
6B
102
}
330
6B
100
AcDbMLeaderStyle
179
     2
170
     2
171
     1
172
     0
 90
        2
 40
0.0
 41
0.0
173
     1
 91
-1056964608
340
14
 92
       -2
290
     1
 42
0.09
291
     1
 43
0.36
  3
Standard
341
0
 44
0.18
300

342
11
174
     1
178
     6
175
     1
176
     0
 93
-1056964608
 45
0.18
292
     0
297
     0
 46
0.18
343
0
 94
-1056964608
 47
1.0
 49
1.0
140
1.0
293
     1
141
0.0
294
     1
177
     0
142
1.0
295
     0
296
     0
143
0.125
271
     0
272
     9
273
     9
298
     0
  0
MLINESTYLE
  5
18
102
{ACAD_REACTORS
330
17
102
}
330
17
100
AcDbMlineStyle
  2
Standard
 70
     0
  3

 62
   256
 51
90.0
 52
90.0
 71
     2
 49
0.5
 62
   256
  6
BYLAYER
 49
-0.5
 62
   256
  6
BYLAYER
  0
ACDBPLACEHOLDER
  5
F
102
{ACAD_REACTORS
330
E
102
}
330
E
  0
SCALE
  5
48
102
{ACAD_REACTORS
330
47
102
}
330
47
100
AcDbScale
 70
     0
300
1:1
140
1.0
141
1.0
290
     1
  0
SCALE
  5
49
102
{ACAD_REACTORS
330
47
102
}
330
47
100
AcDbScale
 70
     0
300
1:2
140
1.0
141
2.0
290
     0
  0
SCALE
  5
4A
102
{ACAD_REACTORS
330
47
102
}
330
47
100
AcDbScale
 70
     0
300
1:4
140
1.0
141
4.0
290
     0
  0
SCALE
  5
4B
102
{ACAD_REACTORS
330
47
102
}
330
47
100
AcDbScale
 70
     0
300
1:5
140
1.0
141
5.0
290
     0
  0
SCALE
  5
4C
102
{ACAD_REACTORS
330
47
102
}
330
47
100
AcDbScale
 70
     0
300
1:8
140
1.0
141
8.0
290
     0
  0
SCALE
  5
4D
102
{ACAD_REACTORS
330
47
102
}
330
47
100
AcDbScale
 70
     0
300
1:10
140
1.0
141
10.0
290
     0
  0
SCALE
  5
4E
102
{ACAD_REACTORS
330
47
102
}
330
47
100
AcDbScale
 70
     0
300
1:16
140
1.0
141
16.0
290
     0
  0
SCALE
  5
4F
102
{ACAD_REACTORS
330
47
102
}
330
47
100
AcDbScale
 70
     0
300
1:20
140
1.0
141
20.0
290
     0
  0
SCALE
  5
50
102
{ACAD_REACTORS
330
47
102
}
330
47
100
AcDbScale
 70
     0
300
1:30
140
1.0
141
30.0
290
     0
  0
SCALE
  5
51
102
{ACAD_REACTORS
330
47
102
}
330
47
100
AcDbScale
 70
     0
300
1:40
140
1.0
141
40.0
290
     0
  0
SCALE
  5
52
102
{ACAD_REACTORS
330
47
102
}
330
47
100
AcDbScale
 70
     0
300
1:50
140
1.0
141
50.0
290
     0
  0
SCALE
  5
53
102
{ACAD_REACTORS
330
47
102
}
330
47
100
AcDbScale
 70
     0
300
1:100
140
1.0
141
100.0
290
     0
  0
SCALE
  5
54
102
{ACAD_REACTORS
330
47
102
}
330
47
100
AcDbScale
 70
     0
300
2:1
140
2.0
141
1.0
290
     0
  0
SCALE
  5
55
102
{ACAD_REACTORS
330
47
102
}
330
47
100
AcDbScale
 70
     0
300
4:1
140
4.0
141
1.0
290
     0
  0
SCALE
  5
56
102
{ACAD_REACTORS
330
47
102
}
330
47
100
AcDbScale
 70
     0
300
8:1
140
8.0
141
1.0
290
     0
  0
SCALE
  5
57
102
{ACAD_REACTORS
330
47
102
}
330
47
100
AcDbScale
 70
     0
300
10:1
140
10.0
141
1.0
290
     0
  0
SCALE
  5
58
102
{ACAD_REACTORS
330
47
102
}
330
47
100
AcDbScale
 70
     0
300
100:1
140
100.0
141
1.0
290
     0
  0
SCALE
  5
59
102
{ACAD_REACTORS
330
47
102
}
330
47
100
AcDbScale
 70
     0
300
1/128" = 1'-0"
140
0.0078125
141
12.0
290
     0
  0
SCALE
  5
5A
102
{ACAD_REACTORS
330
47
102
}
330
47
100
AcDbScale
 70
     0
300
1/64" = 1'-0"
140
0.015625
141
12.0
290
     0
  0
SCALE
  5
5B
102
{ACAD_REACTORS
330
47
102
}
330
47
100
AcDbScale
 70
     0
300
1/32" = 1'-0"
140
0.03125
141
12.0
290
     0
  0
SCALE
  5
5C
102
{ACAD_REACTORS
330
47
102
}
330
47
100
AcDbScale
 70
     0
300
1/16" = 1'-0"
140
0.0625
141
12.0
290
     0
  0
SCALE
  5
5D
102
{ACAD_REACTORS
330
47
102
}
330
47
100
AcDbScale
 70
     0
300
3/32" = 1'-0"
140
0.09375
141
12.0
290
     0
  0
SCALE
  5
5E
102
{ACAD_REACTORS
330
47
102
}
330
47
100
AcDbScale
 70
     0
300
1/8" = 1'-0"
140
0.125
141
12.0
290
     0
  0
SCALE
  5
5F
102
{ACAD_REACTORS
330
47
102
}
330
47
100
AcDbScale
 70
     0
300
3/16" = 1'-0"
140
0.1875
141
12.0
290
     0
  0
SCALE
  5
60
102
{ACAD_REACTORS
330
47
102
}
330
47
100
AcDbScale
 70
     0
300
1/4" = 1'-0"
140
0.25
141
12.0
290
     0
  0
SCALE
  5
61
102
{ACAD_REACTORS
330
47
102
}
330
47
100
AcDbScale
 70
     0
300
3/8" = 1'-0"
140
0.375
141
12.0
290
     0
  0
SCALE
  5
62
102
{ACAD_REACTORS
330
47
102
}
330
47
100
AcDbScale
 70
     0
300
1/2" = 1'-0"
140
0.5
141
12.0
290
     0
  0
SCALE
  5
63
102
{ACAD_REACTORS
330
47
102
}
330
47
100
AcDbScale
 70
     0
300
3/4" = 1'-0"
140
0.75
141
12.0
290
     0
  0
SCALE
  5
64
102
{ACAD_REACTORS
330
47
102
}
330
47
100
AcDbScale
 70
     0
300
1" = 1'-0"
140
1.0
141
12.0
290
     0
  0
SCALE
  5
65
102
{ACAD_REACTORS
330
47
102
}
330
47
100
AcDbScale
 70
     0
300
1-1/2" = 1'-0"
140
1.5
141
12.0
290
     0
  0
SCALE
  5
66
102
{ACAD_REACTORS
330
47
102
}
330
47
100
AcDbScale
 70
     0
300
3" = 1'-0"
140
3.0
141
12.0
290
     0
  0
SCALE
  5
67
102
{ACAD_REACTORS
330
47
102
}
330
47
100
AcDbScale
 70
     0
300
6" = 1'-0"
140
6.0
141
12.0
290
     0
  0
SCALE
  5
68
102
{ACAD_REACTORS
330
47
102
}
330
47
100
AcDbScale
 70
     0
300
1'-0" = 1'-0"
140
12.0
141
12.0
290
     0
  0
TABLESTYLE
  5
6A
102
{ACAD_REACTORS
330
69
102
}
102
{ACAD_XDICTIONARY
360
25F
102
}
330
69
100
AcDbTableStyle
  3
Standard
 70
     0
 71
     0
 40
0.06
 41
0.06
280
     0
281
     0
  7
Standard
140
0.18
170
     2
 62
     0
 63
   257
283
     0
 90
        4
 91
        0
  1

274
    -2
284
     1
 64
     0
275
    -2
285
     1
 65
     0
276
    -2
286
     1
 66
     0
277
    -2
287
     1
 67
     0
278
    -2
288
     1
 68
     0
279
    -2
289
     1
 69
     0
  7
Standard
140
0.25
170
     5
 62
     0
 63
   257
283
     0
 90
        4
 91
        0
  1

274
    -2
284
     1
 64
     0
275
    -2
285
     1
 65
     0
276
    -2
286
     1
 66
     0
277
    -2
287
     1
 67
     0
278
    -2
288
     1
 68
     0
279
    -2
289
     1
 69
     0
  7
Standard
140
0.18
170
     5
 62
     0
 63
   257
283
     0
 90
        4
 91
        0
  1

274
    -2
284
     1
 64
     0
275
    -2
285
     1
 65
     0
276
    -2
286
     1
 66
     0
277
    -2
287
     1
 67
     0
278
    -2
288
     1
 68
     0
279
    -2
289
     1
 69
     0
  0
VISUALSTYLE
  5
2F
102
{ACAD_REACTORS
330
2A
102
}
330
2A
100
AcDbVisualStyle
  2
2dWireframe
 70
     4
177
     3
291
     0
 70
    58
 90
        0
176
     1
 90
        2
176
     1
 90
        0
176
     1
 90
        0
176
     1
 40
0.6
176
     1
 40
30.0
176
     1
 62
     7
420
 16777215
176
     1
 90
        1
176
     1
 90
        4
176
     1
 62
     7
176
     1
 62
   257
176
     1
 90
        1
176
     1
 90
        1
176
     1
 40
1.0
176
     1
 90
        0
176
     1
 62
   257
176
     1
 40
1.0
176
     1
 90
        1
176
     1
 90
        6
176
     1
 90
        2
176
     1
 62
     7
176
     1
 90
        5
176
     1
 90
        0
176
     1
 90
        0
176
     1
290
     0
176
     1
 90
        1
176
     1
 40
0.0
176
     1
 90
        0
176
     1
290
     1
176
     1
290
     1
176
     1
290
     0
176
     1
290
     0
176
     1
290
     0
176
     1
290
     0
176
     1
290
     0
176
     1
290
     0
176
     1
290
     0
176
     1
 90
       50
176
     1
 40
0.0
176
     1
 40
1.0
176
     1
 90
        0
176
     1
 62
    18
420
        0
176
     1
 90
       50
176
     1
 90
        3
176
     1
 62
     5
420
      255
176
     1
290
     0
176
     1
 90
       50
176
     1
 90
       50
176
     1
 90
       50
176
     1
290
     0
176
     1
 90
       50
176
     1
 62
   256
176
     0
 40
1.0
176
     0
 90
        2
176
     1
  1
strokes_ogs.tif
176
     1
290
     0
176
     1
 40
1.0
176
     1
 40
1.0
176
     1
  0
VISUALSTYLE
  5
32
102
{ACAD_REACTORS
330
2A
102
}
330
2A
100
AcDbVisualStyle
  2
Basic
 70
     7
177
     3
291
     1
 70
    58
 90
        1
176
     1
 90
        0
176
     1
 90
        1
176
     1
 90
        0
176
     1
 40
0.6
176
     1
 40
30.0
176
     1
 62
     7
420
 16777215
176
     1
 90
        0
176
     1
 90
        4
176
     1
 62
     7
176
     1
 62
   257
176
     1
 90
        1
176
     1
 90
        1
176
     1
 40
1.0
176
     1
 90
        8
176
     1
 62
     7
176
     1
 40
1.0
176
     1
 90
        1
176
     1
 90
        6
176
     1
 90
        2
176
     1
 62
     7
176
     1
 90
        5
176
     1
 90
        0
176
     1
 90
        0
176
     1
290
     0
176
     1
 90
        1
176
     1
 40
0.0
176
     1
 90
        0
176
     1
290
     0
176
     1
290
     1
176
     1
290
     1
176
     1
290
     0
176
     1
290
     0
176
     1
290
     0
176
     1
290
     0
176
     1
290
     0
176
     1
290
     0
176
     1
 90
       50
176
     1
 40
0.0
176
     1
 40
1.0
176
     1
 90
        0
176
     1
 62
    18
420
        0
176
     1
 90
       50
176
     1
 90
        3
176
     1
 62
     5
420
      255
176
     1
290
     0
176
     1
 90
       50
176
     1
 90
       50
176
     1
 90
       50
176
     1
290
     0
176
     1
 90
       50
176
     1
 62
   256
176
     0
 40
1.0
176
     0
 90
        2
176
     1
  1
strokes_ogs.tif
176
     1
290
     0
176
     1
 40
1.0
176
     1
 40
1.0
176
     1
  0
VISUALSTYLE
  5
36
102
{ACAD_REACTORS
330
2A
102
}
330
2A
100
AcDbVisualStyle
  2
Brighten
 70
    12
177
     3
291
     1
 70
    58
 90
        2
176
     1
 90
        2
176
     1
 90
        0
176
     1
 90
        0
176
     1
 40
0.6
176
     1
 40
30.0
176
     1
 62
     7
420
 16777215
176
     1
 90
        1
176
     1
 90
        4
176
     1
 62
     7
176
     1
 62
   257
176
     1
 90
        1
176
     1
 90
        1
176
     1
 40
1.0
176
     1
 90
        8
176
     1
 62
     7
176
     1
 40
1.0
176
     1
 90
        1
176
     1
 90
        6
176
     1
 90
        2
176
     1
 62
     7
176
     1
 90
        5
176
     1
 90
        0
176
     1
 90
        0
176
     1
290
     0
176
     1
 90
        1
176
     1
 40
50.0
176
     1
 90
        0
176
     1
290
     0
176
     1
290
     1
176
     1
290
     1
176
     1
290
     0
176
     1
290
     0
176
     1
290
     0
176
     1
290
     0
176
     1
290
     0
176
     1
290
     0
176
     1
 90
       50
176
     1
 40
0.0
176
     1
 40
1.0
176
     1
 90
        0
176
     1
 62
    18
420
        0
176
     1
 90
       50
176
     1
 90
        3
176
     1
 62
     5
420
      255
176
     1
290
     0
176
     1
 90
       50
176
     1
 90
       50
176
     1
 90
       50
176
     1
290
     0
176
     1
 90
       50
176
     1
 62
   256
176
     0
 40
1.0
176
     0
 90
        2
176
     1
  1
strokes_ogs.tif
176
     1
290
     0
176
     1
 40
1.0
176
     1
 40
1.0
176
     1
  0
VISUALSTYLE
  5
3A
102
{ACAD_REACTORS
330
2A
102
}
330
2A
100
AcDbVisualStyle
  2
ColorChange
 70
    16
177
     3
291
     1
 70
    58
 90
        2
176
     1
 90
        2
176
     1
 90
        3
176
     1
 90
        0
176
     1
 40
0.6
176
     1
 40
30.0
176
     1
 62
     8
420
  8421504
176
     1
 90
        1
176
     1
 90
        4
176
     1
 62
     7
176
     1
 62
   257
176
     1
 90
        1
176
     1
 90
        1
176
     1
 40
1.0
176
     1
 90
        8
176
     1
 62
     8
420
  8421504
176
     1
 40
1.0
176
     1
 90
        1
176
     1
 90
        6
176
     1
 90
        2
176
     1
 62
     7
176
     1
 90
        5
176
     1
 90
        0
176
     1
 90
        0
176
     1
290
     0
176
     1
 90
        1
176
     1
 40
0.0
176
     1
 90
        0
176
     1
290
     0
176
     1
290
     1
176
     1
290
     1
176
     1
290
     0
176
     1
290
     0
176
     1
290
     0
176
     1
290
     0
176
     1
290
     0
176
     1
290
     0
176
     1
 90
       50
176
     1
 40
0.0
176
     1
 40
1.0
176
     1
 90
        0
176
     1
 62
    18
420
        0
176
     1
 90
       50
176
     1
 90
        3
176
     1
 62
     5
420
      255
176
     1
290
     0
176
     1
 90
       50
176
     1
 90
       50
176
     1
 90
       50
176
     1
290
     0
176
     1
 90
       50
176
     1
 62
   256
176
     0
 40
1.0
176
     0
 90
        2
176
     1
  1
strokes_ogs.tif
176
     1
290
     0
176
     1
 40
1.0
176
     1
 40
1.0
176
     1
  0
VISUALSTYLE
  5
34
102
{ACAD_REACTORS
330
2A
102
}
330
2A
100
AcDbVisualStyle
  2
Conceptual
 70
     9
177
     3
291
     0
 70
    58
 90
        3
176
     1
 90
        2
176
     1
 90
        0
176
     1
 90
        0
176
     1
 40
0.6
176
     1
 40
30.0
176
     1
 62
     7
420
 16777215
176
     1
 90
        2
176
     1
 90
        2
176
     1
 62
     7
176
     1
 62
   257
176
     1
 90
        1
176
     1
 90
        1
176
     1
 40
179.0
176
     1
 90
        8
176
     1
 62
     7
176
     1
 40
1.0
176
     1
 90
        1
176
     1
 90
        6
176
     1
 90
        2
176
     1
 62
     7
176
     1
 90
        3
176
     1
 90
        0
176
     1
 90
        0
176
     1
290
     0
176
     1
 90
        1
176
     1
 40
0.0
176
     1
 90
        0
176
     1
290
     0
176
     1
290
     1
176
     1
290
     1
176
     1
290
     0
176
     1
290
     0
176
     1
290
     0
176
     1
290
     0
176
     1
290
     0
176
     1
290
     0
176
     1
 90
       50
176
     1
 40
0.0
176
     1
 40
1.0
176
     1
 90
        0
176
     1
 62
    18
420
        0
176
     1
 90
       50
176
     1
 90
        3
176
     1
 62
     5
420
      255
176
     1
290
     0
176
     1
 90
       50
176
     1
 90
       50
176
     1
 90
       50
176
     1
290
     0
176
     1
 90
       50
176
     1
 62
   256
176
     0
 40
1.0
176
     0
 90
        2
176
     1
  1
strokes_ogs.tif
176
     1
290
     0
176
     1
 40
1.0
176
     1
 40
1.0
176
     1
  0
VISUALSTYLE
  5
35
102
{ACAD_REACTORS
330
2A
102
}
330
2A
100
AcDbVisualStyle
  2
Dim
 70
    11
177
     3
291
     1
 70
    58
 90
        2
176
     1
 90
        2
176
     1
 90
        0
176
     1
 90
        0
176
     1
 40
0.6
176
     1
 40
30.0
176
     1
 62
     7
420
 16777215
176
     1
 90
        1
176
     1
 90
        4
176
     1
 62
     7
176
     1
 62
   257
176
     1
 90
        1
176
     1
 90
        1
176
     1
 40
1.0
176
     1
 90
        8
176
     1
 62
     7
176
     1
 40
1.0
176
     1
 90
        1
176
     1
 90
        6
176
     1
 90
        2
176
     1
 62
     7
176
     1
 90
        5
176
     1
 90
        0
176
     1
 90
        0
176
     1
290
     0
176
     1
 90
        1
176
     1
 40
-50.0
176
     1
 90
        0
176
     1
290
     0
176
     1
290
     1
176
     1
290
     1
176
     1
290
     0
176
     1
290
     0
176
     1
290
     0
176
     1
290
     0
176
     1
290
     0
176
     1
290
     0
176
     1
 90
       50
176
     1
 40
0.0
176
     1
 40
1.0
176
     1
 90
        0
176
     1
 62
    18
420
        0
176
     1
 90
       50
176
     1
 90
        3
176
     1
 62
     5
420
      255
176
     1
290
     0
176
     1
 90
       50
176
     1
 90
       50
176
     1
 90
       50
176
     1
290
     0
176
     1
 90
       50
176
     1
 62
   256
176
     0
 40
1.0
176
     0
 90
        2
176
     1
  1
strokes_ogs.tif
176
     1
290
     0
176
     1
 40
1.0
176
     1
 40
1.0
176
     1
  0
VISUALSTYLE
  5
3D
102
{ACAD_REACTORS
330
2A
102
}
330
2A
100
AcDbVisualStyle
  2
EdgeColorOff
 70
    22
177
     3
291
     1
 70
    58
 90
        2
176
     0
 90
        2
176
     0
 90
        0
176
     0
 90
        0
176
     0
 40
0.6
176
     0
 40
30.0
176
     0
 62
     7
420
 16777215
176
     0
 90
        1
176
     0
 90
        4
176
     0
 62
     7
176
     0
 62
   257
176
     0
 90
        1
176
     0
 90
        1
176
     0
 40
1.0
176
     0
 90
        8
176
     2
 62
     7
176
     0
 40
1.0
176
     0
 90
        1
176
     0
 90
        6
176
     0
 90
        2
176
     0
 62
     7
176
     0
 90
        5
176
     0
 90
        0
176
     0
 90
        0
176
     0
290
     0
176
     0
 90
        1
176
     0
 40
0.0
176
     0
 90
        0
176
     0
290
     0
176
     0
290
     1
176
     0
290
     1
176
     0
290
     0
176
     0
290
     0
176
     0
290
     0
176
     0
290
     0
176
     0
290
     0
176
     0
290
     0
176
     0
 90
       50
176
     0
 40
0.0
176
     0
 40
1.0
176
     0
 90
        0
176
     0
 62
    18
420
        0
176
     0
 90
       50
176
     0
 90
        3
176
     0
 62
     5
420
      255
176
     0
290
     0
176
     0
 90
       50
176
     0
 90
       50
176
     0
 90
       50
176
     0
290
     0
176
     0
 90
       50
176
     0
 62
   256
176
     0
 40
1.0
176
     0
 90
        2
176
     0
  1
strokes_ogs.tif
176
     0
290
     0
176
     0
 40
1.0
176
     0
 40
1.0
176
     0
  0
VISUALSTYLE
  5
39
102
{ACAD_REACTORS
330
2A
102
}
330
2A
100
AcDbVisualStyle
  2
Facepattern
 70
    15
177
     3
291
     1
 70
    58
 90
        2
176
     1
 90
        2
176
     1
 90
        0
176
     1
 90
        0
176
     1
 40
0.6
176
     1
 40
30.0
176
     1
 62
     7
420
 16777215
176
     1
 90
        1
176
     1
 90
        4
176
     1
 62
     7
176
     1
 62
   257
176
     1
 90
        1
176
     1
 90
        1
176
     1
 40
1.0
176
     1
 90
        8
176
     1
 62
     7
176
     1
 40
1.0
176
     1
 90
        1
176
     1
 90
        6
176
     1
 90
        2
176
     1
 62
     7
176
     1
 90
        5
176
     1
 90
        0
176
     1
 90
        0
176
     1
290
     0
176
     1
 90
        1
176
     1
 40
0.0
176
     1
 90
        0
176
     1
290
     0
176
     1
290
     1
176
     1
290
     1
176
     1
290
     0
176
     1
290
     0
176
     1
290
     0
176
     1
290
     0
176
     1
290
     0
176
     1
290
     0
176
     1
 90
       50
176
     1
 40
0.0
176
     1
 40
1.0
176
     1
 90
        0
176
     1
 62
    18
420
        0
176
     1
 90
       50
176
     1
 90
        3
176
     1
 62
     5
420
      255
176
     1
290
     0
176
     1
 90
       50
176
     1
 90
       50
176
     1
 90
       50
176
     1
290
     0
176
     1
 90
       50
176
     1
 62
   256
176
     0
 40
1.0
176
     0
 90
        2
176
     1
  1
strokes_ogs.tif
176
     1
290
     0
176
     1
 40
1.0
176
     1
 40
1.0
176
     1
  0
VISUALSTYLE
  5
2B
102
{ACAD_REACTORS
330
2A
102
}
330
2A
100
AcDbVisualStyle
  2
Flat
 70
     0
177
     3
291
     1
 70
    58
 90
        2
176
     1
 90
        1
176
     1
 90
        1
176
     1
 90
        2
176
     1
 40
0.6
176
     1
 40
30.0
176
     1
 62
     7
420
 16777215
176
     1
 90
        0
176
     1
 90
        0
176
     1
 62
     7
176
     1
 62
   257
176
     1
 90
        1
176
     1
 90
        1
176
     1
 40
1.0
176
     1
 90
        8
176
     1
 62
     7
176
     1
 40
1.0
176
     1
 90
        1
176
     1
 90
        6
176
     1
 90
        2
176
     1
 62
     7
176
     1
 90
        5
176
     1
 90
        0
176
     1
 90
        0
176
     1
290
     0
176
     1
 90
       13
176
     1
 40
0.0
176
     1
 90
        0
176
     1
290
     0
176
     1
290
     1
176
     1
290
     1
176
     1
290
     0
176
     1
290
     0
176
     1
290
     0
176
     1
290
     0
176
     1
290
     0
176
     1
290
     0
176
     1
 90
       50
176
     1
 40
0.0
176
     1
 40
1.0
176
     1
 90
        0
176
     1
 62
    18
420
        0
176
     1
 90
       50
176
     1
 90
        3
176
     1
 62
     5
420
      255
176
     1
290
     0
176
     1
 90
       50
176
     1
 90
       50
176
     1
 90
       50
176
     1
290
     0
176
     1
 90
       50
176
     1
 62
   256
176
     0
 40
1.0
176
     0
 90
        2
176
     1
  1
strokes_ogs.tif
176
     1
290
     0
176
     1
 40
1.0
176
     1
 40
1.0
176
     1
  0
VISUALSTYLE
  5
2C
102
{ACAD_REACTORS
330
2A
102
}
330
2A
100
AcDbVisualStyle
  2
FlatWithEdges
 70
     1
177
     3
291
     1
 70
    58
 90
        2
176
     1
 90
        1
176
     1
 90
        1
176
     1
 90
        2
176
     1
 40
0.6
176
     1
 40
30.0
176
     1
 62
     7
420
 16777215
176
     1
 90
        1
176
     1
 90
        0
176
     1
 62
     7
176
     1
 62
   257
176
     1
 90
        1
176
     1
 90
        1
176
     1
 40
1.0
176
     1
 90
        0
176
     1
 62
   257
176
     1
 40
1.0
176
     1
 90
        1
176
     1
 90
        6
176
     1
 90
        2
176
     1
 62
     7
176
     1
 90
        5
176
     1
 90
        0
176
     1
 90
        0
176
     1
290
     0
176
     1
 90
       13
176
     1
 40
0.0
176
     1
 90
        0
176
     1
290
     0
176
     1
290
     1
176
     1
290
     1
176
     1
290
     0
176
     1
290
     0
176
     1
290
     0
176
     1
290
     0
176
     1
290
     0
176
     1
290
     0
176
     1
 90
       50
176
     1
 40
0.0
176
     1
 40
1.0
176
     1
 90
        0
176
     1
 62
    18
420
        0
176
     1
 90
       50
176
     1
 90
        3
176
     1
 62
     5
420
      255
176
     1
290
     0
176
     1
 90
       50
176
     1
 90
       50
176
     1
 90
       50
176
     1
290
     0
176
     1
 90
       50
176
     1
 62
   256
176
     0
 40
1.0
176
     0
 90
        2
176
     1
  1
strokes_ogs.tif
176
     1
290
     0
176
     1
 40
1.0
176
     1
 40
1.0
176
     1
  0
VISUALSTYLE
  5
2D
102
{ACAD_REACTORS
330
2A
102
}
330
2A
100
AcDbVisualStyle
  2
Gouraud
 70
     2
177
     3
291
     1
 70
    58
 90
        2
176
     1
 90
        2
176
     1
 90
        1
176
     1
 90
        2
176
     1
 40
0.6
176
     1
 40
30.0
176
     1
 62
     7
420
 16777215
176
     1
 90
        0
176
     1
 90
        0
176
     1
 62
     7
176
     1
 62
   257
176
     1
 90
        1
176
     1
 90
        1
176
     1
 40
1.0
176
     1
 90
        0
176
     1
 62
     7
176
     1
 40
1.0
176
     1
 90
        1
176
     1
 90
        6
176
     1
 90
        2
176
     1
 62
     7
176
     1
 90
        5
176
     1
 90
        0
176
     1
 90
        0
176
     1
290
     0
176
     1
 90
       13
176
     1
 40
0.0
176
     1
 90
        0
176
     1
290
     0
176
     1
290
     1
176
     1
290
     1
176
     1
290
     0
176
     1
290
     0
176
     1
290
     0
176
     1
290
     0
176
     1
290
     0
176
     1
290
     0
176
     1
 90
       50
176
     1
 40
0.0
176
     1
 40
1.0
176
     1
 90
        0
176
     1
 62
    18
420
        0
176
     1
 90
       50
176
     1
 90
        3
176
     1
 62
     5
420
      255
176
     1
290
     0
176
     1
 90
       50
176
     1
 90
       50
176
     1
 90
       50
176
     1
290
     0
176
     1
 90
       50
176
     1
 62
   256
176
     0
 40
1.0
176
     0
 90
        2
176
     1
  1
strokes_ogs.tif
176
     1
290
     0
176
     1
 40
1.0
176
     1
 40
1.0
176
     1
  0
VISUALSTYLE
  5
2E
102
{ACAD_REACTORS
330
2A
102
}
330
2A
100
AcDbVisualStyle
  2
GouraudWithEdges
 70
     3
177
     3
291
     1
 70
    58
 90
        2
176
     1
 90
        2
176
     1
 90
        1
176
     1
 90
        2
176
     1
 40
0.6
176
     1
 40
30.0
176
     1
 62
     7
420
 16777215
176
     1
 90
        1
176
     1
 90
        0
176
     1
 62
     7
176
     1
 62
   257
176
     1
 90
        1
176
     1
 90
        1
176
     1
 40
1.0
176
     1
 90
        0
176
     1
 62
   257
176
     1
 40
1.0
176
     1
 90
        1
176
     1
 90
        6
176
     1
 90
        2
176
     1
 62
     7
176
     1
 90
        5
176
     1
 90
        0
176
     1
 90
        0
176
     1
290
     0
176
     1
 90
       13
176
     1
 40
0.0
176
     1
 90
        0
176
     1
290
     0
176
     1
290
     1
176
     1
290
     1
176
     1
290
     0
176
     1
290
     0
176
     1
290
     0
176
     1
290
     0
176
     1
290
     0
176
     1
290
     0
176
     1
 90
       50
176
     1
 40
0.0
176
     1
 40
1.0
176
     1
 90
        0
176
     1
 62
    18
420
        0
176
     1
 90
       50
176
     1
 90
        3
176
     1
 62
     5
420
      255
176
     1
290
     0
176
     1
 90
       50
176
     1
 90
       50
176
     1
 90
       50
176
     1
290
     0
176
     1
 90
       50
176
     1
 62
   256
176
     0
 40
1.0
176
     0
 90
        2
176
     1
  1
strokes_ogs.tif
176
     1
290
     0
176
     1
 40
1.0
176
     1
 40
1.0
176
     1
  0
VISUALSTYLE
  5
31
102
{ACAD_REACTORS
330
2A
102
}
330
2A
100
AcDbVisualStyle
  2
Hidden
 70
     6
177
     3
291
     0
 70
    58
 90
        1
176
     1
 90
        2
176
     1
 90
        2
176
     1
 90
        0
176
     1
 40
0.6
176
     1
 40
30.0
176
     1
 62
     7
420
 16777215
176
     1
 90
        2
176
     1
 90
        2
176
     1
 62
     7
176
     1
 62
   257
176
     1
 90
        2
176
     1
 90
        1
176
     1
 40
40.0
176
     1
 90
        0
176
     1
 62
   257
176
     1
 40
1.0
176
     1
 90
        1
176
     1
 90
        6
176
     1
 90
        2
176
     1
 62
     7
176
     1
 90
        3
176
     1
 90
        0
176
     1
 90
        0
176
     1
290
     0
176
     1
 90
        1
176
     1
 40
0.0
176
     1
 90
        0
176
     1
290
     0
176
     1
290
     1
176
     1
290
     1
176
     1
290
     0
176
     1
290
     0
176
     1
290
     0
176
     1
290
     0
176
     1
290
     0
176
     1
290
     0
176
     1
 90
       50
176
     1
 40
0.0
176
     1
 40
1.0
176
     1
 90
        0
176
     1
 62
    18
420
        0
176
     1
 90
       50
176
     1
 90
        3
176
     1
 62
     5
420
      255
176
     1
290
     0
176
     1
 90
       50
176
     1
 90
       50
176
     1
 90
       50
176
     1
290
     0
176
     1
 90
       50
176
     1
 62
   256
176
     0
 40
1.0
176
     0
 90
        2
176
     1
  1
strokes_ogs.tif
176
     1
290
     0
176
     1
 40
1.0
176
     1
 40
1.0
176
     1
  0
VISUALSTYLE
  5
3B
102
{ACAD_REACTORS
330
2A
102
}
330
2A
100
AcDbVisualStyle
  2
JitterOff
 70
    20
177
     3
291
     1
 70
    58
 90
        2
176
     0
 90
        2
176
     0
 90
        0
176
     0
 90
        0
176
     0
 40
0.6
176
     0
 40
30.0
176
     0
 62
     7
420
 16777215
176
     0
 90
        1
176
     0
 90
        4
176
     0
 62
     7
176
     0
 62
   257
176
     0
 90
        1
176
     0
 90
        1
176
     0
 40
1.0
176
     0
 90
       10
176
     2
 62
     7
176
     0
 40
1.0
176
     0
 90
        1
176
     0
 90
        6
176
     0
 90
        2
176
     0
 62
     7
176
     0
 90
        5
176
     0
 90
        0
176
     0
 90
        0
176
     0
290
     0
176
     0
 90
        1
176
     0
 40
0.0
176
     0
 90
        0
176
     0
290
     0
176
     0
290
     1
176
     0
290
     1
176
     0
290
     0
176
     0
290
     0
176
     0
290
     0
176
     0
290
     0
176
     0
290
     0
176
     0
290
     0
176
     0
 90
       50
176
     0
 40
0.0
176
     0
 40
1.0
176
     0
 90
        0
176
     0
 62
    18
420
        0
176
     0
 90
       50
176
     0
 90
        3
176
     0
 62
     5
420
      255
176
     0
290
     0
176
     0
 90
       50
176
     0
 90
       50
176
     0
 90
       50
176
     0
290
     0
176
     0
 90
       50
176
     0
 62
   256
176
     0
 40
1.0
176
     0
 90
        2
176
     0
  1
strokes_ogs.tif
176
     0
290
     0
176
     0
 40
1.0
176
     0
 40
1.0
176
     0
  0
VISUALSTYLE
  5
38
102
{ACAD_REACTORS
330
2A
102
}
330
2A
100
AcDbVisualStyle
  2
Linepattern
 70
    14
177
     3
291
     1
 70
    58
 90
        2
176
     1
 90
        2
176
     1
 90
        0
176
     1
 90
        0
176
     1
 40
0.6
176
     1
 40
30.0
176
     1
 62
     7
420
 16777215
176
     1
 90
        1
176
     1
 90
        4
176
     1
 62
     7
176
     1
 62
   257
176
     1
 90
        7
176
     1
 90
        7
176
     1
 40
1.0
176
     1
 90
        8
176
     1
 62
     7
176
     1
 40
1.0
176
     1
 90
        1
176
     1
 90
        6
176
     1
 90
        2
176
     1
 62
     7
176
     1
 90
        5
176
     1
 90
        0
176
     1
 90
        0
176
     1
290
     0
176
     1
 90
        1
176
     1
 40
0.0
176
     1
 90
        0
176
     1
290
     0
176
     1
290
     1
176
     1
290
     1
176
     1
290
     0
176
     1
290
     0
176
     1
290
     0
176
     1
290
     0
176
     1
290
     0
176
     1
290
     0
176
     1
 90
       50
176
     1
 40
0.0
176
     1
 40
1.0
176
     1
 90
        0
176
     1
 62
    18
420
        0
176
     1
 90
       50
176
     1
 90
        3
176
     1
 62
     5
420
      255
176
     1
290
     0
176
     1
 90
       50
176
     1
 90
       50
176
     1
 90
       50
176
     1
290
     0
176
     1
 90
       50
176
     1
 62
   256
176
     0
 40
1.0
176
     0
 90
        2
176
     1
  1
strokes_ogs.tif
176
     1
290
     0
176
     1
 40
1.0
176
     1
 40
1.0
176
     1
  0
VISUALSTYLE
  5
3C
102
{ACAD_REACTORS
330
2A
102
}
330
2A
100
AcDbVisualStyle
  2
OverhangOff
 70
    21
177
     3
291
     1
 70
    58
 90
        2
176
     0
 90
        2
176
     0
 90
        0
176
     0
 90
        0
176
     0
 40
0.6
176
     0
 40
30.0
176
     0
 62
     7
420
 16777215
176
     0
 90
        1
176
     0
 90
        4
176
     0
 62
     7
176
     0
 62
   257
176
     0
 90
        1
176
     0
 90
        1
176
     0
 40
1.0
176
     0
 90
        9
176
     2
 62
     7
176
     0
 40
1.0
176
     0
 90
        1
176
     0
 90
        6
176
     0
 90
        2
176
     0
 62
     7
176
     0
 90
        5
176
     0
 90
        0
176
     0
 90
        0
176
     0
290
     0
176
     0
 90
        1
176
     0
 40
0.0
176
     0
 90
        0
176
     0
290
     0
176
     0
290
     1
176
     0
290
     1
176
     0
290
     0
176
     0
290
     0
176
     0
290
     0
176
     0
290
     0
176
     0
290
     0
176
     0
290
     0
176
     0
 90
       50
176
     0
 40
0.0
176
     0
 40
1.0
176
     0
 90
        0
176
     0
 62
    18
420
        0
176
     0
 90
       50
176
     0
 90
        3
176
     0
 62
     5
420
      255
176
     0
290
     0
176
     0
 90
       50
176
     0
 90
       50
176
     0
 90
       50
176
     0
290
     0
176
     0
 90
       50
176
     0
 62
   256
176
     0
 40
1.0
176
     0
 90
        2
176
     0
  1
strokes_ogs.tif
176
     0
290
     0
176
     0
 40
1.0
176
     0
 40
1.0
176
     0
  0
VISUALSTYLE
  5
33
102
{ACAD_REACTORS
330
2A
102
}
330
2A
100
AcDbVisualStyle
  2
Realistic
 70
     8
177
     3
291
     0
 70
    58
 90
        2
176
     1
 90
        3
176
     1
 90
        0
176
     1
 90
        2
176
     1
 40
0.6
176
     1
 40
30.0
176
     1
 62
     7
420
 16777215
176
     1
 90
        0
176
     1
 90
        0
176
     1
 62
     7
176
     1
 62
   257
176
     1
 90
        1
176
     1
 90
        1
176
     1
 40
1.0
176
     1
 90
        8
176
     1
 62
   257
176
     1
 40
1.0
176
     1
 90
        1
176
     1
 90
        6
176
     1
 90
        2
176
     1
 62
     7
176
     1
 90
        3
176
     1
 90
        0
176
     1
 90
        0
176
     1
290
     0
176
     1
 90
       13
176
     1
 40
0.0
176
     1
 90
        0
176
     1
290
     0
176
     1
290
     1
176
     1
290
     1
176
     1
290
     0
176
     1
290
     0
176
     1
290
     0
176
     1
290
     0
176
     1
290
     0
176
     1
290
     0
176
     1
 90
       50
176
     1
 40
0.0
176
     1
 40
1.0
176
     1
 90
        0
176
     1
 62
    18
420
        0
176
     1
 90
       50
176
     1
 90
        3
176
     1
 62
     5
420
      255
176
     1
290
     0
176
     1
 90
       50
176
     1
 90
       50
176
     1
 90
       50
176
     1
290
     0
176
     1
 90
       50
176
     1
 62
   256
176
     0
 40
1.0
176
     0
 90
        2
176
     1
  1
strokes_ogs.tif
176
     1
290
     0
176
     1
 40
1.0
176
     1
 40
1.0
176
     1
  0
VISUALSTYLE
  5
42
102
{ACAD_REACTORS
330
2A
102
}
330
2A
100
AcDbVisualStyle
  2
Shaded
 70
    27
177
     3
291
     0
 70
    58
 90
        2
176
     1
 90
        2
176
     1
 90
        1
176
     1
 90
        2
176
     1
 40
0.6
176
     1
 40
30.0
176
     1
 62
     7
420
 16777215
176
     1
 90
        0
176
     1
 90
        4
176
     1
 62
     7
176
     1
 62
   257
176
     1
 90
        1
176
     1
 90
        1
176
     1
 40
1.0
176
     1
 90
        8
176
     1
 62
   257
176
     1
 40
1.0
176
     1
 90
        1
176
     1
 90
        6
176
     1
 90
        2
176
     1
 62
     8
420
  7895160
176
     1
 90
        3
176
     1
 90
        0
176
     1
 90
        0
176
     1
290
     0
176
     1
 90
        5
176
     1
 40
0.0
176
     1
 90
        0
176
     1
290
     0
176
     1
290
     1
176
     1
290
     1
176
     1
290
     0
176
     1
290
     0
176
     1
290
     0
176
     1
290
     0
176
     1
290
     0
176
     1
290
     0
176
     1
 90
       50
176
     1
 40
0.0
176
     1
 40
1.0
176
     1
 90
        0
176
     1
 62
    18
420
        0
176
     1
 90
       50
176
     1
 90
        3
176
     1
 62
     5
420
      255
176
     1
290
     0
176
     1
 90
       50
176
     1
 90
       50
176
     1
 90
       50
176
     1
290
     0
176
     1
 90
       50
176
     1
 62
   256
176
     0
 40
1.0
176
     0
 90
        2
176
     1
  1
strokes_ogs.tif
176
     1
290
     0
176
     1
 40
1.0
176
     1
 40
1.0
176
     1
  0
VISUALSTYLE
  5
41
102
{ACAD_REACTORS
330
2A
102
}
330
2A
100
AcDbVisualStyle
  2
Shaded with edges
 70
    26
177
     3
291
     0
 70
    58
 90
        2
176
     1
 90
        2
176
     1
 90
        1
176
     1
 90
        2
176
     1
 40
0.6
176
     1
 40
30.0
176
     1
 62
     7
420
 16777215
176
     1
 90
        1
176
     1
 90
       10
176
     1
 62
     7
176
     1
 62
   257
176
     1
 90
        2
176
     1
 90
        1
176
     1
 40
1.0
176
     1
 90
        8
176
     1
 62
   257
176
     1
 40
1.0
176
     1
 90
        1
176
     1
 90
        6
176
     1
 90
        2
176
     1
 62
     7
176
     1
 90
        3
176
     1
 90
        0
176
     1
 90
        0
176
     1
290
     0
176
     1
 90
        5
176
     1
 40
0.0
176
     1
 90
        0
176
     1
290
     0
176
     1
290
     1
176
     1
290
     1
176
     1
290
     0
176
     1
290
     0
176
     1
290
     0
176
     1
290
     0
176
     1
290
     0
176
     1
290
     0
176
     1
 90
       50
176
     1
 40
0.0
176
     1
 40
1.0
176
     1
 90
        0
176
     1
 62
    18
420
        0
176
     1
 90
       50
176
     1
 90
        3
176
     1
 62
     5
420
      255
176
     1
290
     0
176
     1
 90
       50
176
     1
 90
       50
176
     1
 90
       50
176
     1
290
     0
176
     1
 90
       50
176
     1
 62
   256
176
     0
 40
1.0
176
     0
 90
        2
176
     1
  1
strokes_ogs.tif
176
     1
290
     0
176
     1
 40
1.0
176
     1
 40
1.0
176
     1
  0
VISUALSTYLE
  5
3E
102
{ACAD_REACTORS
330
2A
102
}
330
2A
100
AcDbVisualStyle
  2
Shades of Gray
 70
    23
177
     3
291
     0
 70
    58
 90
        2
176
     1
 90
        2
176
     1
 90
        3
176
     1
 90
        0
176
     1
 40
0.6
176
     1
 40
30.0
176
     1
 62
     7
420
 16777215
176
     1
 90
        2
176
     1
 90
        2
176
     1
 62
     7
176
     1
 62
     7
176
     1
 90
        1
176
     1
 90
        1
176
     1
 40
40.0
176
     1
 90
        8
176
     1
 62
     7
176
     1
 40
1.0
176
     1
 90
        1
176
     1
 90
        6
176
     1
 90
        2
176
     1
 62
     7
176
     1
 90
        3
176
     1
 90
        0
176
     1
 90
        0
176
     1
290
     0
176
     1
 90
        1
176
     1
 40
0.0
176
     1
 90
        0
176
     1
290
     0
176
     1
290
     1
176
     1
290
     1
176
     1
290
     0
176
     1
290
     0
176
     1
290
     0
176
     1
290
     0
176
     1
290
     0
176
     1
290
     0
176
     1
 90
       50
176
     1
 40
0.0
176
     1
 40
1.0
176
     1
 90
        0
176
     1
 62
    18
420
        0
176
     1
 90
       50
176
     1
 90
        3
176
     1
 62
     5
420
      255
176
     1
290
     0
176
     1
 90
       50
176
     1
 90
       50
176
     1
 90
       50
176
     1
290
     0
176
     1
 90
       50
176
     1
 62
   256
176
     0
 40
1.0
176
     0
 90
        2
176
     1
  1
strokes_ogs.tif
176
     1
290
     0
176
     1
 40
1.0
176
     1
 40
1.0
176
     1
  0
VISUALSTYLE
  5
3F
102
{ACAD_REACTORS
330
2A
102
}
330
2A
100
AcDbVisualStyle
  2
Sketchy
 70
    24
177
     3
291
     0
 70
    58
 90
        1
176
     1
 90
        2
176
     1
 90
        2
176
     1
 90
        0
176
     1
 40
0.6
176
     1
 40
30.0
176
     1
 62
     7
420
 16777215
176
     1
 90
        2
176
     1
 90
        2
176
     1
 62
     7
176
     1
 62
     7
176
     1
 90
        1
176
     1
 90
        1
176
     1
 40
40.0
176
     1
 90
       11
176
     1
 62
     7
176
     1
 40
1.0
176
     1
 90
        1
176
     1
 90
        6
176
     1
 90
        2
176
     1
 62
     7
176
     1
 90
        6
176
     1
 90
        0
176
     1
 90
        0
176
     1
290
     0
176
     1
 90
        1
176
     1
 40
0.0
176
     1
 90
        0
176
     1
290
     0
176
     1
290
     1
176
     1
290
     1
176
     1
290
     0
176
     1
290
     0
176
     1
290
     0
176
     1
290
     0
176
     1
290
     0
176
     1
290
     0
176
     1
 90
       50
176
     1
 40
0.0
176
     1
 40
1.0
176
     1
 90
        0
176
     1
 62
    18
420
        0
176
     1
 90
       50
176
     1
 90
        3
176
     1
 62
     5
420
      255
176
     1
290
     0
176
     1
 90
       50
176
     1
 90
       50
176
     1
 90
       50
176
     1
290
     0
176
     1
 90
       50
176
     1
 62
   256
176
     0
 40
1.0
176
     0
 90
        2
176
     1
  1
strokes_ogs.tif
176
     1
290
     0
176
     1
 40
1.0
176
     1
 40
1.0
176
     1
  0
VISUALSTYLE
  5
37
102
{ACAD_REACTORS
330
2A
102
}
330
2A
100
AcDbVisualStyle
  2
Thicken
 70
    13
177
     3
291
     1
 70
    58
 90
        2
176
     1
 90
        2
176
     1
 90
        0
176
     1
 90
        0
176
     1
 40
0.6
176
     1
 40
30.0
176
     1
 62
     7
420
 16777215
176
     1
 90
        1
176
     1
 90
        4
176
     1
 62
     7
176
     1
 62
   257
176
     1
 90
        1
176
     1
 90
        1
176
     1
 40
1.0
176
     1
 90
       12
176
     1
 62
     7
176
     1
 40
1.0
176
     1
 90
        1
176
     1
 90
        6
176
     1
 90
        2
176
     1
 62
     7
176
     1
 90
        5
176
     1
 90
        0
176
     1
 90
        0
176
     1
290
     0
176
     1
 90
        1
176
     1
 40
0.0
176
     1
 90
        0
176
     1
290
     0
176
     1
290
     1
176
     1
290
     1
176
     1
290
     0
176
     1
290
     0
176
     1
290
     0
176
     1
290
     0
176
     1
290
     0
176
     1
290
     0
176
     1
 90
       50
176
     1
 40
0.0
176
     1
 40
1.0
176
     1
 90
        0
176
     1
 62
    18
420
        0
176
     1
 90
       50
176
     1
 90
        3
176
     1
 62
     5
420
      255
176
     1
290
     0
176
     1
 90
       50
176
     1
 90
       50
176
     1
 90
       50
176
     1
290
     0
176
     1
 90
       50
176
     1
 62
   256
176
     0
 40
1.0
176
     0
 90
        2
176
     1
  1
strokes_ogs.tif
176
     1
290
     0
176
     1
 40
1.0
176
     1
 40
1.0
176
     1
  0
VISUALSTYLE
  5
30
102
{ACAD_REACTORS
330
2A
102
}
330
2A
100
AcDbVisualStyle
  2
Wireframe
 70
     5
177
     3
291
     0
 70
    58
 90
        0
176
     1
 90
        2
176
     1
 90
        0
176
     1
 90
        0
176
     1
 40
0.6
176
     1
 40
30.0
176
     1
 62
     7
420
 16777215
176
     1
 90
        1
176
     1
 90
        4
176
     1
 62
     7
176
     1
 62
   257
176
     1
 90
        1
176
     1
 90
        1
176
     1
 40
1.0
176
     1
 90
        0
176
     1
 62
   257
176
     1
 40
1.0
176
     1
 90
        1
176
     1
 90
        6
176
     1
 90
        2
176
     1
 62
     7
176
     1
 90
        3
176
     1
 90
        0
176
     1
 90
        0
176
     1
290
     0
176
     1
 90
        1
176
     1
 40
0.0
176
     1
 90
        0
176
     1
290
     0
176
     1
290
     1
176
     1
290
     1
176
     1
290
     0
176
     1
290
     0
176
     1
290
     0
176
     1
290
     0
176
     1
290
     0
176
     1
290
     0
176
     1
 90
       50
176
     1
 40
0.0
176
     1
 40
1.0
176
     1
 90
        0
176
     1
 62
    18
420
        0
176
     1
 90
       50
176
     1
 90
        3
176
     1
 62
     5
420
      255
176
     1
290
     0
176
     1
 90
       50
176
     1
 90
       50
176
     1
 90
       50
176
     1
290
     0
176
     1
 90
       50
176
     1
 62
   256
176
     0
 40
1.0
176
     0
 90
        2
176
     1
  1
strokes_ogs.tif
176
     1
290
     0
176
     1
 40
1.0
176
     1
 40
1.0
176
     1
  0
VISUALSTYLE
  5
40
102
{ACAD_REACTORS
330
2A
102
}
330
2A
100
AcDbVisualStyle
  2
X-Ray
 70
    25
177
     3
291
     0
 70
    58
 90
        2
176
     1
 90
        2
176
     1
 90
        1
176
     1
 90
        1
176
     1
 40
0.5
176
     1
 40
30.0
176
     1
 62
     7
420
 16777215
176
     1
 90
        1
176
     1
 90
        0
176
     1
 62
     7
176
     1
 62
   257
176
     1
 90
        1
176
     1
 90
        1
176
     1
 40
1.0
176
     1
 90
        8
176
     1
 62
     7
176
     1
 40
1.0
176
     1
 90
        1
176
     1
 90
        6
176
     1
 90
        2
176
     1
 62
     7
176
     1
 90
        3
176
     1
 90
        0
176
     1
 90
        0
176
     1
290
     0
176
     1
 90
       13
176
     1
 40
0.0
176
     1
 90
        0
176
     1
290
     0
176
     1
290
     1
176
     1
290
     1
176
     1
290
     0
176
     1
290
     0
176
     1
290
     0
176
     1
290
     0
176
     1
290
     0
176
     1
290
     0
176
     1
 90
       50
176
     1
 40
0.0
176
     1
 40
1.0
176
     1
 90
        0
176
     1
 62
    18
420
        0
176
     1
 90
       50
176
     1
 90
        3
176
     1
 62
     5
420
      255
176
     1
290
     0
176
     1
 90
       50
176
     1
 90
       50
176
     1
 90
       50
176
     1
290
     0
176
     1
 90
       50
176
     1
 62
   256
176
     0
 40
1.0
176
     0
 90
        2
176
     1
  1
strokes_ogs.tif
176
     1
290
     0
176
     1
 40
1.0
176
     1
 40
1.0
176
     1
  0
DICTIONARYVAR
  5
25E
102
{ACAD_REACTORS
330
25D
102
}
330
25D
100
DictionaryVariables
280
     0
  1
1:1
  0
DICTIONARYVAR
  5
263
102
{ACAD_REACTORS
330
25D
102
}
330
25D
100
DictionaryVariables
280
     0
  1
Standard
  0
DICTIONARYVAR
  5
262
102
{ACAD_REACTORS
330
25D
102
}
330
25D
100
DictionaryVariables
280
     0
  1
Standard
  0
DICTIONARY
  5
25F
330
6A
100
AcDbDictionary
280
     1
281
     1
  3
ACAD_ROUNDTRIP_2008_TABLESTYLE_CELLSTYLEMAP
360
260
  0
CELLSTYLEMAP
  5
260
102
{ACAD_REACTORS
330
25F
102
}
330
25F
100
AcDbCellStyleMap
 90
        3
300
CELLSTYLE
  1
TABLEFORMAT_BEGIN
 90
        5
170
     1
 91
        0
 92
    32768
 62
   257
 93
        1
300
CONTENTFORMAT
  1
CONTENTFORMAT_BEGIN
 90
        0
 91
        0
 92
        4
 93
        0
300

 40
0.0
140
1.0
 94
        5
 62
     0
340
11
144
0.25
309
CONTENTFORMAT_END
171
     1
301
MARGIN
  1
CELLMARGIN_BEGIN
 40
0.06
 40
0.06
 40
0.06
 40
0.06
 40
0.06
 40
0.06
309
CELLMARGIN_END
 94
        6
 95
        1
302
GRIDFORMAT
  1
GRIDFORMAT_BEGIN
 90
        0
 91
        1
 62
     0
 92
       -2
340
14
 93
        0
 40
0.045
309
GRIDFORMAT_END
 95
        2
302
GRIDFORMAT
  1
GRIDFORMAT_BEGIN
 90
        0
 91
        1
 62
     0
 92
       -2
340
14
 93
        0
 40
0.045
309
GRIDFORMAT_END
 95
        4
302
GRIDFORMAT
  1
GRIDFORMAT_BEGIN
 90
        0
 91
        1
 62
     0
 92
       -2
340
14
 93
        0
 40
0.045
309
GRIDFORMAT_END
 95
        8
302
GRIDFORMAT
  1
GRIDFORMAT_BEGIN
 90
        0
 91
        1
 62
     0
 92
       -2
340
14
 93
        0
 40
0.045
309
GRIDFORMAT_END
 95
       16
302
GRIDFORMAT
  1
GRIDFORMAT_BEGIN
 90
        0
 91
        1
 62
     0
 92
       -2
340
14
 93
        0
 40
0.045
309
GRIDFORMAT_END
 95
       32
302
GRIDFORMAT
  1
GRIDFORMAT_BEGIN
 90
        0
 91
        1
 62
     0
 92
       -2
340
14
 93
        0
 40
0.045
309
GRIDFORMAT_END
309
TABLEFORMAT_END
  1
CELLSTYLE_BEGIN
 90
        1
 91
        1
300
_TITLE
309
CELLSTYLE_END
300
CELLSTYLE
  1
TABLEFORMAT_BEGIN
 90
        5
170
     1
 91
        0
 92
        0
 62
   257
 93
        1
300
CONTENTFORMAT
  1
CONTENTFORMAT_BEGIN
 90
        0
 91
        0
 92
        4
 93
        0
300

 40
0.0
140
1.0
 94
        5
 62
     0
340
11
144
0.18
309
CONTENTFORMAT_END
171
     1
301
MARGIN
  1
CELLMARGIN_BEGIN
 40
0.06
 40
0.06
 40
0.06
 40
0.06
 40
0.06
 40
0.06
309
CELLMARGIN_END
 94
        6
 95
        1
302
GRIDFORMAT
  1
GRIDFORMAT_BEGIN
 90
        0
 91
        1
 62
     0
 92
       -2
340
14
 93
        0
 40
0.045
309
GRIDFORMAT_END
 95
        2
302
GRIDFORMAT
  1
GRIDFORMAT_BEGIN
 90
        0
 91
        1
 62
     0
 92
       -2
340
14
 93
        0
 40
0.045
309
GRIDFORMAT_END
 95
        4
302
GRIDFORMAT
  1
GRIDFORMAT_BEGIN
 90
        0
 91
        1
 62
     0
 92
       -2
340
14
 93
        0
 40
0.045
309
GRIDFORMAT_END
 95
        8
302
GRIDFORMAT
  1
GRIDFORMAT_BEGIN
 90
        0
 91
        1
 62
     0
 92
       -2
340
14
 93
        0
 40
0.045
309
GRIDFORMAT_END
 95
       16
302
GRIDFORMAT
  1
GRIDFORMAT_BEGIN
 90
        0
 91
        1
 62
     0
 92
       -2
340
14
 93
        0
 40
0.045
309
GRIDFORMAT_END
 95
       32
302
GRIDFORMAT
  1
GRIDFORMAT_BEGIN
 90
        0
 91
        1
 62
     0
 92
       -2
340
14
 93
        0
 40
0.045
309
GRIDFORMAT_END
309
TABLEFORMAT_END
  1
CELLSTYLE_BEGIN
 90
        2
 91
        1
300
_HEADER
309
CELLSTYLE_END
300
CELLSTYLE
  1
TABLEFORMAT_BEGIN
 90
        5
170
     1
 91
        0
 92
        0
 62
   257
 93
        1
300
CONTENTFORMAT
  1
CONTENTFORMAT_BEGIN
 90
        0
 91
        0
 92
        4
 93
        0
300

 40
0.0
140
1.0
 94
        2
 62
     0
340
11
144
0.18
309
CONTENTFORMAT_END
171
     1
301
MARGIN
  1
CELLMARGIN_BEGIN
 40
0.06
 40
0.06
 40
0.06
 40
0.06
 40
0.06
 40
0.06
309
CELLMARGIN_END
 94
        6
 95
        1
302
GRIDFORMAT
  1
GRIDFORMAT_BEGIN
 90
        0
 91
        1
 62
     0
 92
       -2
340
14
 93
        0
 40
0.045
309
GRIDFORMAT_END
 95
        2
302
GRIDFORMAT
  1
GRIDFORMAT_BEGIN
 90
        0
 91
        1
 62
     0
 92
       -2
340
14
 93
        0
 40
0.045
309
GRIDFORMAT_END
 95
        4
302
GRIDFORMAT
  1
GRIDFORMAT_BEGIN
 90
        0
 91
        1
 62
     0
 92
       -2
340
14
 93
        0
 40
0.045
309
GRIDFORMAT_END
 95
        8
302
GRIDFORMAT
  1
GRIDFORMAT_BEGIN
 90
        0
 91
        1
 62
     0
 92
       -2
340
14
 93
        0
 40
0.045
309
GRIDFORMAT_END
 95
       16
302
GRIDFORMAT
  1
GRIDFORMAT_BEGIN
 90
        0
 91
        1
 62
     0
 92
       -2
340
14
 93
        0
 40
0.045
309
GRIDFORMAT_END
 95
       32
302
GRIDFORMAT
  1
GRIDFORMAT_BEGIN
 90
        0
 91
        1
 62
     0
 92
       -2
340
14
 93
        0
 40
0.045
309
GRIDFORMAT_END
309
TABLEFORMAT_END
  1
CELLSTYLE_BEGIN
 90
        3
 91
        2
300
_DATA
309
CELLSTYLE_END
  0
ENDSEC
  0
EOF