0
SECTION
  2
HEADER
  9
$ACADVER
  1
AC1027
  9
$ACADMAINTVER
 70
     8
  9
$DWGCODEPAGE
  3
ANSI_1252
  9
$REQUIREDVERSIONS
160
                 0
  9
$COMMENTS
  1
File was created by Cadenas
  9
$CUSTOMPROPERTYTAG
  1
NN
  9
$CUSTOMPROPERTY
  1
TP Take-Up Trident Seal
  9
$CUSTOMPROPERTYTAG
  1
NT
  9
$CUSTOMPROPERTY
  1
S-2000 TPHU Take-Up Bearing -Inch
  9
$CUSTOMPROPERTYTAG
  1
NB
  9
$CUSTOMPROPERTY
  1
070811
  9
$CUSTOMPROPERTYTAG
  1
NBSYN
  9
$CUSTOMPROPERTY
  1
$PN.
  9
$CUSTOMPROPERTYTAG
  1
LINA
  9
$CUSTOMPROPERTY
  1
070811
  9
$CUSTOMPROPERTYTAG
  1
SS
  9
$CUSTOMPROPERTY
  1
1-15/16
  9
$CUSTOMPROPERTYTAG
  1
PN
  9
$CUSTOMPROPERTY
  1
070811
  9
$CUSTOMPROPERTYTAG
  1
DESCRIPTION
  9
$CUSTOMPROPERTY
  1
TPHU-S2-115R
  9
$CUSTOMPROPERTYTAG
  1
EF
  9
$CUSTOMPROPERTY
  1
Non-Expansion Type
  9
$CUSTOMPROPERTYTAG
  1
ST
  9
$CUSTOMPROPERTY
  1
Contact Seal
  9
$CUSTOMPROPERTYTAG
  1
A
  9
$CUSTOMPROPERTY
  1
2-27/32
  9
$CUSTOMPROPERTYTAG
  1
B
  9
$CUSTOMPROPERTY
  1
2-3/8
  9
$CUSTOMPROPERTYTAG
  1
C
  9
$CUSTOMPROPERTY
  1
13/16
  9
$CUSTOMPROPERTYTAG
  1
D
  9
$CUSTOMPROPERTY
  1
5-1/4
  9
$CUSTOMPROPERTYTAG
  1
E
  9
$CUSTOMPROPERTY
  1
2-3/8
  9
$CUSTOMPROPERTYTAG
  1
F
  9
$CUSTOMPROPERTY
  1
1-1/16
  9
$CUSTOMPROPERTYTAG
  1
G
  9
$CUSTOMPROPERTY
  1
7/16
  9
$CUSTOMPROPERTYTAG
  1
H
  9
$CUSTOMPROPERTY
  1
6-1/2
  9
$CUSTOMPROPERTYTAG
  1
J
  9
$CUSTOMPROPERTY
  1
6-7/16
  9
$CUSTOMPROPERTYTAG
  1
K
  9
$CUSTOMPROPERTY
  1
3-1/16
  9
$CUSTOMPROPERTYTAG
  1
L
  9
$CUSTOMPROPERTY
  1
3-7/16
  9
$CUSTOMPROPERTYTAG
  1
M
  9
$CUSTOMPROPERTY
  1
6
  9
$CUSTOMPROPERTYTAG
  1
N
  9
$CUSTOMPROPERTY
  1
1-21/32
  9
$CUSTOMPROPERTYTAG
  1
P
  9
$CUSTOMPROPERTY
  1
1-1/4
  9
$CUSTOMPROPERTYTAG
  1
Q
  9
$CUSTOMPROPERTY
  1
13/16
  9
$CUSTOMPROPERTYTAG
  1
R
  9
$CUSTOMPROPERTY
  1
3-3/16
  9
$CUSTOMPROPERTYTAG
  1
S
  9
$CUSTOMPROPERTY
  1
2
  9
$CUSTOMPROPERTYTAG
  1
T
  9
$CUSTOMPROPERTY
  1
5/16
  9
$CUSTOMPROPERTYTAG
  1
U
  9
$CUSTOMPROPERTY
  1
1-1/16
  9
$CUSTOMPROPERTYTAG
  1
V
  9
$CUSTOMPROPERTY
  1
2
  9
$CUSTOMPROPERTYTAG
  1
W
  9
$CUSTOMPROPERTY
  1
7/8
  9
$CUSTOMPROPERTYTAG
  1
X
  9
$CUSTOMPROPERTY
  1
1/4
  9
$CUSTOMPROPERTYTAG
  1
Y
  9
$CUSTOMPROPERTY
  1
0.020
  9
$CUSTOMPROPERTYTAG
  1
Z
  9
$CUSTOMPROPERTY
  1
2-19/64
  9
$CUSTOMPROPERTYTAG
  1
COMPANY
  9
$CUSTOMPROPERTY
  1
baldor
  9
$INSBASE
 10
0.0
 20
0.0
 30
0.0
  9
$EXTMIN
 10
1.000000000000000E+20
 20
1.000000000000000E+20
 30
1.000000000000000E+20
  9
$EXTMAX
 10
-1.000000000000000E+20
 20
-1.000000000000000E+20
 30
-1.000000000000000E+20
  9
$LIMMIN
 10
0.0
 20
0.0
  9
$LIMMAX
 10
12.0
 20
9.0
  9
$ORTHOMODE
 70
     0
  9
$REGENMODE
 70
     1
  9
$FILLMODE
 70
     1
  9
$QTEXTMODE
 70
     0
  9
$MIRRTEXT
 70
     1
  9
$LTSCALE
 40
1.0
  9
$ATTMODE
 70
     1
  9
$TEXTSIZE
 40
0.2
  9
$TRACEWID
 40
0.05
  9
$TEXTSTYLE
  7
Standard
  9
$CLAYER
  8
0
  9
$CELTYPE
  6
ByLayer
  9
$CECOLOR
 62
   256
  9
$CELTSCALE
 40
1.0
  9
$DISPSILH
 70
     0
  9
$DIMSCALE
 40
1.0
  9
$DIMASZ
 40
0.18
  9
$DIMEXO
 40
0.0625
  9
$DIMDLI
 40
0.38
  9
$DIMRND
 40
0.0
  9
$DIMDLE
 40
0.0
  9
$DIMEXE
 40
0.18
  9
$DIMTP
 40
0.0
  9
$DIMTM
 40
0.0
  9
$DIMTXT
 40
0.18
  9
$DIMCEN
 40
0.09
  9
$DIMTSZ
 40
0.0
  9
$DIMTOL
 70
     0
  9
$DIMLIM
 70
     0
  9
$DIMTIH
 70
     1
  9
$DIMTOH
 70
     1
  9
$DIMSE1
 70
     0
  9
$DIMSE2
 70
     0
  9
$DIMTAD
 70
     0
  9
$DIMZIN
 70
     0
  9
$DIMBLK
  1

  9
$DIMASO
 70
     1
  9
$DIMSHO
 70
     1
  9
$DIMPOST
  1

  9
$DIMAPOST
  1

  9
$DIMALT
 70
     0
  9
$DIMALTD
 70
     2
  9
$DIMALTF
 40
25.4
  9
$DIMLFAC
 40
1.0
  9
$DIMTOFL
 70
     0
  9
$DIMTVP
 40
0.0
  9
$DIMTIX
 70
     0
  9
$DIMSOXD
 70
     0
  9
$DIMSAH
 70
     0
  9
$DIMBLK1
  1

  9
$DIMBLK2
  1

  9
$DIMSTYLE
  2
Standard
  9
$DIMCLRD
 70
     0
  9
$DIMCLRE
 70
     0
  9
$DIMCLRT
 70
     0
  9
$DIMTFAC
 40
1.0
  9
$DIMGAP
 40
0.09
  9
$DIMJUST
 70
     0
  9
$DIMSD1
 70
     0
  9
$DIMSD2
 70
     0
  9
$DIMTOLJ
 70
     1
  9
$DIMTZIN
 70
     0
  9
$DIMALTZ
 70
     0
  9
$DIMALTTZ
 70
     0
  9
$DIMUPT
 70
     0
  9
$DIMDEC
 70
     4
  9
$DIMTDEC
 70
     4
  9
$DIMALTU
 70
     2
  9
$DIMALTTD
 70
     2
  9
$DIMTXSTY
  7
Standard
  9
$DIMAUNIT
 70
     0
  9
$DIMADEC
 70
     0
  9
$DIMALTRND
 40
0.0
  9
$DIMAZIN
 70
     0
  9
$DIMDSEP
 70
    46
  9
$DIMATFIT
 70
     3
  9
$DIMFRAC
 70
     0
  9
$DIMLDRBLK
  1

  9
$DIMLUNIT
 70
     2
  9
$DIMLWD
 70
    -2
  9
$DIMLWE
 70
    -2
  9
$DIMTMOVE
 70
     0
  9
$DIMFXL
 40
1.0
  9
$DIMFXLON
 70
     0
  9
$DIMJOGANG
 40
0.7853981633974483
  9
$DIMTFILL
 70
     0
  9
$DIMTFILLCLR
 70
     0
  9
$DIMARCSYM
 70
     0
  9
$DIMLTYPE
  6

  9
$DIMLTEX1
  6

  9
$DIMLTEX2
  6

  9
$DIMTXTDIRECTION
 70
     0
  9
$LUNITS
 70
     2
  9
$LUPREC
 70
     4
  9
$SKETCHINC
 40
0.1
  9
$FILLETRAD
 40
0.5
  9
$AUNITS
 70
     0
  9
$AUPREC
 70
     0
  9
$MENU
  1
.
  9
$ELEVATION
 40
0.0
  9
$PELEVATION
 40
0.0
  9
$THICKNESS
 40
0.0
  9
$LIMCHECK
 70
     0
  9
$CHAMFERA
 40
0.0
  9
$CHAMFERB
 40
0.0
  9
$CHAMFERC
 40
0.0
  9
$CHAMFERD
 40
0.0
  9
$SKPOLY
 70
     0
  9
$TDCREATE
 40
2458168.983851586
  9
$TDUCREATE
 40
2458168.942184919
  9
$TDUPDATE
 40
2458168.983851771
  9
$TDUUPDATE
 40
2458168.942185104
  9
$TDINDWG
 40
0.0000000116
  9
$TDUSRTIMER
 40
0.0000000116
  9
$USRTIMER
 70
     1
  9
$ANGBASE
 50
0.0
  9
$ANGDIR
 70
     0
  9
$PDMODE
 70
     0
  9
$PDSIZE
 40
0.0
  9
$PLINEWID
 40
0.0
  9
$SPLFRAME
 70
     0
  9
$SPLINETYPE
 70
     6
  9
$SPLINESEGS
 70
     8
  9
$HANDSEED
  5
243
  9
$SURFTAB1
 70
     6
  9
$SURFTAB2
 70
     6
  9
$SURFTYPE
 70
     6
  9
$SURFU
 70
     6
  9
$SURFV
 70
     6
  9
$UCSBASE
  2

  9
$UCSNAME
  2

  9
$UCSORG
 10
0.0
 20
0.0
 30
0.0
  9
$UCSXDIR
 10
1.0
 20
0.0
 30
0.0
  9
$UCSYDIR
 10
0.0
 20
1.0
 30
0.0
  9
$UCSORTHOREF
  2

  9
$UCSORTHOVIEW
 70
     0
  9
$UCSORGTOP
 10
0.0
 20
0.0
 30
0.0
  9
$UCSORGBOTTOM
 10
0.0
 20
0.0
 30
0.0
  9
$UCSORGLEFT
 10
0.0
 20
0.0
 30
0.0
  9
$UCSORGRIGHT
 10
0.0
 20
0.0
 30
0.0
  9
$UCSORGFRONT
 10
0.0
 20
0.0
 30
0.0
  9
$UCSORGBACK
 10
0.0
 20
0.0
 30
0.0
  9
$PUCSBASE
  2

  9
$PUCSNAME
  2

  9
$PUCSORG
 10
0.0
 20
0.0
 30
0.0
  9
$PUCSXDIR
 10
1.0
 20
0.0
 30
0.0
  9
$PUCSYDIR
 10
0.0
 20
1.0
 30
0.0
  9
$PUCSORTHOREF
  2

  9
$PUCSORTHOVIEW
 70
     0
  9
$PUCSORGTOP
 10
0.0
 20
0.0
 30
0.0
  9
$PUCSORGBOTTOM
 10
0.0
 20
0.0
 30
0.0
  9
$PUCSORGLEFT
 10
0.0
 20
0.0
 30
0.0
  9
$PUCSORGRIGHT
 10
0.0
 20
0.0
 30
0.0
  9
$PUCSORGFRONT
 10
0.0
 20
0.0
 30
0.0
  9
$PUCSORGBACK
 10
0.0
 20
0.0
 30
0.0
  9
$USERI1
 70
     0
  9
$USERI2
 70
     0
  9
$USERI3
 70
     0
  9
$USERI4
 70
     0
  9
$USERI5
 70
     0
  9
$USERR1
 40
0.0
  9
$USERR2
 40
0.0
  9
$USERR3
 40
0.0
  9
$USERR4
 40
0.0
  9
$USERR5
 40
0.0
  9
$WORLDVIEW
 70
     1
  9
$SHADEDGE
 70
     3
  9
$SHADEDIF
 70
    70
  9
$TILEMODE
 70
     1
  9
$MAXACTVP
 70
    64
  9
$PINSBASE
 10
0.0
 20
0.0
 30
0.0
  9
$PLIMCHECK
 70
     0
  9
$PEXTMIN
 10
1.000000000000000E+20
 20
1.000000000000000E+20
 30
1.000000000000000E+20
  9
$PEXTMAX
 10
-1.000000000000000E+20
 20
-1.000000000000000E+20
 30
-1.000000000000000E+20
  9
$PLIMMIN
 10
0.0
 20
0.0
  9
$PLIMMAX
 10
12.0
 20
9.0
  9
$UNITMODE
 70
     0
  9
$VISRETAIN
 70
     1
  9
$PLINEGEN
 70
     0
  9
$PSLTSCALE
 70
     1
  9
$TREEDEPTH
 70
  3020
  9
$CMLSTYLE
  2
Standard
  9
$CMLJUST
 70
     0
  9
$CMLSCALE
 40
1.0
  9
$PROXYGRAPHICS
 70
     1
  9
$MEASUREMENT
 70
     0
  9
$CELWEIGHT
370
    -1
  9
$ENDCAPS
280
     0
  9
$JOINSTYLE
280
     0
  9
$LWDISPLAY
290
     0
  9
$INSUNITS
 70
     1
  9
$HYPERLINKBASE
  1

  9
$STYLESHEET
  1

  9
$XEDIT
290
     1
  9
$CEPSNTYPE
380
     0
  9
$PSTYLEMODE
290
     1
  9
$FINGERPRINTGUID
  2
{9B7990E5-C128-4D2C-A30D-871035987390}
  9
$VERSIONGUID
  2
{FAEB1C32-E019-11D5-929B-00C0DF256EC4}
  9
$EXTNAMES
290
     1
  9
$PSVPSCALE
 40
0.0
  9
$OLESTARTUP
290
     0
  9
$SORTENTS
280
   127
  9
$INDEXCTL
280
     0
  9
$HIDETEXT
280
     1
  9
$XCLIPFRAME
280
     2
  9
$HALOGAP
280
     0
  9
$OBSCOLOR
 70
   257
  9
$OBSLTYPE
280
     0
  9
$INTERSECTIONDISPLAY
280
     0
  9
$INTERSECTIONCOLOR
 70
   257
  9
$DIMASSOC
280
     2
  9
$PROJECTNAME
  1

  9
$CAMERADISPLAY
290
     0
  9
$LENSLENGTH
 40
50.0
  9
$CAMERAHEIGHT
 40
0.0
  9
$STEPSPERSEC
 40
2.0
  9
$STEPSIZE
 40
6.0
  9
$3DDWFPREC
 40
2.0
  9
$PSOLWIDTH
 40
0.25
  9
$PSOLHEIGHT
 40
4.0
  9
$LOFTANG1
 40
1.570796326794897
  9
$LOFTANG2
 40
1.570796326794897
  9
$LOFTMAG1
 40
0.0
  9
$LOFTMAG2
 40
0.0
  9
$LOFTPARAM
 70
     7
  9
$LOFTNORMALS
280
     1
  9
$LATITUDE
 40
37.795
  9
$LONGITUDE
 40
-122.394
  9
$NORTHDIRECTION
 40
0.0
  9
$TIMEZONE
 70
 -8000
  9
$LIGHTGLYPHDISPLAY
280
     1
  9
$TILEMODELIGHTSYNCH
280
     1
  9
$CMATERIAL
347
44
  9
$SOLIDHIST
280
     0
  9
$SHOWHIST
280
     1
  9
$DWFFRAME
280
     2
  9
$DGNFRAME
280
     2
  9
$REALWORLDSCALE
290
     1
  9
$INTERFERECOLOR
 62
   256
  9
$CSHADOW
280
     0
  9
$SHADOWPLANELOCATION
 40
0.0
  0
ENDSEC
  0
SECTION
  2
CLASSES
  0
CLASS
  1
ACDBDICTIONARYWDFLT
  2
AcDbDictionaryWithDefault
  3
ObjectDBX Classes
 90
        0
 91
        4
280
     0
281
     0
  0
CLASS
  1
VISUALSTYLE
  2
AcDbVisualStyle
  3
ObjectDBX Classes
 90
     4095
 91
        4
280
     0
281
     0
  0
CLASS
  1
MATERIAL
  2
AcDbMaterial
  3
ObjectDBX Classes
 90
     1153
 91
        4
280
     0
281
     0
  0
CLASS
  1
SCALE
  2
AcDbScale
  3
ObjectDBX Classes
 90
     1153
 91
        4
280
     0
281
     0
  0
CLASS
  1
TABLESTYLE
  2
AcDbTableStyle
  3
ObjectDBX Classes
 90
     4095
 91
        4
280
     0
281
     0
  0
CLASS
  1
MLEADERSTYLE
  2
AcDbMLeaderStyle
  3
ACDB_MLEADERSTYLE_CLASS
 90
     4095
 91
        4
280
     0
281
     0
  0
CLASS
  1
SUN
  2
AcDbSun
  3
SCENEOE
 90
     1153
 91
        4
280
     0
281
     0
  0
CLASS
  1
DICTIONARYVAR
  2
AcDbDictionaryVar
  3
ObjectDBX Classes
 90
        0
 91
        4
280
     0
281
     0
  0
CLASS
  1
CELLSTYLEMAP
  2
AcDbCellStyleMap
  3
ObjectDBX Classes
 90
     1152
 91
        4
280
     0
281
     0
  0
ENDSEC
  0
SECTION
  2
TABLES
  0
TABLE
  2
VPORT
  5
8
330
0
100
AcDbSymbolTable
 70
     1
  0
VPORT
  5
29
330
8
100
AcDbSymbolTableRecord
100
AcDbViewportTableRecord
  2
*Active
 70
     0
 10
0.0
 20
0.0
 11
1.0
 21
1.0
 12
-0.2541666666666664
 22
-0.1978906250000003
 13
0.0
 23
0.0
 14
0.5
 24
0.5
 15
0.5
 25
0.5
 16
0.0
 26
0.0
 36
1.0
 17
0.0
 27
0.0
 37
0.0
 40
7.288696875000001
 41
0.5586046545528757
 42
50.0
 43
0.0
 44
0.0
 50
0.0
 51
0.0
 71
     0
 72
   100
 73
     1
 74
     3
 75
     0
 76
     0
 77
     0
 78
     0
281
     0
 65
     1
110
0.0
120
0.0
130
0.0
111
1.0
121
0.0
131
0.0
112
0.0
122
1.0
132
0.0
 79
     0
146
0.0
348
2F
 60
     3
 61
     5
292
     1
282
     1
141
0.0
142
0.0
 63
   250
361
6D
  0
ENDTAB
  0
TABLE
  2
LTYPE
  5
5
330
0
100
AcDbSymbolTable
 70
     3
  0
LTYPE
  5
14
330
5
100
AcDbSymbolTableRecord
100
AcDbLinetypeTableRecord
  2
ByBlock
 70
     0
  3

 72
    65
 73
     0
 40
0.0
  0
LTYPE
  5
15
330
5
100
AcDbSymbolTableRecord
100
AcDbLinetypeTableRecord
  2
ByLayer
 70
     0
  3

 72
    65
 73
     0
 40
0.0
  0
LTYPE
  5
16
330
5
100
AcDbSymbolTableRecord
100
AcDbLinetypeTableRecord
  2
Continuous
 70
     0
  3
Solid line
 72
    65
 73
     0
 40
0.0
  0
LTYPE
  5
A7
330
5
100
AcDbSymbolTableRecord
100
AcDbLinetypeTableRecord
  2
Dashed
 70
     0
  3

 72
    65
 73
     2
 40
2.0
 49
1.0
 74
     0
 49
-1.0
 74
     0
  0
LTYPE
  5
19B
330
5
100
AcDbSymbolTableRecord
100
AcDbLinetypeTableRecord
  2
Center
 70
     0
  3

 72
    65
 73
     4
 40
1.5
 49
0.45
 74
     0
 49
-0.5
 74
     0
 49
0.05
 74
     0
 49
-0.5
 74
     0
  0
ENDTAB
  0
TABLE
  2
LAYER
  5
2
330
0
100
AcDbSymbolTable
 70
     7
  0
LAYER
  5
10
330
2
100
AcDbSymbolTableRecord
100
AcDbLayerTableRecord
  2
0
 70
     0
 62
     7
  6
Continuous
370
    -3
390
F
347
46
348
0
  0
LAYER
  5
72
330
2
100
AcDbSymbolTableRecord
100
AcDbLayerTableRecord
  2
AM_6
 70
     0
 62
    -2
  6
Continuous
370
    35
390
F
347
46
348
0
  0
LAYER
  5
A8
330
2
100
AcDbSymbolTableRecord
100
AcDbLayerTableRecord
  2
AM_9
 70
     0
 62
     6
  6
Dashed
370
    25
390
F
347
46
348
0
  0
LAYER
  5
D4
330
2
100
AcDbSymbolTableRecord
100
AcDbLayerTableRecord
  2
AM_4
 70
     0
 62
     7
  6
Continuous
370
    50
390
F
347
46
348
0
  0
LAYER
  5
F8
330
2
100
AcDbSymbolTableRecord
100
AcDbLayerTableRecord
  2
AM_5
 70
     0
 62
     3
  6
Continuous
370
    25
390
F
347
46
348
0
  0
LAYER
  5
19C
330
2
100
AcDbSymbolTableRecord
100
AcDbLayerTableRecord
  2
AM_7
 70
     0
 62
     7
  6
Center
370
    25
390
F
347
46
348
0
  0
LAYER
  5
232
330
2
100
AcDbSymbolTableRecord
100
AcDbLayerTableRecord
  2
ConnectionPoints
 70
     0
 62
     7
  6
Continuous
370
    50
390
F
347
46
348
0
  0
ENDTAB
  0
TABLE
  2
STYLE
  5
3
330
0
100
AcDbSymbolTable
 70
     1
  0
STYLE
  5
11
330
3
100
AcDbSymbolTableRecord
100
AcDbTextStyleTableRecord
  2
Standard
 70
     0
 40
0.0
 41
1.0
 50
0.0
 71
     0
 42
0.2
  3
txt
  4

  0
ENDTAB
  0
TABLE
  2
VIEW
  5
6
330
0
100
AcDbSymbolTable
 70
     0
  0
ENDTAB
  0
TABLE
  2
UCS
  5
7
330
0
100
AcDbSymbolTable
 70
     0
  0
ENDTAB
  0
TABLE
  2
APPID
  5
9
330
0
100
AcDbSymbolTable
 70
     1
  0
APPID
  5
12
330
9
100
AcDbSymbolTableRecord
100
AcDbRegAppTableRecord
  2
ACAD
 70
     0
  0
ENDTAB
  0
TABLE
  2
DIMSTYLE
  5
A
330
0
100
AcDbSymbolTable
 70
     1
100
AcDbDimStyleTable
  0
DIMSTYLE
105
27
330
A
100
AcDbSymbolTableRecord
100
AcDbDimStyleTableRecord
  2
Standard
 70
     0
178
     0
340
11
  0
ENDTAB
  0
TABLE
  2
BLOCK_RECORD
  5
1
330
0
100
AcDbSymbolTable
 70
     6
  0
BLOCK_RECORD
  5
1F
330
1
100
AcDbSymbolTableRecord
100
AcDbBlockTableRecord
  2
*Model_Space
340
22
 70
     0
280
     1
281
     0
  0
BLOCK_RECORD
  5
1B
330
1
100
AcDbSymbolTableRecord
100
AcDbBlockTableRecord
  2
*Paper_Space
340
1E
 70
     0
280
     1
281
     0
  0
BLOCK_RECORD
  5
23
330
1
100
AcDbSymbolTableRecord
100
AcDbBlockTableRecord
  2
*Paper_Space0
340
26
 70
     0
280
     1
281
     0
  0
BLOCK_RECORD
  5
6E
330
1
100
AcDbSymbolTableRecord
100
AcDbBlockTableRecord
  2
1_070811_2
340
0
102
{BLKREFS
331
6F
102
}
 70
     0
280
     1
281
     0
  0
BLOCK_RECORD
  5
96
330
1
100
AcDbSymbolTableRecord
100
AcDbBlockTableRecord
  2
2_405016_Inch_0_in_070811_2
340
0
102
{BLKREFS
331
97
102
}
 70
     0
280
     1
281
     0
  0
BLOCK_RECORD
  5
FC
330
1
100
AcDbSymbolTableRecord
100
AcDbBlockTableRecord
  2
3_1_15_16CS2i_0_in_070811_2
340
0
102
{BLKREFS
331
FD
102
}
 70
     0
280
     1
281
     0
  0
BLOCK_RECORD
  5
13D
330
1
100
AcDbSymbolTableRecord
100
AcDbBlockTableRecord
  2
4_070005i_0_in_070811_2
340
0
102
{BLKREFS
331
13E
102
}
 70
     0
280
     1
281
     0
  0
BLOCK_RECORD
  5
1A1
330
1
100
AcDbSymbolTableRecord
100
AcDbBlockTableRecord
  2
5_070811H_0_in_070811_2
340
0
102
{BLKREFS
331
1A2
102
}
 70
     0
280
     1
281
     0
  0
ENDTAB
  0
ENDSEC
  0
SECTION
  2
BLOCKS
  0
BLOCK
  5
20
330
1F
100
AcDbEntity
  8
0
100
AcDbBlockBegin
  2
*Model_Space
 70
     0
 10
0.0
 20
0.0
 30
0.0
  3
*Model_Space
  1

  0
ENDBLK
  5
21
330
1F
100
AcDbEntity
  8
0
100
AcDbBlockEnd
  0
BLOCK
  5
1C
330
1B
100
AcDbEntity
 67
     1
  8
0
100
AcDbBlockBegin
  2
*Paper_Space
 70
     0
 10
0.0
 20
0.0
 30
0.0
  3
*Paper_Space
  1

  0
ENDBLK
  5
1D
330
1B
100
AcDbEntity
 67
     1
  8
0
100
AcDbBlockEnd
  0
BLOCK
  5
24
330
23
100
AcDbEntity
  8
0
100
AcDbBlockBegin
  2
*Paper_Space0
 70
     0
 10
0.0
 20
0.0
 30
0.0
  3
*Paper_Space0
  1

  0
ENDBLK
  5
25
330
23
100
AcDbEntity
  8
0
100
AcDbBlockEnd
  0
BLOCK
  5
70
330
6E
100
AcDbEntity
  8
0
100
AcDbBlockBegin
  2
1_070811_2
 70
     2
 10
0.0
 20
0.0
 30
0.0
  3
1_070811_2
  1

  0
ATTDEF
  5
73
330
6E
100
AcDbEntity
  8
AM_6
100
AcDbText
 10
6.741666666666667
 20
3.375
 30
0.0
 40
0.5
  1
TP Take-Up Trident Seal
100
AcDbAttributeDefinition
  3

  2
NN
 70
     8
280
     0
  0
ATTDEF
  5
74
330
6E
100
AcDbEntity
  8
AM_6
100
AcDbText
 10
6.741666666666667
 20
2.875
 30
0.0
 40
0.5
  1
S-2000 TPHU Take-Up Bearing -Inch
100
AcDbAttributeDefinition
  3

  2
NT
 70
     8
280
     0
  0
ATTDEF
  5
75
330
6E
100
AcDbEntity
  8
AM_6
100
AcDbText
 10
6.741666666666667
 20
2.375
 30
0.0
 40
0.5
  1
070811
100
AcDbAttributeDefinition
  3

  2
NB
 70
     8
280
     0
  0
ATTDEF
  5
76
330
6E
100
AcDbEntity
  8
AM_6
100
AcDbText
 10
6.741666666666667
 20
1.875
 30
0.0
 40
0.5
  1
$PN.
100
AcDbAttributeDefinition
  3

  2
NBSYN
 70
     8
280
     0
  0
ATTDEF
  5
77
330
6E
100
AcDbEntity
  8
AM_6
100
AcDbText
 10
6.741666666666667
 20
1.375
 30
0.0
 40
0.5
  1
070811
100
AcDbAttributeDefinition
  3

  2
LINA
 70
     8
280
     0
  0
ATTDEF
  5
78
330
6E
100
AcDbEntity
  8
AM_6
100
AcDbText
 10
6.741666666666667
 20
0.8750000000000004
 30
0.0
 40
0.5
  1
1-15/16
100
AcDbAttributeDefinition
  3

  2
SS
 70
     8
280
     0
  0
ATTDEF
  5
79
330
6E
100
AcDbEntity
  8
AM_6
100
AcDbText
 10
6.741666666666667
 20
0.3750000000000004
 30
0.0
 40
0.5
  1
070811
100
AcDbAttributeDefinition
  3

  2
PN
 70
     8
280
     0
  0
ATTDEF
  5
7A
330
6E
100
AcDbEntity
  8
AM_6
100
AcDbText
 10
6.741666666666667
 20
-0.1249999999999996
 30
0.0
 40
0.5
  1
TPHU-S2-115R
100
AcDbAttributeDefinition
  3

  2
DESCRIPTION
 70
     8
280
     0
  0
ATTDEF
  5
7B
330
6E
100
AcDbEntity
  8
AM_6
100
AcDbText
 10
6.741666666666667
 20
-0.6249999999999996
 30
0.0
 40
0.5
  1
Non-Expansion Type
100
AcDbAttributeDefinition
  3

  2
EF
 70
     8
280
     0
  0
ATTDEF
  5
7C
330
6E
100
AcDbEntity
  8
AM_6
100
AcDbText
 10
6.741666666666667
 20
-1.125
 30
0.0
 40
0.5
  1
Contact Seal
100
AcDbAttributeDefinition
  3

  2
ST
 70
     8
280
     0
  0
ATTDEF
  5
7D
330
6E
100
AcDbEntity
  8
AM_6
100
AcDbText
 10
6.741666666666667
 20
-1.625
 30
0.0
 40
0.5
  1
2-27/32
100
AcDbAttributeDefinition
  3

  2
A
 70
     8
280
     0
  0
ATTDEF
  5
7E
330
6E
100
AcDbEntity
  8
AM_6
100
AcDbText
 10
6.741666666666667
 20
-2.125
 30
0.0
 40
0.5
  1
2-3/8
100
AcDbAttributeDefinition
  3

  2
B
 70
     8
280
     0
  0
ATTDEF
  5
7F
330
6E
100
AcDbEntity
  8
AM_6
100
AcDbText
 10
6.741666666666667
 20
-2.625
 30
0.0
 40
0.5
  1
13/16
100
AcDbAttributeDefinition
  3

  2
C
 70
     8
280
     0
  0
ATTDEF
  5
80
330
6E
100
AcDbEntity
  8
AM_6
100
AcDbText
 10
6.741666666666667
 20
-3.125
 30
0.0
 40
0.5
  1
5-1/4
100
AcDbAttributeDefinition
  3

  2
D
 70
     8
280
     0
  0
ATTDEF
  5
81
330
6E
100
AcDbEntity
  8
AM_6
100
AcDbText
 10
6.741666666666667
 20
-3.625
 30
0.0
 40
0.5
  1
2-3/8
100
AcDbAttributeDefinition
  3

  2
E
 70
     8
280
     0
  0
ATTDEF
  5
82
330
6E
100
AcDbEntity
  8
AM_6
100
AcDbText
 10
6.741666666666667
 20
-4.125
 30
0.0
 40
0.5
  1
1-1/16
100
AcDbAttributeDefinition
  3

  2
F
 70
     8
280
     0
  0
ATTDEF
  5
83
330
6E
100
AcDbEntity
  8
AM_6
100
AcDbText
 10
6.741666666666667
 20
-4.625
 30
0.0
 40
0.5
  1
7/16
100
AcDbAttributeDefinition
  3

  2
G
 70
     8
280
     0
  0
ATTDEF
  5
84
330
6E
100
AcDbEntity
  8
AM_6
100
AcDbText
 10
6.741666666666667
 20
-5.125
 30
0.0
 40
0.5
  1
6-1/2
100
AcDbAttributeDefinition
  3

  2
H
 70
     8
280
     0
  0
ATTDEF
  5
85
330
6E
100
AcDbEntity
  8
AM_6
100
AcDbText
 10
6.741666666666667
 20
-5.625
 30
0.0
 40
0.5
  1
6-7/16
100
AcDbAttributeDefinition
  3

  2
J
 70
     8
280
     0
  0
ATTDEF
  5
86
330
6E
100
AcDbEntity
  8
AM_6
100
AcDbText
 10
6.741666666666667
 20
-6.125
 30
0.0
 40
0.5
  1
3-1/16
100
AcDbAttributeDefinition
  3

  2
K
 70
     8
280
     0
  0
ATTDEF
  5
87
330
6E
100
AcDbEntity
  8
AM_6
100
AcDbText
 10
6.741666666666667
 20
-6.625
 30
0.0
 40
0.5
  1
3-7/16
100
AcDbAttributeDefinition
  3

  2
L
 70
     8
280
     0
  0
ATTDEF
  5
88
330
6E
100
AcDbEntity
  8
AM_6
100
AcDbText
 10
6.741666666666667
 20
-7.125
 30
0.0
 40
0.5
  1
6
100
AcDbAttributeDefinition
  3

  2
M
 70
     8
280
     0
  0
ATTDEF
  5
89
330
6E
100
AcDbEntity
  8
AM_6
100
AcDbText
 10
6.741666666666667
 20
-7.625
 30
0.0
 40
0.5
  1
1-21/32
100
AcDbAttributeDefinition
  3

  2
N
 70
     8
280
     0
  0
ATTDEF
  5
8A
330
6E
100
AcDbEntity
  8
AM_6
100
AcDbText
 10
6.741666666666667
 20
-8.125
 30
0.0
 40
0.5
  1
1-1/4
100
AcDbAttributeDefinition
  3

  2
P
 70
     8
280
     0
  0
ATTDEF
  5
8B
330
6E
100
AcDbEntity
  8
AM_6
100
AcDbText
 10
6.741666666666667
 20
-8.625
 30
0.0
 40
0.5
  1
13/16
100
AcDbAttributeDefinition
  3

  2
Q
 70
     8
280
     0
  0
ATTDEF
  5
8C
330
6E
100
AcDbEntity
  8
AM_6
100
AcDbText
 10
6.741666666666667
 20
-9.125
 30
0.0
 40
0.5
  1
3-3/16
100
AcDbAttributeDefinition
  3

  2
R
 70
     8
280
     0
  0
ATTDEF
  5
8D
330
6E
100
AcDbEntity
  8
AM_6
100
AcDbText
 10
6.741666666666667
 20
-9.625
 30
0.0
 40
0.5
  1
2
100
AcDbAttributeDefinition
  3

  2
S
 70
     8
280
     0
  0
ATTDEF
  5
8E
330
6E
100
AcDbEntity
  8
AM_6
100
AcDbText
 10
6.741666666666667
 20
-10.125
 30
0.0
 40
0.5
  1
5/16
100
AcDbAttributeDefinition
  3

  2
T
 70
     8
280
     0
  0
ATTDEF
  5
8F
330
6E
100
AcDbEntity
  8
AM_6
100
AcDbText
 10
6.741666666666667
 20
-10.625
 30
0.0
 40
0.5
  1
1-1/16
100
AcDbAttributeDefinition
  3

  2
U
 70
     8
280
     0
  0
ATTDEF
  5
90
330
6E
100
AcDbEntity
  8
AM_6
100
AcDbText
 10
6.741666666666667
 20
-11.125
 30
0.0
 40
0.5
  1
2
100
AcDbAttributeDefinition
  3

  2
V
 70
     8
280
     0
  0
ATTDEF
  5
91
330
6E
100
AcDbEntity
  8
AM_6
100
AcDbText
 10
6.741666666666667
 20
-11.625
 30
0.0
 40
0.5
  1
7/8
100
AcDbAttributeDefinition
  3

  2
W
 70
     8
280
     0
  0
ATTDEF
  5
92
330
6E
100
AcDbEntity
  8
AM_6
100
AcDbText
 10
6.741666666666667
 20
-12.125
 30
0.0
 40
0.5
  1
1/4
100
AcDbAttributeDefinition
  3

  2
X
 70
     8
280
     0
  0
ATTDEF
  5
93
330
6E
100
AcDbEntity
  8
AM_6
100
AcDbText
 10
6.741666666666667
 20
-12.625
 30
0.0
 40
0.5
  1
0.020
100
AcDbAttributeDefinition
  3

  2
Y
 70
     8
280
     0
  0
ATTDEF
  5
94
330
6E
100
AcDbEntity
  8
AM_6
100
AcDbText
 10
6.741666666666667
 20
-13.125
 30
0.0
 40
0.5
  1
2-19/64
100
AcDbAttributeDefinition
  3

  2
Z
 70
     8
280
     0
  0
ATTDEF
  5
95
330
6E
100
AcDbEntity
  8
AM_6
100
AcDbText
 10
6.741666666666667
 20
-13.625
 30
0.0
 40
0.5
  1
baldor
100
AcDbAttributeDefinition
  3

  2
COMPANY
 70
     8
280
     0
  0
INSERT
  5
97
330
6E
100
AcDbEntity
  8
0
100
AcDbBlockReference
  2
2_405016_Inch_0_in_070811_2
 10
0.0
 20
0.0
 30
0.0
  0
INSERT
  5
FD
330
6E
100
AcDbEntity
  8
0
100
AcDbBlockReference
  2
3_1_15_16CS2i_0_in_070811_2
 10
0.0
 20
0.0
 30
0.0
  0
INSERT
  5
13E
330
6E
100
AcDbEntity
  8
0
100
AcDbBlockReference
  2
4_070005i_0_in_070811_2
 10
0.0
 20
0.0
 30
0.0
  0
INSERT
  5
1A2
330
6E
100
AcDbEntity
  8
0
100
AcDbBlockReference
  2
5_070811H_0_in_070811_2
 10
0.0
 20
0.0
 30
0.0
  0
ENDBLK
  5
71
330
6E
100
AcDbEntity
  8
0
100
AcDbBlockEnd
  0
BLOCK
  5
98
330
96
100
AcDbEntity
  8
0
100
AcDbBlockBegin
  2
2_405016_Inch_0_in_070811_2
 70
     2
 10
0.0
 20
0.0
 30
0.0
  3
2_405016_Inch_0_in_070811_2
  1

  0
ATTDEF
  5
9A
330
96
100
AcDbEntity
  8
AM_6
100
AcDbText
 10
5.21875
 20
0.2525907427704612
 30
0.0
 40
0.5
  1
405016 -Inch
100
AcDbAttributeDefinition
  3

  2
NN
 70
     8
280
     0
  0
ATTDEF
  5
9B
330
96
100
AcDbEntity
  8
AM_6
100
AcDbText
 10
5.21875
 20
-0.2474092572295388
 30
0.0
 40
0.5
  1
Grease Fitting
100
AcDbAttributeDefinition
  3

  2
NT
 70
     8
280
     0
  0
ATTDEF
  5
9C
330
96
100
AcDbEntity
  8
AM_6
100
AcDbText
 10
5.21875
 20
-0.7474092572295388
 30
0.0
 40
0.5
  1
405016-Inch
100
AcDbAttributeDefinition
  3

  2
NB
 70
     8
280
     0
  0
ATTDEF
  5
9D
330
96
100
AcDbEntity
  8
AM_6
100
AcDbText
 10
5.21875
 20
-1.247409257229539
 30
0.0
 40
0.5
  1
$MN.-Inch
100
AcDbAttributeDefinition
  3

  2
NBSYN
 70
     8
280
     0
  0
ATTDEF
  5
9E
330
96
100
AcDbEntity
  8
AM_6
100
AcDbText
 10
5.21875
 20
-1.747409257229539
 30
0.0
 40
0.5
  1
405016
100
AcDbAttributeDefinition
  3

  2
LINA
 70
     8
280
     0
  0
ATTDEF
  5
9F
330
96
100
AcDbEntity
  8
AM_6
100
AcDbText
 10
5.21875
 20
-2.247409257229539
 30
0.0
 40
0.5
  1
405016
100
AcDbAttributeDefinition
  3

  2
MN
 70
     8
280
     0
  0
ATTDEF
  5
A0
330
96
100
AcDbEntity
  8
AM_6
100
AcDbText
 10
5.21875
 20
-2.747409257229539
 30
0.0
 40
0.5
  1
7/16 HEX
100
AcDbAttributeDefinition
  3

  2
H
 70
     8
280
     0
  0
ATTDEF
  5
A1
330
96
100
AcDbEntity
  8
AM_6
100
AcDbText
 10
5.21875
 20
-3.247409257229539
 30
0.0
 40
0.5
  1
0.383
100
AcDbAttributeDefinition
  3

  2
NDR
 70
     8
280
     0
  0
ATTDEF
  5
A2
330
96
100
AcDbEntity
  8
AM_6
100
AcDbText
 10
5.21875
 20
-3.747409257229539
 30
0.0
 40
0.5
  1
0.337
100
AcDbAttributeDefinition
  3

  2
KDR
 70
     8
280
     0
  0
ATTDEF
  5
A3
330
96
100
AcDbEntity
  8
AM_6
100
AcDbText
 10
5.21875
 20
-4.247409257229538
 30
0.0
 40
0.5
  1
0.1575
100
AcDbAttributeDefinition
  3

  2
BZE
 70
     8
280
     0
  0
ATTDEF
  5
A4
330
96
100
AcDbEntity
  8
AM_6
100
AcDbText
 10
5.21875
 20
-4.747409257229538
 30
0.0
 40
0.5
  1
0.4375
100
AcDbAttributeDefinition
  3

  2
HEX
 70
     8
280
     0
  0
ATTDEF
  5
A5
330
96
100
AcDbEntity
  8
AM_6
100
AcDbText
 10
5.21875
 20
-5.247409257229538
 30
0.0
 40
0.5
  1
0.281250
100
AcDbAttributeDefinition
  3

  2
HEX2
 70
     8
280
     0
  0
ATTDEF
  5
A6
330
96
100
AcDbEntity
  8
AM_6
100
AcDbText
 10
5.21875
 20
-5.747409257229538
 30
0.0
 40
0.5
  1
baldor
100
AcDbAttributeDefinition
  3

  2
COMPANY
 70
     8
280
     0
  0
CIRCLE
  5
A9
330
96
100
AcDbEntity
  8
AM_9
100
AcDbCircle
 10
0.0000000000000001
 20
0.0
 30
0.0
 40
0.1616637258772237
  0
CIRCLE
  5
AA
330
96
100
AcDbEntity
  8
AM_9
100
AcDbCircle
 10
0.0000000000000001
 20
0.0
 30
0.0
 40
0.1854172907249859
  0
ARC
  5
AB
330
96
100
AcDbEntity
  8
AM_9
100
AcDbCircle
 10
-0.0000000000013575
 20
-0.0000000000060068
 30
0.0
 40
0.2000000000013577
100
AcDbArc
 50
0.0
 51
154.5271230487315
  0
LINE
  5
AC
330
96
100
AcDbEntity
  8
AM_9
100
AcDbLine
 10
-0.2187499999999998
 20
-0.1262953713852306
 30
0.0
 11
-0.1897547619531385
 21
-0.1430357798768033
 31
0.0
  0
LINE
  5
AD
330
96
100
AcDbEntity
  8
AM_9
100
AcDbLine
 10
-0.2187499999999998
 20
0.1262953713852306
 30
0.0
 11
-0.2187499999999998
 21
-0.1262953713852306
 31
0.0
  0
LINE
  5
AE
330
96
100
AcDbEntity
  8
AM_9
100
AcDbLine
 10
-0.1897043345002184
 20
0.1430648941803213
 30
0.0
 11
-0.2187499999999998
 21
0.1262953713852306
 31
0.0
  0
ARC
  5
AF
330
96
100
AcDbEntity
  8
AM_9
100
AcDbCircle
 10
-0.0000000000000182
 20
0.0
 30
0.0
 40
0.2187499999999852
100
AcDbArc
 50
143.9747798910423
 51
215.9821655047315
  0
LINE
  5
B0
330
96
100
AcDbEntity
  8
AM_9
100
AcDbLine
 10
-0.2602304684431302
 20
0.01975639995327
 30
0.0
 11
-0.2602304684431206
 21
-0.0197563999532738
 31
0.0
  0
LINE
  5
B1
330
96
100
AcDbEntity
  8
AM_9
100
AcDbLine
 10
-0.2689146070947219
 20
-0.0811898816047911
 30
0.0
 11
-0.2987675689889716
 21
-0.0811898816047911
 31
0.0
  0
LINE
  5
B2
330
96
100
AcDbEntity
  8
AM_9
100
AcDbLine
 10
-0.2689146070947219
 20
0.0811898816047911
 30
0.0
 11
-0.2987675689889716
 21
0.0811898816047911
 31
0.0
  0
LWPOLYLINE
  5
B3
330
96
100
AcDbEntity
  8
AM_9
100
AcDbPolyline
 90
        3
 70
     0
 43
0.0
 10
-0.2602304684431206
 20
-0.0197563999532738
 10
-0.2616913382589201
 20
-0.0370737721666024
 10
-0.2689146070947219
 20
-0.0811898816047911
  0
LWPOLYLINE
  5
B4
330
96
100
AcDbEntity
  8
AM_9
100
AcDbPolyline
 90
        3
 70
     0
 43
0.0
 10
-0.2689146070947219
 20
0.0811898816047911
 10
-0.2634308483997526
 20
0.0507690464395923
 10
-0.2602304684431302
 20
0.01975639995327
  0
ELLIPSE
  5
B5
330
96
100
AcDbEntity
  8
AM_9
100
AcDbEllipse
 10
-0.201389202824187
 20
-0.0000000000000006
 30
0.0
 11
8.610797806504912E-18
 21
0.1406250000000014
 31
0.0
210
0.0
220
0.0
230
1.0
 40
0.4226182617407006
 41
0.6232286105021609
 42
1.429840066212907
  0
LWPOLYLINE
  5
B6
330
96
100
AcDbEntity
  8
AM_9
100
AcDbPolyline
 90
        3
 70
     0
 43
0.0
 10
-0.2360765106845274
 20
0.1141872583780656
 10
-0.2462091938631848
 20
0.1027100776026271
 10
-0.2689146070947219
 20
0.0811898816047911
  0
ELLIPSE
  5
B7
330
96
100
AcDbEntity
  8
AM_9
100
AcDbEllipse
 10
-0.2013892028241855
 20
0.0000000000000027
 30
0.0
 11
8.610797806505096E-18
 21
0.1406250000000044
 31
0.0
210
0.0
220
0.0
230
1.0
 40
0.4226182617406272
 41
1.711752587376923
 42
2.518364043087542
  0
LWPOLYLINE
  5
B8
330
96
100
AcDbEntity
  8
AM_9
100
AcDbPolyline
 90
        3
 70
     0
 43
0.0
 10
-0.2689146070947219
 20
-0.0811898816047911
 10
-0.2512755937295758
 20
-0.0975167708288354
 10
-0.2360765106845272
 20
-0.114187258378066
  0
LWPOLYLINE
  5
B9
330
96
100
AcDbEntity
  8
AM_9
100
AcDbPolyline
 90
        3
 70
     0
 43
0.0
 10
-0.2987675689889716
 20
0.0811898816047911
 10
-0.2912216284034022
 20
0.0975825203205425
 10
-0.2813919000363596
 20
0.1141872583780661
  0
LINE
  5
BA
330
96
100
AcDbEntity
  8
AM_9
100
AcDbLine
 10
-0.3055458577949628
 20
0.0197563999532697
 30
0.0
 11
-0.2987675689889716
 21
0.0811898816047911
 31
0.0
  0
LWPOLYLINE
  5
BB
330
96
100
AcDbEntity
  8
AM_9
100
AcDbPolyline
 90
        3
 70
     0
 43
0.0
 10
-0.2813919000363597
 20
-0.1141872583780661
 10
-0.291177595274624
 20
-0.0976669589939311
 10
-0.2987675689889716
 20
-0.0811898816047911
  0
LINE
  5
BC
330
96
100
AcDbEntity
  8
AM_9
100
AcDbLine
 10
-0.2987675689889716
 20
-0.0811898816047911
 30
0.0
 11
-0.3055458577949628
 21
-0.0197563999532697
 31
0.0
  0
LWPOLYLINE
  5
BD
330
96
100
AcDbEntity
  8
AM_9
100
AcDbPolyline
 90
        3
 70
     0
 43
0.0
 10
-0.2099962668917051
 20
0.1623797632095822
 10
-0.216347937124691
 20
0.1454641154142716
 10
-0.2258378743019626
 20
0.1281745372222425
  0
LINE
  5
BE
330
96
100
AcDbEntity
  8
AM_9
100
AcDbLine
 10
-0.2258378743019626
 20
0.1281745372222425
 30
0.0
 11
-0.2360765106845274
 21
0.1141872583780656
 31
0.0
  0
LWPOLYLINE
  5
BF
330
96
100
AcDbEntity
  8
AM_9
100
AcDbPolyline
 90
        3
 70
     0
 43
0.0
 10
-0.2258378743019624
 20
-0.1281745372222428
 10
-0.2189176876709012
 20
-0.14013919758686
 10
-0.2099962668917051
 20
-0.1623797632095822
  0
LINE
  5
C0
330
96
100
AcDbEntity
  8
AM_9
100
AcDbLine
 10
-0.2360765106845272
 20
-0.114187258378066
 30
0.0
 11
-0.2258378743019624
 21
-0.1281745372222428
 31
0.0
  0
LWPOLYLINE
  5
C1
330
96
100
AcDbEntity
  8
AM_9
100
AcDbPolyline
 90
       13
 70
     0
 43
0.0
 10
-0.1790373738501777
 20
0.0891382003679202
 10
-0.1842628795203938
 20
0.0777636883825141
 10
-0.1892274110627138
 20
0.06473495013335
 10
-0.1936098952159721
 20
0.0501518541477802
 10
-0.1972182994908369
 20
0.0331837612147967
 10
-0.1994144431868152
 20
0.0152931307616317
 10
-0.1999640770715869
 20
-0.0031900807110608
 10
-0.198832111550905
 20
-0.0215822013754014
 10
-0.1961081631011964
 20
-0.0392160055560207
 10
-0.1920694300574955
 20
-0.0557614027566447
 10
-0.187009643149415
 20
-0.0708827954963352
 10
-0.1815005947613927
 20
-0.0840091310588356
 10
-0.1790373738501781
 20
-0.0891382003679202
  0
LINE
  5
C2
330
96
100
AcDbEntity
  8
AM_9
100
AcDbLine
 10
-0.1637075535334888
 20
0.1099999999999999
 30
0.0
 11
-0.2013892028241878
 21
0.1099999999999999
 31
0.0
  0
LINE
  5
C3
330
96
100
AcDbEntity
  8
AM_9
100
AcDbLine
 10
-0.2013892028241878
 20
-0.1099999999999999
 30
0.0
 11
-0.1639909404217726
 21
-0.1099999999999999
 31
0.0
  0
LWPOLYLINE
  5
C4
330
96
100
AcDbEntity
  8
AM_9
100
AcDbPolyline
 90
        5
 70
     0
 43
0.0
 10
-0.1557761074387943
 20
-0.1099999996045751
 10
-0.160179943325958
 20
-0.1093244165839199
 10
-0.1668493358980658
 20
-0.1056462146448629
 10
-0.1731116383367603
 20
-0.0989726456321526
 10
-0.1790373738502112
 20
-0.0891382003679049
  0
LWPOLYLINE
  5
C5
330
96
100
AcDbEntity
  8
AM_9
100
AcDbPolyline
 90
        5
 70
     0
 43
0.0
 10
-0.1790373738501776
 20
0.0891382003679202
 10
-0.1733931390117464
 20
0.0985900119595949
 10
-0.1670729780242508
 20
0.1054645023299315
 10
-0.1606047421316793
 20
0.1091871113029
 10
-0.1557751699345313
 20
0.1099999993542103
  0
ARC
  5
C6
330
96
100
AcDbEntity
  8
AM_9
100
AcDbCircle
 10
-0.0000000000017212
 20
-0.0000000000007679
 30
0.0
 40
0.1999999999981436
100
AcDbArc
 50
194.0518145039385
 51
214.0251708737194
  0
ELLIPSE
  5
C7
330
96
100
AcDbEntity
  8
AM_9
100
AcDbEllipse
 10
-0.201389202824188
 20
-0.0000000000000002
 30
0.0
 11
8.610797806504817E-18
 21
0.1406249999999998
 31
0.0
210
0.0
220
0.0
230
1.0
 40
0.4226182617407011
 41
2.717623712895352
 42
6.707154247874031
  0
ELLIPSE
  5
C8
330
96
100
AcDbEntity
  8
AM_9
100
AcDbEllipse
 10
-0.2467045921762628
 20
0.0000000000002081
 30
0.0
 11
8.610797806488952E-18
 21
0.1406249999997407
 31
0.0
210
0.0
220
0.0
230
1.0
 40
0.4226182617399432
 41
0.6232286105005471
 42
1.429840066214053
  0
LINE
  5
C9
330
96
100
AcDbEntity
  8
AM_9
100
AcDbLine
 10
-0.3055458577949628
 20
-0.0197563999532697
 30
0.0
 11
-0.3055458577949628
 21
0.0197563999532697
 31
0.0
  0
LWPOLYLINE
  5
CA
330
96
100
AcDbEntity
  8
AM_9
100
AcDbPolyline
 90
        3
 70
     0
 43
0.0
 10
-0.3437312788493598
 20
-0.1137781705464041
 10
-0.344490809082868
 20
-0.1148037804313441
 10
-0.3445239399801802
 20
-0.1148433556507742
  0
LWPOLYLINE
  5
CB
330
96
100
AcDbEntity
  8
AM_9
100
AcDbPolyline
 90
        4
 70
     0
 43
0.0
 10
-0.2806053774633818
 20
-0.1148433556507742
 10
-0.2810533074060649
 20
-0.1142633334730155
 10
-0.2826076363522446
 20
-0.1118995960095487
 10
-0.2846937241077042
 20
-0.1081402866936634
  0
LWPOLYLINE
  5
CC
330
96
100
AcDbEntity
  8
AM_9
100
AcDbPolyline
 90
        5
 70
     0
 43
0.0
 10
-0.2847812561360751
 20
0.107969324811065
 10
-0.2837340901923549
 20
0.1099457023383265
 10
-0.2815918780573976
 20
0.1134944166410319
 10
-0.2806248624745472
 20
0.1148202425026805
 10
-0.2806053774633818
 20
0.1148433556507742
  0
LWPOLYLINE
  5
CD
330
96
100
AcDbEntity
  8
AM_9
100
AcDbPolyline
 90
        3
 70
     0
 43
0.0
 10
-0.3445239399801802
 20
0.1148433556507742
 10
-0.3440245145465413
 20
0.1141925962480127
 10
-0.3439039801063394
 20
0.1140245488009492
  0
ELLIPSE
  5
CE
330
96
100
AcDbEntity
  8
AM_9
100
AcDbEllipse
 10
-0.3729962569746639
 20
0.0000000000000004
 30
0.0
 11
8.155773951865171E-18
 21
0.1331938965184662
 31
0.0
210
0.0
220
0.0
230
1.0
 40
0.4226182617406982
 41
5.831073743964407
 42
9.971872092372251
  0
ELLIPSE
  5
CF
330
96
100
AcDbEntity
  8
AM_9
100
AcDbEllipse
 10
-0.3729962569750356
 20
-0.0000000000003768
 30
0.0
 11
8.155773951891445E-18
 21
0.1331938965188953
 31
0.0
210
0.0
220
0.0
230
1.0
 40
0.4226182617417194
 41
-0.537145289963183
 42
-0.4719582387307746
  0
ELLIPSE
  5
D0
330
96
100
AcDbEntity
  8
AM_9
100
AcDbEllipse
 10
-0.2467045921793905
 20
-0.0000000000010978
 30
0.0
 11
8.610797806420937E-18
 21
0.14062499999863
 31
0.0
210
0.0
220
0.0
230
1.0
 40
0.4226182617279595
 41
1.711752587372926
 42
2.518364043114848
  0
ELLIPSE
  5
D1
330
96
100
AcDbEntity
  8
AM_9
100
AcDbEllipse
 10
-0.3994303217889758
 20
0.0000000000000002
 30
0.0
 11
8.520391689943300E-18
 21
0.1391485560714408
 31
0.0
210
0.0
220
0.0
230
1.0
 40
0.4226182617407
 41
0.2354330163019487
 42
2.911453944090096
  0
CIRCLE
  5
D2
330
96
100
AcDbEntity
  8
AM_9
100
AcDbCircle
 10
0.0000000000000002
 20
0.0
 30
0.0
 40
0.1915112338502295
  0
ELLIPSE
  5
D3
330
96
100
AcDbEntity
  8
AM_9
100
AcDbEllipse
 10
-0.2013892028241871
 20
0.0000000000000006
 30
0.0
 11
6.735557395310399E-18
 21
0.1099999999999993
 31
0.0
210
0.0
220
0.0
230
1.0
 40
0.4226182617406951
 41
0.0
 42
6.283185307179586
  0
LINE
  5
D5
330
96
100
AcDbEntity
  8
AM_4
100
AcDbLine
 10
0.2187500000000002
 20
0.1262953713852306
 30
0.0
 11
0.0000000000000002
 21
0.2525907427704612
 31
0.0
  0
LINE
  5
D6
330
96
100
AcDbEntity
  8
AM_4
100
AcDbLine
 10
0.0000000000000002
 20
0.2525907427704612
 30
0.0
 11
-0.1897043345002184
 21
0.1430648941803213
 31
0.0
  0
LINE
  5
D7
330
96
100
AcDbEntity
  8
AM_4
100
AcDbLine
 10
-0.1897547619531385
 20
-0.1430357798768033
 30
0.0
 11
0.0000000000000002
 21
-0.2525907427704612
 31
0.0
  0
LINE
  5
D8
330
96
100
AcDbEntity
  8
AM_4
100
AcDbLine
 10
0.0000000000000002
 20
-0.2525907427704612
 30
0.0
 11
0.2187500000000002
 21
-0.1262953713852306
 31
0.0
  0
LINE
  5
D9
330
96
100
AcDbEntity
  8
AM_4
100
AcDbLine
 10
0.2187500000000002
 20
-0.1262953713852306
 30
0.0
 11
0.2187500000000002
 21
0.1262953713852306
 31
0.0
  0
ARC
  5
DA
330
96
100
AcDbEntity
  8
AM_4
100
AcDbCircle
 10
0.0000000000000002
 20
0.0
 30
0.0
 40
0.21875
100
AcDbArc
 50
215.9821655047286
 51
143.9747798910451
  0
LINE
  5
DB
330
96
100
AcDbEntity
  8
AM_4
100
AcDbLine
 10
-0.1557793102687525
 20
0.1099999999999999
 30
0.0
 11
-0.1637075535334888
 21
0.1099999999999999
 31
0.0
  0
LINE
  5
DC
330
96
100
AcDbEntity
  8
AM_4
100
AcDbLine
 10
-0.1639909404217726
 20
-0.1099999999999999
 30
0.0
 11
-0.1557791335654665
 21
-0.1099999999999999
 31
0.0
  0
LWPOLYLINE
  5
DD
330
96
100
AcDbEntity
  8
AM_4
100
AcDbPolyline
 90
       21
 70
     0
 43
0.0
 10
-0.1557751699345313
 20
0.1099999993542103
 10
-0.1538031670974774
 20
0.1098642299902842
 10
-0.1472336073736391
 20
0.1074361169500106
 10
-0.1407130262602574
 20
0.101829760403791
 10
-0.1347930597680664
 20
0.0935179578124376
 10
-0.1293028157827814
 20
0.0822566453824391
 10
-0.124714139621819
 20
0.0690147372405694
 10
-0.1208880884981779
 20
0.0533912635798488
 10
-0.1181545989145986
 20
0.0367379904268302
 10
-0.1164278875396125
 20
0.018541691433427
 10
-0.1158549073091551
 20
0.0003663009477912
 10
-0.1164156227038165
 20
-0.0183436549788656
 10
-0.1180609686233499
 20
-0.0360039211946314
 10
-0.1208367673933809
 20
-0.0531364268189174
 10
-0.124510751350602
 20
-0.0683147951973784
 10
-0.129184265228056
 20
-0.0819658231771869
 10
-0.1344729790611517
 20
-0.0929661484870866
 10
-0.1405186270901956
 20
-0.1016091178663899
 10
-0.1468270783017118
 20
-0.1071833219201679
 10
-0.1535654953592162
 20
-0.109829591708451
 10
-0.1557761074387943
 20
-0.1099999996045751
  0
ARC
  5
DE
330
96
100
AcDbEntity
  8
AM_4
100
AcDbCircle
 10
0.0000000000000002
 20
0.0
 30
0.0
 40
0.2
100
AcDbArc
 50
214.0251708736258
 51
145.8060204020677
  0
LWPOLYLINE
  5
DF
330
96
100
AcDbEntity
  8
AM_4
100
AcDbPolyline
 90
        6
 70
     0
 43
0.0
 10
-0.2099962668917051
 20
-0.1623797632095822
 10
-0.1943573015029056
 20
-0.1479869285061356
 10
-0.18054914203323
 20
-0.1333383958028655
 10
-0.1688997677199806
 20
-0.1182584107681147
 10
-0.1598729403210868
 20
-0.1030720446435313
 10
-0.1510741298357567
 20
-0.0811898816047911
  0
LINE
  5
E0
330
96
100
AcDbEntity
  8
AM_4
100
AcDbLine
 10
-0.2099962668917051
 20
-0.1623797632095822
 30
0.0
 11
-0.2389369657326273
 21
-0.1623797632095822
 31
0.0
  0
LWPOLYLINE
  5
E1
330
96
100
AcDbEntity
  8
AM_4
100
AcDbPolyline
 90
        6
 70
     0
 43
0.0
 10
-0.1510741298357567
 20
0.0811898816047911
 10
-0.156422238446444
 20
0.0957436559643702
 10
-0.1639940363880802
 20
0.1105606069314186
 10
-0.174406321286612
 20
0.1258239699714564
 10
-0.1876759562813855
 20
0.1412050309358237
 10
-0.2099962668917051
 20
0.1623797632095822
  0
LINE
  5
E2
330
96
100
AcDbEntity
  8
AM_4
100
AcDbLine
 10
-0.2099962668917051
 20
0.1623797632095822
 30
0.0
 11
-0.2389369657326273
 21
0.1623797632095822
 31
0.0
  0
LWPOLYLINE
  5
E3
330
96
100
AcDbEntity
  8
AM_4
100
AcDbPolyline
 90
        6
 70
     0
 43
0.0
 10
-0.1510741298357567
 20
-0.0811898816047911
 10
-0.1458778226760518
 20
-0.052155091529337
 10
-0.142713800755646
 20
-0.0226013472343071
 10
-0.1420496512545703
 20
0.0078295722246356
 10
-0.1441228263802212
 20
0.0384818408139635
 10
-0.1510741298357567
 20
0.0811898816047911
  0
LINE
  5
E4
330
96
100
AcDbEntity
  8
AM_4
100
AcDbLine
 10
-0.1510741298357567
 20
0.0811898816047911
 30
0.0
 11
-0.1791093260592884
 21
0.0811898816047911
 31
0.0
  0
LINE
  5
E5
330
96
100
AcDbEntity
  8
AM_4
100
AcDbLine
 10
-0.1510741298357567
 20
-0.0811898816047911
 30
0.0
 11
-0.1791093260592884
 21
-0.0811898816047911
 31
0.0
  0
LWPOLYLINE
  5
E6
330
96
100
AcDbEntity
  8
AM_4
100
AcDbPolyline
 90
        5
 70
     0
 43
0.0
 10
-0.1791093260592884
 20
0.0811898816047911
 10
-0.1842540823997051
 20
0.0416203625313734
 10
-0.1862220679364948
 20
0.0014176687078843
 10
-0.1844124966919378
 20
-0.0398791041957931
 10
-0.1791093260592884
 20
-0.0811898816047911
  0
LWPOLYLINE
  5
E7
330
96
100
AcDbEntity
  8
AM_4
100
AcDbPolyline
 90
        5
 70
     0
 43
0.0
 10
-0.2389369657326273
 20
0.1623797632095822
 10
-0.2295338871417793
 20
0.1425944959554254
 10
-0.2166871171046318
 20
0.1224916336047983
 10
-0.1996402057054675
 20
0.1018412668053538
 10
-0.1791093260592884
 20
0.0811898816047911
  0
LWPOLYLINE
  5
E8
330
96
100
AcDbEntity
  8
AM_4
100
AcDbPolyline
 90
        3
 70
     0
 43
0.0
 10
-0.2711532636537953
 20
0.1281745372222423
 10
-0.2561815527589918
 20
0.1453001843968683
 10
-0.2389369657326273
 20
0.1623797632095822
  0
LWPOLYLINE
  5
E9
330
96
100
AcDbEntity
  8
AM_4
100
AcDbPolyline
 90
        3
 70
     0
 43
0.0
 10
-0.2389369657326273
 20
-0.1623797632095822
 10
-0.256093971320235
 20
-0.1453926299734447
 10
-0.2711532636537953
 20
-0.1281745372222423
  0
LWPOLYLINE
  5
EA
330
96
100
AcDbEntity
  8
AM_4
100
AcDbPolyline
 90
        5
 70
     0
 43
0.0
 10
-0.1791093260592884
 20
-0.0811898816047911
 10
-0.1988355121406936
 20
-0.1009664231904839
 10
-0.2156330920108722
 20
-0.121062844630589
 10
-0.2290462109660018
 20
-0.1417146509141334
 10
-0.2389369657326273
 20
-0.1623797632095822
  0
LINE
  5
EB
330
96
100
AcDbEntity
  8
AM_4
100
AcDbLine
 10
-0.2711532636537953
 20
-0.1281745372222423
 30
0.0
 11
-0.2813919000363597
 21
-0.1141872583780661
 31
0.0
  0
ELLIPSE
  5
EC
330
96
100
AcDbEntity
  8
AM_4
100
AcDbEllipse
 10
-0.2467045921760204
 20
0.0000000000000001
 30
0.0
 11
8.610797806504809E-18
 21
0.1406249999999997
 31
0.0
210
0.0
220
0.0
230
1.0
 40
0.4226182617406993
 41
2.717623712895342
 42
6.707154247874038
  0
LINE
  5
ED
330
96
100
AcDbEntity
  8
AM_4
100
AcDbLine
 10
-0.2813919000363596
 20
0.1141872583780661
 30
0.0
 11
-0.2711532636537953
 21
0.1281745372222423
 31
0.0
  0
LWPOLYLINE
  5
EE
330
96
100
AcDbEntity
  8
AM_4
100
AcDbPolyline
 90
       12
 70
     0
 43
0.0
 10
-0.3439729167938324
 20
-0.1142778357273507
 10
-0.3415233361359856
 20
-0.112234433133295
 10
-0.3368287387084953
 20
-0.1092879048068155
 10
-0.3296845840048467
 20
-0.1062180278426727
 10
-0.3202191434968136
 20
-0.1039876242118141
 10
-0.3093061126860246
 20
-0.1035487316601834
 10
-0.2986803374434048
 20
-0.1052454187975556
 10
-0.2902591222496025
 20
-0.1083032371980822
 10
-0.2847073819974784
 20
-0.1114532627989782
 10
-0.2816875739561346
 20
-0.1137860889103732
 10
-0.2806268226301785
 20
-0.1148190843121613
 10
-0.2806053774633818
 20
-0.1148433556507742
  0
LWPOLYLINE
  5
EF
330
96
100
AcDbEntity
  8
AM_4
100
AcDbPolyline
 90
        3
 70
     0
 43
0.0
 10
-0.3431855154679996
 20
0.1135608901391123
 10
-0.343533244854737
 20
0.1138682360963974
 10
-0.3445128026049373
 20
0.1148306656754875
  0
LWPOLYLINE
  5
F0
330
96
100
AcDbEntity
  8
AM_4
100
AcDbPolyline
 90
       11
 70
     0
 43
0.0
 10
-0.2806053774633818
 20
0.1148433556507742
 10
-0.2812266528654541
 20
0.1142105417079027
 10
-0.283776704358754
 20
0.112108910453696
 10
-0.2885848933744019
 20
0.1091373152028641
 10
-0.2958468414898662
 20
0.1060843459175072
 10
-0.3054087612319618
 20
0.103919715337786
 10
-0.3163525020733598
 20
0.1035826616085485
 10
-0.326915400186608
 20
0.105371435897482
 10
-0.3352025625026122
 20
0.1084619145012898
 10
-0.3406204302874883
 20
0.1115892491480285
 10
-0.3431855154679996
 20
0.1135608901391123
  0
LINE
  5
F1
330
96
100
AcDbEntity
  8
AM_4
100
AcDbLine
 10
-0.4782595695260258
 20
-0.101006617594416
 30
0.0
 11
-0.4122174217232457
 21
-0.1358191566576766
 31
0.0
  0
LINE
  5
F2
330
96
100
AcDbEntity
  8
AM_4
100
AcDbLine
 10
-0.4122174217232457
 20
0.1358191566576766
 30
0.0
 11
-0.4782595695260258
 21
0.101006617594416
 31
0.0
  0
ELLIPSE
  5
F3
330
96
100
AcDbEntity
  8
AM_4
100
AcDbEllipse
 10
-0.3994303217889761
 20
0.0
 30
0.0
 11
8.520391689943295E-18
 21
0.1391485560714407
 31
0.0
210
0.0
220
0.0
230
1.0
 40
0.4226182617407006
 41
2.922398804073381
 42
6.502379156695998
  0
ELLIPSE
  5
F4
330
96
100
AcDbEntity
  8
AM_4
100
AcDbEllipse
 10
-0.3729962569746637
 20
0.0
 30
0.0
 11
8.155773951865160E-18
 21
0.133193896518466
 31
0.0
210
0.0
220
0.0
230
1.0
 40
0.4226182617406971
 41
3.688686785192663
 42
5.698588613682514
  0
LWPOLYLINE
  5
F5
330
96
100
AcDbEntity
  8
AM_4
100
AcDbPolyline
 90
       10
 70
     0
 43
0.0
 10
-0.341589418985189
 20
0.1105599538527565
 10
-0.345727690482597
 20
0.1165426535566754
 10
-0.3537899173802851
 20
0.1257452544617638
 10
-0.3623728567275974
 20
0.1327500618844483
 10
-0.3713975803323689
 20
0.1376748176977151
 10
-0.3808227849058086
 20
0.1405949385100325
 10
-0.3914542811261014
 20
0.1414629290562362
 10
-0.4015813361333456
 20
0.1399742286458602
 10
-0.410987368317161
 20
0.1364470753424452
 10
-0.4137092927632721
 20
0.1350020860375494
  0
LWPOLYLINE
  5
F6
330
96
100
AcDbEntity
  8
AM_4
100
AcDbPolyline
 90
        9
 70
     0
 43
0.0
 10
-0.4132317793713686
 20
-0.1352703313684125
 10
-0.4072712792808457
 20
-0.1381027659480604
 10
-0.3978075534544837
 20
-0.1407972048506062
 10
-0.3872177838971992
 20
-0.1414149183803564
 10
-0.3771539696931666
 20
-0.139708550045204
 10
-0.3678221650291368
 20
-0.1359916541126116
 10
-0.3591704768805446
 20
-0.1304286079497228
 10
-0.3510679495795256
 20
-0.1229582689595636
 10
-0.3436991805555983
 20
-0.1137320106252963
  0
ELLIPSE
  5
F7
330
96
100
AcDbEntity
  8
AM_4
100
AcDbEllipse
 10
-0.3729962569747001
 20
-0.0000000000000181
 30
0.0
 11
8.155773951866661E-18
 21
0.1331938965184905
 31
0.0
210
0.0
220
0.0
230
1.0
 40
0.4226182617408285
 41
-0.5845966934973914
 42
-0.5371452899603657
  0
ARC
  5
F9
330
96
100
AcDbEntity
  8
AM_5
100
AcDbCircle
 10
0.0000000000000001
 20
0.0
 30
0.0
 40
0.168500005
100
AcDbArc
 50
75.00000000000001
 51
15.0
  0
ARC
  5
FA
330
96
100
AcDbEntity
  8
AM_5
100
AcDbCircle
 10
0.0000000000000002
 20
0.0
 30
0.0
 40
0.168500005
100
AcDbArc
 50
15.0
 51
195.0
  0
ELLIPSE
  5
FB
330
96
100
AcDbEntity
  8
AM_4
100
AcDbEllipse
 10
-0.4687499999999999
 20
0.0
 30
0.0
 11
6.336484236534233E-18
 21
0.10348264072459
 31
0.0
210
0.0
220
0.0
230
1.0
 40
0.4226182617406939
 41
0.0
 42
6.283185307179586
  0
ENDBLK
  5
99
330
96
100
AcDbEntity
  8
0
100
AcDbBlockEnd
  0
BLOCK
  5
FE
330
FC
100
AcDbEntity
  8
0
100
AcDbBlockBegin
  2
3_1_15_16CS2i_0_in_070811_2
 70
     2
 10
0.0
 20
0.0
 30
0.0
  3
3_1_15_16CS2i_0_in_070811_2
  1

  0
ATTDEF
  5
100
330
FC
100
AcDbEntity
  8
AM_6
100
AcDbText
 10
3.634
 20
1.71875
 30
0.0
 40
0.5
  1
S-2000 Collar -Inch
100
AcDbAttributeDefinition
  3

  2
NN
 70
     8
280
     0
  0
ATTDEF
  5
101
330
FC
100
AcDbEntity
  8
AM_6
100
AcDbText
 10
3.634
 20
1.21875
 30
0.0
 40
0.5
  1
S-2000 Bearings
100
AcDbAttributeDefinition
  3

  2
NT
 70
     8
280
     0
  0
ATTDEF
  5
102
330
FC
100
AcDbEntity
  8
AM_6
100
AcDbText
 10
3.634
 20
0.7187500000000004
 30
0.0
 40
0.5
  1
1-15/16CS2i
100
AcDbAttributeDefinition
  3

  2
NB
 70
     8
280
     0
  0
ATTDEF
  5
103
330
FC
100
AcDbEntity
  8
AM_6
100
AcDbText
 10
3.634
 20
0.2187500000000004
 30
0.0
 40
0.5
  1
$BORE.CS2i
100
AcDbAttributeDefinition
  3

  2
NBSYN
 70
     8
280
     0
  0
ATTDEF
  5
104
330
FC
100
AcDbEntity
  8
AM_6
100
AcDbText
 10
3.634
 20
-0.2812499999999996
 30
0.0
 40
0.5
  1
1-15/16CS2i
100
AcDbAttributeDefinition
  3

  2
LINA
 70
     8
280
     0
  0
ATTDEF
  5
105
330
FC
100
AcDbEntity
  8
AM_6
100
AcDbText
 10
3.634
 20
-0.7812499999999996
 30
0.0
 40
0.5
  1
1-15/16
100
AcDbAttributeDefinition
  3

  2
BORE
 70
     8
280
     0
  0
ATTDEF
  5
106
330
FC
100
AcDbEntity
  8
AM_6
100
AcDbText
 10
3.634
 20
-1.28125
 30
0.0
 40
0.5
  1
1.937500
100
AcDbAttributeDefinition
  3

  2
BORE1
 70
     8
280
     0
  0
ATTDEF
  5
107
330
FC
100
AcDbEntity
  8
AM_6
100
AcDbText
 10
3.634
 20
-1.78125
 30
0.0
 40
0.5
  1
3-7/16
100
AcDbAttributeDefinition
  3

  2
L1
 70
     8
280
     0
  0
ATTDEF
  5
108
330
FC
100
AcDbEntity
  8
AM_6
100
AcDbText
 10
3.634
 20
-2.28125
 30
0.0
 40
0.5
  1
3.43750
100
AcDbAttributeDefinition
  3

  2
L
 70
     8
280
     0
  0
ATTDEF
  5
109
330
FC
100
AcDbEntity
  8
AM_6
100
AcDbText
 10
3.634
 20
-2.78125
 30
0.0
 40
0.5
  1
3.34375
100
AcDbAttributeDefinition
  3

  2
L2
 70
     8
280
     0
  0
ATTDEF
  5
10A
330
FC
100
AcDbEntity
  8
AM_6
100
AcDbText
 10
3.634
 20
-3.28125
 30
0.0
 40
0.5
  1
3.50
100
AcDbAttributeDefinition
  3

  2
A
 70
     8
280
     0
  0
ATTDEF
  5
10B
330
FC
100
AcDbEntity
  8
AM_6
100
AcDbText
 10
3.634
 20
-3.78125
 30
0.0
 40
0.5
  1
1.62
100
AcDbAttributeDefinition
  3

  2
B
 70
     8
280
     0
  0
ATTDEF
  5
10C
330
FC
100
AcDbEntity
  8
AM_6
100
AcDbText
 10
3.634
 20
-4.28125
 30
0.0
 40
0.5
  1
2.31
100
AcDbAttributeDefinition
  3

  2
C
 70
     8
280
     0
  0
ATTDEF
  5
10D
330
FC
100
AcDbEntity
  8
AM_6
100
AcDbText
 10
3.634
 20
-4.78125
 30
0.0
 40
0.5
  1
3.50
100
AcDbAttributeDefinition
  3

  2
D
 70
     8
280
     0
  0
ATTDEF
  5
10E
330
FC
100
AcDbEntity
  8
AM_6
100
AcDbText
 10
3.634
 20
-5.28125
 30
0.0
 40
0.5
  1
0.41
100
AcDbAttributeDefinition
  3

  2
E
 70
     8
280
     0
  0
ATTDEF
  5
10F
330
FC
100
AcDbEntity
  8
AM_6
100
AcDbText
 10
3.634
 20
-5.78125
 30
0.0
 40
0.5
  1
0.317
100
AcDbAttributeDefinition
  3

  2
F
 70
     8
280
     0
  0
ATTDEF
  5
110
330
FC
100
AcDbEntity
  8
AM_6
100
AcDbText
 10
3.634
 20
-6.28125
 30
0.0
 40
0.5
  1
3/8-16
100
AcDbAttributeDefinition
  3

  2
CS
 70
     8
280
     0
  0
ATTDEF
  5
111
330
FC
100
AcDbEntity
  8
AM_6
100
AcDbText
 10
3.634
 20
-6.78125
 30
0.0
 40
0.5
  1
0.3750
100
AcDbAttributeDefinition
  3

  2
NDM
 70
     8
280
     0
  0
ATTDEF
  5
112
330
FC
100
AcDbEntity
  8
AM_6
100
AcDbText
 10
3.634
 20
-7.28125
 30
0.0
 40
0.5
  1
0.3070
100
AcDbAttributeDefinition
  3

  2
KDM
 70
     8
280
     0
  0
ATTDEF
  5
113
330
FC
100
AcDbEntity
  8
AM_6
100
AcDbText
 10
3.634
 20
-7.78125
 30
0.0
 40
0.5
  1
1
100
AcDbAttributeDefinition
  3

  2
DD
 70
     8
280
     0
  0
ATTDEF
  5
114
330
FC
100
AcDbEntity
  8
AM_6
100
AcDbText
 10
3.634
 20
-8.28125
 30
0.0
 40
0.5
  1
baldor
100
AcDbAttributeDefinition
  3

  2
COMPANY
 70
     8
280
     0
  0
LINE
  5
115
330
FC
100
AcDbEntity
  8
AM_9
100
AcDbLine
 10
-1.52935
 20
1.163849999999998
 30
0.0
 11
-1.52935
 21
1.6849
 31
0.0
  0
LINE
  5
116
330
FC
100
AcDbEntity
  8
AM_9
100
AcDbLine
 10
-1.83665
 20
1.671829317052831
 30
0.0
 11
-1.83665
 21
1.163849999999998
 31
0.0
  0
LINE
  5
117
330
FC
100
AcDbEntity
  8
AM_9
100
AcDbLine
 10
-1.83665
 20
1.163849999999998
 30
0.0
 11
-1.52935
 21
1.163849999999998
 31
0.0
  0
LINE
  5
118
330
FC
100
AcDbEntity
  8
AM_9
100
AcDbLine
 10
-1.83665
 20
1.163849999999998
 30
0.0
 11
-1.845333859590501
 21
1.155166140409497
 31
0.0
  0
LINE
  5
119
330
FC
100
AcDbEntity
  8
AM_9
100
AcDbLine
 10
-1.520768486589466
 20
1.155268486589464
 30
0.0
 11
-1.52935
 21
1.163849999999998
 31
0.0
  0
LINE
  5
11A
330
FC
100
AcDbEntity
  8
AM_9
100
AcDbLine
 10
-1.683
 20
1.6849
 30
0.0
 11
-1.52935
 21
1.6849
 31
0.0
  0
LINE
  5
11B
330
FC
100
AcDbEntity
  8
AM_9
100
AcDbLine
 10
-1.52935
 20
1.6849
 30
0.0
 11
-1.4955
 21
1.71875
 31
0.0
  0
LWPOLYLINE
  5
11C
330
FC
100
AcDbEntity
  8
AM_9
100
AcDbPolyline
 90
       39
 70
     0
 43
0.0
 10
-1.563270700757612
 20
0.3779306153227044
 10
-1.548573278082185
 20
0.396982385124557
 10
-1.536808271443683
 20
0.4176293360648101
 10
-1.526801432537048
 20
0.4439182519710251
 10
-1.521431658753938
 20
0.4710708270096682
 10
-1.520922827735138
 20
0.4993266874148425
 10
-1.525506840884039
 20
0.5269257457283382
 10
-1.535264255474738
 20
0.5533184649773224
 10
-1.549916029846859
 20
0.5775465560041885
 10
-1.568828571350549
 20
0.5985069496908864
 10
-1.591740925088392
 20
0.6160441469379788
 10
-1.616509356111882
 20
0.6288048404677827
 10
-1.643615795223777
 20
0.6374696658014952
 10
-1.669671165229202
 20
0.6414014566813416
 10
-1.696147638067584
 20
0.6414329664232032
 10
-1.720697315440199
 20
0.6378349976865144
 10
-1.744212472618771
 20
0.630908090442375
 10
-1.76640029802289
 20
0.620674193172453
 10
-1.786437085965839
 20
0.6075673369347369
 10
-1.805064809653995
 20
0.5906952130942349
 10
-1.820445301954541
 20
0.5713661406842145
 10
-1.833080868890707
 20
0.548212272045049
 10
-1.841404421512373
 20
0.523295179199191
 10
-1.845292849706192
 20
0.4958213139565711
 10
-1.844176650013289
 20
0.4677970280308617
 10
-1.837858942332216
 20
0.4394979658413348
 10
-1.826504583658788
 20
0.4122797271984379
 10
-1.810432303738319
 20
0.3872468336572877
 10
-1.789972829888135
 20
0.3650564070238989
 10
-1.766678283758052
 20
0.3473968064820112
 10
-1.740411069580451
 20
0.3340073621827003
 10
-1.714336514347769
 20
0.3261834974355968
 10
-1.687224615848441
 20
0.3229852316942747
 10
-1.662021520915244
 20
0.324387128498041
 10
-1.637419242035971
 20
0.3298323777881113
 10
-1.614355322039371
 20
0.3390024523154564
 10
-1.593078384257335
 20
0.3514964254536935
 10
-1.577336269731259
 20
0.3638867207156672
 10
-1.563270700757612
 20
0.3779306153227044
  0
LINE
  5
11D
330
FC
100
AcDbEntity
  8
AM_9
100
AcDbLine
 10
-2.0
 20
-1.155
 30
0.0
 11
-1.366
 21
-1.155
 31
0.0
  0
LINE
  5
11E
330
FC
100
AcDbEntity
  8
AM_9
100
AcDbLine
 10
-1.366
 20
1.155
 30
0.0
 11
-1.521141874627086
 21
1.155
 31
0.0
  0
LINE
  5
11F
330
FC
100
AcDbEntity
  8
AM_9
100
AcDbLine
 10
-1.845102342789092
 20
1.155
 30
0.0
 11
-2.0
 21
1.155
 31
0.0
  0
LWPOLYLINE
  5
120
330
FC
100
AcDbEntity
  8
AM_9
100
AcDbPolyline
 90
       21
 70
     0
 43
0.0
 10
-1.845499999999292
 20
1.154999999999884
 10
-1.845400986662971
 20
1.15498379342257
 10
-1.84175712012805
 20
1.154393873255462
 10
-1.833131994249787
 20
1.153048235227185
 10
-1.819198885410673
 20
1.151026350938733
 10
-1.801385052348584
 20
1.148717802829725
 10
-1.778771329989636
 20
1.146240524342773
 10
-1.754815148278001
 20
1.144177281125706
 10
-1.727423654001466
 20
1.142534733138016
 10
-1.701763695572541
 20
1.141696141547657
 10
-1.674641036554752
 20
1.1415500348332
 10
-1.650239733160896
 20
1.14206930960979
 10
-1.626078803751199
 20
1.143188797776558
 10
-1.603897546785491
 20
1.144743350316933
 10
-1.583242928870743
 20
1.146640022566709
 10
-1.564398942507809
 20
1.148743921308349
 10
-1.548287017588642
 20
1.150821876167579
 10
-1.535095250353041
 20
1.152712392277049
 10
-1.525858838042087
 20
1.154136323883433
 10
-1.521073151141624
 20
1.154906315782236
 10
-1.520500000000019
 20
1.154999999999997
  0
LINE
  5
121
330
FC
100
AcDbEntity
  8
AM_9
100
AcDbLine
 10
-1.52935
 20
0.4918642639269121
 30
0.0
 11
-1.52935
 21
0.7120695092069046
 31
0.0
  0
LINE
  5
122
330
FC
100
AcDbEntity
  8
AM_9
100
AcDbLine
 10
-1.83665
 20
0.7065456216338938
 30
0.0
 11
-1.83665
 21
0.4918642639269121
 31
0.0
  0
ELLIPSE
  5
123
330
FC
100
AcDbEntity
  8
AM_9
100
AcDbEllipse
 10
-1.683000000000001
 20
0.4918642639269118
 30
0.0
 11
0.153650000000001
 21
0.0
 31
0.0
210
0.0
220
0.0
230
1.0
 40
0.9063077870366499
 41
2.268228621928966
 42
7.195070406291675
  0
LINE
  5
124
330
FC
100
AcDbEntity
  8
AM_9
100
AcDbLine
 10
-1.683
 20
0.5728153177287234
 30
0.0
 11
-1.683
 21
0.8428289026684154
 31
0.0
  0
LINE
  5
125
330
FC
100
AcDbEntity
  8
AM_5
100
AcDbLine
 10
-1.8705
 20
1.671875
 30
0.0
 11
-1.8705
 21
1.155
 31
0.0
  0
LINE
  5
126
330
FC
100
AcDbEntity
  8
AM_5
100
AcDbLine
 10
-1.77675
 20
1.13
 30
0.0
 11
-1.8705
 21
1.13
 31
0.0
  0
LINE
  5
127
330
FC
100
AcDbEntity
  8
AM_5
100
AcDbLine
 10
-1.4955
 20
1.71875
 30
0.0
 11
-1.4955
 21
1.155
 31
0.0
  0
LINE
  5
128
330
FC
100
AcDbEntity
  8
AM_5
100
AcDbLine
 10
-1.58925
 20
1.13
 30
0.0
 11
-1.4955
 21
1.13
 31
0.0
  0
ELLIPSE
  5
129
330
FC
100
AcDbEntity
  8
AM_4
100
AcDbEllipse
 10
-1.683
 20
0.4918642639269118
 30
0.0
 11
0.1536500000000007
 21
0.0
 31
0.0
210
0.0
220
0.0
230
1.0
 40
0.9063077870366473
 41
1.570796326794897
 42
2.268228621928972
  0
LWPOLYLINE
  5
12A
330
FC
100
AcDbEntity
  8
AM_4
100
AcDbPolyline
 90
       11
 70
     0
 43
0.0
 10
-1.83664999933858
 20
0.7065519853387418
 10
-1.8356525561079
 20
0.7223677525029673
 10
-1.830566316752001
 20
0.7450798938133635
 10
-1.82135769827306
 20
0.7665635542834761
 10
-1.808211551078412
 20
0.7862473905750144
 10
-1.791562016143881
 20
0.8036135625653672
 10
-1.771752309063228
 20
0.8182307055177177
 10
-1.749434647229059
 20
0.829699244922787
 10
-1.725203436775501
 20
0.8376852193488313
 10
-1.69977282237596
 20
0.8420324150572488
 10
-1.683
 20
0.8428289026684153
  0
ELLIPSE
  5
12B
330
FC
100
AcDbEntity
  8
AM_4
100
AcDbEllipse
 10
-1.683
 20
0.7120695092069051
 30
0.0
 11
0.1536499999999996
 21
0.0
 31
0.0
210
0.0
220
0.0
230
1.0
 40
0.906307787036648
 41
0.0
 42
1.570796326794897
  0
ELLIPSE
  5
12C
330
FC
100
AcDbEntity
  8
AM_4
100
AcDbEllipse
 10
-1.683000000000001
 20
0.4918642639269102
 30
0.0
 11
0.1536500000000016
 21
0.0
 31
0.0
210
0.0
220
0.0
230
1.0
 40
0.9063077870366526
 41
0.9118850991120961
 42
1.570796326794897
  0
LINE
  5
12D
330
FC
100
AcDbEntity
  8
AM_4
100
AcDbLine
 10
-1.683
 20
-1.71875
 30
0.0
 11
-1.683
 21
0.5728153177287234
 31
0.0
  0
ELLIPSE
  5
12E
330
FC
100
AcDbEntity
  8
AM_4
100
AcDbEllipse
 10
-1.682999999999999
 20
0.712069509206904
 30
0.0
 11
0.1536499999999994
 21
0.0
 31
0.0
210
0.0
220
0.0
230
1.0
 40
0.9063077870366487
 41
4.71238898038469
 42
6.283185307179586
  0
LWPOLYLINE
  5
12F
330
FC
100
AcDbEntity
  8
AM_4
100
AcDbPolyline
 90
       11
 70
     0
 43
0.0
 10
-1.683
 20
0.5643205197120527
 10
-1.708732005179207
 20
0.5663866780101692
 10
-1.733737211398877
 20
0.5724584470094645
 10
-1.757288552679179
 20
0.5823953811810795
 10
-1.778752610598775
 20
0.5958305184129878
 10
-1.797541329003416
 20
0.6124404091607075
 10
-1.813107577861147
 20
0.6316444970415929
 10
-1.824980991528923
 20
0.652934049888534
 10
-1.832843985596427
 20
0.6756163970244478
 10
-1.836406032941591
 20
0.6989667970565889
 10
-1.83664999933858
 20
0.7065519853387418
  0
LWPOLYLINE
  5
130
330
FC
100
AcDbEntity
  8
AM_4
100
AcDbPolyline
 90
       11
 70
     0
 43
0.0
 10
-1.683
 20
1.664799595484393
 10
-1.708368605699438
 20
1.664992870639431
 10
-1.733737211398877
 20
1.665572561537183
 10
-1.756973567875275
 20
1.666442252785616
 10
-1.778752610598775
 20
1.667550975401196
 10
-1.797305966665376
 20
1.668719133689162
 10
-1.813107577861147
 20
1.6698759459738
 10
-1.824852043975835
 20
1.670832036892136
 10
-1.832843985596427
 20
1.671529513094047
 10
-1.836400876683711
 20
1.671852123272968
 10
-1.836649999999953
 20
1.671874999999996
  0
LINE
  5
131
330
FC
100
AcDbEntity
  8
AM_4
100
AcDbLine
 10
-1.894333333333333
 20
-1.671875
 30
0.0
 11
-1.683
 21
-1.671875
 31
0.0
  0
LINE
  5
132
330
FC
100
AcDbEntity
  8
AM_4
100
AcDbLine
 10
-1.836151316279622
 20
1.671875
 30
0.0
 11
-1.894333333333333
 21
1.671875
 31
0.0
  0
LINE
  5
133
330
FC
100
AcDbEntity
  8
AM_4
100
AcDbLine
 10
-2.0
 20
1.566208333333333
 30
0.0
 11
-2.0
 21
-1.566208333333333
 31
0.0
  0
ARC
  5
134
330
FC
100
AcDbEntity
  8
AM_4
100
AcDbCircle
 10
-1.894333333333333
 20
-1.566208333333333
 30
0.0
 40
0.105666666666667
100
AcDbArc
 50
179.9999991462263
 51
270.0
  0
ARC
  5
135
330
FC
100
AcDbEntity
  8
AM_4
100
AcDbCircle
 10
-1.894333333333333
 20
1.566208333333333
 30
0.0
 40
0.105666666666667
100
AcDbArc
 50
90.0
 51
179.9999991462263
  0
LINE
  5
136
330
FC
100
AcDbEntity
  8
AM_4
100
AcDbLine
 10
-1.894333333333333
 20
1.671875
 30
0.0
 11
-1.894333333333333
 21
-1.671875
 31
0.0
  0
LINE
  5
137
330
FC
100
AcDbEntity
  8
AM_4
100
AcDbLine
 10
-1.683
 20
1.709483644408685
 30
0.0
 11
-1.683
 21
0.8428289026684154
 31
0.0
  0
LWPOLYLINE
  5
138
330
FC
100
AcDbEntity
  8
AM_4
100
AcDbPolyline
 90
       20
 70
     0
 43
0.0
 10
-1.683
 20
0.8839935461136664
 10
-1.659456540255968
 20
0.8827704602397235
 10
-1.636255059594891
 20
0.8791269088512271
 10
-1.605055468457822
 20
0.8700088279071433
 10
-1.576110789565219
 20
0.8564042619296152
 10
-1.550768936387202
 20
0.8388475241516105
 10
-1.529327849004654
 20
0.8175785154073791
 10
-1.513224687719381
 20
0.7941216880186757
 10
-1.502030813820807
 20
0.768327344412466
 10
-1.496449539195478
 20
0.7423684323783799
 10
-1.495907654116658
 20
0.7157236493827165
 10
-1.500273576111536
 20
0.6900682453363575
 10
-1.509211959468603
 20
0.6652448531997145
 10
-1.522567395536487
 20
0.6418169275584542
 10
-1.539799729506366
 20
0.6205387968669153
 10
-1.56132216553087
 20
0.6012861805433024
 10
-1.585842373331685
 20
0.5853983471201033
 10
-1.614119991438691
 20
0.572788104769368
 10
-1.64418570963239
 20
0.564599505893966
 10
-1.683
 20
0.560924466434642
  0
LINE
  5
139
330
FC
100
AcDbEntity
  8
AM_4
100
AcDbLine
 10
-1.683
 20
-1.71875
 30
0.0
 11
-1.366
 21
-1.71875
 31
0.0
  0
LINE
  5
13A
330
FC
100
AcDbEntity
  8
AM_4
100
AcDbLine
 10
-1.366
 20
1.71875
 30
0.0
 11
-1.4955
 21
1.71875
 31
0.0
  0
LWPOLYLINE
  5
13B
330
FC
100
AcDbEntity
  8
AM_4
100
AcDbPolyline
 90
       11
 70
     0
 43
0.0
 10
-1.49550000000004
 20
1.718749999999996
 10
-1.495907654116658
 20
1.718709945620833
 10
-1.500161980617995
 20
1.718297037634551
 10
-1.509211959468603
 20
1.717449711877597
 10
-1.522351993982014
 20
1.716294780493615
 10
-1.539799729506366
 20
1.714899617463105
 10
-1.561013923217217
 20
1.713416876990633
 10
-1.585842373331685
 20
1.711980611192172
 10
-1.613725531611538
 20
1.710753888887781
 10
-1.64418570963239
 20
1.709882600018857
 10
-1.683
 20
1.709483644408685
  0
LINE
  5
13C
330
FC
100
AcDbEntity
  8
AM_4
100
AcDbLine
 10
-1.366
 20
1.71875
 30
0.0
 11
-1.366
 21
-1.71875
 31
0.0
  0
ENDBLK
  5
FF
330
FC
100
AcDbEntity
  8
0
100
AcDbBlockEnd
  0
BLOCK
  5
13F
330
13D
100
AcDbEntity
  8
0
100
AcDbBlockBegin
  2
4_070005i_0_in_070811_2
 70
     2
 10
0.0
 20
0.0
 30
0.0
  3
4_070005i_0_in_070811_2
  1

  0
ATTDEF
  5
141
330
13D
100
AcDbEntity
  8
AM_6
100
AcDbText
 10
5.84375
 20
1.77165
 30
0.0
 40
0.5
  1
S-2000 Insert -Inch
100
AcDbAttributeDefinition
  3

  2
NN
 70
     8
280
     0
  0
ATTDEF
  5
142
330
13D
100
AcDbEntity
  8
AM_6
100
AcDbText
 10
5.84375
 20
1.27165
 30
0.0
 40
0.5
  1
S-2000 Bearings
100
AcDbAttributeDefinition
  3

  2
NT
 70
     8
280
     0
  0
ATTDEF
  5
143
330
13D
100
AcDbEntity
  8
AM_6
100
AcDbText
 10
5.84375
 20
0.77165
 30
0.0
 40
0.5
  1
070005i
100
AcDbAttributeDefinition
  3

  2
NB
 70
     8
280
     0
  0
ATTDEF
  5
144
330
13D
100
AcDbEntity
  8
AM_6
100
AcDbText
 10
5.84375
 20
0.2716499999999999
 30
0.0
 40
0.5
  1
$PN.i
100
AcDbAttributeDefinition
  3

  2
NBSYN
 70
     8
280
     0
  0
ATTDEF
  5
145
330
13D
100
AcDbEntity
  8
AM_6
100
AcDbText
 10
5.84375
 20
-0.2283500000000001
 30
0.0
 40
0.5
  1
070005i
100
AcDbAttributeDefinition
  3

  2
LINA
 70
     8
280
     0
  0
ATTDEF
  5
146
330
13D
100
AcDbEntity
  8
AM_6
100
AcDbText
 10
5.84375
 20
-0.72835
 30
0.0
 40
0.5
  1
1-15/16
100
AcDbAttributeDefinition
  3

  2
SS
 70
     8
280
     0
  0
ATTDEF
  5
147
330
13D
100
AcDbEntity
  8
AM_6
100
AcDbText
 10
5.84375
 20
-1.22835
 30
0.0
 40
0.5
  1
2.31
100
AcDbAttributeDefinition
  3

  2
CC
 70
     8
280
     0
  0
ATTDEF
  5
148
330
13D
100
AcDbEntity
  8
AM_6
100
AcDbText
 10
5.84375
 20
-1.72835
 30
0.0
 40
0.5
  1
1.937500
100
AcDbAttributeDefinition
  3

  2
SS1
 70
     8
280
     0
  0
ATTDEF
  5
149
330
13D
100
AcDbEntity
  8
AM_6
100
AcDbText
 10
5.84375
 20
-2.22835
 30
0.0
 40
0.5
  1
070005
100
AcDbAttributeDefinition
  3

  2
PN
 70
     8
280
     0
  0
ATTDEF
  5
14A
330
13D
100
AcDbEntity
  8
AM_6
100
AcDbText
 10
5.84375
 20
-2.72835
 30
0.0
 40
0.5
  1
INS-S2-115R
100
AcDbAttributeDefinition
  3

  2
DESCRIPTION
 70
     8
280
     0
  0
ATTDEF
  5
14B
330
13D
100
AcDbEntity
  8
AM_6
100
AcDbText
 10
5.84375
 20
-3.22835
 30
0.0
 40
0.5
  1
Contact Seal
100
AcDbAttributeDefinition
  3

  2
ST
 70
     8
280
     0
  0
ATTDEF
  5
14C
330
13D
100
AcDbEntity
  8
AM_6
100
AcDbText
 10
5.84375
 20
-3.72835
 30
0.0
 40
0.5
  1
1
100
AcDbAttributeDefinition
  3

  2
ST1
 70
     8
280
     0
  0
ATTDEF
  5
14D
330
13D
100
AcDbEntity
  8
AM_6
100
AcDbText
 10
5.84375
 20
-4.22835
 30
0.0
 40
0.5
  1
3.5433
100
AcDbAttributeDefinition
  3

  2
A
 70
     8
280
     0
  0
ATTDEF
  5
14E
330
13D
100
AcDbEntity
  8
AM_6
100
AcDbText
 10
5.84375
 20
-4.72835
 30
0.0
 40
0.5
  1
61/64
100
AcDbAttributeDefinition
  3

  2
B
 70
     8
280
     0
  0
ATTDEF
  5
14F
330
13D
100
AcDbEntity
  8
AM_6
100
AcDbText
 10
5.84375
 20
-5.22835
 30
0.0
 40
0.5
  1
2-27/32
100
AcDbAttributeDefinition
  3

  2
C
 70
     8
280
     0
  0
ATTDEF
  5
150
330
13D
100
AcDbEntity
  8
AM_6
100
AcDbText
 10
5.84375
 20
-5.72835
 30
0.0
 40
0.5
  1
0.977
100
AcDbAttributeDefinition
  3

  2
D
 70
     8
280
     0
  0
ATTDEF
  5
151
330
13D
100
AcDbEntity
  8
AM_6
100
AcDbText
 10
5.84375
 20
-6.22835
 30
0.0
 40
0.5
  1
3-11/32
100
AcDbAttributeDefinition
  3

  2
E
 70
     8
280
     0
  0
ATTDEF
  5
152
330
13D
100
AcDbEntity
  8
AM_6
100
AcDbText
 10
5.84375
 20
-6.72835
 30
0.0
 40
0.5
  1
0.53125
100
AcDbAttributeDefinition
  3

  2
F
 70
     8
280
     0
  0
ATTDEF
  5
153
330
13D
100
AcDbEntity
  8
AM_6
100
AcDbText
 10
5.84375
 20
-7.22835
 30
0.0
 40
0.5
  1
1
100
AcDbAttributeDefinition
  3

  2
DD
 70
     8
280
     0
  0
ATTDEF
  5
154
330
13D
100
AcDbEntity
  8
AM_6
100
AcDbText
 10
5.84375
 20
-7.72835
 30
0.0
 40
0.5
  1
baldor
100
AcDbAttributeDefinition
  3

  2
COMPANY
 70
     8
280
     0
  0
LINE
  5
155
330
13D
100
AcDbEntity
  8
AM_9
100
AcDbLine
 10
-1.888
 20
1.154877756637566
 30
0.0
 11
-1.888
 21
0.96875
 31
0.0
  0
LINE
  5
156
330
13D
100
AcDbEntity
  8
AM_9
100
AcDbLine
 10
-1.478
 20
0.96875
 30
0.0
 11
-1.478
 21
1.154962221367664
 31
0.0
  0
LINE
  5
157
330
13D
100
AcDbEntity
  8
AM_9
100
AcDbLine
 10
-1.888
 20
0.4881240923105078
 30
0.0
 11
-1.888
 21
0.4093796815139764
 31
0.0
  0
LINE
  5
158
330
13D
100
AcDbEntity
  8
AM_9
100
AcDbLine
 10
-1.478
 20
0.409348864830776
 30
0.0
 11
-1.478
 21
0.4881240923105079
 31
0.0
  0
LWPOLYLINE
  5
159
330
13D
100
AcDbEntity
  8
AM_9
100
AcDbPolyline
 90
        4
 70
     0
 43
0.0
 10
-1.883381691816198
 20
0.4482175976841651
 10
-1.884153715279822
 20
0.4447857261341431
 10
-1.887939807045839
 20
0.4139080907666526
 10
-1.887999998916321
 20
0.4094305446793951
  0
LWPOLYLINE
  5
15A
330
13D
100
AcDbEntity
  8
AM_9
100
AcDbPolyline
 90
        5
 70
     0
 43
0.0
 10
-1.8290896634991
 20
0.5352156880764324
 10
-1.839558288531906
 20
0.5255160061022681
 10
-1.859623180344152
 20
0.5013190575168165
 10
-1.874678285948385
 20
0.474140388213466
 10
-1.883381691816198
 20
0.4482175976841651
  0
LWPOLYLINE
  5
15B
330
13D
100
AcDbEntity
  8
AM_9
100
AcDbPolyline
 90
        5
 70
     0
 43
0.0
 10
-1.745656935710829
 20
0.5779171041027115
 10
-1.757410510139437
 20
0.5744793289699689
 10
-1.787684066716186
 20
0.5623204337713851
 10
-1.815448712124414
 20
0.5458236567720393
 10
-1.8290896634991
 20
0.5352156880764324
  0
LWPOLYLINE
  5
15C
330
13D
100
AcDbEntity
  8
AM_9
100
AcDbPolyline
 90
        5
 70
     0
 43
0.0
 10
-1.538499056211921
 20
0.5365605050756671
 10
-1.561341342376678
 20
0.552947421118201
 10
-1.590798434943482
 20
0.5679731851036358
 10
-1.623046348718526
 20
0.5785936452282089
 10
-1.634783443575561
 20
0.5812391690395727
  0
LWPOLYLINE
  5
15D
330
13D
100
AcDbEntity
  8
AM_9
100
AcDbPolyline
 90
        6
 70
     0
 43
0.0
 10
-1.482710454085149
 20
0.4485943149320413
 10
-1.48547134857059
 20
0.4583885309759159
 10
-1.497121992397568
 20
0.4861321433266658
 10
-1.513946965601481
 20
0.5115312804343691
 10
-1.535347258118033
 20
0.5338620959593247
 10
-1.538499056211921
 20
0.5365605050756671
  0
LWPOLYLINE
  5
15E
330
13D
100
AcDbEntity
  8
AM_9
100
AcDbPolyline
 90
        3
 70
     0
 43
0.0
 10
-1.478000000500865
 20
0.409398453444428
 10
-1.479136064059495
 20
0.4288430010579504
 10
-1.482710454085149
 20
0.4485943149320413
  0
LWPOLYLINE
  5
15F
330
13D
100
AcDbEntity
  8
AM_9
100
AcDbPolyline
 90
       11
 70
     0
 43
0.0
 10
-1.887999998916321
 20
0.4094305446793951
 10
-1.885924362693867
 20
0.3829860779201023
 10
-1.878383226411992
 20
0.3523329055112975
 10
-1.865517528997691
 20
0.3229483459410855
 10
-1.847757328877598
 20
0.2955979838589718
 10
-1.825092169532938
 20
0.2707236158708055
 10
-1.798469681517259
 20
0.2495882433293515
 10
-1.768172214352253
 20
0.2327810981844399
 10
-1.735382986684229
 20
0.221126527520521
 10
-1.709419867213706
 20
0.2160601660521318
 10
-1.683
 20
0.2143466326527852
  0
LWPOLYLINE
  5
160
330
13D
100
AcDbEntity
  8
AM_9
100
AcDbPolyline
 90
        8
 70
     0
 43
0.0
 10
-1.559211508092396
 20
0.6313101546478095
 10
-1.548918559939227
 20
0.6242252158873672
 10
-1.524969404785717
 20
0.6033408369111423
 10
-1.505245335435469
 20
0.5787257344100865
 10
-1.490555624917102
 20
0.551232841494723
 10
-1.481441907098632
 20
0.5216613630812377
 10
-1.478019874684364
 20
0.4907096659398388
 10
-1.478000000576729
 20
0.4881380287629355
  0
LWPOLYLINE
  5
161
330
13D
100
AcDbEntity
  8
AM_9
100
AcDbPolyline
 90
       10
 70
     0
 43
0.0
 10
-1.810757478856362
 20
0.6286995562887309
 10
-1.803481352391879
 20
0.6333634238699369
 10
-1.773900303144283
 20
0.648436972693003
 10
-1.74162500327932
 20
0.6590286972977397
 10
-1.707645425831918
 20
0.6649324833827778
 10
-1.673404582061244
 20
0.6659645037566182
 10
-1.639437555419073
 20
0.6622764730365414
 10
-1.606960575943977
 20
0.6539702262409812
 10
-1.576592745364521
 20
0.6412787325986631
 10
-1.559211508092396
 20
0.6313101546478095
  0
LWPOLYLINE
  5
162
330
13D
100
AcDbEntity
  8
AM_9
100
AcDbPolyline
 90
        7
 70
     0
 43
0.0
 10
-1.887999999363772
 20
0.4881094545278523
 10
-1.886794998115517
 20
0.5081490698992479
 10
-1.880298212665202
 20
0.5379371389228211
 10
-1.868420443226721
 20
0.565963361436172
 10
-1.85133651427101
 20
0.5916166019356104
 10
-1.829639899355452
 20
0.6141873703698317
 10
-1.810757478856362
 20
0.6286995562887309
  0
LWPOLYLINE
  5
163
330
13D
100
AcDbEntity
  8
AM_9
100
AcDbPolyline
 90
       11
 70
     0
 43
0.0
 10
-1.478000000576729
 20
0.4881380287629355
 10
-1.480407761293978
 20
0.4596740657920109
 10
-1.488363953789169
 20
0.4290386003036939
 10
-1.501702571434621
 20
0.3997597701124795
 10
-1.519976360126783
 20
0.372643524411945
 10
-1.543066196985514
 20
0.3482500085262513
 10
-1.570073889191244
 20
0.3276763021680447
 10
-1.600560959345697
 20
0.3115511382649416
 10
-1.633435264890733
 20
0.3005496543899619
 10
-1.658026989680055
 20
0.296086952188345
 10
-1.683
 20
0.2945809289154055
  0
LWPOLYLINE
  5
164
330
13D
100
AcDbEntity
  8
AM_9
100
AcDbPolyline
 90
       11
 70
     0
 43
0.0
 10
-1.683
 20
0.2143466326527852
 10
-1.649020758055889
 20
0.2171971026045974
 10
-1.616010007254815
 20
0.2255469264103231
 10
-1.584939613290677
 20
0.2391432046943243
 10
-1.556586626444858
 20
0.2574272711717
 10
-1.531411888553895
 20
0.2801846132755332
 10
-1.510465047962213
 20
0.3063918783944212
 10
-1.494254046756649
 20
0.3355575662992906
 10
-1.48342199397038
 20
0.3664847618072958
 10
-1.478423780560767
 20
0.3977455807645244
 10
-1.478000000500865
 20
0.409398453444428
  0
LWPOLYLINE
  5
165
330
13D
100
AcDbEntity
  8
AM_9
100
AcDbPolyline
 90
       11
 70
     0
 43
0.0
 10
-1.683
 20
0.9468112602308868
 10
-1.649505003627408
 20
0.9474035451073634
 10
-1.616010007254815
 20
0.9491781822334519
 10
-1.585345648858122
 20
0.9518339848928179
 10
-1.556586626444858
 20
0.9552130147321026
 10
-1.531723840198574
 20
0.9588201286082112
 10
-1.510465047962213
 20
0.9624031754803604
 10
-1.494435925789876
 20
0.965405600036959
 10
-1.48342199397038
 20
0.9676171469081968
 10
-1.478434388217628
 20
0.9686581708858375
 10
-1.478000000000973
 20
0.9687499999997943
  0
LINE
  5
166
330
13D
100
AcDbEntity
  8
AM_9
100
AcDbLine
 10
0.8437499999999999
 20
0.96875
 30
0.0
 11
-1.478
 21
0.96875
 31
0.0
  0
LINE
  5
167
330
13D
100
AcDbEntity
  8
AM_9
100
AcDbLine
 10
-1.888
 20
0.9687500000000001
 30
0.0
 11
-2.0
 21
0.96875
 31
0.0
  0
LINE
  5
168
330
13D
100
AcDbEntity
  8
AM_9
100
AcDbLine
 10
-2.0
 20
-0.96875
 30
0.0
 11
0.8437499999999999
 21
-0.96875
 31
0.0
  0
LINE
  5
169
330
13D
100
AcDbEntity
  8
AM_9
100
AcDbLine
 10
-1.877435414587284
 20
0.9665695489439595
 30
0.0
 11
-1.88799999999808
 21
0.9687499999995938
 31
0.0
  0
LINE
  5
16A
330
13D
100
AcDbEntity
  8
AM_9
100
AcDbLine
 10
-1.669866960491782
 20
0.9469023388009459
 30
0.0
 11
-1.687449217936017
 21
0.9468217139674409
 31
0.0
  0
LWPOLYLINE
  5
16B
330
13D
100
AcDbEntity
  8
AM_9
100
AcDbPolyline
 90
       11
 70
     0
 43
0.0
 10
-1.88799999999808
 20
0.9687499999995938
 10
-1.886013454135101
 20
0.9683315677286707
 10
-1.878383226411992
 20
0.9667606568655759
 10
-1.865745862267386
 20
0.9642860637154571
 10
-1.847757328877598
 20
0.9610393019637028
 10
-1.825451064148256
 20
0.9574674240813472
 10
-1.798469681517259
 20
0.9538264044624145
 10
-1.768647955376679
 20
0.950677197980579
 10
-1.73538298668423
 20
0.9482592155070048
 10
-1.709650336268896
 20
0.9471862556663526
 10
-1.683
 20
0.9468112602308868
  0
LWPOLYLINE
  5
16C
330
13D
100
AcDbEntity
  8
AM_9
100
AcDbPolyline
 90
       11
 70
     0
 43
0.0
 10
-1.683
 20
0.2945809289154055
 10
-1.71710843538501
 20
0.2974090635686094
 10
-1.750248002252064
 20
0.3057019191665715
 10
-1.781447523479572
 20
0.3192274373077653
 10
-1.809905193923415
 20
0.3374457705877584
 10
-1.835041955311809
 20
0.360055348193841
 10
-1.855924449120014
 20
0.3861162654203096
 10
-1.871999307750009
 20
0.4150579676835031
 10
-1.882705549264893
 20
0.4457796282625968
 10
-1.887613652474625
 20
0.4770156832445993
 10
-1.887999999363772
 20
0.4881094545278523
  0
LWPOLYLINE
  5
16D
330
13D
100
AcDbEntity
  8
AM_9
100
AcDbPolyline
 90
       11
 70
     0
 43
0.0
 10
-1.683
 20
1.136661779070626
 10
-1.716624001126033
 20
1.137158992160605
 10
-1.750248002252064
 20
1.138649328725439
 10
-1.78103633428095
 20
1.140881730434512
 10
-1.809905193923415
 20
1.1437241486673
 10
-1.834729194740476
 20
1.146743976891352
 10
-1.855924449120014
 20
1.149740346818994
 10
-1.871821069430812
 20
1.15223842856459
 10
-1.882705549264893
 20
1.154072054252763
 10
-1.887604431485292
 20
1.154929856477621
 10
-1.887999999999383
 20
1.15499999999989
  0
LINE
  5
16E
330
13D
100
AcDbEntity
  8
AM_9
100
AcDbLine
 10
-1.366
 20
1.155
 30
0.0
 11
-1.478214888604288
 21
1.155
 31
0.0
  0
LINE
  5
16F
330
13D
100
AcDbEntity
  8
AM_9
100
AcDbLine
 10
-0.8347500000000002
 20
1.155
 30
0.0
 11
-1.0
 21
1.155
 31
0.0
  0
LINE
  5
170
330
13D
100
AcDbEntity
  8
AM_9
100
AcDbLine
 10
-1.887309419942035
 20
1.155
 30
0.0
 11
-2.0
 21
1.155
 31
0.0
  0
LINE
  5
171
330
13D
100
AcDbEntity
  8
AM_9
100
AcDbLine
 10
-1.0
 20
-1.155
 30
0.0
 11
-0.8347500000000002
 21
-1.155
 31
0.0
  0
LINE
  5
172
330
13D
100
AcDbEntity
  8
AM_9
100
AcDbLine
 10
-2.0
 20
-1.155
 30
0.0
 11
-1.366
 21
-1.155
 31
0.0
  0
LINE
  5
173
330
13D
100
AcDbEntity
  8
AM_9
100
AcDbLine
 10
-1.488868378553237
 20
1.153120586255206
 30
0.0
 11
-1.478000000000512
 21
1.154999999999909
 31
0.0
  0
LINE
  5
174
330
13D
100
AcDbEntity
  8
AM_9
100
AcDbLine
 10
-1.69544718314445
 20
1.136729929388778
 30
0.0
 11
-1.677484740588993
 21
1.136675159439306
 31
0.0
  0
LWPOLYLINE
  5
175
330
13D
100
AcDbEntity
  8
AM_9
100
AcDbPolyline
 90
       11
 70
     0
 43
0.0
 10
-1.478000000000512
 20
1.154999999999909
 10
-1.480313289603336
 20
1.154591660532598
 10
-1.488363953789169
 20
1.153205615007395
 10
-1.501464750620486
 20
1.151066916719998
 10
-1.519976360126783
 20
1.148292953543438
 10
-1.542698368403657
 20
1.14528797593819
 10
-1.570073889191244
 20
1.142257548236119
 10
-1.600086840693594
 20
1.139681794180362
 10
-1.633435264890733
 20
1.13774191404134
 10
-1.657834828794659
 20
1.136940317625246
 10
-1.683
 20
1.136661779070626
  0
LINE
  5
176
330
13D
100
AcDbEntity
  8
AM_9
100
AcDbLine
 10
0.8437499999999999
 20
-1.155
 30
0.0
 11
0.8437499999999999
 21
1.155
 31
0.0
  0
LINE
  5
177
330
13D
100
AcDbEntity
  8
AM_9
100
AcDbLine
 10
0.8437499999999999
 20
1.155
 30
0.0
 11
0.5682500000000006
 21
1.155
 31
0.0
  0
LINE
  5
178
330
13D
100
AcDbEntity
  8
AM_9
100
AcDbLine
 10
0.5682500000000006
 20
-1.155
 30
0.0
 11
0.8437499999999999
 21
-1.155
 31
0.0
  0
LINE
  5
179
330
13D
100
AcDbEntity
  8
AM_9
100
AcDbLine
 10
-0.6098124999999998
 20
1.41732
 30
0.0
 11
-0.7394375000000004
 21
1.41732
 31
0.0
  0
LINE
  5
17A
330
13D
100
AcDbEntity
  8
AM_9
100
AcDbLine
 10
-0.7394375000000004
 20
-1.41732
 30
0.0
 11
-0.6098124999999998
 21
-1.41732
 31
0.0
  0
LINE
  5
17B
330
13D
100
AcDbEntity
  8
AM_9
100
AcDbLine
 10
-0.7394375000000004
 20
-1.41732
 30
0.0
 11
-0.7394375000000004
 21
1.41732
 31
0.0
  0
LINE
  5
17C
330
13D
100
AcDbEntity
  8
AM_9
100
AcDbLine
 10
-0.8347500000000002
 20
-1.3220075
 30
0.0
 11
-0.8347500000000002
 21
1.3220075
 31
0.0
  0
ARC
  5
17D
330
13D
100
AcDbEntity
  8
AM_9
100
AcDbCircle
 10
-0.7394375000000007
 20
1.3220075
 30
0.0
 40
0.0953124999999997
100
AcDbArc
 50
90.0
 51
179.9999991462263
  0
ARC
  5
17E
330
13D
100
AcDbEntity
  8
AM_9
100
AcDbCircle
 10
-0.7394375000000007
 20
-1.3220075
 30
0.0
 40
0.0953124999999995
100
AcDbArc
 50
179.9999991462263
 51
270.0
  0
LINE
  5
17F
330
13D
100
AcDbEntity
  8
AM_9
100
AcDbLine
 10
0.4729375000000001
 20
1.41732
 30
0.0
 11
0.3433125
 21
1.41732
 31
0.0
  0
LINE
  5
180
330
13D
100
AcDbEntity
  8
AM_9
100
AcDbLine
 10
0.3433125
 20
-1.41732
 30
0.0
 11
0.4729375000000001
 21
-1.41732
 31
0.0
  0
LINE
  5
181
330
13D
100
AcDbEntity
  8
AM_9
100
AcDbLine
 10
0.5682500000000006
 20
-1.3220075
 30
0.0
 11
0.5682500000000006
 21
1.3220075
 31
0.0
  0
ARC
  5
182
330
13D
100
AcDbEntity
  8
AM_9
100
AcDbCircle
 10
0.4729375000000009
 20
1.3220075
 30
0.0
 40
0.0953124999999997
100
AcDbArc
 50
0.0
 51
90.0
  0
ARC
  5
183
330
13D
100
AcDbEntity
  8
AM_9
100
AcDbCircle
 10
0.4729375000000009
 20
-1.3220075
 30
0.0
 40
0.0953124999999995
100
AcDbArc
 50
270.0
 51
0.0
  0
LINE
  5
184
330
13D
100
AcDbEntity
  8
AM_9
100
AcDbLine
 10
0.4729375000000001
 20
-1.41732
 30
0.0
 11
0.4729375000000001
 21
1.41732
 31
0.0
  0
LINE
  5
185
330
13D
100
AcDbEntity
  8
AM_9
100
AcDbLine
 10
-0.0855937499999991
 20
1.700784
 30
0.0
 11
-0.1809062500000004
 21
1.700784
 31
0.0
  0
LINE
  5
186
330
13D
100
AcDbEntity
  8
AM_9
100
AcDbLine
 10
-0.1809062500000004
 20
-1.700784
 30
0.0
 11
-0.0855937499999991
 21
-1.700784
 31
0.0
  0
LINE
  5
187
330
13D
100
AcDbEntity
  8
AM_9
100
AcDbLine
 10
-0.6098124999999998
 20
-1.6763375
 30
0.0
 11
-0.6098124999999998
 21
1.6763375
 31
0.0
  0
ARC
  5
188
330
13D
100
AcDbEntity
  8
AM_9
100
AcDbCircle
 10
-0.514499999999999
 20
1.676337499999999
 30
0.0
 40
0.0953125000000008
100
AcDbArc
 50
90.0
 51
180.0
  0
ARC
  5
189
330
13D
100
AcDbEntity
  8
AM_9
100
AcDbCircle
 10
-0.5144999999999995
 20
-1.6763375
 30
0.0
 40
0.0953125000000002
100
AcDbArc
 50
180.0
 51
270.0
  0
LINE
  5
18A
330
13D
100
AcDbEntity
  8
AM_9
100
AcDbLine
 10
-0.2218207541763925
 20
1.77165
 30
0.0
 11
-0.5145000000000001
 21
1.77165
 31
0.0
  0
LINE
  5
18B
330
13D
100
AcDbEntity
  8
AM_9
100
AcDbLine
 10
-0.5145000000000001
 20
-1.77165
 30
0.0
 11
-0.2218207541763925
 21
-1.77165
 31
0.0
  0
LINE
  5
18C
330
13D
100
AcDbEntity
  8
AM_9
100
AcDbLine
 10
-0.5145000000000001
 20
-1.77165
 30
0.0
 11
-0.5145000000000001
 21
1.77165
 31
0.0
  0
LINE
  5
18D
330
13D
100
AcDbEntity
  8
AM_9
100
AcDbLine
 10
0.3433125
 20
-1.676337499999999
 30
0.0
 11
0.3433125
 21
1.676337499999999
 31
0.0
  0
ARC
  5
18E
330
13D
100
AcDbEntity
  8
AM_9
100
AcDbCircle
 10
0.247999999999992
 20
1.676337499999992
 30
0.0
 40
0.095312500000008
100
AcDbArc
 50
0.0
 51
90.0
  0
ARC
  5
18F
330
13D
100
AcDbEntity
  8
AM_9
100
AcDbCircle
 10
0.2479999999999997
 20
-1.6763375
 30
0.0
 40
0.0953125000000004
100
AcDbArc
 50
270.0
 51
0.0
  0
LINE
  5
190
330
13D
100
AcDbEntity
  8
AM_9
100
AcDbLine
 10
-0.0855937499999991
 20
-1.700784
 30
0.0
 11
-0.0446792458236072
 21
-1.77165
 31
0.0
  0
LINE
  5
191
330
13D
100
AcDbEntity
  8
AM_9
100
AcDbLine
 10
-0.0446792458236072
 20
1.77165
 30
0.0
 11
-0.0855937499999991
 21
1.700784
 31
0.0
  0
LINE
  5
192
330
13D
100
AcDbEntity
  8
AM_9
100
AcDbLine
 10
-0.0855937499999991
 20
-1.700784
 30
0.0
 11
-0.0855937499999991
 21
1.700784
 31
0.0
  0
LINE
  5
193
330
13D
100
AcDbEntity
  8
AM_9
100
AcDbLine
 10
-0.1809062500000004
 20
1.700784
 30
0.0
 11
-0.2218207541763925
 21
1.77165
 31
0.0
  0
LINE
  5
194
330
13D
100
AcDbEntity
  8
AM_9
100
AcDbLine
 10
-0.2218207541763925
 20
-1.77165
 30
0.0
 11
-0.1809062500000004
 21
-1.700784
 31
0.0
  0
LINE
  5
195
330
13D
100
AcDbEntity
  8
AM_9
100
AcDbLine
 10
-0.1809062500000004
 20
-1.700784
 30
0.0
 11
-0.1809062500000004
 21
1.700784
 31
0.0
  0
LINE
  5
196
330
13D
100
AcDbEntity
  8
AM_9
100
AcDbLine
 10
-0.2218207541763925
 20
-1.77165
 30
0.0
 11
-0.2218207541763925
 21
1.77165
 31
0.0
  0
LINE
  5
197
330
13D
100
AcDbEntity
  8
AM_9
100
AcDbLine
 10
0.2480000000000001
 20
1.77165
 30
0.0
 11
-0.0446792458236072
 21
1.77165
 31
0.0
  0
LINE
  5
198
330
13D
100
AcDbEntity
  8
AM_9
100
AcDbLine
 10
-0.0446792458236072
 20
-1.77165
 30
0.0
 11
0.2480000000000001
 21
-1.77165
 31
0.0
  0
LINE
  5
199
330
13D
100
AcDbEntity
  8
AM_9
100
AcDbLine
 10
0.2480000000000001
 20
-1.77165
 30
0.0
 11
0.2480000000000001
 21
1.77165
 31
0.0
  0
LINE
  5
19A
330
13D
100
AcDbEntity
  8
AM_9
100
AcDbLine
 10
-0.0446792458236072
 20
-1.77165
 30
0.0
 11
-0.0446792458236072
 21
1.77165
 31
0.0
  0
LINE
  5
19D
330
13D
100
AcDbEntity
  8
AM_7
100
AcDbLine
 10
-1.683
 20
-0.0592307692307692
 30
0.0
 11
-1.683
 21
1.7481875
 31
0.0
  0
LWPOLYLINE
  5
19E
330
13D
100
AcDbEntity
  8
AM_4
100
AcDbPolyline
 90
        5
 70
     0
 43
0.0
 10
-1.634783443575561
 20
0.5812391690395727
 10
-1.657060385800203
 20
0.584589595465975
 10
-1.691190842116225
 20
0.5857837481735078
 10
-1.725086076776439
 20
0.5823704532999637
 10
-1.745656935710829
 20
0.5779171041027115
  0
LINE
  5
19F
330
13D
100
AcDbEntity
  8
AM_4
100
AcDbLine
 10
-1.0
 20
1.155
 30
0.0
 11
-1.366
 21
1.155
 31
0.0
  0
LINE
  5
1A0
330
13D
100
AcDbEntity
  8
AM_4
100
AcDbLine
 10
-1.366
 20
-1.155
 30
0.0
 11
-1.0
 21
-1.155
 31
0.0
  0
ENDBLK
  5
140
330
13D
100
AcDbEntity
  8
0
100
AcDbBlockEnd
  0
BLOCK
  5
1A3
330
1A1
100
AcDbEntity
  8
0
100
AcDbBlockBegin
  2
5_070811H_0_in_070811_2
 70
     2
 10
0.0
 20
0.0
 30
0.0
  3
5_070811H_0_in_070811_2
  1

  0
ATTDEF
  5
1A5
330
1A1
100
AcDbEntity
  8
AM_6
100
AcDbText
 10
6.741666666666667
 20
3.375
 30
0.0
 40
0.5
  1
TPHU-S2 -(Contact Seal)-Housing
100
AcDbAttributeDefinition
  3

  2
NN
 70
     8
280
     0
  0
ATTDEF
  5
1A6
330
1A1
100
AcDbEntity
  8
AM_6
100
AcDbText
 10
6.741666666666667
 20
2.875
 30
0.0
 40
0.5
  1
S-2000 TPHU Take-Up Bearing -Inch
100
AcDbAttributeDefinition
  3

  2
NT
 70
     8
280
     0
  0
ATTDEF
  5
1A7
330
1A1
100
AcDbEntity
  8
AM_6
100
AcDbText
 10
6.741666666666667
 20
2.375
 30
0.0
 40
0.5
  1
070811H
100
AcDbAttributeDefinition
  3

  2
NB
 70
     8
280
     0
  0
ATTDEF
  5
1A8
330
1A1
100
AcDbEntity
  8
AM_6
100
AcDbText
 10
6.741666666666667
 20
1.875
 30
0.0
 40
0.5
  1
$PN.H
100
AcDbAttributeDefinition
  3

  2
NBSYN
 70
     8
280
     0
  0
ATTDEF
  5
1A9
330
1A1
100
AcDbEntity
  8
AM_6
100
AcDbText
 10
6.741666666666667
 20
1.375
 30
0.0
 40
0.5
  1
070811
100
AcDbAttributeDefinition
  3

  2
LINA
 70
     8
280
     0
  0
ATTDEF
  5
1AA
330
1A1
100
AcDbEntity
  8
AM_6
100
AcDbText
 10
6.741666666666667
 20
0.8750000000000004
 30
0.0
 40
0.5
  1
1-15/16
100
AcDbAttributeDefinition
  3

  2
SS
 70
     8
280
     0
  0
ATTDEF
  5
1AB
330
1A1
100
AcDbEntity
  8
AM_6
100
AcDbText
 10
6.741666666666667
 20
0.3750000000000004
 30
0.0
 40
0.5
  1
3.5433
100
AcDbAttributeDefinition
  3

  2
BORE
 70
     8
280
     0
  0
ATTDEF
  5
1AC
330
1A1
100
AcDbEntity
  8
AM_6
100
AcDbText
 10
6.741666666666667
 20
-0.1249999999999996
 30
0.0
 40
0.5
  1
1.937500
100
AcDbAttributeDefinition
  3

  2
SS1
 70
     8
280
     0
  0
ATTDEF
  5
1AD
330
1A1
100
AcDbEntity
  8
AM_6
100
AcDbText
 10
6.741666666666667
 20
-0.6249999999999996
 30
0.0
 40
0.5
  1
070811
100
AcDbAttributeDefinition
  3

  2
PN
 70
     8
280
     0
  0
ATTDEF
  5
1AE
330
1A1
100
AcDbEntity
  8
AM_6
100
AcDbText
 10
6.741666666666667
 20
-1.125
 30
0.0
 40
0.5
  1
TPHU-S2-115R
100
AcDbAttributeDefinition
  3

  2
DESCRIPTION
 70
     8
280
     0
  0
ATTDEF
  5
1AF
330
1A1
100
AcDbEntity
  8
AM_6
100
AcDbText
 10
6.741666666666667
 20
-1.625
 30
0.0
 40
0.5
  1
Non-Expansion Type
100
AcDbAttributeDefinition
  3

  2
EF
 70
     8
280
     0
  0
ATTDEF
  5
1B0
330
1A1
100
AcDbEntity
  8
AM_6
100
AcDbText
 10
6.741666666666667
 20
-2.125
 30
0.0
 40
0.5
  1
1
100
AcDbAttributeDefinition
  3

  2
EF1
 70
     8
280
     0
  0
ATTDEF
  5
1B1
330
1A1
100
AcDbEntity
  8
AM_6
100
AcDbText
 10
6.741666666666667
 20
-2.625
 30
0.0
 40
0.5
  1
Contact Seal
100
AcDbAttributeDefinition
  3

  2
ST
 70
     8
280
     0
  0
ATTDEF
  5
1B2
330
1A1
100
AcDbEntity
  8
AM_6
100
AcDbText
 10
6.741666666666667
 20
-3.125
 30
0.0
 40
0.5
  1
1
100
AcDbAttributeDefinition
  3

  2
ST1
 70
     8
280
     0
  0
ATTDEF
  5
1B3
330
1A1
100
AcDbEntity
  8
AM_6
100
AcDbText
 10
6.741666666666667
 20
-3.625
 30
0.0
 40
0.5
  1
2-27/32
100
AcDbAttributeDefinition
  3

  2
A
 70
     8
280
     0
  0
ATTDEF
  5
1B4
330
1A1
100
AcDbEntity
  8
AM_6
100
AcDbText
 10
6.741666666666667
 20
-4.125
 30
0.0
 40
0.5
  1
2.8437500
100
AcDbAttributeDefinition
  3

  2
A1
 70
     8
280
     0
  0
ATTDEF
  5
1B5
330
1A1
100
AcDbEntity
  8
AM_6
100
AcDbText
 10
6.741666666666667
 20
-4.625
 30
0.0
 40
0.5
  1
2-3/8
100
AcDbAttributeDefinition
  3

  2
B
 70
     8
280
     0
  0
ATTDEF
  5
1B6
330
1A1
100
AcDbEntity
  8
AM_6
100
AcDbText
 10
6.741666666666667
 20
-5.125
 30
0.0
 40
0.5
  1
2.375000
100
AcDbAttributeDefinition
  3

  2
B1
 70
     8
280
     0
  0
ATTDEF
  5
1B7
330
1A1
100
AcDbEntity
  8
AM_6
100
AcDbText
 10
6.741666666666667
 20
-5.625
 30
0.0
 40
0.5
  1
13/16
100
AcDbAttributeDefinition
  3

  2
C
 70
     8
280
     0
  0
ATTDEF
  5
1B8
330
1A1
100
AcDbEntity
  8
AM_6
100
AcDbText
 10
6.741666666666667
 20
-6.125
 30
0.0
 40
0.5
  1
0.812500
100
AcDbAttributeDefinition
  3

  2
C1
 70
     8
280
     0
  0
ATTDEF
  5
1B9
330
1A1
100
AcDbEntity
  8
AM_6
100
AcDbText
 10
6.741666666666667
 20
-6.625
 30
0.0
 40
0.5
  1
5-1/4
100
AcDbAttributeDefinition
  3

  2
D
 70
     8
280
     0
  0
ATTDEF
  5
1BA
330
1A1
100
AcDbEntity
  8
AM_6
100
AcDbText
 10
6.741666666666667
 20
-7.125
 30
0.0
 40
0.5
  1
5.250000
100
AcDbAttributeDefinition
  3

  2
D1
 70
     8
280
     0
  0
ATTDEF
  5
1BB
330
1A1
100
AcDbEntity
  8
AM_6
100
AcDbText
 10
6.741666666666667
 20
-7.625
 30
0.0
 40
0.5
  1
2-3/8
100
AcDbAttributeDefinition
  3

  2
E
 70
     8
280
     0
  0
ATTDEF
  5
1BC
330
1A1
100
AcDbEntity
  8
AM_6
100
AcDbText
 10
6.741666666666667
 20
-8.125
 30
0.0
 40
0.5
  1
2.375000
100
AcDbAttributeDefinition
  3

  2
E1
 70
     8
280
     0
  0
ATTDEF
  5
1BD
330
1A1
100
AcDbEntity
  8
AM_6
100
AcDbText
 10
6.741666666666667
 20
-8.625
 30
0.0
 40
0.5
  1
1-1/16
100
AcDbAttributeDefinition
  3

  2
F
 70
     8
280
     0
  0
ATTDEF
  5
1BE
330
1A1
100
AcDbEntity
  8
AM_6
100
AcDbText
 10
6.741666666666667
 20
-9.125
 30
0.0
 40
0.5
  1
1.062500
100
AcDbAttributeDefinition
  3

  2
F1
 70
     8
280
     0
  0
ATTDEF
  5
1BF
330
1A1
100
AcDbEntity
  8
AM_6
100
AcDbText
 10
6.741666666666667
 20
-9.625
 30
0.0
 40
0.5
  1
7/16
100
AcDbAttributeDefinition
  3

  2
G
 70
     8
280
     0
  0
ATTDEF
  5
1C0
330
1A1
100
AcDbEntity
  8
AM_6
100
AcDbText
 10
6.741666666666667
 20
-10.125
 30
0.0
 40
0.5
  1
0.437500
100
AcDbAttributeDefinition
  3

  2
G1
 70
     8
280
     0
  0
ATTDEF
  5
1C1
330
1A1
100
AcDbEntity
  8
AM_6
100
AcDbText
 10
6.741666666666667
 20
-10.625
 30
0.0
 40
0.5
  1
6-1/2
100
AcDbAttributeDefinition
  3

  2
H
 70
     8
280
     0
  0
ATTDEF
  5
1C2
330
1A1
100
AcDbEntity
  8
AM_6
100
AcDbText
 10
6.741666666666667
 20
-11.125
 30
0.0
 40
0.5
  1
6.500000
100
AcDbAttributeDefinition
  3

  2
H1
 70
     8
280
     0
  0
ATTDEF
  5
1C3
330
1A1
100
AcDbEntity
  8
AM_6
100
AcDbText
 10
6.741666666666667
 20
-11.625
 30
0.0
 40
0.5
  1
6-7/16
100
AcDbAttributeDefinition
  3

  2
J
 70
     8
280
     0
  0
ATTDEF
  5
1C4
330
1A1
100
AcDbEntity
  8
AM_6
100
AcDbText
 10
6.741666666666667
 20
-12.125
 30
0.0
 40
0.5
  1
6.437500
100
AcDbAttributeDefinition
  3

  2
J1
 70
     8
280
     0
  0
ATTDEF
  5
1C5
330
1A1
100
AcDbEntity
  8
AM_6
100
AcDbText
 10
6.741666666666667
 20
-12.625
 30
0.0
 40
0.5
  1
3-1/16
100
AcDbAttributeDefinition
  3

  2
K
 70
     8
280
     0
  0
ATTDEF
  5
1C6
330
1A1
100
AcDbEntity
  8
AM_6
100
AcDbText
 10
6.741666666666667
 20
-13.125
 30
0.0
 40
0.5
  1
3.062500
100
AcDbAttributeDefinition
  3

  2
K1
 70
     8
280
     0
  0
ATTDEF
  5
1C7
330
1A1
100
AcDbEntity
  8
AM_6
100
AcDbText
 10
6.741666666666667
 20
-13.625
 30
0.0
 40
0.5
  1
3-7/16
100
AcDbAttributeDefinition
  3

  2
L
 70
     8
280
     0
  0
ATTDEF
  5
1C8
330
1A1
100
AcDbEntity
  8
AM_6
100
AcDbText
 10
6.741666666666667
 20
-14.125
 30
0.0
 40
0.5
  1
3.4375000
100
AcDbAttributeDefinition
  3

  2
L1
 70
     8
280
     0
  0
ATTDEF
  5
1C9
330
1A1
100
AcDbEntity
  8
AM_6
100
AcDbText
 10
6.741666666666667
 20
-14.625
 30
0.0
 40
0.5
  1
6
100
AcDbAttributeDefinition
  3

  2
M
 70
     8
280
     0
  0
ATTDEF
  5
1CA
330
1A1
100
AcDbEntity
  8
AM_6
100
AcDbText
 10
6.741666666666667
 20
-15.125
 30
0.0
 40
0.5
  1
6.000000
100
AcDbAttributeDefinition
  3

  2
M1
 70
     8
280
     0
  0
ATTDEF
  5
1CB
330
1A1
100
AcDbEntity
  8
AM_6
100
AcDbText
 10
6.741666666666667
 20
-15.625
 30
0.0
 40
0.5
  1
1-21/32
100
AcDbAttributeDefinition
  3

  2
N
 70
     8
280
     0
  0
ATTDEF
  5
1CC
330
1A1
100
AcDbEntity
  8
AM_6
100
AcDbText
 10
6.741666666666667
 20
-16.125
 30
0.0
 40
0.5
  1
1.656250
100
AcDbAttributeDefinition
  3

  2
N1
 70
     8
280
     0
  0
ATTDEF
  5
1CD
330
1A1
100
AcDbEntity
  8
AM_6
100
AcDbText
 10
6.741666666666667
 20
-16.625
 30
0.0
 40
0.5
  1
1-1/4
100
AcDbAttributeDefinition
  3

  2
P
 70
     8
280
     0
  0
ATTDEF
  5
1CE
330
1A1
100
AcDbEntity
  8
AM_6
100
AcDbText
 10
6.741666666666667
 20
-17.125
 30
0.0
 40
0.5
  1
1.250000
100
AcDbAttributeDefinition
  3

  2
P1
 70
     8
280
     0
  0
ATTDEF
  5
1CF
330
1A1
100
AcDbEntity
  8
AM_6
100
AcDbText
 10
6.741666666666667
 20
-17.625
 30
0.0
 40
0.5
  1
13/16
100
AcDbAttributeDefinition
  3

  2
Q
 70
     8
280
     0
  0
ATTDEF
  5
1D0
330
1A1
100
AcDbEntity
  8
AM_6
100
AcDbText
 10
6.741666666666667
 20
-18.125
 30
0.0
 40
0.5
  1
0.812500
100
AcDbAttributeDefinition
  3

  2
Q1
 70
     8
280
     0
  0
ATTDEF
  5
1D1
330
1A1
100
AcDbEntity
  8
AM_6
100
AcDbText
 10
6.741666666666667
 20
-18.625
 30
0.0
 40
0.5
  1
3-3/16
100
AcDbAttributeDefinition
  3

  2
R
 70
     8
280
     0
  0
ATTDEF
  5
1D2
330
1A1
100
AcDbEntity
  8
AM_6
100
AcDbText
 10
6.741666666666667
 20
-19.125
 30
0.0
 40
0.5
  1
3.187500
100
AcDbAttributeDefinition
  3

  2
R1
 70
     8
280
     0
  0
ATTDEF
  5
1D3
330
1A1
100
AcDbEntity
  8
AM_6
100
AcDbText
 10
6.741666666666667
 20
-19.625
 30
0.0
 40
0.5
  1
2
100
AcDbAttributeDefinition
  3

  2
S
 70
     8
280
     0
  0
ATTDEF
  5
1D4
330
1A1
100
AcDbEntity
  8
AM_6
100
AcDbText
 10
6.741666666666667
 20
-20.125
 30
0.0
 40
0.5
  1
2.000000
100
AcDbAttributeDefinition
  3

  2
S1
 70
     8
280
     0
  0
ATTDEF
  5
1D5
330
1A1
100
AcDbEntity
  8
AM_6
100
AcDbText
 10
6.741666666666667
 20
-20.625
 30
0.0
 40
0.5
  1
5/16
100
AcDbAttributeDefinition
  3

  2
T
 70
     8
280
     0
  0
ATTDEF
  5
1D6
330
1A1
100
AcDbEntity
  8
AM_6
100
AcDbText
 10
6.741666666666667
 20
-21.125
 30
0.0
 40
0.5
  1
0.312500
100
AcDbAttributeDefinition
  3

  2
T1
 70
     8
280
     0
  0
ATTDEF
  5
1D7
330
1A1
100
AcDbEntity
  8
AM_6
100
AcDbText
 10
6.741666666666667
 20
-21.625
 30
0.0
 40
0.5
  1
1-1/16
100
AcDbAttributeDefinition
  3

  2
U
 70
     8
280
     0
  0
ATTDEF
  5
1D8
330
1A1
100
AcDbEntity
  8
AM_6
100
AcDbText
 10
6.741666666666667
 20
-22.125
 30
0.0
 40
0.5
  1
1.062500
100
AcDbAttributeDefinition
  3

  2
U1
 70
     8
280
     0
  0
ATTDEF
  5
1D9
330
1A1
100
AcDbEntity
  8
AM_6
100
AcDbText
 10
6.741666666666667
 20
-22.625
 30
0.0
 40
0.5
  1
2
100
AcDbAttributeDefinition
  3

  2
V
 70
     8
280
     0
  0
ATTDEF
  5
1DA
330
1A1
100
AcDbEntity
  8
AM_6
100
AcDbText
 10
6.741666666666667
 20
-23.125
 30
0.0
 40
0.5
  1
2.000000
100
AcDbAttributeDefinition
  3

  2
V1
 70
     8
280
     0
  0
ATTDEF
  5
1DB
330
1A1
100
AcDbEntity
  8
AM_6
100
AcDbText
 10
6.741666666666667
 20
-23.625
 30
0.0
 40
0.5
  1
7/8
100
AcDbAttributeDefinition
  3

  2
W
 70
     8
280
     0
  0
ATTDEF
  5
1DC
330
1A1
100
AcDbEntity
  8
AM_6
100
AcDbText
 10
6.741666666666667
 20
-24.125
 30
0.0
 40
0.5
  1
0.875000
100
AcDbAttributeDefinition
  3

  2
W1
 70
     8
280
     0
  0
ATTDEF
  5
1DD
330
1A1
100
AcDbEntity
  8
AM_6
100
AcDbText
 10
6.741666666666667
 20
-24.625
 30
0.0
 40
0.5
  1
1/4
100
AcDbAttributeDefinition
  3

  2
X
 70
     8
280
     0
  0
ATTDEF
  5
1DE
330
1A1
100
AcDbEntity
  8
AM_6
100
AcDbText
 10
6.741666666666667
 20
-25.125
 30
0.0
 40
0.5
  1
0.250000
100
AcDbAttributeDefinition
  3

  2
X1
 70
     8
280
     0
  0
ATTDEF
  5
1DF
330
1A1
100
AcDbEntity
  8
AM_6
100
AcDbText
 10
6.741666666666667
 20
-25.625
 30
0.0
 40
0.5
  1
0.020
100
AcDbAttributeDefinition
  3

  2
Y
 70
     8
280
     0
  0
ATTDEF
  5
1E0
330
1A1
100
AcDbEntity
  8
AM_6
100
AcDbText
 10
6.741666666666667
 20
-26.125
 30
0.0
 40
0.5
  1
2-19/64
100
AcDbAttributeDefinition
  3

  2
Z
 70
     8
280
     0
  0
ATTDEF
  5
1E1
330
1A1
100
AcDbEntity
  8
AM_6
100
AcDbText
 10
6.741666666666667
 20
-26.625
 30
0.0
 40
0.5
  1
2.296875
100
AcDbAttributeDefinition
  3

  2
Z1
 70
     8
280
     0
  0
ATTDEF
  5
1E2
330
1A1
100
AcDbEntity
  8
AM_6
100
AcDbText
 10
6.741666666666667
 20
-27.125
 30
0.0
 40
0.5
  1
baldor
100
AcDbAttributeDefinition
  3

  2
COMPANY
 70
     8
280
     0
  0
LINE
  5
1E3
330
1A1
100
AcDbEntity
  8
AM_9
100
AcDbLine
 10
0.265625
 20
-0.423607553491436
 30
0.0
 11
0.265625
 21
0.4193191016718686
 31
0.0
  0
LINE
  5
1E4
330
1A1
100
AcDbEntity
  8
AM_9
100
AcDbLine
 10
-0.265625
 20
0.4193191016720876
 30
0.0
 11
-0.265625
 21
-0.4236075534914361
 31
0.0
  0
LINE
  5
1E5
330
1A1
100
AcDbEntity
  8
AM_9
100
AcDbLine
 10
-0.868942680538509
 20
-2.065620689701947
 30
0.0
 11
-0.8749999999999997
 21
-2.072172963833428
 31
0.0
  0
LINE
  5
1E6
330
1A1
100
AcDbEntity
  8
AM_9
100
AcDbLine
 10
-0.7858994235157852
 20
-1.98476500511519
 30
0.0
 11
-0.786940538691898
 21
-1.985685185908102
 31
0.0
  0
LINE
  5
1E7
330
1A1
100
AcDbEntity
  8
AM_9
100
AcDbLine
 10
-0.5067879787733158
 20
-1.801071606404385
 30
0.0
 11
-0.566301155527963
 21
-1.831228352920192
 31
0.0
  0
LINE
  5
1E8
330
1A1
100
AcDbEntity
  8
AM_9
100
AcDbLine
 10
0.5271717257882728
 20
-1.81092940951767
 30
0.0
 11
0.5066205072811187
 21
-1.800992592389502
 31
0.0
  0
LINE
  5
1E9
330
1A1
100
AcDbEntity
  8
AM_9
100
AcDbLine
 10
0.7885237066797783
 20
-1.987088622663285
 30
0.0
 11
0.7412972469596866
 21
-1.947296037709232
 31
0.0
  0
LWPOLYLINE
  5
1EA
330
1A1
100
AcDbEntity
  8
AM_9
100
AcDbPolyline
 90
        3
 70
     0
 43
0.0
 10
0.8750000000000001
 20
-2.07217296383343
 10
0.8346240842800816
 20
-2.030275719146552
 10
0.8043374015469662
 20
-2.001388190056548
  0
LWPOLYLINE
  5
1EB
330
1A1
100
AcDbEntity
  8
AM_9
100
AcDbPolyline
 90
       12
 70
     0
 43
0.0
 10
-1.0
 20
-2.234565577127524
 10
-0.9999923847183779
 20
-2.234553686476957
 10
-0.9987150005689832
 20
-2.232472159154801
 10
-0.9946677682233868
 20
-2.226139245801327
 10
-0.9870438139236074
 20
-2.214666335647948
 10
-0.975036263911665
 20
-2.197164817926081
 10
-0.9640490728482402
 20
-2.181543261564369
 10
-0.9501792131045046
 20
-2.162585803103966
 10
-0.932680228819917
 20
-2.139885622164169
 10
-0.9108056641339365
 20
-2.113035898364273
 10
-0.8943787144688942
 20
-2.093812326045271
 10
-0.8749999999999997
 20
-2.072172963833428
  0
LINE
  5
1EC
330
1A1
100
AcDbEntity
  8
AM_9
100
AcDbLine
 10
-1.1875
 20
2.437500001862646
 30
0.0
 11
-0.4374999999999998
 21
2.437500001862646
 31
0.0
  0
LINE
  5
1ED
330
1A1
100
AcDbEntity
  8
AM_9
100
AcDbLine
 10
-1.1875
 20
2.3125
 30
0.0
 11
-0.4330127018922191
 21
2.3125
 31
0.0
  0
LINE
  5
1EE
330
1A1
100
AcDbEntity
  8
AM_9
100
AcDbLine
 10
0.4375000000000001
 20
2.437500001862646
 30
0.0
 11
1.1875
 21
2.437500001862646
 31
0.0
  0
LINE
  5
1EF
330
1A1
100
AcDbEntity
  8
AM_9
100
AcDbLine
 10
0.4330127018922192
 20
2.3125
 30
0.0
 11
1.1875
 21
2.3125
 31
0.0
  0
LINE
  5
1F0
330
1A1
100
AcDbEntity
  8
AM_9
100
AcDbLine
 10
-1.0
 20
-1.77165
 30
0.0
 11
0.9999999999999997
 21
-1.77165
 31
0.0
  0
LINE
  5
1F1
330
1A1
100
AcDbEntity
  8
AM_9
100
AcDbLine
 10
1.073733333333334
 20
1.77165
 30
0.0
 11
-1.073733333333333
 21
1.77165
 31
0.0
  0
LINE
  5
1F2
330
1A1
100
AcDbEntity
  8
AM_9
100
AcDbLine
 10
0.853125
 20
-3.0625
 30
0.0
 11
0.853125
 21
-2.875
 31
0.0
  0
LINE
  5
1F3
330
1A1
100
AcDbEntity
  8
AM_9
100
AcDbLine
 10
-0.8531249999999999
 20
-2.875
 30
0.0
 11
-0.8531249999999999
 21
-3.0625
 31
0.0
  0
ARC
  5
1F4
330
1A1
100
AcDbEntity
  8
AM_9
100
AcDbCircle
 10
0.0000000000000002
 20
-2.875
 30
0.0
 40
0.8531249999999999
100
AcDbArc
 50
0.0000008537736463
 51
180.0
  0
ARC
  5
1F5
330
1A1
100
AcDbEntity
  8
AM_9
100
AcDbCircle
 10
0.0000000000000046
 20
0.0
 30
0.0
 40
0.5000000000000044
100
AcDbArc
 50
169.9655946544139
 51
190.0344053455861
  0
ARC
  5
1F6
330
1A1
100
AcDbEntity
  8
AM_9
100
AcDbCircle
 10
0.0000000000000014
 20
0.0
 30
0.0
 40
0.4500000000000007
100
AcDbArc
 50
163.8351258292455
 51
196.1648741707546
  0
LINE
  5
1F7
330
1A1
100
AcDbEntity
  8
AM_7
100
AcDbLine
 10
1.741666666666667
 20
0.0
 30
0.0
 11
-2.1421875
 21
0.0
 31
0.0
  0
LINE
  5
1F8
330
1A1
100
AcDbEntity
  8
AM_7
100
AcDbLine
 10
0.0000000000000001
 20
-0.5249999999999999
 30
0.0
 11
0.0000000000000001
 21
0.5249999999999999
 31
0.0
  0
LINE
  5
1F9
330
1A1
100
AcDbEntity
  8
AM_7
100
AcDbLine
 10
-0.6890624999999999
 20
2.375
 30
0.0
 11
0.6890625000000001
 21
2.375
 31
0.0
  0
LINE
  5
1FA
330
1A1
100
AcDbEntity
  8
AM_7
100
AcDbLine
 10
0.0000000000000002
 20
1.685937500000001
 30
0.0
 11
0.0000000000000002
 21
3.0640625
 31
0.0
  0
LINE
  5
1FB
330
1A1
100
AcDbEntity
  8
AM_7
100
AcDbLine
 10
-0.89578125
 20
-2.875
 30
0.0
 11
0.89578125
 21
-2.875
 31
0.0
  0
LINE
  5
1FC
330
1A1
100
AcDbEntity
  8
AM_7
100
AcDbLine
 10
0.0000000000000001
 20
-3.770781250000001
 30
0.0
 11
0.0000000000000001
 21
-1.97921875
 31
0.0
  0
LINE
  5
1FD
330
1A1
100
AcDbEntity
  8
AM_4
100
AcDbLine
 10
-0.5312499999999998
 20
3.375
 30
0.0
 11
-0.7589285714285714
 21
3.375
 31
0.0
  0
LINE
  5
1FE
330
1A1
100
AcDbEntity
  8
AM_4
100
AcDbLine
 10
0.7589285714285716
 20
3.375
 30
0.0
 11
0.5312500000000001
 21
3.375
 31
0.0
  0
LINE
  5
1FF
330
1A1
100
AcDbEntity
  8
AM_4
100
AcDbLine
 10
-0.4374999999999998
 20
3.0625
 30
0.0
 11
-0.4374999999999998
 21
2.375
 31
0.0
  0
LINE
  5
200
330
1A1
100
AcDbEntity
  8
AM_4
100
AcDbLine
 10
0.4375000000000001
 20
2.375
 30
0.0
 11
0.4375000000000001
 21
3.0625
 31
0.0
  0
LINE
  5
201
330
1A1
100
AcDbEntity
  8
AM_4
100
AcDbLine
 10
-0.5312499999999998
 20
3.0625
 30
0.0
 11
-0.4374999999999998
 21
3.0625
 31
0.0
  0
ARC
  5
202
330
1A1
100
AcDbEntity
  8
AM_4
100
AcDbCircle
 10
0.0000000000000001
 20
2.375
 30
0.0
 40
0.4374999999999999
100
AcDbArc
 50
180.0
 51
0.0
  0
LINE
  5
203
330
1A1
100
AcDbEntity
  8
AM_4
100
AcDbLine
 10
-0.5312499999999998
 20
3.375
 30
0.0
 11
-0.5312499999999998
 21
3.0625
 31
0.0
  0
LINE
  5
204
330
1A1
100
AcDbEntity
  8
AM_4
100
AcDbLine
 10
0.5312500000000001
 20
3.0625
 30
0.0
 11
0.5312500000000001
 21
3.375
 31
0.0
  0
LINE
  5
205
330
1A1
100
AcDbEntity
  8
AM_4
100
AcDbLine
 10
0.4375000000000001
 20
3.0625
 30
0.0
 11
0.5312500000000001
 21
3.0625
 31
0.0
  0
LINE
  5
206
330
1A1
100
AcDbEntity
  8
AM_4
100
AcDbLine
 10
-0.9999999999999999
 20
1.697916666666667
 30
0.0
 11
-1.0
 21
-2.234565577127524
 31
0.0
  0
LINE
  5
207
330
1A1
100
AcDbEntity
  8
AM_4
100
AcDbLine
 10
-0.8749999999999994
 20
1.583333333333333
 30
0.0
 11
-0.8749999999999994
 21
-2.072172963833428
 31
0.0
  0
LINE
  5
208
330
1A1
100
AcDbEntity
  8
AM_4
100
AcDbLine
 10
1.0
 20
1.697916666666666
 30
0.0
 11
1.0
 21
-2.234565577127525
 31
0.0
  0
LINE
  5
209
330
1A1
100
AcDbEntity
  8
AM_4
100
AcDbLine
 10
0.8750000000000001
 20
1.583333333333333
 30
0.0
 11
0.8750000000000002
 21
-2.07217296383343
 31
0.0
  0
ARC
  5
20A
330
1A1
100
AcDbEntity
  8
AM_4
100
AcDbCircle
 10
0.0
 20
0.0000000000000001
 30
0.0
 40
0.4999999999999999
100
AcDbArc
 50
190.0344053455861
 51
57.91004874371968
  0
ARC
  5
20B
330
1A1
100
AcDbEntity
  8
AM_4
100
AcDbCircle
 10
-0.0000000000000005
 20
0.0000000000000003
 30
0.0
 40
0.4999999999999993
100
AcDbArc
 50
122.0899512562803
 51
169.9655946544139
  0
ARC
  5
20C
330
1A1
100
AcDbEntity
  8
AM_4
100
AcDbCircle
 10
0.0000000000000001
 20
0.0
 30
0.0
 40
0.4499999999999995
100
AcDbArc
 50
196.1648741707546
 51
163.8351258292454
  0
LWPOLYLINE
  5
20D
330
1A1
100
AcDbEntity
  8
AM_4
100
AcDbPolyline
 90
       12
 70
     0
 43
0.0
 10
0.2656250000000002
 20
0.4193191016718688
 10
0.2091572184896851
 20
0.4461804259975756
 10
0.1483911550832928
 20
0.4658546859950615
 10
0.1015849759598899
 20
0.4757286530007245
 10
0.0540645470832775
 20
0.4817155118463101
 10
0.0048189144886474
 20
0.4840124199116967
 10
-0.0444590097012694
 20
0.4824670859420921
 10
-0.0925006828982441
 20
0.4771742828254653
 10
-0.1398908410123783
 20
0.4679638678874747
 10
-0.1877862931698269
 20
0.4540660208170602
 10
-0.233960549339282
 20
0.4355332815777386
 10
-0.2656249999999998
 20
0.4193191016720878
  0
LINE
  5
20E
330
1A1
100
AcDbEntity
  8
AM_4
100
AcDbLine
 10
-1.1875
 20
2.946428571428572
 30
0.0
 11
-1.1875
 21
1.885416666666667
 31
0.0
  0
LINE
  5
20F
330
1A1
100
AcDbEntity
  8
AM_4
100
AcDbLine
 10
0.2656250000000002
 20
0.4193191016718688
 30
0.0
 11
0.2656250000000002
 21
1.458333333333334
 31
0.0
  0
ARC
  5
210
330
1A1
100
AcDbEntity
  8
AM_4
100
AcDbCircle
 10
0.0000000000000001
 20
2.375
 30
0.0
 40
0.65625
100
AcDbArc
 50
180.0
 51
0.0
  0
LINE
  5
211
330
1A1
100
AcDbEntity
  8
AM_4
100
AcDbLine
 10
0.6562500000000001
 20
2.375
 30
0.0
 11
0.6562500000000001
 21
3.375
 31
0.0
  0
LINE
  5
212
330
1A1
100
AcDbEntity
  8
AM_4
100
AcDbLine
 10
1.1875
 20
1.885416666666667
 30
0.0
 11
1.1875
 21
2.946428571428572
 31
0.0
  0
LINE
  5
213
330
1A1
100
AcDbEntity
  8
AM_4
100
AcDbLine
 10
0.390625
 20
1.583333333333333
 30
0.0
 11
0.8854166666666671
 21
1.583333333333333
 31
0.0
  0
LINE
  5
214
330
1A1
100
AcDbEntity
  8
AM_4
100
AcDbLine
 10
0.8854166666666671
 20
1.583333333333333
 30
0.0
 11
1.1875
 21
1.885416666666667
 31
0.0
  0
LINE
  5
215
330
1A1
100
AcDbEntity
  8
AM_4
100
AcDbLine
 10
-0.2656249999999998
 20
1.458333333333334
 30
0.0
 11
-0.2656249999999998
 21
0.4193191016720878
 31
0.0
  0
LINE
  5
216
330
1A1
100
AcDbEntity
  8
AM_4
100
AcDbLine
 10
-0.8854166666666665
 20
1.583333333333333
 30
0.0
 11
-0.3906249999999998
 21
1.583333333333333
 31
0.0
  0
LINE
  5
217
330
1A1
100
AcDbEntity
  8
AM_4
100
AcDbLine
 10
-0.7589285714285714
 20
3.375
 30
0.0
 11
-1.1875
 21
2.946428571428572
 31
0.0
  0
ARC
  5
218
330
1A1
100
AcDbEntity
  8
AM_4
100
AcDbCircle
 10
-0.3906249999999996
 20
1.458333333333333
 30
0.0
 40
0.1249999999999997
100
AcDbArc
 50
0.0
 51
90.0
  0
ARC
  5
219
330
1A1
100
AcDbEntity
  8
AM_4
100
AcDbCircle
 10
0.3906250000000003
 20
1.458333333333333
 30
0.0
 40
0.1250000000000002
100
AcDbArc
 50
90.0
 51
180.0
  0
LINE
  5
21A
330
1A1
100
AcDbEntity
  8
AM_4
100
AcDbLine
 10
-0.6562499999999999
 20
3.375
 30
0.0
 11
-0.6562499999999999
 21
2.375
 31
0.0
  0
LINE
  5
21B
330
1A1
100
AcDbEntity
  8
AM_4
100
AcDbLine
 10
-1.1875
 20
1.885416666666667
 30
0.0
 11
-0.8854166666666665
 21
1.583333333333333
 31
0.0
  0
LINE
  5
21C
330
1A1
100
AcDbEntity
  8
AM_4
100
AcDbLine
 10
1.1875
 20
2.946428571428572
 30
0.0
 11
0.7589285714285716
 21
3.375
 31
0.0
  0
LINE
  5
21D
330
1A1
100
AcDbEntity
  8
AM_4
100
AcDbLine
 10
-0.2656249999999998
 20
1.392734987062277
 30
0.0
 11
0.2656250000000002
 21
1.392734987062277
 31
0.0
  0
LINE
  5
21E
330
1A1
100
AcDbEntity
  8
AM_4
100
AcDbLine
 10
-0.2656249999999998
 20
1.239574969977092
 30
0.0
 11
0.2656250000000002
 21
1.239574969977092
 31
0.0
  0
LWPOLYLINE
  5
21F
330
1A1
100
AcDbEntity
  8
AM_4
100
AcDbPolyline
 90
        3
 70
     0
 43
0.0
 10
0.3534226190476193
 20
-1.741311902529836
 10
0.4355107407067176
 20
-1.770243626527059
 10
0.5139650790038115
 20
-1.804487904054977
  0
LWPOLYLINE
  5
220
330
1A1
100
AcDbEntity
  8
AM_4
100
AcDbPolyline
 90
        3
 70
     0
 43
0.0
 10
-0.5139650790038112
 20
-1.804487904054977
 10
-0.4363076441450547
 20
-1.77055810942332
 10
-0.3534226282876194
 20
-1.741311905410368
  0
LINE
  5
221
330
1A1
100
AcDbEntity
  8
AM_4
100
AcDbLine
 10
0.2656250000000001
 20
-0.4236075534914361
 30
0.0
 11
0.2656249999999999
 21
-1.621976313322449
 31
0.0
  0
LINE
  5
222
330
1A1
100
AcDbEntity
  8
AM_4
100
AcDbLine
 10
-0.2656249999999998
 20
-1.621976313322449
 30
0.0
 11
-0.2656249999999998
 21
-0.4236075534914363
 31
0.0
  0
LWPOLYLINE
  5
223
330
1A1
100
AcDbEntity
  8
AM_4
100
AcDbPolyline
 90
        8
 70
     0
 43
0.0
 10
-0.2656249999999998
 20
-1.62197631332245
 10
-0.267969026860009
 20
-1.646054181754147
 10
-0.2749418508273898
 20
-1.669330394429654
 10
-0.2885579298829875
 20
-1.694126740498384
 10
-0.3084110150553321
 20
-1.716135012758669
 10
-0.3228547064018815
 20
-1.727003803895211
 10
-0.339449690098903
 20
-1.736020548847647
 10
-0.3534226282876189
 20
-1.741311905410368
  0
LWPOLYLINE
  5
224
330
1A1
100
AcDbEntity
  8
AM_4
100
AcDbPolyline
 90
        8
 70
     0
 43
0.0
 10
0.3534226190476193
 20
-1.741311902529835
 10
0.3348441558068478
 20
-1.733827575380747
 10
0.3184005510502776
 20
-1.723999001847644
 10
0.3013046247679252
 20
-1.709417028603022
 10
0.2876549037148945
 20
-1.692843507926413
 10
0.2750139006766745
 20
-1.669497508928669
 10
0.2676898663711065
 20
-1.644602689957831
 10
0.2656249999999999
 20
-1.62197631332245
  0
LINE
  5
225
330
1A1
100
AcDbEntity
  8
AM_4
100
AcDbLine
 10
0.8125000000000003
 20
-3.0625
 30
0.0
 11
1.1875
 21
-3.0625
 31
0.0
  0
LINE
  5
226
330
1A1
100
AcDbEntity
  8
AM_4
100
AcDbLine
 10
0.8125000000000003
 20
-3.0625
 30
0.0
 11
0.8125000000000001
 21
-2.875
 31
0.0
  0
LINE
  5
227
330
1A1
100
AcDbEntity
  8
AM_4
100
AcDbLine
 10
-0.8124999999999999
 20
-2.875
 30
0.0
 11
-0.8124999999999999
 21
-3.0625
 31
0.0
  0
ARC
  5
228
330
1A1
100
AcDbEntity
  8
AM_4
100
AcDbCircle
 10
-0.0000000000000029
 20
-2.875000000000001
 30
0.0
 40
1.187500000000003
100
AcDbArc
 50
0.0
 51
48.53984351510898
  0
LINE
  5
229
330
1A1
100
AcDbEntity
  8
AM_4
100
AcDbLine
 10
-1.1875
 20
-3.0625
 30
0.0
 11
-0.8124999999999999
 21
-3.0625
 31
0.0
  0
ARC
  5
22A
330
1A1
100
AcDbEntity
  8
AM_4
100
AcDbCircle
 10
-0.0000000000000046
 20
-2.874999999999997
 30
0.0
 40
1.187499999999995
100
AcDbArc
 50
131.4601564848909
 51
180.0
  0
LINE
  5
22B
330
1A1
100
AcDbEntity
  8
AM_4
100
AcDbLine
 10
1.1875
 20
-3.0625
 30
0.0
 11
1.1875
 21
-2.875
 31
0.0
  0
ARC
  5
22C
330
1A1
100
AcDbEntity
  8
AM_4
100
AcDbCircle
 10
0.0000000000000002
 20
-2.875
 30
0.0
 40
0.8125
100
AcDbArc
 50
0.0
 51
180.0
  0
LINE
  5
22D
330
1A1
100
AcDbEntity
  8
AM_4
100
AcDbLine
 10
-1.1875
 20
-2.875
 30
0.0
 11
-1.1875
 21
-3.0625
 31
0.0
  0
LINE
  5
22E
330
1A1
100
AcDbEntity
  8
AM_4
100
AcDbLine
 10
-0.5139650790038112
 20
-1.804487904054977
 30
0.0
 11
0.5139650790038117
 21
-1.804487904054977
 31
0.0
  0
LWPOLYLINE
  5
22F
330
1A1
100
AcDbEntity
  8
AM_4
100
AcDbPolyline
 90
        7
 70
     0
 43
0.0
 10
-0.5139650790038104
 20
-1.804487904054977
 10
-0.5654791513409679
 20
-1.830782791082862
 10
-0.6172342710318295
 20
-1.860515843069096
 10
-0.6696001328944116
 20
-1.894290097925086
 10
-0.7214191357830082
 20
-1.931755238272643
 10
-0.7541410192645803
 20
-1.957706386666417
 10
-0.7862426383115891
 20
-1.985068112886816
  0
LINE
  5
230
330
1A1
100
AcDbEntity
  8
AM_4
100
AcDbLine
 10
-0.7862426383115889
 20
-1.985068112886817
 30
0.0
 11
0.7862426383115896
 21
-1.985068112886817
 31
0.0
  0
LWPOLYLINE
  5
231
330
1A1
100
AcDbEntity
  8
AM_4
100
AcDbPolyline
 90
        7
 70
     0
 43
0.0
 10
0.7862426383115896
 20
-1.985068112886817
 10
0.7491018861207517
 20
-1.953590428158233
 10
0.7109249183378177
 20
-1.923820726420951
 10
0.670915207857041
 20
-1.895191495457583
 10
0.6302993915692691
 20
-1.868581137404804
 10
0.5724812282316429
 20
-1.834605126251388
 10
0.5139650790038108
 20
-1.804487904054977
  0
ENDBLK
  5
1A4
330
1A1
100
AcDbEntity
  8
0
100
AcDbBlockEnd
  0
ENDSEC
  0
SECTION
  2
ENTITIES
  0
INSERT
  5
6F
330
1F
100
AcDbEntity
  8
0
100
AcDbBlockReference
  2
1_070811_2
 10
0.0
 20
0.0
 30
0.0
  0
POINT
  5
233
330
1F
100
AcDbEntity
  8
ConnectionPoints
100
AcDbPoint
 10
-2.0
 20
0.0
 30
0.0000000000000001
  0
POINT
  5
234
330
1F
100
AcDbEntity
  8
ConnectionPoints
100
AcDbPoint
 10
-2.0
 20
0.0
 30
0.0000000000000001
  0
POINT
  5
235
330
1F
100
AcDbEntity
  8
ConnectionPoints
100
AcDbPoint
 10
1.7335
 20
0.0
 30
-0.0000000000000001
  0
POINT
  5
236
330
1F
100
AcDbEntity
  8
ConnectionPoints
100
AcDbPoint
 10
-2.0
 20
0.0
 30
0.0000000000000001
  0
POINT
  5
237
330
1F
100
AcDbEntity
  8
ConnectionPoints
100
AcDbPoint
 10
0.0000000000000002
 20
0.0
 30
2.575
  0
POINT
  5
238
330
1F
100
AcDbEntity
  8
ConnectionPoints
100
AcDbPoint
 10
-2.25
 20
0.0
 30
0.0000000000000001
  0
POINT
  5
239
330
1F
100
AcDbEntity
  8
ConnectionPoints
100
AcDbPoint
 10
-2.0
 20
0.0
 30
0.0000000000000001
  0
ENDSEC
  0
SECTION
  2
OBJECTS
  0
DICTIONARY
  5
C
330
0
100
AcDbDictionary
281
     1
  3
ACAD_DETAILVIEWSTYLE
350
241
  3
ACAD_GROUP
350
D
  3
ACAD_LAYOUT
350
1A
  3
ACAD_MATERIAL
350
43
  3
ACAD_MLEADERSTYLE
350
6B
  3
ACAD_MLINESTYLE
350
17
  3
ACAD_PLOTSETTINGS
350
19
  3
ACAD_PLOTSTYLENAME
350
E
  3
ACAD_SCALELIST
350
47
  3
ACAD_SECTIONVIEWSTYLE
350
242
  3
ACAD_TABLESTYLE
350
69
  3
ACAD_VISUALSTYLE
350
2A
  3
ACDB_RECOMPOSE_DATA
350
23E
  3
AcDbVariableDictionary
350
23A
  0
SUN
  5
6D
330
29
100
AcDbSun
 90
        1
290
     0
 63
     7
421
 16777215
 40
1.0
291
     1
 91
  2455826
 92
 54000000
292
     0
 70
     2
 71
   256
280
     1
  0
DICTIONARY
  5
241
102
{ACAD_REACTORS
330
C
102
}
330
C
100
AcDbDictionary
281
     1
  0
DICTIONARY
  5
D
102
{ACAD_REACTORS
330
C
102
}
330
C
100
AcDbDictionary
281
     1
  0
DICTIONARY
  5
1A
102
{ACAD_REACTORS
330
C
102
}
330
C
100
AcDbDictionary
281
     1
  3
Layout1
350
1E
  3
Layout2
350
26
  3
Model
350
22
  0
DICTIONARY
  5
43
102
{ACAD_REACTORS
330
C
102
}
330
C
100
AcDbDictionary
281
     1
  3
ByBlock
350
45
  3
ByLayer
350
44
  3
Global
350
46
  0
DICTIONARY
  5
6B
102
{ACAD_REACTORS
330
C
102
}
330
C
100
AcDbDictionary
281
     1
  3
Standard
350
6C
  0
DICTIONARY
  5
17
102
{ACAD_REACTORS
330
C
102
}
330
C
100
AcDbDictionary
281
     1
  3
Standard
350
18
  0
DICTIONARY
  5
19
102
{ACAD_REACTORS
330
C
102
}
330
C
100
AcDbDictionary
281
     1
  0
ACDBDICTIONARYWDFLT
  5
E
102
{ACAD_REACTORS
330
C
102
}
330
C
100
AcDbDictionary
281
     1
  3
Normal
350
F
100
AcDbDictionaryWithDefault
340
F
  0
DICTIONARY
  5
47
102
{ACAD_REACTORS
330
C
102
}
330
C
100
AcDbDictionary
281
     1
  3
A0
350
48
  3
A1
350
49
  3
A2
350
4A
  3
A3
350
4B
  3
A4
350
4C
  3
A5
350
4D
  3
A6
350
4E
  3
A7
350
4F
  3
A8
350
50
  3
A9
350
51
  3
B0
350
52
  3
B1
350
53
  3
B2
350
54
  3
B3
350
55
  3
B4
350
56
  3
B5
350
57
  3
B6
350
58
  3
B7
350
59
  3
B8
350
5A
  3
B9
350
5B
  3
C0
350
5C
  3
C1
350
5D
  3
C2
350
5E
  3
C3
350
5F
  3
C4
350
60
  3
C5
350
61
  3
C6
350
62
  3
C7
350
63
  3
C8
350
64
  3
C9
350
65
  3
D0
350
66
  3
D1
350
67
  3
D2
350
68
  0
DICTIONARY
  5
242
102
{ACAD_REACTORS
330
C
102
}
330
C
100
AcDbDictionary
281
     1
  0
DICTIONARY
  5
69
102
{ACAD_REACTORS
330
C
102
}
330
C
100
AcDbDictionary
281
     1
  3
Standard
350
6A
  0
DICTIONARY
  5
2A
102
{ACAD_REACTORS
330
C
102
}
330
C
100
AcDbDictionary
281
     1
  3
2dWireframe
350
2F
  3
Basic
350
32
  3
Brighten
350
36
  3
ColorChange
350
3A
  3
Conceptual
350
34
  3
Dim
350
35
  3
EdgeColorOff
350
3D
  3
Facepattern
350
39
  3
Flat
350
2B
  3
FlatWithEdges
350
2C
  3
Gouraud
350
2D
  3
GouraudWithEdges
350
2E
  3
Hidden
350
31
  3
JitterOff
350
3B
  3
Linepattern
350
38
  3
OverhangOff
350
3C
  3
Realistic
350
33
  3
Shaded
350
42
  3
Shaded with edges
350
41
  3
Shades of Gray
350
3E
  3
Sketchy
350
3F
  3
Thicken
350
37
  3
Wireframe
350
30
  3
X-Ray
350
40
  0
XRECORD
  5
23E
102
{ACAD_REACTORS
330
C
102
}
330
C
100
AcDbXrecord
280
     1
 90
        1
330
6A
  0
DICTIONARY
  5
23A
102
{ACAD_REACTORS
330
C
102
}
330
C
100
AcDbDictionary
281
     1
  3
CANNOSCALE
350
23B
  3
CMLEADERSTYLE
350
240
  3
CTABLESTYLE
350
23F
  0
LAYOUT
  5
1E
102
{ACAD_REACTORS
330
1A
102
}
330
1A
100
AcDbPlotSettings
  1

  2
none_device
  4

  6

 40
0.0
 41
0.0
 42
0.0
 43
0.0
 44
0.0
 45
0.0
 46
0.0
 47
0.0
 48
0.0
 49
0.0
140
0.0
141
0.0
142
1.0
143
1.0
 70
   688
 72
     0
 73
     0
 74
     5
  7

 75
    16
 76
     0
 77
     2
 78
   300
147
1.0
148
0.0
149
0.0
100
AcDbLayout
  1
Layout1
 70
     1
 71
     1
 10
0.0
 20
0.0
 11
12.0
 21
9.0
 12
0.0
 22
0.0
 32
0.0
 14
1.000000000000000E+20
 24
1.000000000000000E+20
 34
1.000000000000000E+20
 15
-1.000000000000000E+20
 25
-1.000000000000000E+20
 35
-1.000000000000000E+20
146
0.0
 13
0.0
 23
0.0
 33
0.0
 16
1.0
 26
0.0
 36
0.0
 17
0.0
 27
1.0
 37
0.0
 76
     0
330
1B
  0
LAYOUT
  5
26
102
{ACAD_REACTORS
330
1A
102
}
330
1A
100
AcDbPlotSettings
  1

  2
none_device
  4

  6

 40
0.0
 41
0.0
 42
0.0
 43
0.0
 44
0.0
 45
0.0
 46
0.0
 47
0.0
 48
0.0
 49
0.0
140
0.0
141
0.0
142
1.0
143
1.0
 70
   688
 72
     0
 73
     0
 74
     5
  7

 75
    16
 76
     0
 77
     2
 78
   300
147
1.0
148
0.0
149
0.0
100
AcDbLayout
  1
Layout2
 70
     1
 71
     2
 10
0.0
 20
0.0
 11
0.0
 21
0.0
 12
0.0
 22
0.0
 32
0.0
 14
0.0
 24
0.0
 34
0.0
 15
0.0
 25
0.0
 35
0.0
146
0.0
 13
0.0
 23
0.0
 33
0.0
 16
1.0
 26
0.0
 36
0.0
 17
0.0
 27
1.0
 37
0.0
 76
     0
330
23
  0
LAYOUT
  5
22
102
{ACAD_REACTORS
330
1A
102
}
330
1A
100
AcDbPlotSettings
  1

  2
none_device
  4
Letter_(8.50_x_11.00_Inches)
  6

 40
6.35
 41
6.35
 42
6.35000508
 43
6.35000508
 44
215.9
 45
279.4
 46
0.0
 47
0.0
 48
0.0
 49
0.0
140
0.0
141
0.0
142
1.0
143
1.0
 70
  1712
 72
     0
 73
     0
 74
     0
  7

 75
     0
 76
     0
 77
     2
 78
   300
147
1.0
148
0.0
149
0.0
100
AcDbLayout
  1
Model
 70
     1
 71
     0
 10
0.0
 20
0.0
 11
12.0
 21
9.0
 12
0.0
 22
0.0
 32
0.0
 14
1.000000000000000E+20
 24
1.000000000000000E+20
 34
1.000000000000000E+20
 15
-1.000000000000000E+20
 25
-1.000000000000000E+20
 35
-1.000000000000000E+20
146
0.0
 13
0.0
 23
0.0
 33
0.0
 16
1.0
 26
0.0
 36
0.0
 17
0.0
 27
1.0
 37
0.0
 76
     0
330
1F
331
29
  0
MATERIAL
  5
45
102
{ACAD_REACTORS
330
43
102
}
330
43
100
AcDbMaterial
  1
ByBlock
 72
     1
 94
      127
  0
MATERIAL
  5
44
102
{ACAD_REACTORS
330
43
102
}
330
43
100
AcDbMaterial
  1
ByLayer
 72
     1
 94
      127
  0
MATERIAL
  5
46
102
{ACAD_REACTORS
330
43
102
}
330
43
100
AcDbMaterial
  1
Global
 72
     1
 94
      127
  0
MLEADERSTYLE
  5
6C
102
{ACAD_REACTORS
330
6B
102
}
330
6B
100
AcDbMLeaderStyle
179
     2
170
     2
171
     1
172
     0
 90
        2
 40
0.0
 41
0.0
173
     1
 91
-1056964608
340
14
 92
       -2
290
     1
 42
0.09
291
     1
 43
0.36
  3
Standard
341
0
 44
0.18
300

342
11
174
     1
178
     6
175
     1
176
     0
 93
-1056964608
 45
0.18
292
     0
297
     0
 46
0.18
343
0
 94
-1056964608
 47
1.0
 49
1.0
140
1.0
293
     1
141
0.0
294
     1
177
     0
142
1.0
295
     0
296
     0
143
0.125
271
     0
272
     9
273
     9
298
     0
  0
MLINESTYLE
  5
18
102
{ACAD_REACTORS
330
17
102
}
330
17
100
AcDbMlineStyle
  2
Standard
 70
     0
  3

 62
   256
 51
90.0
 52
90.0
 71
     2
 49
0.5
 62
   256
  6
BYLAYER
 49
-0.5
 62
   256
  6
BYLAYER
  0
ACDBPLACEHOLDER
  5
F
102
{ACAD_REACTORS
330
E
102
}
330
E
  0
SCALE
  5
48
102
{ACAD_REACTORS
330
47
102
}
330
47
100
AcDbScale
 70
     0
300
1:1
140
1.0
141
1.0
290
     1
  0
SCALE
  5
49
102
{ACAD_REACTORS
330
47
102
}
330
47
100
AcDbScale
 70
     0
300
1:2
140
1.0
141
2.0
290
     0
  0
SCALE
  5
4A
102
{ACAD_REACTORS
330
47
102
}
330
47
100
AcDbScale
 70
     0
300
1:4
140
1.0
141
4.0
290
     0
  0
SCALE
  5
4B
102
{ACAD_REACTORS
330
47
102
}
330
47
100
AcDbScale
 70
     0
300
1:5
140
1.0
141
5.0
290
     0
  0
SCALE
  5
4C
102
{ACAD_REACTORS
330
47
102
}
330
47
100
AcDbScale
 70
     0
300
1:8
140
1.0
141
8.0
290
     0
  0
SCALE
  5
4D
102
{ACAD_REACTORS
330
47
102
}
330
47
100
AcDbScale
 70
     0
300
1:10
140
1.0
141
10.0
290
     0
  0
SCALE
  5
4E
102
{ACAD_REACTORS
330
47
102
}
330
47
100
AcDbScale
 70
     0
300
1:16
140
1.0
141
16.0
290
     0
  0
SCALE
  5
4F
102
{ACAD_REACTORS
330
47
102
}
330
47
100
AcDbScale
 70
     0
300
1:20
140
1.0
141
20.0
290
     0
  0
SCALE
  5
50
102
{ACAD_REACTORS
330
47
102
}
330
47
100
AcDbScale
 70
     0
300
1:30
140
1.0
141
30.0
290
     0
  0
SCALE
  5
51
102
{ACAD_REACTORS
330
47
102
}
330
47
100
AcDbScale
 70
     0
300
1:40
140
1.0
141
40.0
290
     0
  0
SCALE
  5
52
102
{ACAD_REACTORS
330
47
102
}
330
47
100
AcDbScale
 70
     0
300
1:50
140
1.0
141
50.0
290
     0
  0
SCALE
  5
53
102
{ACAD_REACTORS
330
47
102
}
330
47
100
AcDbScale
 70
     0
300
1:100
140
1.0
141
100.0
290
     0
  0
SCALE
  5
54
102
{ACAD_REACTORS
330
47
102
}
330
47
100
AcDbScale
 70
     0
300
2:1
140
2.0
141
1.0
290
     0
  0
SCALE
  5
55
102
{ACAD_REACTORS
330
47
102
}
330
47
100
AcDbScale
 70
     0
300
4:1
140
4.0
141
1.0
290
     0
  0
SCALE
  5
56
102
{ACAD_REACTORS
330
47
102
}
330
47
100
AcDbScale
 70
     0
300
8:1
140
8.0
141
1.0
290
     0
  0
SCALE
  5
57
102
{ACAD_REACTORS
330
47
102
}
330
47
100
AcDbScale
 70
     0
300
10:1
140
10.0
141
1.0
290
     0
  0
SCALE
  5
58
102
{ACAD_REACTORS
330
47
102
}
330
47
100
AcDbScale
 70
     0
300
100:1
140
100.0
141
1.0
290
     0
  0
SCALE
  5
59
102
{ACAD_REACTORS
330
47
102
}
330
47
100
AcDbScale
 70
     0
300
1/128" = 1'-0"
140
0.0078125
141
12.0
290
     0
  0
SCALE
  5
5A
102
{ACAD_REACTORS
330
47
102
}
330
47
100
AcDbScale
 70
     0
300
1/64" = 1'-0"
140
0.015625
141
12.0
290
     0
  0
SCALE
  5
5B
102
{ACAD_REACTORS
330
47
102
}
330
47
100
AcDbScale
 70
     0
300
1/32" = 1'-0"
140
0.03125
141
12.0
290
     0
  0
SCALE
  5
5C
102
{ACAD_REACTORS
330
47
102
}
330
47
100
AcDbScale
 70
     0
300
1/16" = 1'-0"
140
0.0625
141
12.0
290
     0
  0
SCALE
  5
5D
102
{ACAD_REACTORS
330
47
102
}
330
47
100
AcDbScale
 70
     0
300
3/32" = 1'-0"
140
0.09375
141
12.0
290
     0
  0
SCALE
  5
5E
102
{ACAD_REACTORS
330
47
102
}
330
47
100
AcDbScale
 70
     0
300
1/8" = 1'-0"
140
0.125
141
12.0
290
     0
  0
SCALE
  5
5F
102
{ACAD_REACTORS
330
47
102
}
330
47
100
AcDbScale
 70
     0
300
3/16" = 1'-0"
140
0.1875
141
12.0
290
     0
  0
SCALE
  5
60
102
{ACAD_REACTORS
330
47
102
}
330
47
100
AcDbScale
 70
     0
300
1/4" = 1'-0"
140
0.25
141
12.0
290
     0
  0
SCALE
  5
61
102
{ACAD_REACTORS
330
47
102
}
330
47
100
AcDbScale
 70
     0
300
3/8" = 1'-0"
140
0.375
141
12.0
290
     0
  0
SCALE
  5
62
102
{ACAD_REACTORS
330
47
102
}
330
47
100
AcDbScale
 70
     0
300
1/2" = 1'-0"
140
0.5
141
12.0
290
     0
  0
SCALE
  5
63
102
{ACAD_REACTORS
330
47
102
}
330
47
100
AcDbScale
 70
     0
300
3/4" = 1'-0"
140
0.75
141
12.0
290
     0
  0
SCALE
  5
64
102
{ACAD_REACTORS
330
47
102
}
330
47
100
AcDbScale
 70
     0
300
1" = 1'-0"
140
1.0
141
12.0
290
     0
  0
SCALE
  5
65
102
{ACAD_REACTORS
330
47
102
}
330
47
100
AcDbScale
 70
     0
300
1-1/2" = 1'-0"
140
1.5
141
12.0
290
     0
  0
SCALE
  5
66
102
{ACAD_REACTORS
330
47
102
}
330
47
100
AcDbScale
 70
     0
300
3" = 1'-0"
140
3.0
141
12.0
290
     0
  0
SCALE
  5
67
102
{ACAD_REACTORS
330
47
102
}
330
47
100
AcDbScale
 70
     0
300
6" = 1'-0"
140
6.0
141
12.0
290
     0
  0
SCALE
  5
68
102
{ACAD_REACTORS
330
47
102
}
330
47
100
AcDbScale
 70
     0
300
1'-0" = 1'-0"
140
12.0
141
12.0
290
     0
  0
TABLESTYLE
  5
6A
102
{ACAD_REACTORS
330
69
102
}
102
{ACAD_XDICTIONARY
360
23C
102
}
330
69
100
AcDbTableStyle
  3
Standard
 70
     0
 71
     0
 40
0.06
 41
0.06
280
     0
281
     0
  7
Standard
140
0.18
170
     2
 62
     0
 63
   257
283
     0
 90
        4
 91
        0
  1

274
    -2
284
     1
 64
     0
275
    -2
285
     1
 65
     0
276
    -2
286
     1
 66
     0
277
    -2
287
     1
 67
     0
278
    -2
288
     1
 68
     0
279
    -2
289
     1
 69
     0
  7
Standard
140
0.25
170
     5
 62
     0
 63
   257
283
     0
 90
        4
 91
        0
  1

274
    -2
284
     1
 64
     0
275
    -2
285
     1
 65
     0
276
    -2
286
     1
 66
     0
277
    -2
287
     1
 67
     0
278
    -2
288
     1
 68
     0
279
    -2
289
     1
 69
     0
  7
Standard
140
0.18
170
     5
 62
     0
 63
   257
283
     0
 90
        4
 91
        0
  1

274
    -2
284
     1
 64
     0
275
    -2
285
     1
 65
     0
276
    -2
286
     1
 66
     0
277
    -2
287
     1
 67
     0
278
    -2
288
     1
 68
     0
279
    -2
289
     1
 69
     0
  0
VISUALSTYLE
  5
2F
102
{ACAD_REACTORS
330
2A
102
}
330
2A
100
AcDbVisualStyle
  2
2dWireframe
 70
     4
177
     3
291
     0
 70
    58
 90
        0
176
     1
 90
        2
176
     1
 90
        0
176
     1
 90
        0
176
     1
 40
0.6
176
     1
 40
30.0
176
     1
 62
     7
420
 16777215
176
     1
 90
        1
176
     1
 90
        4
176
     1
 62
     7
176
     1
 62
   257
176
     1
 90
        1
176
     1
 90
        1
176
     1
 40
1.0
176
     1
 90
        0
176
     1
 62
   257
176
     1
 40
1.0
176
     1
 90
        1
176
     1
 90
        6
176
     1
 90
        2
176
     1
 62
     7
176
     1
 90
        5
176
     1
 90
        0
176
     1
 90
        0
176
     1
290
     0
176
     1
 90
        1
176
     1
 40
0.0
176
     1
 90
        0
176
     1
290
     1
176
     1
290
     1
176
     1
290
     0
176
     1
290
     0
176
     1
290
     0
176
     1
290
     0
176
     1
290
     0
176
     1
290
     0
176
     1
290
     0
176
     1
 90
       50
176
     1
 40
0.0
176
     1
 40
1.0
176
     1
 90
        0
176
     1
 62
    18
420
        0
176
     1
 90
       50
176
     1
 90
        3
176
     1
 62
     5
420
      255
176
     1
290
     0
176
     1
 90
       50
176
     1
 90
       50
176
     1
 90
       50
176
     1
290
     0
176
     1
 90
       50
176
     1
 62
   256
176
     0
 40
1.0
176
     0
 90
        2
176
     1
  1
strokes_ogs.tif
176
     1
290
     0
176
     1
 40
1.0
176
     1
 40
1.0
176
     1
  0
VISUALSTYLE
  5
32
102
{ACAD_REACTORS
330
2A
102
}
330
2A
100
AcDbVisualStyle
  2
Basic
 70
     7
177
     3
291
     1
 70
    58
 90
        1
176
     1
 90
        0
176
     1
 90
        1
176
     1
 90
        0
176
     1
 40
0.6
176
     1
 40
30.0
176
     1
 62
     7
420
 16777215
176
     1
 90
        0
176
     1
 90
        4
176
     1
 62
     7
176
     1
 62
   257
176
     1
 90
        1
176
     1
 90
        1
176
     1
 40
1.0
176
     1
 90
        8
176
     1
 62
     7
176
     1
 40
1.0
176
     1
 90
        1
176
     1
 90
        6
176
     1
 90
        2
176
     1
 62
     7
176
     1
 90
        5
176
     1
 90
        0
176
     1
 90
        0
176
     1
290
     0
176
     1
 90
        1
176
     1
 40
0.0
176
     1
 90
        0
176
     1
290
     0
176
     1
290
     1
176
     1
290
     1
176
     1
290
     0
176
     1
290
     0
176
     1
290
     0
176
     1
290
     0
176
     1
290
     0
176
     1
290
     0
176
     1
 90
       50
176
     1
 40
0.0
176
     1
 40
1.0
176
     1
 90
        0
176
     1
 62
    18
420
        0
176
     1
 90
       50
176
     1
 90
        3
176
     1
 62
     5
420
      255
176
     1
290
     0
176
     1
 90
       50
176
     1
 90
       50
176
     1
 90
       50
176
     1
290
     0
176
     1
 90
       50
176
     1
 62
   256
176
     0
 40
1.0
176
     0
 90
        2
176
     1
  1
strokes_ogs.tif
176
     1
290
     0
176
     1
 40
1.0
176
     1
 40
1.0
176
     1
  0
VISUALSTYLE
  5
36
102
{ACAD_REACTORS
330
2A
102
}
330
2A
100
AcDbVisualStyle
  2
Brighten
 70
    12
177
     3
291
     1
 70
    58
 90
        2
176
     1
 90
        2
176
     1
 90
        0
176
     1
 90
        0
176
     1
 40
0.6
176
     1
 40
30.0
176
     1
 62
     7
420
 16777215
176
     1
 90
        1
176
     1
 90
        4
176
     1
 62
     7
176
     1
 62
   257
176
     1
 90
        1
176
     1
 90
        1
176
     1
 40
1.0
176
     1
 90
        8
176
     1
 62
     7
176
     1
 40
1.0
176
     1
 90
        1
176
     1
 90
        6
176
     1
 90
        2
176
     1
 62
     7
176
     1
 90
        5
176
     1
 90
        0
176
     1
 90
        0
176
     1
290
     0
176
     1
 90
        1
176
     1
 40
50.0
176
     1
 90
        0
176
     1
290
     0
176
     1
290
     1
176
     1
290
     1
176
     1
290
     0
176
     1
290
     0
176
     1
290
     0
176
     1
290
     0
176
     1
290
     0
176
     1
290
     0
176
     1
 90
       50
176
     1
 40
0.0
176
     1
 40
1.0
176
     1
 90
        0
176
     1
 62
    18
420
        0
176
     1
 90
       50
176
     1
 90
        3
176
     1
 62
     5
420
      255
176
     1
290
     0
176
     1
 90
       50
176
     1
 90
       50
176
     1
 90
       50
176
     1
290
     0
176
     1
 90
       50
176
     1
 62
   256
176
     0
 40
1.0
176
     0
 90
        2
176
     1
  1
strokes_ogs.tif
176
     1
290
     0
176
     1
 40
1.0
176
     1
 40
1.0
176
     1
  0
VISUALSTYLE
  5
3A
102
{ACAD_REACTORS
330
2A
102
}
330
2A
100
AcDbVisualStyle
  2
ColorChange
 70
    16
177
     3
291
     1
 70
    58
 90
        2
176
     1
 90
        2
176
     1
 90
        3
176
     1
 90
        0
176
     1
 40
0.6
176
     1
 40
30.0
176
     1
 62
     8
420
  8421504
176
     1
 90
        1
176
     1
 90
        4
176
     1
 62
     7
176
     1
 62
   257
176
     1
 90
        1
176
     1
 90
        1
176
     1
 40
1.0
176
     1
 90
        8
176
     1
 62
     8
420
  8421504
176
     1
 40
1.0
176
     1
 90
        1
176
     1
 90
        6
176
     1
 90
        2
176
     1
 62
     7
176
     1
 90
        5
176
     1
 90
        0
176
     1
 90
        0
176
     1
290
     0
176
     1
 90
        1
176
     1
 40
0.0
176
     1
 90
        0
176
     1
290
     0
176
     1
290
     1
176
     1
290
     1
176
     1
290
     0
176
     1
290
     0
176
     1
290
     0
176
     1
290
     0
176
     1
290
     0
176
     1
290
     0
176
     1
 90
       50
176
     1
 40
0.0
176
     1
 40
1.0
176
     1
 90
        0
176
     1
 62
    18
420
        0
176
     1
 90
       50
176
     1
 90
        3
176
     1
 62
     5
420
      255
176
     1
290
     0
176
     1
 90
       50
176
     1
 90
       50
176
     1
 90
       50
176
     1
290
     0
176
     1
 90
       50
176
     1
 62
   256
176
     0
 40
1.0
176
     0
 90
        2
176
     1
  1
strokes_ogs.tif
176
     1
290
     0
176
     1
 40
1.0
176
     1
 40
1.0
176
     1
  0
VISUALSTYLE
  5
34
102
{ACAD_REACTORS
330
2A
102
}
330
2A
100
AcDbVisualStyle
  2
Conceptual
 70
     9
177
     3
291
     0
 70
    58
 90
        3
176
     1
 90
        2
176
     1
 90
        0
176
     1
 90
        0
176
     1
 40
0.6
176
     1
 40
30.0
176
     1
 62
     7
420
 16777215
176
     1
 90
        2
176
     1
 90
        2
176
     1
 62
     7
176
     1
 62
   257
176
     1
 90
        1
176
     1
 90
        1
176
     1
 40
179.0
176
     1
 90
        8
176
     1
 62
     7
176
     1
 40
1.0
176
     1
 90
        1
176
     1
 90
        6
176
     1
 90
        2
176
     1
 62
     7
176
     1
 90
        3
176
     1
 90
        0
176
     1
 90
        0
176
     1
290
     0
176
     1
 90
        1
176
     1
 40
0.0
176
     1
 90
        0
176
     1
290
     0
176
     1
290
     1
176
     1
290
     1
176
     1
290
     0
176
     1
290
     0
176
     1
290
     0
176
     1
290
     0
176
     1
290
     0
176
     1
290
     0
176
     1
 90
       50
176
     1
 40
0.0
176
     1
 40
1.0
176
     1
 90
        0
176
     1
 62
    18
420
        0
176
     1
 90
       50
176
     1
 90
        3
176
     1
 62
     5
420
      255
176
     1
290
     0
176
     1
 90
       50
176
     1
 90
       50
176
     1
 90
       50
176
     1
290
     0
176
     1
 90
       50
176
     1
 62
   256
176
     0
 40
1.0
176
     0
 90
        2
176
     1
  1
strokes_ogs.tif
176
     1
290
     0
176
     1
 40
1.0
176
     1
 40
1.0
176
     1
  0
VISUALSTYLE
  5
35
102
{ACAD_REACTORS
330
2A
102
}
330
2A
100
AcDbVisualStyle
  2
Dim
 70
    11
177
     3
291
     1
 70
    58
 90
        2
176
     1
 90
        2
176
     1
 90
        0
176
     1
 90
        0
176
     1
 40
0.6
176
     1
 40
30.0
176
     1
 62
     7
420
 16777215
176
     1
 90
        1
176
     1
 90
        4
176
     1
 62
     7
176
     1
 62
   257
176
     1
 90
        1
176
     1
 90
        1
176
     1
 40
1.0
176
     1
 90
        8
176
     1
 62
     7
176
     1
 40
1.0
176
     1
 90
        1
176
     1
 90
        6
176
     1
 90
        2
176
     1
 62
     7
176
     1
 90
        5
176
     1
 90
        0
176
     1
 90
        0
176
     1
290
     0
176
     1
 90
        1
176
     1
 40
-50.0
176
     1
 90
        0
176
     1
290
     0
176
     1
290
     1
176
     1
290
     1
176
     1
290
     0
176
     1
290
     0
176
     1
290
     0
176
     1
290
     0
176
     1
290
     0
176
     1
290
     0
176
     1
 90
       50
176
     1
 40
0.0
176
     1
 40
1.0
176
     1
 90
        0
176
     1
 62
    18
420
        0
176
     1
 90
       50
176
     1
 90
        3
176
     1
 62
     5
420
      255
176
     1
290
     0
176
     1
 90
       50
176
     1
 90
       50
176
     1
 90
       50
176
     1
290
     0
176
     1
 90
       50
176
     1
 62
   256
176
     0
 40
1.0
176
     0
 90
        2
176
     1
  1
strokes_ogs.tif
176
     1
290
     0
176
     1
 40
1.0
176
     1
 40
1.0
176
     1
  0
VISUALSTYLE
  5
3D
102
{ACAD_REACTORS
330
2A
102
}
330
2A
100
AcDbVisualStyle
  2
EdgeColorOff
 70
    22
177
     3
291
     1
 70
    58
 90
        2
176
     0
 90
        2
176
     0
 90
        0
176
     0
 90
        0
176
     0
 40
0.6
176
     0
 40
30.0
176
     0
 62
     7
420
 16777215
176
     0
 90
        1
176
     0
 90
        4
176
     0
 62
     7
176
     0
 62
   257
176
     0
 90
        1
176
     0
 90
        1
176
     0
 40
1.0
176
     0
 90
        8
176
     2
 62
     7
176
     0
 40
1.0
176
     0
 90
        1
176
     0
 90
        6
176
     0
 90
        2
176
     0
 62
     7
176
     0
 90
        5
176
     0
 90
        0
176
     0
 90
        0
176
     0
290
     0
176
     0
 90
        1
176
     0
 40
0.0
176
     0
 90
        0
176
     0
290
     0
176
     0
290
     1
176
     0
290
     1
176
     0
290
     0
176
     0
290
     0
176
     0
290
     0
176
     0
290
     0
176
     0
290
     0
176
     0
290
     0
176
     0
 90
       50
176
     0
 40
0.0
176
     0
 40
1.0
176
     0
 90
        0
176
     0
 62
    18
420
        0
176
     0
 90
       50
176
     0
 90
        3
176
     0
 62
     5
420
      255
176
     0
290
     0
176
     0
 90
       50
176
     0
 90
       50
176
     0
 90
       50
176
     0
290
     0
176
     0
 90
       50
176
     0
 62
   256
176
     0
 40
1.0
176
     0
 90
        2
176
     0
  1
strokes_ogs.tif
176
     0
290
     0
176
     0
 40
1.0
176
     0
 40
1.0
176
     0
  0
VISUALSTYLE
  5
39
102
{ACAD_REACTORS
330
2A
102
}
330
2A
100
AcDbVisualStyle
  2
Facepattern
 70
    15
177
     3
291
     1
 70
    58
 90
        2
176
     1
 90
        2
176
     1
 90
        0
176
     1
 90
        0
176
     1
 40
0.6
176
     1
 40
30.0
176
     1
 62
     7
420
 16777215
176
     1
 90
        1
176
     1
 90
        4
176
     1
 62
     7
176
     1
 62
   257
176
     1
 90
        1
176
     1
 90
        1
176
     1
 40
1.0
176
     1
 90
        8
176
     1
 62
     7
176
     1
 40
1.0
176
     1
 90
        1
176
     1
 90
        6
176
     1
 90
        2
176
     1
 62
     7
176
     1
 90
        5
176
     1
 90
        0
176
     1
 90
        0
176
     1
290
     0
176
     1
 90
        1
176
     1
 40
0.0
176
     1
 90
        0
176
     1
290
     0
176
     1
290
     1
176
     1
290
     1
176
     1
290
     0
176
     1
290
     0
176
     1
290
     0
176
     1
290
     0
176
     1
290
     0
176
     1
290
     0
176
     1
 90
       50
176
     1
 40
0.0
176
     1
 40
1.0
176
     1
 90
        0
176
     1
 62
    18
420
        0
176
     1
 90
       50
176
     1
 90
        3
176
     1
 62
     5
420
      255
176
     1
290
     0
176
     1
 90
       50
176
     1
 90
       50
176
     1
 90
       50
176
     1
290
     0
176
     1
 90
       50
176
     1
 62
   256
176
     0
 40
1.0
176
     0
 90
        2
176
     1
  1
strokes_ogs.tif
176
     1
290
     0
176
     1
 40
1.0
176
     1
 40
1.0
176
     1
  0
VISUALSTYLE
  5
2B
102
{ACAD_REACTORS
330
2A
102
}
330
2A
100
AcDbVisualStyle
  2
Flat
 70
     0
177
     3
291
     1
 70
    58
 90
        2
176
     1
 90
        1
176
     1
 90
        1
176
     1
 90
        2
176
     1
 40
0.6
176
     1
 40
30.0
176
     1
 62
     7
420
 16777215
176
     1
 90
        0
176
     1
 90
        0
176
     1
 62
     7
176
     1
 62
   257
176
     1
 90
        1
176
     1
 90
        1
176
     1
 40
1.0
176
     1
 90
        8
176
     1
 62
     7
176
     1
 40
1.0
176
     1
 90
        1
176
     1
 90
        6
176
     1
 90
        2
176
     1
 62
     7
176
     1
 90
        5
176
     1
 90
        0
176
     1
 90
        0
176
     1
290
     0
176
     1
 90
       13
176
     1
 40
0.0
176
     1
 90
        0
176
     1
290
     0
176
     1
290
     1
176
     1
290
     1
176
     1
290
     0
176
     1
290
     0
176
     1
290
     0
176
     1
290
     0
176
     1
290
     0
176
     1
290
     0
176
     1
 90
       50
176
     1
 40
0.0
176
     1
 40
1.0
176
     1
 90
        0
176
     1
 62
    18
420
        0
176
     1
 90
       50
176
     1
 90
        3
176
     1
 62
     5
420
      255
176
     1
290
     0
176
     1
 90
       50
176
     1
 90
       50
176
     1
 90
       50
176
     1
290
     0
176
     1
 90
       50
176
     1
 62
   256
176
     0
 40
1.0
176
     0
 90
        2
176
     1
  1
strokes_ogs.tif
176
     1
290
     0
176
     1
 40
1.0
176
     1
 40
1.0
176
     1
  0
VISUALSTYLE
  5
2C
102
{ACAD_REACTORS
330
2A
102
}
330
2A
100
AcDbVisualStyle
  2
FlatWithEdges
 70
     1
177
     3
291
     1
 70
    58
 90
        2
176
     1
 90
        1
176
     1
 90
        1
176
     1
 90
        2
176
     1
 40
0.6
176
     1
 40
30.0
176
     1
 62
     7
420
 16777215
176
     1
 90
        1
176
     1
 90
        0
176
     1
 62
     7
176
     1
 62
   257
176
     1
 90
        1
176
     1
 90
        1
176
     1
 40
1.0
176
     1
 90
        0
176
     1
 62
   257
176
     1
 40
1.0
176
     1
 90
        1
176
     1
 90
        6
176
     1
 90
        2
176
     1
 62
     7
176
     1
 90
        5
176
     1
 90
        0
176
     1
 90
        0
176
     1
290
     0
176
     1
 90
       13
176
     1
 40
0.0
176
     1
 90
        0
176
     1
290
     0
176
     1
290
     1
176
     1
290
     1
176
     1
290
     0
176
     1
290
     0
176
     1
290
     0
176
     1
290
     0
176
     1
290
     0
176
     1
290
     0
176
     1
 90
       50
176
     1
 40
0.0
176
     1
 40
1.0
176
     1
 90
        0
176
     1
 62
    18
420
        0
176
     1
 90
       50
176
     1
 90
        3
176
     1
 62
     5
420
      255
176
     1
290
     0
176
     1
 90
       50
176
     1
 90
       50
176
     1
 90
       50
176
     1
290
     0
176
     1
 90
       50
176
     1
 62
   256
176
     0
 40
1.0
176
     0
 90
        2
176
     1
  1
strokes_ogs.tif
176
     1
290
     0
176
     1
 40
1.0
176
     1
 40
1.0
176
     1
  0
VISUALSTYLE
  5
2D
102
{ACAD_REACTORS
330
2A
102
}
330
2A
100
AcDbVisualStyle
  2
Gouraud
 70
     2
177
     3
291
     1
 70
    58
 90
        2
176
     1
 90
        2
176
     1
 90
        1
176
     1
 90
        2
176
     1
 40
0.6
176
     1
 40
30.0
176
     1
 62
     7
420
 16777215
176
     1
 90
        0
176
     1
 90
        0
176
     1
 62
     7
176
     1
 62
   257
176
     1
 90
        1
176
     1
 90
        1
176
     1
 40
1.0
176
     1
 90
        0
176
     1
 62
     7
176
     1
 40
1.0
176
     1
 90
        1
176
     1
 90
        6
176
     1
 90
        2
176
     1
 62
     7
176
     1
 90
        5
176
     1
 90
        0
176
     1
 90
        0
176
     1
290
     0
176
     1
 90
       13
176
     1
 40
0.0
176
     1
 90
        0
176
     1
290
     0
176
     1
290
     1
176
     1
290
     1
176
     1
290
     0
176
     1
290
     0
176
     1
290
     0
176
     1
290
     0
176
     1
290
     0
176
     1
290
     0
176
     1
 90
       50
176
     1
 40
0.0
176
     1
 40
1.0
176
     1
 90
        0
176
     1
 62
    18
420
        0
176
     1
 90
       50
176
     1
 90
        3
176
     1
 62
     5
420
      255
176
     1
290
     0
176
     1
 90
       50
176
     1
 90
       50
176
     1
 90
       50
176
     1
290
     0
176
     1
 90
       50
176
     1
 62
   256
176
     0
 40
1.0
176
     0
 90
        2
176
     1
  1
strokes_ogs.tif
176
     1
290
     0
176
     1
 40
1.0
176
     1
 40
1.0
176
     1
  0
VISUALSTYLE
  5
2E
102
{ACAD_REACTORS
330
2A
102
}
330
2A
100
AcDbVisualStyle
  2
GouraudWithEdges
 70
     3
177
     3
291
     1
 70
    58
 90
        2
176
     1
 90
        2
176
     1
 90
        1
176
     1
 90
        2
176
     1
 40
0.6
176
     1
 40
30.0
176
     1
 62
     7
420
 16777215
176
     1
 90
        1
176
     1
 90
        0
176
     1
 62
     7
176
     1
 62
   257
176
     1
 90
        1
176
     1
 90
        1
176
     1
 40
1.0
176
     1
 90
        0
176
     1
 62
   257
176
     1
 40
1.0
176
     1
 90
        1
176
     1
 90
        6
176
     1
 90
        2
176
     1
 62
     7
176
     1
 90
        5
176
     1
 90
        0
176
     1
 90
        0
176
     1
290
     0
176
     1
 90
       13
176
     1
 40
0.0
176
     1
 90
        0
176
     1
290
     0
176
     1
290
     1
176
     1
290
     1
176
     1
290
     0
176
     1
290
     0
176
     1
290
     0
176
     1
290
     0
176
     1
290
     0
176
     1
290
     0
176
     1
 90
       50
176
     1
 40
0.0
176
     1
 40
1.0
176
     1
 90
        0
176
     1
 62
    18
420
        0
176
     1
 90
       50
176
     1
 90
        3
176
     1
 62
     5
420
      255
176
     1
290
     0
176
     1
 90
       50
176
     1
 90
       50
176
     1
 90
       50
176
     1
290
     0
176
     1
 90
       50
176
     1
 62
   256
176
     0
 40
1.0
176
     0
 90
        2
176
     1
  1
strokes_ogs.tif
176
     1
290
     0
176
     1
 40
1.0
176
     1
 40
1.0
176
     1
  0
VISUALSTYLE
  5
31
102
{ACAD_REACTORS
330
2A
102
}
330
2A
100
AcDbVisualStyle
  2
Hidden
 70
     6
177
     3
291
     0
 70
    58
 90
        1
176
     1
 90
        2
176
     1
 90
        2
176
     1
 90
        0
176
     1
 40
0.6
176
     1
 40
30.0
176
     1
 62
     7
420
 16777215
176
     1
 90
        2
176
     1
 90
        2
176
     1
 62
     7
176
     1
 62
   257
176
     1
 90
        2
176
     1
 90
        1
176
     1
 40
40.0
176
     1
 90
        0
176
     1
 62
   257
176
     1
 40
1.0
176
     1
 90
        1
176
     1
 90
        6
176
     1
 90
        2
176
     1
 62
     7
176
     1
 90
        3
176
     1
 90
        0
176
     1
 90
        0
176
     1
290
     0
176
     1
 90
        1
176
     1
 40
0.0
176
     1
 90
        0
176
     1
290
     0
176
     1
290
     1
176
     1
290
     1
176
     1
290
     0
176
     1
290
     0
176
     1
290
     0
176
     1
290
     0
176
     1
290
     0
176
     1
290
     0
176
     1
 90
       50
176
     1
 40
0.0
176
     1
 40
1.0
176
     1
 90
        0
176
     1
 62
    18
420
        0
176
     1
 90
       50
176
     1
 90
        3
176
     1
 62
     5
420
      255
176
     1
290
     0
176
     1
 90
       50
176
     1
 90
       50
176
     1
 90
       50
176
     1
290
     0
176
     1
 90
       50
176
     1
 62
   256
176
     0
 40
1.0
176
     0
 90
        2
176
     1
  1
strokes_ogs.tif
176
     1
290
     0
176
     1
 40
1.0
176
     1
 40
1.0
176
     1
  0
VISUALSTYLE
  5
3B
102
{ACAD_REACTORS
330
2A
102
}
330
2A
100
AcDbVisualStyle
  2
JitterOff
 70
    20
177
     3
291
     1
 70
    58
 90
        2
176
     0
 90
        2
176
     0
 90
        0
176
     0
 90
        0
176
     0
 40
0.6
176
     0
 40
30.0
176
     0
 62
     7
420
 16777215
176
     0
 90
        1
176
     0
 90
        4
176
     0
 62
     7
176
     0
 62
   257
176
     0
 90
        1
176
     0
 90
        1
176
     0
 40
1.0
176
     0
 90
       10
176
     2
 62
     7
176
     0
 40
1.0
176
     0
 90
        1
176
     0
 90
        6
176
     0
 90
        2
176
     0
 62
     7
176
     0
 90
        5
176
     0
 90
        0
176
     0
 90
        0
176
     0
290
     0
176
     0
 90
        1
176
     0
 40
0.0
176
     0
 90
        0
176
     0
290
     0
176
     0
290
     1
176
     0
290
     1
176
     0
290
     0
176
     0
290
     0
176
     0
290
     0
176
     0
290
     0
176
     0
290
     0
176
     0
290
     0
176
     0
 90
       50
176
     0
 40
0.0
176
     0
 40
1.0
176
     0
 90
        0
176
     0
 62
    18
420
        0
176
     0
 90
       50
176
     0
 90
        3
176
     0
 62
     5
420
      255
176
     0
290
     0
176
     0
 90
       50
176
     0
 90
       50
176
     0
 90
       50
176
     0
290
     0
176
     0
 90
       50
176
     0
 62
   256
176
     0
 40
1.0
176
     0
 90
        2
176
     0
  1
strokes_ogs.tif
176
     0
290
     0
176
     0
 40
1.0
176
     0
 40
1.0
176
     0
  0
VISUALSTYLE
  5
38
102
{ACAD_REACTORS
330
2A
102
}
330
2A
100
AcDbVisualStyle
  2
Linepattern
 70
    14
177
     3
291
     1
 70
    58
 90
        2
176
     1
 90
        2
176
     1
 90
        0
176
     1
 90
        0
176
     1
 40
0.6
176
     1
 40
30.0
176
     1
 62
     7
420
 16777215
176
     1
 90
        1
176
     1
 90
        4
176
     1
 62
     7
176
     1
 62
   257
176
     1
 90
        7
176
     1
 90
        7
176
     1
 40
1.0
176
     1
 90
        8
176
     1
 62
     7
176
     1
 40
1.0
176
     1
 90
        1
176
     1
 90
        6
176
     1
 90
        2
176
     1
 62
     7
176
     1
 90
        5
176
     1
 90
        0
176
     1
 90
        0
176
     1
290
     0
176
     1
 90
        1
176
     1
 40
0.0
176
     1
 90
        0
176
     1
290
     0
176
     1
290
     1
176
     1
290
     1
176
     1
290
     0
176
     1
290
     0
176
     1
290
     0
176
     1
290
     0
176
     1
290
     0
176
     1
290
     0
176
     1
 90
       50
176
     1
 40
0.0
176
     1
 40
1.0
176
     1
 90
        0
176
     1
 62
    18
420
        0
176
     1
 90
       50
176
     1
 90
        3
176
     1
 62
     5
420
      255
176
     1
290
     0
176
     1
 90
       50
176
     1
 90
       50
176
     1
 90
       50
176
     1
290
     0
176
     1
 90
       50
176
     1
 62
   256
176
     0
 40
1.0
176
     0
 90
        2
176
     1
  1
strokes_ogs.tif
176
     1
290
     0
176
     1
 40
1.0
176
     1
 40
1.0
176
     1
  0
VISUALSTYLE
  5
3C
102
{ACAD_REACTORS
330
2A
102
}
330
2A
100
AcDbVisualStyle
  2
OverhangOff
 70
    21
177
     3
291
     1
 70
    58
 90
        2
176
     0
 90
        2
176
     0
 90
        0
176
     0
 90
        0
176
     0
 40
0.6
176
     0
 40
30.0
176
     0
 62
     7
420
 16777215
176
     0
 90
        1
176
     0
 90
        4
176
     0
 62
     7
176
     0
 62
   257
176
     0
 90
        1
176
     0
 90
        1
176
     0
 40
1.0
176
     0
 90
        9
176
     2
 62
     7
176
     0
 40
1.0
176
     0
 90
        1
176
     0
 90
        6
176
     0
 90
        2
176
     0
 62
     7
176
     0
 90
        5
176
     0
 90
        0
176
     0
 90
        0
176
     0
290
     0
176
     0
 90
        1
176
     0
 40
0.0
176
     0
 90
        0
176
     0
290
     0
176
     0
290
     1
176
     0
290
     1
176
     0
290
     0
176
     0
290
     0
176
     0
290
     0
176
     0
290
     0
176
     0
290
     0
176
     0
290
     0
176
     0
 90
       50
176
     0
 40
0.0
176
     0
 40
1.0
176
     0
 90
        0
176
     0
 62
    18
420
        0
176
     0
 90
       50
176
     0
 90
        3
176
     0
 62
     5
420
      255
176
     0
290
     0
176
     0
 90
       50
176
     0
 90
       50
176
     0
 90
       50
176
     0
290
     0
176
     0
 90
       50
176
     0
 62
   256
176
     0
 40
1.0
176
     0
 90
        2
176
     0
  1
strokes_ogs.tif
176
     0
290
     0
176
     0
 40
1.0
176
     0
 40
1.0
176
     0
  0
VISUALSTYLE
  5
33
102
{ACAD_REACTORS
330
2A
102
}
330
2A
100
AcDbVisualStyle
  2
Realistic
 70
     8
177
     3
291
     0
 70
    58
 90
        2
176
     1
 90
        3
176
     1
 90
        0
176
     1
 90
        2
176
     1
 40
0.6
176
     1
 40
30.0
176
     1
 62
     7
420
 16777215
176
     1
 90
        0
176
     1
 90
        0
176
     1
 62
     7
176
     1
 62
   257
176
     1
 90
        1
176
     1
 90
        1
176
     1
 40
1.0
176
     1
 90
        8
176
     1
 62
   257
176
     1
 40
1.0
176
     1
 90
        1
176
     1
 90
        6
176
     1
 90
        2
176
     1
 62
     7
176
     1
 90
        3
176
     1
 90
        0
176
     1
 90
        0
176
     1
290
     0
176
     1
 90
       13
176
     1
 40
0.0
176
     1
 90
        0
176
     1
290
     0
176
     1
290
     1
176
     1
290
     1
176
     1
290
     0
176
     1
290
     0
176
     1
290
     0
176
     1
290
     0
176
     1
290
     0
176
     1
290
     0
176
     1
 90
       50
176
     1
 40
0.0
176
     1
 40
1.0
176
     1
 90
        0
176
     1
 62
    18
420
        0
176
     1
 90
       50
176
     1
 90
        3
176
     1
 62
     5
420
      255
176
     1
290
     0
176
     1
 90
       50
176
     1
 90
       50
176
     1
 90
       50
176
     1
290
     0
176
     1
 90
       50
176
     1
 62
   256
176
     0
 40
1.0
176
     0
 90
        2
176
     1
  1
strokes_ogs.tif
176
     1
290
     0
176
     1
 40
1.0
176
     1
 40
1.0
176
     1
  0
VISUALSTYLE
  5
42
102
{ACAD_REACTORS
330
2A
102
}
330
2A
100
AcDbVisualStyle
  2
Shaded
 70
    27
177
     3
291
     0
 70
    58
 90
        2
176
     1
 90
        2
176
     1
 90
        1
176
     1
 90
        2
176
     1
 40
0.6
176
     1
 40
30.0
176
     1
 62
     7
420
 16777215
176
     1
 90
        0
176
     1
 90
        4
176
     1
 62
     7
176
     1
 62
   257
176
     1
 90
        1
176
     1
 90
        1
176
     1
 40
1.0
176
     1
 90
        8
176
     1
 62
   257
176
     1
 40
1.0
176
     1
 90
        1
176
     1
 90
        6
176
     1
 90
        2
176
     1
 62
     8
420
  7895160
176
     1
 90
        3
176
     1
 90
        0
176
     1
 90
        0
176
     1
290
     0
176
     1
 90
        5
176
     1
 40
0.0
176
     1
 90
        0
176
     1
290
     0
176
     1
290
     1
176
     1
290
     1
176
     1
290
     0
176
     1
290
     0
176
     1
290
     0
176
     1
290
     0
176
     1
290
     0
176
     1
290
     0
176
     1
 90
       50
176
     1
 40
0.0
176
     1
 40
1.0
176
     1
 90
        0
176
     1
 62
    18
420
        0
176
     1
 90
       50
176
     1
 90
        3
176
     1
 62
     5
420
      255
176
     1
290
     0
176
     1
 90
       50
176
     1
 90
       50
176
     1
 90
       50
176
     1
290
     0
176
     1
 90
       50
176
     1
 62
   256
176
     0
 40
1.0
176
     0
 90
        2
176
     1
  1
strokes_ogs.tif
176
     1
290
     0
176
     1
 40
1.0
176
     1
 40
1.0
176
     1
  0
VISUALSTYLE
  5
41
102
{ACAD_REACTORS
330
2A
102
}
330
2A
100
AcDbVisualStyle
  2
Shaded with edges
 70
    26
177
     3
291
     0
 70
    58
 90
        2
176
     1
 90
        2
176
     1
 90
        1
176
     1
 90
        2
176
     1
 40
0.6
176
     1
 40
30.0
176
     1
 62
     7
420
 16777215
176
     1
 90
        1
176
     1
 90
       10
176
     1
 62
     7
176
     1
 62
   257
176
     1
 90
        2
176
     1
 90
        1
176
     1
 40
1.0
176
     1
 90
        8
176
     1
 62
   257
176
     1
 40
1.0
176
     1
 90
        1
176
     1
 90
        6
176
     1
 90
        2
176
     1
 62
     7
176
     1
 90
        3
176
     1
 90
        0
176
     1
 90
        0
176
     1
290
     0
176
     1
 90
        5
176
     1
 40
0.0
176
     1
 90
        0
176
     1
290
     0
176
     1
290
     1
176
     1
290
     1
176
     1
290
     0
176
     1
290
     0
176
     1
290
     0
176
     1
290
     0
176
     1
290
     0
176
     1
290
     0
176
     1
 90
       50
176
     1
 40
0.0
176
     1
 40
1.0
176
     1
 90
        0
176
     1
 62
    18
420
        0
176
     1
 90
       50
176
     1
 90
        3
176
     1
 62
     5
420
      255
176
     1
290
     0
176
     1
 90
       50
176
     1
 90
       50
176
     1
 90
       50
176
     1
290
     0
176
     1
 90
       50
176
     1
 62
   256
176
     0
 40
1.0
176
     0
 90
        2
176
     1
  1
strokes_ogs.tif
176
     1
290
     0
176
     1
 40
1.0
176
     1
 40
1.0
176
     1
  0
VISUALSTYLE
  5
3E
102
{ACAD_REACTORS
330
2A
102
}
330
2A
100
AcDbVisualStyle
  2
Shades of Gray
 70
    23
177
     3
291
     0
 70
    58
 90
        2
176
     1
 90
        2
176
     1
 90
        3
176
     1
 90
        0
176
     1
 40
0.6
176
     1
 40
30.0
176
     1
 62
     7
420
 16777215
176
     1
 90
        2
176
     1
 90
        2
176
     1
 62
     7
176
     1
 62
     7
176
     1
 90
        1
176
     1
 90
        1
176
     1
 40
40.0
176
     1
 90
        8
176
     1
 62
     7
176
     1
 40
1.0
176
     1
 90
        1
176
     1
 90
        6
176
     1
 90
        2
176
     1
 62
     7
176
     1
 90
        3
176
     1
 90
        0
176
     1
 90
        0
176
     1
290
     0
176
     1
 90
        1
176
     1
 40
0.0
176
     1
 90
        0
176
     1
290
     0
176
     1
290
     1
176
     1
290
     1
176
     1
290
     0
176
     1
290
     0
176
     1
290
     0
176
     1
290
     0
176
     1
290
     0
176
     1
290
     0
176
     1
 90
       50
176
     1
 40
0.0
176
     1
 40
1.0
176
     1
 90
        0
176
     1
 62
    18
420
        0
176
     1
 90
       50
176
     1
 90
        3
176
     1
 62
     5
420
      255
176
     1
290
     0
176
     1
 90
       50
176
     1
 90
       50
176
     1
 90
       50
176
     1
290
     0
176
     1
 90
       50
176
     1
 62
   256
176
     0
 40
1.0
176
     0
 90
        2
176
     1
  1
strokes_ogs.tif
176
     1
290
     0
176
     1
 40
1.0
176
     1
 40
1.0
176
     1
  0
VISUALSTYLE
  5
3F
102
{ACAD_REACTORS
330
2A
102
}
330
2A
100
AcDbVisualStyle
  2
Sketchy
 70
    24
177
     3
291
     0
 70
    58
 90
        1
176
     1
 90
        2
176
     1
 90
        2
176
     1
 90
        0
176
     1
 40
0.6
176
     1
 40
30.0
176
     1
 62
     7
420
 16777215
176
     1
 90
        2
176
     1
 90
        2
176
     1
 62
     7
176
     1
 62
     7
176
     1
 90
        1
176
     1
 90
        1
176
     1
 40
40.0
176
     1
 90
       11
176
     1
 62
     7
176
     1
 40
1.0
176
     1
 90
        1
176
     1
 90
        6
176
     1
 90
        2
176
     1
 62
     7
176
     1
 90
        6
176
     1
 90
        0
176
     1
 90
        0
176
     1
290
     0
176
     1
 90
        1
176
     1
 40
0.0
176
     1
 90
        0
176
     1
290
     0
176
     1
290
     1
176
     1
290
     1
176
     1
290
     0
176
     1
290
     0
176
     1
290
     0
176
     1
290
     0
176
     1
290
     0
176
     1
290
     0
176
     1
 90
       50
176
     1
 40
0.0
176
     1
 40
1.0
176
     1
 90
        0
176
     1
 62
    18
420
        0
176
     1
 90
       50
176
     1
 90
        3
176
     1
 62
     5
420
      255
176
     1
290
     0
176
     1
 90
       50
176
     1
 90
       50
176
     1
 90
       50
176
     1
290
     0
176
     1
 90
       50
176
     1
 62
   256
176
     0
 40
1.0
176
     0
 90
        2
176
     1
  1
strokes_ogs.tif
176
     1
290
     0
176
     1
 40
1.0
176
     1
 40
1.0
176
     1
  0
VISUALSTYLE
  5
37
102
{ACAD_REACTORS
330
2A
102
}
330
2A
100
AcDbVisualStyle
  2
Thicken
 70
    13
177
     3
291
     1
 70
    58
 90
        2
176
     1
 90
        2
176
     1
 90
        0
176
     1
 90
        0
176
     1
 40
0.6
176
     1
 40
30.0
176
     1
 62
     7
420
 16777215
176
     1
 90
        1
176
     1
 90
        4
176
     1
 62
     7
176
     1
 62
   257
176
     1
 90
        1
176
     1
 90
        1
176
     1
 40
1.0
176
     1
 90
       12
176
     1
 62
     7
176
     1
 40
1.0
176
     1
 90
        1
176
     1
 90
        6
176
     1
 90
        2
176
     1
 62
     7
176
     1
 90
        5
176
     1
 90
        0
176
     1
 90
        0
176
     1
290
     0
176
     1
 90
        1
176
     1
 40
0.0
176
     1
 90
        0
176
     1
290
     0
176
     1
290
     1
176
     1
290
     1
176
     1
290
     0
176
     1
290
     0
176
     1
290
     0
176
     1
290
     0
176
     1
290
     0
176
     1
290
     0
176
     1
 90
       50
176
     1
 40
0.0
176
     1
 40
1.0
176
     1
 90
        0
176
     1
 62
    18
420
        0
176
     1
 90
       50
176
     1
 90
        3
176
     1
 62
     5
420
      255
176
     1
290
     0
176
     1
 90
       50
176
     1
 90
       50
176
     1
 90
       50
176
     1
290
     0
176
     1
 90
       50
176
     1
 62
   256
176
     0
 40
1.0
176
     0
 90
        2
176
     1
  1
strokes_ogs.tif
176
     1
290
     0
176
     1
 40
1.0
176
     1
 40
1.0
176
     1
  0
VISUALSTYLE
  5
30
102
{ACAD_REACTORS
330
2A
102
}
330
2A
100
AcDbVisualStyle
  2
Wireframe
 70
     5
177
     3
291
     0
 70
    58
 90
        0
176
     1
 90
        2
176
     1
 90
        0
176
     1
 90
        0
176
     1
 40
0.6
176
     1
 40
30.0
176
     1
 62
     7
420
 16777215
176
     1
 90
        1
176
     1
 90
        4
176
     1
 62
     7
176
     1
 62
   257
176
     1
 90
        1
176
     1
 90
        1
176
     1
 40
1.0
176
     1
 90
        0
176
     1
 62
   257
176
     1
 40
1.0
176
     1
 90
        1
176
     1
 90
        6
176
     1
 90
        2
176
     1
 62
     7
176
     1
 90
        3
176
     1
 90
        0
176
     1
 90
        0
176
     1
290
     0
176
     1
 90
        1
176
     1
 40
0.0
176
     1
 90
        0
176
     1
290
     0
176
     1
290
     1
176
     1
290
     1
176
     1
290
     0
176
     1
290
     0
176
     1
290
     0
176
     1
290
     0
176
     1
290
     0
176
     1
290
     0
176
     1
 90
       50
176
     1
 40
0.0
176
     1
 40
1.0
176
     1
 90
        0
176
     1
 62
    18
420
        0
176
     1
 90
       50
176
     1
 90
        3
176
     1
 62
     5
420
      255
176
     1
290
     0
176
     1
 90
       50
176
     1
 90
       50
176
     1
 90
       50
176
     1
290
     0
176
     1
 90
       50
176
     1
 62
   256
176
     0
 40
1.0
176
     0
 90
        2
176
     1
  1
strokes_ogs.tif
176
     1
290
     0
176
     1
 40
1.0
176
     1
 40
1.0
176
     1
  0
VISUALSTYLE
  5
40
102
{ACAD_REACTORS
330
2A
102
}
330
2A
100
AcDbVisualStyle
  2
X-Ray
 70
    25
177
     3
291
     0
 70
    58
 90
        2
176
     1
 90
        2
176
     1
 90
        1
176
     1
 90
        1
176
     1
 40
0.5
176
     1
 40
30.0
176
     1
 62
     7
420
 16777215
176
     1
 90
        1
176
     1
 90
        0
176
     1
 62
     7
176
     1
 62
   257
176
     1
 90
        1
176
     1
 90
        1
176
     1
 40
1.0
176
     1
 90
        8
176
     1
 62
     7
176
     1
 40
1.0
176
     1
 90
        1
176
     1
 90
        6
176
     1
 90
        2
176
     1
 62
     7
176
     1
 90
        3
176
     1
 90
        0
176
     1
 90
        0
176
     1
290
     0
176
     1
 90
       13
176
     1
 40
0.0
176
     1
 90
        0
176
     1
290
     0
176
     1
290
     1
176
     1
290
     1
176
     1
290
     0
176
     1
290
     0
176
     1
290
     0
176
     1
290
     0
176
     1
290
     0
176
     1
290
     0
176
     1
 90
       50
176
     1
 40
0.0
176
     1
 40
1.0
176
     1
 90
        0
176
     1
 62
    18
420
        0
176
     1
 90
       50
176
     1
 90
        3
176
     1
 62
     5
420
      255
176
     1
290
     0
176
     1
 90
       50
176
     1
 90
       50
176
     1
 90
       50
176
     1
290
     0
176
     1
 90
       50
176
     1
 62
   256
176
     0
 40
1.0
176
     0
 90
        2
176
     1
  1
strokes_ogs.tif
176
     1
290
     0
176
     1
 40
1.0
176
     1
 40
1.0
176
     1
  0
DICTIONARYVAR
  5
23B
102
{ACAD_REACTORS
330
23A
102
}
330
23A
100
DictionaryVariables
280
     0
  1
1:1
  0
DICTIONARYVAR
  5
240
102
{ACAD_REACTORS
330
23A
102
}
330
23A
100
DictionaryVariables
280
     0
  1
Standard
  0
DICTIONARYVAR
  5
23F
102
{ACAD_REACTORS
330
23A
102
}
330
23A
100
DictionaryVariables
280
     0
  1
Standard
  0
DICTIONARY
  5
23C
330
6A
100
AcDbDictionary
280
     1
281
     1
  3
ACAD_ROUNDTRIP_2008_TABLESTYLE_CELLSTYLEMAP
360
23D
  0
CELLSTYLEMAP
  5
23D
102
{ACAD_REACTORS
330
23C
102
}
330
23C
100
AcDbCellStyleMap
 90
        3
300
CELLSTYLE
  1
TABLEFORMAT_BEGIN
 90
        5
170
     1
 91
        0
 92
    32768
 62
   257
 93
        1
300
CONTENTFORMAT
  1
CONTENTFORMAT_BEGIN
 90
        0
 91
        0
 92
        4
 93
        0
300

 40
0.0
140
1.0
 94
        5
 62
     0
340
11
144
0.25
309
CONTENTFORMAT_END
171
     1
301
MARGIN
  1
CELLMARGIN_BEGIN
 40
0.06
 40
0.06
 40
0.06
 40
0.06
 40
0.06
 40
0.06
309
CELLMARGIN_END
 94
        6
 95
        1
302
GRIDFORMAT
  1
GRIDFORMAT_BEGIN
 90
        0
 91
        1
 62
     0
 92
       -2
340
14
 93
        0
 40
0.045
309
GRIDFORMAT_END
 95
        2
302
GRIDFORMAT
  1
GRIDFORMAT_BEGIN
 90
        0
 91
        1
 62
     0
 92
       -2
340
14
 93
        0
 40
0.045
309
GRIDFORMAT_END
 95
        4
302
GRIDFORMAT
  1
GRIDFORMAT_BEGIN
 90
        0
 91
        1
 62
     0
 92
       -2
340
14
 93
        0
 40
0.045
309
GRIDFORMAT_END
 95
        8
302
GRIDFORMAT
  1
GRIDFORMAT_BEGIN
 90
        0
 91
        1
 62
     0
 92
       -2
340
14
 93
        0
 40
0.045
309
GRIDFORMAT_END
 95
       16
302
GRIDFORMAT
  1
GRIDFORMAT_BEGIN
 90
        0
 91
        1
 62
     0
 92
       -2
340
14
 93
        0
 40
0.045
309
GRIDFORMAT_END
 95
       32
302
GRIDFORMAT
  1
GRIDFORMAT_BEGIN
 90
        0
 91
        1
 62
     0
 92
       -2
340
14
 93
        0
 40
0.045
309
GRIDFORMAT_END
309
TABLEFORMAT_END
  1
CELLSTYLE_BEGIN
 90
        1
 91
        1
300
_TITLE
309
CELLSTYLE_END
300
CELLSTYLE
  1
TABLEFORMAT_BEGIN
 90
        5
170
     1
 91
        0
 92
        0
 62
   257
 93
        1
300
CONTENTFORMAT
  1
CONTENTFORMAT_BEGIN
 90
        0
 91
        0
 92
        4
 93
        0
300

 40
0.0
140
1.0
 94
        5
 62
     0
340
11
144
0.18
309
CONTENTFORMAT_END
171
     1
301
MARGIN
  1
CELLMARGIN_BEGIN
 40
0.06
 40
0.06
 40
0.06
 40
0.06
 40
0.06
 40
0.06
309
CELLMARGIN_END
 94
        6
 95
        1
302
GRIDFORMAT
  1
GRIDFORMAT_BEGIN
 90
        0
 91
        1
 62
     0
 92
       -2
340
14
 93
        0
 40
0.045
309
GRIDFORMAT_END
 95
        2
302
GRIDFORMAT
  1
GRIDFORMAT_BEGIN
 90
        0
 91
        1
 62
     0
 92
       -2
340
14
 93
        0
 40
0.045
309
GRIDFORMAT_END
 95
        4
302
GRIDFORMAT
  1
GRIDFORMAT_BEGIN
 90
        0
 91
        1
 62
     0
 92
       -2
340
14
 93
        0
 40
0.045
309
GRIDFORMAT_END
 95
        8
302
GRIDFORMAT
  1
GRIDFORMAT_BEGIN
 90
        0
 91
        1
 62
     0
 92
       -2
340
14
 93
        0
 40
0.045
309
GRIDFORMAT_END
 95
       16
302
GRIDFORMAT
  1
GRIDFORMAT_BEGIN
 90
        0
 91
        1
 62
     0
 92
       -2
340
14
 93
        0
 40
0.045
309
GRIDFORMAT_END
 95
       32
302
GRIDFORMAT
  1
GRIDFORMAT_BEGIN
 90
        0
 91
        1
 62
     0
 92
       -2
340
14
 93
        0
 40
0.045
309
GRIDFORMAT_END
309
TABLEFORMAT_END
  1
CELLSTYLE_BEGIN
 90
        2
 91
        1
300
_HEADER
309
CELLSTYLE_END
300
CELLSTYLE
  1
TABLEFORMAT_BEGIN
 90
        5
170
     1
 91
        0
 92
        0
 62
   257
 93
        1
300
CONTENTFORMAT
  1
CONTENTFORMAT_BEGIN
 90
        0
 91
        0
 92
        4
 93
        0
300

 40
0.0
140
1.0
 94
        2
 62
     0
340
11
144
0.18
309
CONTENTFORMAT_END
171
     1
301
MARGIN
  1
CELLMARGIN_BEGIN
 40
0.06
 40
0.06
 40
0.06
 40
0.06
 40
0.06
 40
0.06
309
CELLMARGIN_END
 94
        6
 95
        1
302
GRIDFORMAT
  1
GRIDFORMAT_BEGIN
 90
        0
 91
        1
 62
     0
 92
       -2
340
14
 93
        0
 40
0.045
309
GRIDFORMAT_END
 95
        2
302
GRIDFORMAT
  1
GRIDFORMAT_BEGIN
 90
        0
 91
        1
 62
     0
 92
       -2
340
14
 93
        0
 40
0.045
309
GRIDFORMAT_END
 95
        4
302
GRIDFORMAT
  1
GRIDFORMAT_BEGIN
 90
        0
 91
        1
 62
     0
 92
       -2
340
14
 93
        0
 40
0.045
309
GRIDFORMAT_END
 95
        8
302
GRIDFORMAT
  1
GRIDFORMAT_BEGIN
 90
        0
 91
        1
 62
     0
 92
       -2
340
14
 93
        0
 40
0.045
309
GRIDFORMAT_END
 95
       16
302
GRIDFORMAT
  1
GRIDFORMAT_BEGIN
 90
        0
 91
        1
 62
     0
 92
       -2
340
14
 93
        0
 40
0.045
309
GRIDFORMAT_END
 95
       32
302
GRIDFORMAT
  1
GRIDFORMAT_BEGIN
 90
        0
 91
        1
 62
     0
 92
       -2
340
14
 93
        0
 40
0.045
309
GRIDFORMAT_END
309
TABLEFORMAT_END
  1
CELLSTYLE_BEGIN
 90
        3
 91
        2
300
_DATA
309
CELLSTYLE_END
  0
ENDSEC
  0
EOF