0
SECTION
  2
HEADER
  9
$ACADVER
  1
AC1027
  9
$ACADMAINTVER
 70
     8
  9
$DWGCODEPAGE
  3
ANSI_1252
  9
$REQUIREDVERSIONS
160
                 0
  9
$COMMENTS
  1
File was created by Cadenas
  9
$CUSTOMPROPERTYTAG
  1
NN
  9
$CUSTOMPROPERTY
  1
TP Take-Up Trident Seal
  9
$CUSTOMPROPERTYTAG
  1
NT
  9
$CUSTOMPROPERTY
  1
S-2000 TPHU Take-Up Bearing -Inch
  9
$CUSTOMPROPERTYTAG
  1
NB
  9
$CUSTOMPROPERTY
  1
070811
  9
$CUSTOMPROPERTYTAG
  1
NBSYN
  9
$CUSTOMPROPERTY
  1
$PN.
  9
$CUSTOMPROPERTYTAG
  1
LINA
  9
$CUSTOMPROPERTY
  1
070811
  9
$CUSTOMPROPERTYTAG
  1
SS
  9
$CUSTOMPROPERTY
  1
1-15/16
  9
$CUSTOMPROPERTYTAG
  1
PN
  9
$CUSTOMPROPERTY
  1
070811
  9
$CUSTOMPROPERTYTAG
  1
DESCRIPTION
  9
$CUSTOMPROPERTY
  1
TPHU-S2-115R
  9
$CUSTOMPROPERTYTAG
  1
EF
  9
$CUSTOMPROPERTY
  1
Non-Expansion Type
  9
$CUSTOMPROPERTYTAG
  1
ST
  9
$CUSTOMPROPERTY
  1
Contact Seal
  9
$CUSTOMPROPERTYTAG
  1
A
  9
$CUSTOMPROPERTY
  1
2-27/32
  9
$CUSTOMPROPERTYTAG
  1
B
  9
$CUSTOMPROPERTY
  1
2-3/8
  9
$CUSTOMPROPERTYTAG
  1
C
  9
$CUSTOMPROPERTY
  1
13/16
  9
$CUSTOMPROPERTYTAG
  1
D
  9
$CUSTOMPROPERTY
  1
5-1/4
  9
$CUSTOMPROPERTYTAG
  1
E
  9
$CUSTOMPROPERTY
  1
2-3/8
  9
$CUSTOMPROPERTYTAG
  1
F
  9
$CUSTOMPROPERTY
  1
1-1/16
  9
$CUSTOMPROPERTYTAG
  1
G
  9
$CUSTOMPROPERTY
  1
7/16
  9
$CUSTOMPROPERTYTAG
  1
H
  9
$CUSTOMPROPERTY
  1
6-1/2
  9
$CUSTOMPROPERTYTAG
  1
J
  9
$CUSTOMPROPERTY
  1
6-7/16
  9
$CUSTOMPROPERTYTAG
  1
K
  9
$CUSTOMPROPERTY
  1
3-1/16
  9
$CUSTOMPROPERTYTAG
  1
L
  9
$CUSTOMPROPERTY
  1
3-7/16
  9
$CUSTOMPROPERTYTAG
  1
M
  9
$CUSTOMPROPERTY
  1
6
  9
$CUSTOMPROPERTYTAG
  1
N
  9
$CUSTOMPROPERTY
  1
1-21/32
  9
$CUSTOMPROPERTYTAG
  1
P
  9
$CUSTOMPROPERTY
  1
1-1/4
  9
$CUSTOMPROPERTYTAG
  1
Q
  9
$CUSTOMPROPERTY
  1
13/16
  9
$CUSTOMPROPERTYTAG
  1
R
  9
$CUSTOMPROPERTY
  1
3-3/16
  9
$CUSTOMPROPERTYTAG
  1
S
  9
$CUSTOMPROPERTY
  1
2
  9
$CUSTOMPROPERTYTAG
  1
T
  9
$CUSTOMPROPERTY
  1
5/16
  9
$CUSTOMPROPERTYTAG
  1
U
  9
$CUSTOMPROPERTY
  1
1-1/16
  9
$CUSTOMPROPERTYTAG
  1
V
  9
$CUSTOMPROPERTY
  1
2
  9
$CUSTOMPROPERTYTAG
  1
W
  9
$CUSTOMPROPERTY
  1
7/8
  9
$CUSTOMPROPERTYTAG
  1
X
  9
$CUSTOMPROPERTY
  1
1/4
  9
$CUSTOMPROPERTYTAG
  1
Y
  9
$CUSTOMPROPERTY
  1
0.020
  9
$CUSTOMPROPERTYTAG
  1
Z
  9
$CUSTOMPROPERTY
  1
2-19/64
  9
$CUSTOMPROPERTYTAG
  1
COMPANY
  9
$CUSTOMPROPERTY
  1
baldor
  9
$INSBASE
 10
0.0
 20
0.0
 30
0.0
  9
$EXTMIN
 10
1.000000000000000E+20
 20
1.000000000000000E+20
 30
1.000000000000000E+20
  9
$EXTMAX
 10
-1.000000000000000E+20
 20
-1.000000000000000E+20
 30
-1.000000000000000E+20
  9
$LIMMIN
 10
0.0
 20
0.0
  9
$LIMMAX
 10
12.0
 20
9.0
  9
$ORTHOMODE
 70
     0
  9
$REGENMODE
 70
     1
  9
$FILLMODE
 70
     1
  9
$QTEXTMODE
 70
     0
  9
$MIRRTEXT
 70
     1
  9
$LTSCALE
 40
1.0
  9
$ATTMODE
 70
     1
  9
$TEXTSIZE
 40
0.2
  9
$TRACEWID
 40
0.05
  9
$TEXTSTYLE
  7
Standard
  9
$CLAYER
  8
0
  9
$CELTYPE
  6
ByLayer
  9
$CECOLOR
 62
   256
  9
$CELTSCALE
 40
1.0
  9
$DISPSILH
 70
     0
  9
$DIMSCALE
 40
1.0
  9
$DIMASZ
 40
0.18
  9
$DIMEXO
 40
0.0625
  9
$DIMDLI
 40
0.38
  9
$DIMRND
 40
0.0
  9
$DIMDLE
 40
0.0
  9
$DIMEXE
 40
0.18
  9
$DIMTP
 40
0.0
  9
$DIMTM
 40
0.0
  9
$DIMTXT
 40
0.18
  9
$DIMCEN
 40
0.09
  9
$DIMTSZ
 40
0.0
  9
$DIMTOL
 70
     0
  9
$DIMLIM
 70
     0
  9
$DIMTIH
 70
     1
  9
$DIMTOH
 70
     1
  9
$DIMSE1
 70
     0
  9
$DIMSE2
 70
     0
  9
$DIMTAD
 70
     0
  9
$DIMZIN
 70
     0
  9
$DIMBLK
  1

  9
$DIMASO
 70
     1
  9
$DIMSHO
 70
     1
  9
$DIMPOST
  1

  9
$DIMAPOST
  1

  9
$DIMALT
 70
     0
  9
$DIMALTD
 70
     2
  9
$DIMALTF
 40
25.4
  9
$DIMLFAC
 40
1.0
  9
$DIMTOFL
 70
     0
  9
$DIMTVP
 40
0.0
  9
$DIMTIX
 70
     0
  9
$DIMSOXD
 70
     0
  9
$DIMSAH
 70
     0
  9
$DIMBLK1
  1

  9
$DIMBLK2
  1

  9
$DIMSTYLE
  2
Standard
  9
$DIMCLRD
 70
     0
  9
$DIMCLRE
 70
     0
  9
$DIMCLRT
 70
     0
  9
$DIMTFAC
 40
1.0
  9
$DIMGAP
 40
0.09
  9
$DIMJUST
 70
     0
  9
$DIMSD1
 70
     0
  9
$DIMSD2
 70
     0
  9
$DIMTOLJ
 70
     1
  9
$DIMTZIN
 70
     0
  9
$DIMALTZ
 70
     0
  9
$DIMALTTZ
 70
     0
  9
$DIMUPT
 70
     0
  9
$DIMDEC
 70
     4
  9
$DIMTDEC
 70
     4
  9
$DIMALTU
 70
     2
  9
$DIMALTTD
 70
     2
  9
$DIMTXSTY
  7
Standard
  9
$DIMAUNIT
 70
     0
  9
$DIMADEC
 70
     0
  9
$DIMALTRND
 40
0.0
  9
$DIMAZIN
 70
     0
  9
$DIMDSEP
 70
    46
  9
$DIMATFIT
 70
     3
  9
$DIMFRAC
 70
     0
  9
$DIMLDRBLK
  1

  9
$DIMLUNIT
 70
     2
  9
$DIMLWD
 70
    -2
  9
$DIMLWE
 70
    -2
  9
$DIMTMOVE
 70
     0
  9
$DIMFXL
 40
1.0
  9
$DIMFXLON
 70
     0
  9
$DIMJOGANG
 40
0.7853981633974483
  9
$DIMTFILL
 70
     0
  9
$DIMTFILLCLR
 70
     0
  9
$DIMARCSYM
 70
     0
  9
$DIMLTYPE
  6

  9
$DIMLTEX1
  6

  9
$DIMLTEX2
  6

  9
$DIMTXTDIRECTION
 70
     0
  9
$LUNITS
 70
     2
  9
$LUPREC
 70
     4
  9
$SKETCHINC
 40
0.1
  9
$FILLETRAD
 40
0.5
  9
$AUNITS
 70
     0
  9
$AUPREC
 70
     0
  9
$MENU
  1
.
  9
$ELEVATION
 40
0.0
  9
$PELEVATION
 40
0.0
  9
$THICKNESS
 40
0.0
  9
$LIMCHECK
 70
     0
  9
$CHAMFERA
 40
0.0
  9
$CHAMFERB
 40
0.0
  9
$CHAMFERC
 40
0.0
  9
$CHAMFERD
 40
0.0
  9
$SKPOLY
 70
     0
  9
$TDCREATE
 40
2458168.983845254
  9
$TDUCREATE
 40
2458168.942178588
  9
$TDUPDATE
 40
2458168.98384544
  9
$TDUUPDATE
 40
2458168.942178773
  9
$TDINDWG
 40
0.0000000116
  9
$TDUSRTIMER
 40
0.0000000116
  9
$USRTIMER
 70
     1
  9
$ANGBASE
 50
0.0
  9
$ANGDIR
 70
     0
  9
$PDMODE
 70
     0
  9
$PDSIZE
 40
0.0
  9
$PLINEWID
 40
0.0
  9
$SPLFRAME
 70
     0
  9
$SPLINETYPE
 70
     6
  9
$SPLINESEGS
 70
     8
  9
$HANDSEED
  5
20E
  9
$SURFTAB1
 70
     6
  9
$SURFTAB2
 70
     6
  9
$SURFTYPE
 70
     6
  9
$SURFU
 70
     6
  9
$SURFV
 70
     6
  9
$UCSBASE
  2

  9
$UCSNAME
  2

  9
$UCSORG
 10
0.0
 20
0.0
 30
0.0
  9
$UCSXDIR
 10
1.0
 20
0.0
 30
0.0
  9
$UCSYDIR
 10
0.0
 20
1.0
 30
0.0
  9
$UCSORTHOREF
  2

  9
$UCSORTHOVIEW
 70
     0
  9
$UCSORGTOP
 10
0.0
 20
0.0
 30
0.0
  9
$UCSORGBOTTOM
 10
0.0
 20
0.0
 30
0.0
  9
$UCSORGLEFT
 10
0.0
 20
0.0
 30
0.0
  9
$UCSORGRIGHT
 10
0.0
 20
0.0
 30
0.0
  9
$UCSORGFRONT
 10
0.0
 20
0.0
 30
0.0
  9
$UCSORGBACK
 10
0.0
 20
0.0
 30
0.0
  9
$PUCSBASE
  2

  9
$PUCSNAME
  2

  9
$PUCSORG
 10
0.0
 20
0.0
 30
0.0
  9
$PUCSXDIR
 10
1.0
 20
0.0
 30
0.0
  9
$PUCSYDIR
 10
0.0
 20
1.0
 30
0.0
  9
$PUCSORTHOREF
  2

  9
$PUCSORTHOVIEW
 70
     0
  9
$PUCSORGTOP
 10
0.0
 20
0.0
 30
0.0
  9
$PUCSORGBOTTOM
 10
0.0
 20
0.0
 30
0.0
  9
$PUCSORGLEFT
 10
0.0
 20
0.0
 30
0.0
  9
$PUCSORGRIGHT
 10
0.0
 20
0.0
 30
0.0
  9
$PUCSORGFRONT
 10
0.0
 20
0.0
 30
0.0
  9
$PUCSORGBACK
 10
0.0
 20
0.0
 30
0.0
  9
$USERI1
 70
     0
  9
$USERI2
 70
     0
  9
$USERI3
 70
     0
  9
$USERI4
 70
     0
  9
$USERI5
 70
     0
  9
$USERR1
 40
0.0
  9
$USERR2
 40
0.0
  9
$USERR3
 40
0.0
  9
$USERR4
 40
0.0
  9
$USERR5
 40
0.0
  9
$WORLDVIEW
 70
     1
  9
$SHADEDGE
 70
     3
  9
$SHADEDIF
 70
    70
  9
$TILEMODE
 70
     1
  9
$MAXACTVP
 70
    64
  9
$PINSBASE
 10
0.0
 20
0.0
 30
0.0
  9
$PLIMCHECK
 70
     0
  9
$PEXTMIN
 10
1.000000000000000E+20
 20
1.000000000000000E+20
 30
1.000000000000000E+20
  9
$PEXTMAX
 10
-1.000000000000000E+20
 20
-1.000000000000000E+20
 30
-1.000000000000000E+20
  9
$PLIMMIN
 10
0.0
 20
0.0
  9
$PLIMMAX
 10
12.0
 20
9.0
  9
$UNITMODE
 70
     0
  9
$VISRETAIN
 70
     1
  9
$PLINEGEN
 70
     0
  9
$PSLTSCALE
 70
     1
  9
$TREEDEPTH
 70
  3020
  9
$CMLSTYLE
  2
Standard
  9
$CMLJUST
 70
     0
  9
$CMLSCALE
 40
1.0
  9
$PROXYGRAPHICS
 70
     1
  9
$MEASUREMENT
 70
     0
  9
$CELWEIGHT
370
    -1
  9
$ENDCAPS
280
     0
  9
$JOINSTYLE
280
     0
  9
$LWDISPLAY
290
     0
  9
$INSUNITS
 70
     1
  9
$HYPERLINKBASE
  1

  9
$STYLESHEET
  1

  9
$XEDIT
290
     1
  9
$CEPSNTYPE
380
     0
  9
$PSTYLEMODE
290
     1
  9
$FINGERPRINTGUID
  2
{3FF35AD9-E1AA-40D4-A099-CF1093A3465A}
  9
$VERSIONGUID
  2
{FAEB1C32-E019-11D5-929B-00C0DF256EC4}
  9
$EXTNAMES
290
     1
  9
$PSVPSCALE
 40
0.0
  9
$OLESTARTUP
290
     0
  9
$SORTENTS
280
   127
  9
$INDEXCTL
280
     0
  9
$HIDETEXT
280
     1
  9
$XCLIPFRAME
280
     2
  9
$HALOGAP
280
     0
  9
$OBSCOLOR
 70
   257
  9
$OBSLTYPE
280
     0
  9
$INTERSECTIONDISPLAY
280
     0
  9
$INTERSECTIONCOLOR
 70
   257
  9
$DIMASSOC
280
     2
  9
$PROJECTNAME
  1

  9
$CAMERADISPLAY
290
     0
  9
$LENSLENGTH
 40
50.0
  9
$CAMERAHEIGHT
 40
0.0
  9
$STEPSPERSEC
 40
2.0
  9
$STEPSIZE
 40
6.0
  9
$3DDWFPREC
 40
2.0
  9
$PSOLWIDTH
 40
0.25
  9
$PSOLHEIGHT
 40
4.0
  9
$LOFTANG1
 40
1.570796326794897
  9
$LOFTANG2
 40
1.570796326794897
  9
$LOFTMAG1
 40
0.0
  9
$LOFTMAG2
 40
0.0
  9
$LOFTPARAM
 70
     7
  9
$LOFTNORMALS
280
     1
  9
$LATITUDE
 40
37.795
  9
$LONGITUDE
 40
-122.394
  9
$NORTHDIRECTION
 40
0.0
  9
$TIMEZONE
 70
 -8000
  9
$LIGHTGLYPHDISPLAY
280
     1
  9
$TILEMODELIGHTSYNCH
280
     1
  9
$CMATERIAL
347
44
  9
$SOLIDHIST
280
     0
  9
$SHOWHIST
280
     1
  9
$DWFFRAME
280
     2
  9
$DGNFRAME
280
     2
  9
$REALWORLDSCALE
290
     1
  9
$INTERFERECOLOR
 62
   256
  9
$CSHADOW
280
     0
  9
$SHADOWPLANELOCATION
 40
0.0
  0
ENDSEC
  0
SECTION
  2
CLASSES
  0
CLASS
  1
ACDBDICTIONARYWDFLT
  2
AcDbDictionaryWithDefault
  3
ObjectDBX Classes
 90
        0
 91
        4
280
     0
281
     0
  0
CLASS
  1
VISUALSTYLE
  2
AcDbVisualStyle
  3
ObjectDBX Classes
 90
     4095
 91
        4
280
     0
281
     0
  0
CLASS
  1
MATERIAL
  2
AcDbMaterial
  3
ObjectDBX Classes
 90
     1153
 91
        4
280
     0
281
     0
  0
CLASS
  1
SCALE
  2
AcDbScale
  3
ObjectDBX Classes
 90
     1153
 91
        4
280
     0
281
     0
  0
CLASS
  1
TABLESTYLE
  2
AcDbTableStyle
  3
ObjectDBX Classes
 90
     4095
 91
        4
280
     0
281
     0
  0
CLASS
  1
MLEADERSTYLE
  2
AcDbMLeaderStyle
  3
ACDB_MLEADERSTYLE_CLASS
 90
     4095
 91
        4
280
     0
281
     0
  0
CLASS
  1
SUN
  2
AcDbSun
  3
SCENEOE
 90
     1153
 91
        4
280
     0
281
     0
  0
CLASS
  1
DICTIONARYVAR
  2
AcDbDictionaryVar
  3
ObjectDBX Classes
 90
        0
 91
        4
280
     0
281
     0
  0
CLASS
  1
CELLSTYLEMAP
  2
AcDbCellStyleMap
  3
ObjectDBX Classes
 90
     1152
 91
        4
280
     0
281
     0
  0
ENDSEC
  0
SECTION
  2
TABLES
  0
TABLE
  2
VPORT
  5
8
330
0
100
AcDbSymbolTable
 70
     1
  0
VPORT
  5
29
330
8
100
AcDbSymbolTableRecord
100
AcDbViewportTableRecord
  2
*Active
 70
     0
 10
0.0
 20
0.0
 11
1.0
 21
1.0
 12
0.0
 22
0.15625
 13
0.0
 23
0.0
 14
0.5
 24
0.5
 15
0.5
 25
0.5
 16
0.0
 26
0.0
 36
1.0
 17
0.0
 27
0.0
 37
0.0
 40
6.56625
 41
1.009708737864078
 42
50.0
 43
0.0
 44
0.0
 50
0.0
 51
0.0
 71
     0
 72
   100
 73
     1
 74
     3
 75
     0
 76
     0
 77
     0
 78
     0
281
     0
 65
     1
110
0.0
120
0.0
130
0.0
111
1.0
121
0.0
131
0.0
112
0.0
122
1.0
132
0.0
 79
     0
146
0.0
348
2F
 60
     3
 61
     5
292
     1
282
     1
141
0.0
142
0.0
 63
   250
361
6D
  0
ENDTAB
  0
TABLE
  2
LTYPE
  5
5
330
0
100
AcDbSymbolTable
 70
     3
  0
LTYPE
  5
14
330
5
100
AcDbSymbolTableRecord
100
AcDbLinetypeTableRecord
  2
ByBlock
 70
     0
  3

 72
    65
 73
     0
 40
0.0
  0
LTYPE
  5
15
330
5
100
AcDbSymbolTableRecord
100
AcDbLinetypeTableRecord
  2
ByLayer
 70
     0
  3

 72
    65
 73
     0
 40
0.0
  0
LTYPE
  5
16
330
5
100
AcDbSymbolTableRecord
100
AcDbLinetypeTableRecord
  2
Continuous
 70
     0
  3
Solid line
 72
    65
 73
     0
 40
0.0
  0
LTYPE
  5
A7
330
5
100
AcDbSymbolTableRecord
100
AcDbLinetypeTableRecord
  2
Dashed
 70
     0
  3

 72
    65
 73
     2
 40
2.0
 49
1.0
 74
     0
 49
-1.0
 74
     0
  0
LTYPE
  5
CD
330
5
100
AcDbSymbolTableRecord
100
AcDbLinetypeTableRecord
  2
Center
 70
     0
  3

 72
    65
 73
     4
 40
1.5
 49
0.45
 74
     0
 49
-0.5
 74
     0
 49
0.05
 74
     0
 49
-0.5
 74
     0
  0
ENDTAB
  0
TABLE
  2
LAYER
  5
2
330
0
100
AcDbSymbolTable
 70
     7
  0
LAYER
  5
10
330
2
100
AcDbSymbolTableRecord
100
AcDbLayerTableRecord
  2
0
 70
     0
 62
     7
  6
Continuous
370
    -3
390
F
347
46
348
0
  0
LAYER
  5
72
330
2
100
AcDbSymbolTableRecord
100
AcDbLayerTableRecord
  2
AM_6
 70
     0
 62
    -2
  6
Continuous
370
    35
390
F
347
46
348
0
  0
LAYER
  5
A8
330
2
100
AcDbSymbolTableRecord
100
AcDbLayerTableRecord
  2
AM_9
 70
     0
 62
     6
  6
Dashed
370
    25
390
F
347
46
348
0
  0
LAYER
  5
C6
330
2
100
AcDbSymbolTableRecord
100
AcDbLayerTableRecord
  2
AM_5
 70
     0
 62
     3
  6
Continuous
370
    25
390
F
347
46
348
0
  0
LAYER
  5
CE
330
2
100
AcDbSymbolTableRecord
100
AcDbLayerTableRecord
  2
AM_7
 70
     0
 62
     7
  6
Center
370
    25
390
F
347
46
348
0
  0
LAYER
  5
D0
330
2
100
AcDbSymbolTableRecord
100
AcDbLayerTableRecord
  2
AM_4
 70
     0
 62
     7
  6
Continuous
370
    50
390
F
347
46
348
0
  0
LAYER
  5
1FD
330
2
100
AcDbSymbolTableRecord
100
AcDbLayerTableRecord
  2
ConnectionPoints
 70
     0
 62
     7
  6
Continuous
370
    50
390
F
347
46
348
0
  0
ENDTAB
  0
TABLE
  2
STYLE
  5
3
330
0
100
AcDbSymbolTable
 70
     1
  0
STYLE
  5
11
330
3
100
AcDbSymbolTableRecord
100
AcDbTextStyleTableRecord
  2
Standard
 70
     0
 40
0.0
 41
1.0
 50
0.0
 71
     0
 42
0.2
  3
txt
  4

  0
ENDTAB
  0
TABLE
  2
VIEW
  5
6
330
0
100
AcDbSymbolTable
 70
     0
  0
ENDTAB
  0
TABLE
  2
UCS
  5
7
330
0
100
AcDbSymbolTable
 70
     0
  0
ENDTAB
  0
TABLE
  2
APPID
  5
9
330
0
100
AcDbSymbolTable
 70
     1
  0
APPID
  5
12
330
9
100
AcDbSymbolTableRecord
100
AcDbRegAppTableRecord
  2
ACAD
 70
     0
  0
ENDTAB
  0
TABLE
  2
DIMSTYLE
  5
A
330
0
100
AcDbSymbolTable
 70
     1
100
AcDbDimStyleTable
  0
DIMSTYLE
105
27
330
A
100
AcDbSymbolTableRecord
100
AcDbDimStyleTableRecord
  2
Standard
 70
     0
178
     0
340
11
  0
ENDTAB
  0
TABLE
  2
BLOCK_RECORD
  5
1
330
0
100
AcDbSymbolTable
 70
     6
  0
BLOCK_RECORD
  5
1F
330
1
100
AcDbSymbolTableRecord
100
AcDbBlockTableRecord
  2
*Model_Space
340
22
 70
     0
280
     1
281
     0
  0
BLOCK_RECORD
  5
1B
330
1
100
AcDbSymbolTableRecord
100
AcDbBlockTableRecord
  2
*Paper_Space
340
1E
 70
     0
280
     1
281
     0
  0
BLOCK_RECORD
  5
23
330
1
100
AcDbSymbolTableRecord
100
AcDbBlockTableRecord
  2
*Paper_Space0
340
26
 70
     0
280
     1
281
     0
  0
BLOCK_RECORD
  5
6E
330
1
100
AcDbSymbolTableRecord
100
AcDbBlockTableRecord
  2
1_070811_0
340
0
102
{BLKREFS
331
6F
102
}
 70
     0
280
     1
281
     0
  0
BLOCK_RECORD
  5
96
330
1
100
AcDbSymbolTableRecord
100
AcDbBlockTableRecord
  2
2_405016_Inch_0_in_070811_0
340
0
102
{BLKREFS
331
97
102
}
 70
     0
280
     1
281
     0
  0
BLOCK_RECORD
  5
111
330
1
100
AcDbSymbolTableRecord
100
AcDbBlockTableRecord
  2
3_1_15_16CS2i_0_in_070811_0
340
0
102
{BLKREFS
331
112
102
}
 70
     0
280
     1
281
     0
  0
BLOCK_RECORD
  5
14D
330
1
100
AcDbSymbolTableRecord
100
AcDbBlockTableRecord
  2
4_070005i_0_in_070811_0
340
0
102
{BLKREFS
331
14E
102
}
 70
     0
280
     1
281
     0
  0
BLOCK_RECORD
  5
171
330
1
100
AcDbSymbolTableRecord
100
AcDbBlockTableRecord
  2
5_070811H_0_in_070811_0
340
0
102
{BLKREFS
331
172
102
}
 70
     0
280
     1
281
     0
  0
ENDTAB
  0
ENDSEC
  0
SECTION
  2
BLOCKS
  0
BLOCK
  5
20
330
1F
100
AcDbEntity
  8
0
100
AcDbBlockBegin
  2
*Model_Space
 70
     0
 10
0.0
 20
0.0
 30
0.0
  3
*Model_Space
  1

  0
ENDBLK
  5
21
330
1F
100
AcDbEntity
  8
0
100
AcDbBlockEnd
  0
BLOCK
  5
1C
330
1B
100
AcDbEntity
 67
     1
  8
0
100
AcDbBlockBegin
  2
*Paper_Space
 70
     0
 10
0.0
 20
0.0
 30
0.0
  3
*Paper_Space
  1

  0
ENDBLK
  5
1D
330
1B
100
AcDbEntity
 67
     1
  8
0
100
AcDbBlockEnd
  0
BLOCK
  5
24
330
23
100
AcDbEntity
  8
0
100
AcDbBlockBegin
  2
*Paper_Space0
 70
     0
 10
0.0
 20
0.0
 30
0.0
  3
*Paper_Space0
  1

  0
ENDBLK
  5
25
330
23
100
AcDbEntity
  8
0
100
AcDbBlockEnd
  0
BLOCK
  5
70
330
6E
100
AcDbEntity
  8
0
100
AcDbBlockBegin
  2
1_070811_0
 70
     2
 10
0.0
 20
0.0
 30
0.0
  3
1_070811_0
  1

  0
ATTDEF
  5
73
330
6E
100
AcDbEntity
  8
AM_6
100
AcDbText
 10
8.25
 20
3.375
 30
0.0
 40
0.5
  1
TP Take-Up Trident Seal
100
AcDbAttributeDefinition
  3

  2
NN
 70
     8
280
     0
  0
ATTDEF
  5
74
330
6E
100
AcDbEntity
  8
AM_6
100
AcDbText
 10
8.25
 20
2.875
 30
0.0
 40
0.5
  1
S-2000 TPHU Take-Up Bearing -Inch
100
AcDbAttributeDefinition
  3

  2
NT
 70
     8
280
     0
  0
ATTDEF
  5
75
330
6E
100
AcDbEntity
  8
AM_6
100
AcDbText
 10
8.25
 20
2.375
 30
0.0
 40
0.5
  1
070811
100
AcDbAttributeDefinition
  3

  2
NB
 70
     8
280
     0
  0
ATTDEF
  5
76
330
6E
100
AcDbEntity
  8
AM_6
100
AcDbText
 10
8.25
 20
1.875
 30
0.0
 40
0.5
  1
$PN.
100
AcDbAttributeDefinition
  3

  2
NBSYN
 70
     8
280
     0
  0
ATTDEF
  5
77
330
6E
100
AcDbEntity
  8
AM_6
100
AcDbText
 10
8.25
 20
1.375
 30
0.0
 40
0.5
  1
070811
100
AcDbAttributeDefinition
  3

  2
LINA
 70
     8
280
     0
  0
ATTDEF
  5
78
330
6E
100
AcDbEntity
  8
AM_6
100
AcDbText
 10
8.25
 20
0.8750000000000004
 30
0.0
 40
0.5
  1
1-15/16
100
AcDbAttributeDefinition
  3

  2
SS
 70
     8
280
     0
  0
ATTDEF
  5
79
330
6E
100
AcDbEntity
  8
AM_6
100
AcDbText
 10
8.25
 20
0.3750000000000004
 30
0.0
 40
0.5
  1
070811
100
AcDbAttributeDefinition
  3

  2
PN
 70
     8
280
     0
  0
ATTDEF
  5
7A
330
6E
100
AcDbEntity
  8
AM_6
100
AcDbText
 10
8.25
 20
-0.1249999999999996
 30
0.0
 40
0.5
  1
TPHU-S2-115R
100
AcDbAttributeDefinition
  3

  2
DESCRIPTION
 70
     8
280
     0
  0
ATTDEF
  5
7B
330
6E
100
AcDbEntity
  8
AM_6
100
AcDbText
 10
8.25
 20
-0.6249999999999996
 30
0.0
 40
0.5
  1
Non-Expansion Type
100
AcDbAttributeDefinition
  3

  2
EF
 70
     8
280
     0
  0
ATTDEF
  5
7C
330
6E
100
AcDbEntity
  8
AM_6
100
AcDbText
 10
8.25
 20
-1.125
 30
0.0
 40
0.5
  1
Contact Seal
100
AcDbAttributeDefinition
  3

  2
ST
 70
     8
280
     0
  0
ATTDEF
  5
7D
330
6E
100
AcDbEntity
  8
AM_6
100
AcDbText
 10
8.25
 20
-1.625
 30
0.0
 40
0.5
  1
2-27/32
100
AcDbAttributeDefinition
  3

  2
A
 70
     8
280
     0
  0
ATTDEF
  5
7E
330
6E
100
AcDbEntity
  8
AM_6
100
AcDbText
 10
8.25
 20
-2.125
 30
0.0
 40
0.5
  1
2-3/8
100
AcDbAttributeDefinition
  3

  2
B
 70
     8
280
     0
  0
ATTDEF
  5
7F
330
6E
100
AcDbEntity
  8
AM_6
100
AcDbText
 10
8.25
 20
-2.625
 30
0.0
 40
0.5
  1
13/16
100
AcDbAttributeDefinition
  3

  2
C
 70
     8
280
     0
  0
ATTDEF
  5
80
330
6E
100
AcDbEntity
  8
AM_6
100
AcDbText
 10
8.25
 20
-3.125
 30
0.0
 40
0.5
  1
5-1/4
100
AcDbAttributeDefinition
  3

  2
D
 70
     8
280
     0
  0
ATTDEF
  5
81
330
6E
100
AcDbEntity
  8
AM_6
100
AcDbText
 10
8.25
 20
-3.625
 30
0.0
 40
0.5
  1
2-3/8
100
AcDbAttributeDefinition
  3

  2
E
 70
     8
280
     0
  0
ATTDEF
  5
82
330
6E
100
AcDbEntity
  8
AM_6
100
AcDbText
 10
8.25
 20
-4.125
 30
0.0
 40
0.5
  1
1-1/16
100
AcDbAttributeDefinition
  3

  2
F
 70
     8
280
     0
  0
ATTDEF
  5
83
330
6E
100
AcDbEntity
  8
AM_6
100
AcDbText
 10
8.25
 20
-4.625
 30
0.0
 40
0.5
  1
7/16
100
AcDbAttributeDefinition
  3

  2
G
 70
     8
280
     0
  0
ATTDEF
  5
84
330
6E
100
AcDbEntity
  8
AM_6
100
AcDbText
 10
8.25
 20
-5.125
 30
0.0
 40
0.5
  1
6-1/2
100
AcDbAttributeDefinition
  3

  2
H
 70
     8
280
     0
  0
ATTDEF
  5
85
330
6E
100
AcDbEntity
  8
AM_6
100
AcDbText
 10
8.25
 20
-5.625
 30
0.0
 40
0.5
  1
6-7/16
100
AcDbAttributeDefinition
  3

  2
J
 70
     8
280
     0
  0
ATTDEF
  5
86
330
6E
100
AcDbEntity
  8
AM_6
100
AcDbText
 10
8.25
 20
-6.125
 30
0.0
 40
0.5
  1
3-1/16
100
AcDbAttributeDefinition
  3

  2
K
 70
     8
280
     0
  0
ATTDEF
  5
87
330
6E
100
AcDbEntity
  8
AM_6
100
AcDbText
 10
8.25
 20
-6.625
 30
0.0
 40
0.5
  1
3-7/16
100
AcDbAttributeDefinition
  3

  2
L
 70
     8
280
     0
  0
ATTDEF
  5
88
330
6E
100
AcDbEntity
  8
AM_6
100
AcDbText
 10
8.25
 20
-7.125
 30
0.0
 40
0.5
  1
6
100
AcDbAttributeDefinition
  3

  2
M
 70
     8
280
     0
  0
ATTDEF
  5
89
330
6E
100
AcDbEntity
  8
AM_6
100
AcDbText
 10
8.25
 20
-7.625
 30
0.0
 40
0.5
  1
1-21/32
100
AcDbAttributeDefinition
  3

  2
N
 70
     8
280
     0
  0
ATTDEF
  5
8A
330
6E
100
AcDbEntity
  8
AM_6
100
AcDbText
 10
8.25
 20
-8.125
 30
0.0
 40
0.5
  1
1-1/4
100
AcDbAttributeDefinition
  3

  2
P
 70
     8
280
     0
  0
ATTDEF
  5
8B
330
6E
100
AcDbEntity
  8
AM_6
100
AcDbText
 10
8.25
 20
-8.625
 30
0.0
 40
0.5
  1
13/16
100
AcDbAttributeDefinition
  3

  2
Q
 70
     8
280
     0
  0
ATTDEF
  5
8C
330
6E
100
AcDbEntity
  8
AM_6
100
AcDbText
 10
8.25
 20
-9.125
 30
0.0
 40
0.5
  1
3-3/16
100
AcDbAttributeDefinition
  3

  2
R
 70
     8
280
     0
  0
ATTDEF
  5
8D
330
6E
100
AcDbEntity
  8
AM_6
100
AcDbText
 10
8.25
 20
-9.625
 30
0.0
 40
0.5
  1
2
100
AcDbAttributeDefinition
  3

  2
S
 70
     8
280
     0
  0
ATTDEF
  5
8E
330
6E
100
AcDbEntity
  8
AM_6
100
AcDbText
 10
8.25
 20
-10.125
 30
0.0
 40
0.5
  1
5/16
100
AcDbAttributeDefinition
  3

  2
T
 70
     8
280
     0
  0
ATTDEF
  5
8F
330
6E
100
AcDbEntity
  8
AM_6
100
AcDbText
 10
8.25
 20
-10.625
 30
0.0
 40
0.5
  1
1-1/16
100
AcDbAttributeDefinition
  3

  2
U
 70
     8
280
     0
  0
ATTDEF
  5
90
330
6E
100
AcDbEntity
  8
AM_6
100
AcDbText
 10
8.25
 20
-11.125
 30
0.0
 40
0.5
  1
2
100
AcDbAttributeDefinition
  3

  2
V
 70
     8
280
     0
  0
ATTDEF
  5
91
330
6E
100
AcDbEntity
  8
AM_6
100
AcDbText
 10
8.25
 20
-11.625
 30
0.0
 40
0.5
  1
7/8
100
AcDbAttributeDefinition
  3

  2
W
 70
     8
280
     0
  0
ATTDEF
  5
92
330
6E
100
AcDbEntity
  8
AM_6
100
AcDbText
 10
8.25
 20
-12.125
 30
0.0
 40
0.5
  1
1/4
100
AcDbAttributeDefinition
  3

  2
X
 70
     8
280
     0
  0
ATTDEF
  5
93
330
6E
100
AcDbEntity
  8
AM_6
100
AcDbText
 10
8.25
 20
-12.625
 30
0.0
 40
0.5
  1
0.020
100
AcDbAttributeDefinition
  3

  2
Y
 70
     8
280
     0
  0
ATTDEF
  5
94
330
6E
100
AcDbEntity
  8
AM_6
100
AcDbText
 10
8.25
 20
-13.125
 30
0.0
 40
0.5
  1
2-19/64
100
AcDbAttributeDefinition
  3

  2
Z
 70
     8
280
     0
  0
ATTDEF
  5
95
330
6E
100
AcDbEntity
  8
AM_6
100
AcDbText
 10
8.25
 20
-13.625
 30
0.0
 40
0.5
  1
baldor
100
AcDbAttributeDefinition
  3

  2
COMPANY
 70
     8
280
     0
  0
INSERT
  5
97
330
6E
100
AcDbEntity
  8
0
100
AcDbBlockReference
  2
2_405016_Inch_0_in_070811_0
 10
0.0
 20
0.0
 30
0.0
  0
INSERT
  5
112
330
6E
100
AcDbEntity
  8
0
100
AcDbBlockReference
  2
3_1_15_16CS2i_0_in_070811_0
 10
0.0
 20
0.0
 30
0.0
  0
INSERT
  5
14E
330
6E
100
AcDbEntity
  8
0
100
AcDbBlockReference
  2
4_070005i_0_in_070811_0
 10
0.0
 20
0.0
 30
0.0
  0
INSERT
  5
172
330
6E
100
AcDbEntity
  8
0
100
AcDbBlockReference
  2
5_070811H_0_in_070811_0
 10
0.0
 20
0.0
 30
0.0
  0
ENDBLK
  5
71
330
6E
100
AcDbEntity
  8
0
100
AcDbBlockEnd
  0
BLOCK
  5
98
330
96
100
AcDbEntity
  8
0
100
AcDbBlockBegin
  2
2_405016_Inch_0_in_070811_0
 70
     2
 10
0.0
 20
0.0
 30
0.0
  3
2_405016_Inch_0_in_070811_0
  1

  0
ATTDEF
  5
9A
330
96
100
AcDbEntity
  8
AM_6
100
AcDbText
 10
8.2
 20
0.2525907427704612
 30
0.0
 40
0.5
  1
405016 -Inch
100
AcDbAttributeDefinition
  3

  2
NN
 70
     8
280
     0
  0
ATTDEF
  5
9B
330
96
100
AcDbEntity
  8
AM_6
100
AcDbText
 10
8.2
 20
-0.2474092572295388
 30
0.0
 40
0.5
  1
Grease Fitting
100
AcDbAttributeDefinition
  3

  2
NT
 70
     8
280
     0
  0
ATTDEF
  5
9C
330
96
100
AcDbEntity
  8
AM_6
100
AcDbText
 10
8.2
 20
-0.7474092572295388
 30
0.0
 40
0.5
  1
405016-Inch
100
AcDbAttributeDefinition
  3

  2
NB
 70
     8
280
     0
  0
ATTDEF
  5
9D
330
96
100
AcDbEntity
  8
AM_6
100
AcDbText
 10
8.2
 20
-1.247409257229539
 30
0.0
 40
0.5
  1
$MN.-Inch
100
AcDbAttributeDefinition
  3

  2
NBSYN
 70
     8
280
     0
  0
ATTDEF
  5
9E
330
96
100
AcDbEntity
  8
AM_6
100
AcDbText
 10
8.2
 20
-1.747409257229539
 30
0.0
 40
0.5
  1
405016
100
AcDbAttributeDefinition
  3

  2
LINA
 70
     8
280
     0
  0
ATTDEF
  5
9F
330
96
100
AcDbEntity
  8
AM_6
100
AcDbText
 10
8.2
 20
-2.247409257229539
 30
0.0
 40
0.5
  1
405016
100
AcDbAttributeDefinition
  3

  2
MN
 70
     8
280
     0
  0
ATTDEF
  5
A0
330
96
100
AcDbEntity
  8
AM_6
100
AcDbText
 10
8.2
 20
-2.747409257229539
 30
0.0
 40
0.5
  1
7/16 HEX
100
AcDbAttributeDefinition
  3

  2
H
 70
     8
280
     0
  0
ATTDEF
  5
A1
330
96
100
AcDbEntity
  8
AM_6
100
AcDbText
 10
8.2
 20
-3.247409257229539
 30
0.0
 40
0.5
  1
0.383
100
AcDbAttributeDefinition
  3

  2
NDR
 70
     8
280
     0
  0
ATTDEF
  5
A2
330
96
100
AcDbEntity
  8
AM_6
100
AcDbText
 10
8.2
 20
-3.747409257229539
 30
0.0
 40
0.5
  1
0.337
100
AcDbAttributeDefinition
  3

  2
KDR
 70
     8
280
     0
  0
ATTDEF
  5
A3
330
96
100
AcDbEntity
  8
AM_6
100
AcDbText
 10
8.2
 20
-4.247409257229538
 30
0.0
 40
0.5
  1
0.1575
100
AcDbAttributeDefinition
  3

  2
BZE
 70
     8
280
     0
  0
ATTDEF
  5
A4
330
96
100
AcDbEntity
  8
AM_6
100
AcDbText
 10
8.2
 20
-4.747409257229538
 30
0.0
 40
0.5
  1
0.4375
100
AcDbAttributeDefinition
  3

  2
HEX
 70
     8
280
     0
  0
ATTDEF
  5
A5
330
96
100
AcDbEntity
  8
AM_6
100
AcDbText
 10
8.2
 20
-5.247409257229538
 30
0.0
 40
0.5
  1
0.281250
100
AcDbAttributeDefinition
  3

  2
HEX2
 70
     8
280
     0
  0
ATTDEF
  5
A6
330
96
100
AcDbEntity
  8
AM_6
100
AcDbText
 10
8.2
 20
-5.747409257229538
 30
0.0
 40
0.5
  1
baldor
100
AcDbAttributeDefinition
  3

  2
COMPANY
 70
     8
280
     0
  0
LINE
  5
A9
330
96
100
AcDbEntity
  8
AM_9
100
AcDbLine
 10
2.35625
 20
0.1616637258772237
 30
0.0
 11
2.35625
 21
-0.1616637258772237
 31
0.0
  0
LINE
  5
AA
330
96
100
AcDbEntity
  8
AM_9
100
AcDbLine
 10
2.35625
 20
-0.1616637258772237
 30
0.0
 11
2.380003564847762
 21
-0.1854172907249859
 31
0.0
  0
LINE
  5
AB
330
96
100
AcDbEntity
  8
AM_9
100
AcDbLine
 10
2.380003564847762
 20
0.1854172907249859
 30
0.0
 11
2.35625
 21
0.1616637258772237
 31
0.0
  0
ARC
  5
AC
330
96
100
AcDbEntity
  8
AM_9
100
AcDbCircle
 10
2.899999999997287
 20
-0.000000000000003
 30
0.0
 40
0.2000000000019473
100
AcDbArc
 50
315.903455380722
 51
44.22006096092171
  0
LINE
  5
AD
330
96
100
AcDbEntity
  8
AM_9
100
AcDbLine
 10
2.380003564847762
 20
0.1854172907249859
 30
0.0
 11
2.380003564847762
 21
-0.1854172907249859
 31
0.0
  0
LINE
  5
AE
330
96
100
AcDbEntity
  8
AM_9
100
AcDbLine
 10
2.380003564847762
 20
-0.1854172907249859
 30
0.0
 11
2.575
 21
-0.1915112338502295
 31
0.0
  0
LINE
  5
AF
330
96
100
AcDbEntity
  8
AM_9
100
AcDbLine
 10
2.575
 20
0.1915112338502295
 30
0.0
 11
2.380003564847762
 21
0.1854172907249859
 31
0.0
  0
LINE
  5
B0
330
96
100
AcDbEntity
  8
AM_9
100
AcDbLine
 10
3.114779591422741
 20
0.0811898816047911
 30
0.0
 11
3.127852618119652
 21
0.0811898816047911
 31
0.0
  0
LINE
  5
B1
330
96
100
AcDbEntity
  8
AM_9
100
AcDbLine
 10
3.114779591422741
 20
-0.0811898816047911
 30
0.0
 11
3.127852618119652
 21
-0.0811898816047911
 31
0.0
  0
LWPOLYLINE
  5
B2
330
96
100
AcDbEntity
  8
AM_9
100
AcDbPolyline
 90
        4
 70
     0
 43
0.0
 10
3.114779591422741
 20
-0.0811898816047911
 10
3.11088110594799
 20
-0.0226013472343071
 10
3.111538145387265
 20
0.0384818408139635
 10
3.114779591422741
 20
0.0811898816047911
  0
LINE
  5
B3
330
96
100
AcDbEntity
  8
AM_9
100
AcDbLine
 10
2.9
 20
0.1100598143282605
 30
0.0
 11
2.9
 21
-0.1106442995809119
 31
0.0
  0
ELLIPSE
  5
B4
330
96
100
AcDbEntity
  8
AM_9
100
AcDbEllipse
 10
2.981540489674682
 20
-0.0000000000000002
 30
0.0
 11
-2.583239341951445E-17
 21
-0.1406249999999998
 31
0.0
210
0.0
220
0.0
230
1.0
 40
0.906307787036649
 41
5.859216366485147
 42
9.848746901463826
  0
LWPOLYLINE
  5
B5
330
96
100
AcDbEntity
  8
AM_9
100
AcDbPolyline
 90
        4
 70
     0
 43
0.0
 10
3.114779591422741
 20
0.0811898816047911
 10
3.064673655314264
 20
0.1105606069314186
 10
3.01715195447448
 20
0.1412050309358237
 10
2.987092915312688
 20
0.1623797632095822
  0
LWPOLYLINE
  5
B6
330
96
100
AcDbEntity
  8
AM_9
100
AcDbPolyline
 90
        4
 70
     0
 43
0.0
 10
2.987092915312688
 20
-0.1623797632095822
 10
3.028862644857368
 20
-0.1333383958028655
 10
3.077063397587892
 20
-0.1030720446435313
 10
3.114779591422741
 20
-0.0811898816047911
  0
LWPOLYLINE
  5
B7
330
96
100
AcDbEntity
  8
AM_9
100
AcDbPolyline
 90
        3
 70
     0
 43
0.0
 10
2.9
 20
0.0891382003679202
 10
2.931046074830932
 20
0.1054645023299315
 10
2.960360053636335
 20
0.109999959962728
  0
LWPOLYLINE
  5
B8
330
96
100
AcDbEntity
  8
AM_9
100
AcDbPolyline
 90
        8
 70
     0
 43
0.0
 10
2.9
 20
0.0891382003679202
 10
2.887711773328742
 20
0.0777636883825141
 10
2.869890090732852
 20
0.0501518541477802
 10
2.860426786929245
 20
0.0152931307616317
 10
2.861335561919609
 20
-0.0215822013754014
 10
2.872573282368483
 20
-0.0557614027566447
 10
2.893915057581919
 20
-0.0840091310588356
 10
2.9
 20
-0.0891382003679202
  0
LINE
  5
B9
330
96
100
AcDbEntity
  8
AM_9
100
AcDbLine
 10
2.960274022678901
 20
-0.1099999999999999
 30
0.0
 11
2.981540489674682
 21
-0.1099999999999999
 31
0.0
  0
LINE
  5
BA
330
96
100
AcDbEntity
  8
AM_9
100
AcDbLine
 10
2.981540489674682
 20
0.1099999999999999
 30
0.0
 11
2.960274004289025
 21
0.1099999999999999
 31
0.0
  0
LWPOLYLINE
  5
BB
330
96
100
AcDbEntity
  8
AM_9
100
AcDbPolyline
 90
       12
 70
     0
 43
0.0
 10
2.960360053636335
 20
0.109999959962728
 10
2.965379176802918
 20
0.1098642299902842
 10
2.99914910053443
 20
0.101829760403791
 10
3.028509245274695
 20
0.0822566453824391
 10
3.050118096952378
 20
0.0533912635798488
 10
3.061557273689088
 20
0.018541691433427
 10
3.061588715919457
 20
-0.0183436549788656
 10
3.050249778005945
 20
-0.0531364268189174
 10
3.028813933440344
 20
-0.0819658231771869
 10
2.999649900186104
 20
-0.1016091178663899
 10
2.965993177073341
 20
-0.109829591708451
 10
2.960363911748451
 20
-0.1099999563637608
  0
LWPOLYLINE
  5
BC
330
96
100
AcDbEntity
  8
AM_9
100
AcDbPolyline
 90
        3
 70
     0
 43
0.0
 10
2.960363911748451
 20
-0.1099999563637608
 10
2.931625566265061
 20
-0.1056462146448629
 10
2.899999999999989
 20
-0.0891382003679049
  0
ELLIPSE
  5
BD
330
96
100
AcDbEntity
  8
AM_9
100
AcDbEllipse
 10
2.981540489674683
 20
-0.0000000000000006
 30
0.0
 11
-2.583239341951474E-17
 21
-0.1406250000000014
 31
0.0
210
0.0
220
0.0
230
1.0
 40
0.9063077870366482
 41
3.764821264091955
 42
4.571432719802701
  0
ELLIPSE
  5
BE
330
96
100
AcDbEntity
  8
AM_9
100
AcDbEllipse
 10
2.981540489674686
 20
0.0000000000000029
 30
0.0
 11
-2.583239341951534E-17
 21
-0.1406250000000047
 31
0.0
210
0.0
220
0.0
230
1.0
 40
0.9063077870366842
 41
4.853345240966719
 42
5.659956696677443
  0
LWPOLYLINE
  5
BF
330
96
100
AcDbEntity
  8
AM_9
100
AcDbPolyline
 90
        3
 70
     0
 43
0.0
 10
3.127852618119652
 20
0.0811898816047911
 10
3.131169344127473
 20
0.0014176687078843
 10
3.127852618119652
 20
-0.0811898816047911
  0
LWPOLYLINE
  5
C0
330
96
100
AcDbEntity
  8
AM_9
100
AcDbPolyline
 90
        3
 70
     0
 43
0.0
 10
3.041876429180594
 20
0.1378154857692783
 10
3.066443378377864
 20
0.1224916336047983
 10
3.127852618119652
 20
0.0811898816047911
  0
LWPOLYLINE
  5
C1
330
96
100
AcDbEntity
  8
AM_9
100
AcDbPolyline
 90
        3
 70
     0
 43
0.0
 10
3.127852618119652
 20
-0.0811898816047911
 10
3.068682446465653
 20
-0.121062844630589
 10
3.042463910451942
 20
-0.1374560951217505
  0
ELLIPSE
  5
C2
330
96
100
AcDbEntity
  8
AM_9
100
AcDbEllipse
 10
3.002671402761717
 20
0.0000000000000001
 30
0.0
 11
-2.583239341951445E-17
 21
-0.1406249999999999
 31
0.0
210
0.0
220
0.0
230
1.0
 40
0.906307787036652
 41
0.2302306697609362
 42
2.910421727102276
  0
LWPOLYLINE
  5
C3
330
96
100
AcDbEntity
  8
AM_9
100
AcDbPolyline
 90
       15
 70
     0
 43
0.0
 10
2.955809342867237
 20
0.0428847560454528
 10
2.962632206133796
 20
0.0575463967442415
 10
2.973447097100508
 20
0.0733383118768301
 10
2.986371752249224
 20
0.0861018696394614
 10
3.000880531667287
 20
0.0955206985543761
 10
3.016610359199329
 20
0.1013947951599086
 10
3.033406072127
 20
0.1034523038223003
 10
3.051049090099656
 20
0.1011672046024423
 10
3.066637563131767
 20
0.0951341404200317
 10
3.080853542249017
 20
0.0857278382821639
 10
3.094559485996751
 20
0.0718189273049806
 10
3.105543675811989
 20
0.0549337636315848
 10
3.113396547584727
 20
0.0357894161555652
 10
3.117807237165794
 20
0.0151803002411949
 10
3.118745779294296
 20
0.0
  0
LWPOLYLINE
  5
C4
330
96
100
AcDbEntity
  8
AM_9
100
AcDbPolyline
 90
       16
 70
     0
 43
0.0
 10
3.118745779294296
 20
0.0
 10
3.118410437569738
 20
-0.0090892921456288
 10
3.115086587752026
 20
-0.0297444449180545
 10
3.108412630223913
 20
-0.0490210144582966
 10
3.098814842763052
 20
-0.0660988779778273
 10
3.086833338930302
 20
-0.0803689346513495
 10
3.073027985776736
 20
-0.0914244896979269
 10
3.057853956333276
 20
-0.0990263303804791
 10
3.041559686637429
 20
-0.1029665375373586
 10
3.024266388050862
 20
-0.1028482839819845
 10
3.006506825444373
 20
-0.0980917018515451
 10
2.991684787607235
 20
-0.0900608337892422
 10
2.977054286137468
 20
-0.0774236682315425
 10
2.964991149532654
 20
-0.0615667041008287
 10
2.95592303314345
 20
-0.0431821640430702
 10
2.952593755196332
 20
-0.0331706434014538
  0
ELLIPSE
  5
C5
330
96
100
AcDbEntity
  8
AM_9
100
AcDbEllipse
 10
3.061562173218468
 20
0.0
 30
0.0
 11
8.155773951865168E-18
 21
0.1331938965184661
 31
0.0
210
0.0
220
0.0
230
1.0
 40
0.9063077870366502
 41
0.0
 42
6.283185307179586
  0
LINE
  5
C7
330
96
100
AcDbEntity
  8
AM_5
100
AcDbLine
 10
2.532862509955051
 20
-0.1671831426298035
 30
0.0
 11
2.356250000000001
 21
-0.1616637258772237
 31
0.0
  0
LINE
  5
C8
330
96
100
AcDbEntity
  8
AM_5
100
AcDbLine
 10
2.575
 20
-0.1915112338502292
 30
0.0
 11
2.532862509955052
 21
-0.1671831426298035
 31
0.0
  0
LINE
  5
C9
330
96
100
AcDbEntity
  8
AM_5
100
AcDbLine
 10
2.532862509955052
 20
-0.190194371480033
 30
0.0
 11
2.532862509955052
 21
0.1901943714800331
 31
0.0
  0
LINE
  5
CA
330
96
100
AcDbEntity
  8
AM_5
100
AcDbLine
 10
2.532862509955051
 20
0.1671831426298035
 30
0.0
 11
2.35625
 21
0.1616637258772237
 31
0.0
  0
LINE
  5
CB
330
96
100
AcDbEntity
  8
AM_5
100
AcDbLine
 10
2.575
 20
0.1915112338502292
 30
0.0
 11
2.532862509955052
 21
0.1671831426298035
 31
0.0
  0
ELLIPSE
  5
CC
330
96
100
AcDbEntity
  8
AM_9
100
AcDbEllipse
 10
2.981540489674682
 20
0.0000000000000007
 30
0.0
 11
-2.020667218593119E-17
 21
-0.1099999999999993
 31
0.0
210
0.0
220
0.0
230
1.0
 40
0.906307787036652
 41
0.0
 42
6.283185307179586
  0
LINE
  5
CF
330
96
100
AcDbEntity
  8
AM_7
100
AcDbLine
 10
3.1371875
 20
0.0
 30
0.0
 11
-1.8602325
 21
-0.0000000000000001
 31
0.0
  0
LINE
  5
D1
330
96
100
AcDbEntity
  8
AM_4
100
AcDbLine
 10
2.753125
 20
0.21875
 30
0.0
 11
2.753125
 21
-0.21875
 31
0.0
  0
LINE
  5
D2
330
96
100
AcDbEntity
  8
AM_4
100
AcDbLine
 10
2.744057400303386
 20
-0.2525907427704612
 30
0.0
 11
2.753125
 21
-0.21875
 31
0.0
  0
LINE
  5
D3
330
96
100
AcDbEntity
  8
AM_4
100
AcDbLine
 10
2.753125
 20
0.21875
 30
0.0
 11
2.744057400303386
 21
0.2525907427704612
 31
0.0
  0
LINE
  5
D4
330
96
100
AcDbEntity
  8
AM_4
100
AcDbLine
 10
2.653125
 20
0.21875
 30
0.0
 11
2.653125
 21
-0.21875
 31
0.0
  0
LINE
  5
D5
330
96
100
AcDbEntity
  8
AM_4
100
AcDbLine
 10
2.653125
 20
-0.21875
 30
0.0
 11
2.662192599696615
 21
-0.2525907427704612
 31
0.0
  0
LINE
  5
D6
330
96
100
AcDbEntity
  8
AM_4
100
AcDbLine
 10
2.662192599696615
 20
0.2525907427704612
 30
0.0
 11
2.653125
 21
0.21875
 31
0.0
  0
ARC
  5
D7
330
96
100
AcDbEntity
  8
AM_4
100
AcDbCircle
 10
2.9
 20
-0.0000000000000015
 30
0.0
 40
0.2000000000000016
100
AcDbArc
 50
44.22006096146352
 51
90.0
  0
ARC
  5
D8
330
96
100
AcDbEntity
  8
AM_4
100
AcDbCircle
 10
2.9
 20
0.0000000000000029
 30
0.0
 40
0.2000000000000028
100
AcDbArc
 50
270.0
 51
315.9034553801798
  0
LINE
  5
D9
330
96
100
AcDbEntity
  8
AM_4
100
AcDbLine
 10
2.575
 20
-0.2
 30
0.0
 11
2.653125
 21
-0.2
 31
0.0
  0
LINE
  5
DA
330
96
100
AcDbEntity
  8
AM_4
100
AcDbLine
 10
2.653125
 20
0.2
 30
0.0
 11
2.575
 21
0.2
 31
0.0
  0
LINE
  5
DB
330
96
100
AcDbEntity
  8
AM_4
100
AcDbLine
 10
2.9
 20
-0.1106442995809119
 30
0.0
 11
2.9
 21
-0.2
 31
0.0
  0
LINE
  5
DC
330
96
100
AcDbEntity
  8
AM_4
100
AcDbLine
 10
2.753125
 20
-0.2
 30
0.0
 11
2.9
 21
-0.2
 31
0.0
  0
LINE
  5
DD
330
96
100
AcDbEntity
  8
AM_4
100
AcDbLine
 10
2.9
 20
0.2
 30
0.0
 11
2.753125
 21
0.2
 31
0.0
  0
LINE
  5
DE
330
96
100
AcDbEntity
  8
AM_4
100
AcDbLine
 10
2.9
 20
0.2
 30
0.0
 11
2.9
 21
0.1100598143282605
 31
0.0
  0
LWPOLYLINE
  5
DF
330
96
100
AcDbEntity
  8
AM_4
100
AcDbPolyline
 90
        3
 70
     0
 43
0.0
 10
2.753125
 20
0.0
 10
2.747642587482157
 20
-0.0967996321117978
 10
2.744057400303386
 20
-0.1262953713852306
  0
LINE
  5
E0
330
96
100
AcDbEntity
  8
AM_4
100
AcDbLine
 10
2.744057400303386
 20
-0.2525907427704612
 30
0.0
 11
2.662192599696615
 21
-0.2525907427704612
 31
0.0
  0
LWPOLYLINE
  5
E1
330
96
100
AcDbEntity
  8
AM_4
100
AcDbPolyline
 90
        3
 70
     0
 43
0.0
 10
2.753125
 20
-0.1894430570778459
 10
2.750731619214966
 20
-0.2210168999241536
 10
2.744057400303386
 20
-0.2525907427704612
  0
LWPOLYLINE
  5
E2
330
96
100
AcDbEntity
  8
AM_4
100
AcDbPolyline
 90
        3
 70
     0
 43
0.0
 10
2.744057400303386
 20
-0.1262953713852306
 10
2.750710475050381
 20
-0.1577272497321276
 10
2.753125
 20
-0.1894430570778459
  0
LINE
  5
E3
330
96
100
AcDbEntity
  8
AM_4
100
AcDbLine
 10
2.744057400303386
 20
-0.1262953713852306
 30
0.0
 11
2.662192599696615
 21
-0.1262953713852306
 31
0.0
  0
LWPOLYLINE
  5
E4
330
96
100
AcDbEntity
  8
AM_4
100
AcDbPolyline
 90
        3
 70
     0
 43
0.0
 10
2.662192599696615
 20
-0.2525907427704612
 10
2.65553952494962
 20
-0.2211588644235643
 10
2.653125
 20
-0.1894430570778459
  0
LWPOLYLINE
  5
E5
330
96
100
AcDbEntity
  8
AM_4
100
AcDbPolyline
 90
        3
 70
     0
 43
0.0
 10
2.653125
 20
-0.1894430570778459
 10
2.655518380785035
 20
-0.1578692142315383
 10
2.662192599696615
 20
-0.1262953713852306
  0
LWPOLYLINE
  5
E6
330
96
100
AcDbEntity
  8
AM_4
100
AcDbPolyline
 90
        3
 70
     0
 43
0.0
 10
2.662192599696615
 20
-0.1262953713852306
 10
2.658607412517844
 20
-0.0967996321117978
 10
2.653125
 20
0.0
  0
LINE
  5
E7
330
96
100
AcDbEntity
  8
AM_4
100
AcDbLine
 10
2.744057400303386
 20
0.1262953713852306
 30
0.0
 11
2.662192599696615
 21
0.1262953713852306
 31
0.0
  0
LWPOLYLINE
  5
E8
330
96
100
AcDbEntity
  8
AM_4
100
AcDbPolyline
 90
        3
 70
     0
 43
0.0
 10
2.744057400303386
 20
0.2525907427704612
 10
2.75071047505038
 20
0.2211588644235643
 10
2.753125
 20
0.1894430570778459
  0
LINE
  5
E9
330
96
100
AcDbEntity
  8
AM_4
100
AcDbLine
 10
2.744057400303386
 20
0.2525907427704612
 30
0.0
 11
2.662192599696615
 21
0.2525907427704612
 31
0.0
  0
LWPOLYLINE
  5
EA
330
96
100
AcDbEntity
  8
AM_4
100
AcDbPolyline
 90
        3
 70
     0
 43
0.0
 10
2.653125
 20
0.1894430570778459
 10
2.655518380785035
 20
0.2210168999241536
 10
2.662192599696615
 20
0.2525907427704612
  0
LWPOLYLINE
  5
EB
330
96
100
AcDbEntity
  8
AM_4
100
AcDbPolyline
 90
        3
 70
     0
 43
0.0
 10
2.653125
 20
0.0
 10
2.655518380785035
 20
0.0631476856926153
 10
2.662192599696615
 20
0.1262953713852306
  0
LWPOLYLINE
  5
EC
330
96
100
AcDbEntity
  8
AM_4
100
AcDbPolyline
 90
        3
 70
     0
 43
0.0
 10
2.662192599696615
 20
0.1262953713852306
 10
2.65553952494962
 20
0.1577272497321276
 10
2.653125
 20
0.1894430570778459
  0
LWPOLYLINE
  5
ED
330
96
100
AcDbEntity
  8
AM_4
100
AcDbPolyline
 90
        3
 70
     0
 43
0.0
 10
2.753125
 20
0.1894430570778459
 10
2.750731619214966
 20
0.1578692142315383
 10
2.744057400303386
 20
0.1262953713852306
  0
LWPOLYLINE
  5
EE
330
96
100
AcDbEntity
  8
AM_4
100
AcDbPolyline
 90
        3
 70
     0
 43
0.0
 10
2.744057400303386
 20
0.1262953713852306
 10
2.75071047505038
 20
0.0634316146914367
 10
2.753125
 20
0.0
  0
LINE
  5
EF
330
96
100
AcDbEntity
  8
AM_4
100
AcDbLine
 10
3.000588184814568
 20
0.1623797632095822
 30
0.0
 11
3.041876429180594
 21
0.1378154857692783
 31
0.0
  0
LINE
  5
F0
330
96
100
AcDbEntity
  8
AM_4
100
AcDbLine
 10
3.042463910451942
 20
-0.1374560951217505
 30
0.0
 11
3.000588184814568
 21
-0.1623797632095822
 31
0.0
  0
LINE
  5
F1
330
96
100
AcDbEntity
  8
AM_4
100
AcDbLine
 10
2.859404468701036
 20
-0.0811898816047911
 30
0.0
 11
2.907153317914339
 21
-0.114187258378066
 31
0.0
  0
LINE
  5
F2
330
96
100
AcDbEntity
  8
AM_4
100
AcDbLine
 10
2.907153317914339
 20
-0.114187258378066
 30
0.0
 11
2.92911014449333
 21
-0.1281745372222428
 31
0.0
  0
LWPOLYLINE
  5
F3
330
96
100
AcDbEntity
  8
AM_4
100
AcDbPolyline
 90
        3
 70
     0
 43
0.0
 10
2.92911014449333
 20
-0.1281745372222428
 10
2.948748950047543
 20
-0.14013919758686
 10
2.987092915312688
 20
-0.1623797632095822
  0
LINE
  5
F4
330
96
100
AcDbEntity
  8
AM_4
100
AcDbLine
 10
2.987092915312688
 20
-0.1623797632095822
 30
0.0
 11
3.000588184814568
 21
-0.1623797632095822
 31
0.0
  0
LINE
  5
F5
330
96
100
AcDbEntity
  8
AM_4
100
AcDbLine
 10
3.000588184814568
 20
-0.1623797632095822
 30
0.0
 11
2.950241057580364
 21
-0.1281745372222423
 31
0.0
  0
LINE
  5
F6
330
96
100
AcDbEntity
  8
AM_4
100
AcDbLine
 10
2.987092915312688
 20
0.1623797632095822
 30
0.0
 11
2.929110144493329
 21
0.1281745372222425
 31
0.0
  0
LINE
  5
F7
330
96
100
AcDbEntity
  8
AM_4
100
AcDbLine
 10
2.929110144493329
 20
0.1281745372222425
 30
0.0
 11
2.907153317914338
 21
0.1141872583780656
 31
0.0
  0
LWPOLYLINE
  5
F8
330
96
100
AcDbEntity
  8
AM_4
100
AcDbPolyline
 90
        3
 70
     0
 43
0.0
 10
2.907153317914338
 20
0.1141872583780656
 10
2.889944149569911
 20
0.1027100776026271
 10
2.859404468701036
 20
0.0811898816047911
  0
LINE
  5
F9
330
96
100
AcDbEntity
  8
AM_4
100
AcDbLine
 10
2.950241057580365
 20
0.1281745372222423
 30
0.0
 11
3.000588184814568
 21
0.1623797632095822
 31
0.0
  0
LINE
  5
FA
330
96
100
AcDbEntity
  8
AM_4
100
AcDbLine
 10
2.987092915312688
 20
0.1623797632095822
 30
0.0
 11
3.000588184814568
 21
0.1623797632095822
 31
0.0
  0
LINE
  5
FB
330
96
100
AcDbEntity
  8
AM_4
100
AcDbLine
 10
2.928284231001374
 20
-0.1141872583780661
 30
0.0
 11
2.873325133450934
 21
-0.0811898816047911
 31
0.0
  0
LINE
  5
FC
330
96
100
AcDbEntity
  8
AM_4
100
AcDbLine
 10
2.873325133450934
 20
0.0811898816047911
 30
0.0
 11
2.928284231001374
 21
0.1141872583780661
 31
0.0
  0
LINE
  5
FD
330
96
100
AcDbEntity
  8
AM_4
100
AcDbLine
 10
2.859404468701036
 20
0.0811898816047911
 30
0.0
 11
2.855354988343319
 21
0.01975639995327
 31
0.0
  0
LINE
  5
FE
330
96
100
AcDbEntity
  8
AM_4
100
AcDbLine
 10
2.855354988343319
 20
0.01975639995327
 30
0.0
 11
2.855354988343314
 21
-0.0197563999532738
 31
0.0
  0
LWPOLYLINE
  5
FF
330
96
100
AcDbEntity
  8
AM_4
100
AcDbPolyline
 90
        3
 70
     0
 43
0.0
 10
2.855354988343314
 20
-0.0197563999532738
 10
2.856036203125989
 20
-0.0370737721666024
 10
2.859404468701036
 20
-0.0811898816047911
  0
LINE
  5
100
330
96
100
AcDbEntity
  8
AM_4
100
AcDbLine
 10
2.859404468701036
 20
-0.0811898816047911
 30
0.0
 11
2.873325133450934
 21
-0.0811898816047911
 31
0.0
  0
LINE
  5
101
330
96
100
AcDbEntity
  8
AM_4
100
AcDbLine
 10
2.873325133450934
 20
-0.0811898816047911
 30
0.0
 11
2.876485901430354
 21
-0.0197563999532697
 31
0.0
  0
LINE
  5
102
330
96
100
AcDbEntity
  8
AM_4
100
AcDbLine
 10
2.876485901430354
 20
0.0197563999532697
 30
0.0
 11
2.873325133450934
 21
0.0811898816047911
 31
0.0
  0
LINE
  5
103
330
96
100
AcDbEntity
  8
AM_4
100
AcDbLine
 10
2.859404468701036
 20
0.0811898816047911
 30
0.0
 11
2.873325133450934
 21
0.0811898816047911
 31
0.0
  0
LINE
  5
104
330
96
100
AcDbEntity
  8
AM_4
100
AcDbLine
 10
2.950241057580364
 20
-0.1281745372222423
 30
0.0
 11
2.928284231001374
 21
-0.1141872583780661
 31
0.0
  0
ELLIPSE
  5
105
330
96
100
AcDbEntity
  8
AM_4
100
AcDbEllipse
 10
3.002671402761718
 20
0.0000000000000004
 30
0.0
 11
-2.583239341951440E-17
 21
-0.1406249999999996
 31
0.0
210
0.0
220
0.0
230
1.0
 40
0.9063077870366508
 41
2.910421727102278
 42
3.565561594284245
  0
ELLIPSE
  5
106
330
96
100
AcDbEntity
  8
AM_4
100
AcDbEllipse
 10
3.002671402761717
 20
0.0000000000000014
 30
0.0
 11
-2.583239341951471E-17
 21
-0.1406250000000013
 31
0.0
210
0.0
220
0.0
230
1.0
 40
0.9063077870366524
 41
5.859216366485138
 42
6.51341597694052
  0
LINE
  5
107
330
96
100
AcDbEntity
  8
AM_4
100
AcDbLine
 10
2.928284231001374
 20
0.1141872583780661
 30
0.0
 11
2.950241057580365
 21
0.1281745372222423
 31
0.0
  0
ELLIPSE
  5
108
330
96
100
AcDbEntity
  8
AM_4
100
AcDbEllipse
 10
3.002671402761718
 20
-0.0000000000000008
 30
0.0
 11
-2.583239341951465E-17
 21
-0.1406250000000009
 31
0.0
210
0.0
220
0.0
230
1.0
 40
0.9063077870366484
 41
3.764821264091941
 42
4.571432719802701
  0
LINE
  5
109
330
96
100
AcDbEntity
  8
AM_4
100
AcDbLine
 10
2.876485901430354
 20
-0.0197563999532697
 30
0.0
 11
2.876485901430354
 21
0.0197563999532697
 31
0.0
  0
ELLIPSE
  5
10A
330
96
100
AcDbEntity
  8
AM_4
100
AcDbEllipse
 10
3.002671402761718
 20
0.0000000000000009
 30
0.0
 11
-2.583239341951464E-17
 21
-0.1406250000000009
 31
0.0
210
0.0
220
0.0
230
1.0
 40
0.9063077870366486
 41
4.853345240966679
 42
5.65995669667744
  0
LWPOLYLINE
  5
10B
330
96
100
AcDbEntity
  8
AM_4
100
AcDbPolyline
 90
        4
 70
     0
 43
0.0
 10
3.153607696902556
 20
-0.1081920422899811
 10
3.167901290268316
 20
-0.0929511503279578
 10
3.181728343320406
 20
-0.0722235843587154
 10
3.184849614106642
 20
-0.0661891857358257
  0
LWPOLYLINE
  5
10C
330
96
100
AcDbEntity
  8
AM_4
100
AcDbPolyline
 90
       28
 70
     0
 43
0.0
 10
3.163243785483973
 20
0.0984463253089365
 10
3.157102654277245
 20
0.1048826763283696
 10
3.137980830683377
 20
0.1204444708372579
 10
3.116582591365376
 20
0.1319534988024765
 10
3.093660671004792
 20
0.1390356325281429
 10
3.070006932264942
 20
0.141489450770484
 10
3.046409748710835
 20
0.1392792022138302
 10
3.023633501627536
 20
0.1325179099020138
 10
3.00239498531324
 20
0.1214500706015125
 10
2.983349106269654
 20
0.1064319143259949
 10
2.967094583652858
 20
0.0879299689834685
 10
2.954160082086569
 20
0.0665218280608151
 10
2.944982045811037
 20
0.0428886048823568
 10
2.939882303604868
 20
0.0177956765833607
 10
2.939052032312668
 20
-0.0079344066830498
 10
2.942543470189895
 20
-0.0334508464354192
 10
2.950265101640559
 20
-0.0578974878073921
 10
2.961981148236364
 20
-0.0804466642777081
 10
2.977312769762811
 20
-0.1003241953819194
 10
2.99574245497918
 20
-0.1168403932450452
 10
3.016628793450435
 20
-0.1294257493822524
 10
3.039236451029111
 20
-0.1376634314759401
 10
3.062779151426901
 20
-0.1413078429048428
 10
3.086464243594615
 20
-0.1402825797949619
 10
3.109521606175733
 20
-0.1346637428881171
 10
3.131216747123148
 20
-0.1246650812615222
 10
3.150881279938141
 20
-0.1106148214991361
 10
3.153607696902556
 20
-0.1081920422899811
  0
LWPOLYLINE
  5
10D
330
96
100
AcDbEntity
  8
AM_4
100
AcDbPolyline
 90
        6
 70
     0
 43
0.0
 10
3.2
 20
0.0
 10
3.199311251054538
 20
0.0145234734366639
 10
3.194728283964836
 20
0.0398236814433267
 10
3.185959402513089
 20
0.0638630781389387
 10
3.173279205213082
 20
0.0858013933794518
 10
3.163243785483973
 20
0.0984463253089365
  0
ELLIPSE
  5
10E
330
96
100
AcDbEntity
  8
AM_4
100
AcDbEllipse
 10
3.073888580077552
 20
-0.0000000000000023
 30
0.0
 11
-2.556117506982872E-17
 21
-0.1391485560714344
 31
0.0
210
0.0
220
0.0
230
1.0
 40
0.9063077870366623
 41
1.076586281120346
 42
1.570796326794897
  0
ELLIPSE
  5
10F
330
96
100
AcDbEntity
  8
AM_4
100
AcDbEllipse
 10
3.106212876888188
 20
0.0
 30
0.0
 11
6.336484236534234E-18
 21
0.10348264072459
 31
0.0
210
0.0
220
0.0
230
1.0
 40
0.9063077870366482
 41
0.0
 42
6.283185307179586
  0
ELLIPSE
  5
110
330
96
100
AcDbEntity
  8
AM_4
100
AcDbEllipse
 10
3.073888580081311
 20
-0.0000000000028699
 30
0.0
 11
-2.556117506873054E-17
 21
-0.1391485560654562
 31
0.0
210
0.0
220
0.0
230
1.0
 40
0.9063077870429387
 41
1.570796326794897
 42
7.359771588301043
  0
ENDBLK
  5
99
330
96
100
AcDbEntity
  8
0
100
AcDbBlockEnd
  0
BLOCK
  5
113
330
111
100
AcDbEntity
  8
0
100
AcDbBlockBegin
  2
3_1_15_16CS2i_0_in_070811_0
 70
     2
 10
0.0
 20
0.0
 30
0.0
  3
3_1_15_16CS2i_0_in_070811_0
  1

  0
ATTDEF
  5
115
330
111
100
AcDbEntity
  8
AM_6
100
AcDbText
 10
6.718574582355781
 20
1.718709945620833
 30
0.0
 40
0.5
  1
S-2000 Collar -Inch
100
AcDbAttributeDefinition
  3

  2
NN
 70
     8
280
     0
  0
ATTDEF
  5
116
330
111
100
AcDbEntity
  8
AM_6
100
AcDbText
 10
6.718574582355781
 20
1.218709945620833
 30
0.0
 40
0.5
  1
S-2000 Bearings
100
AcDbAttributeDefinition
  3

  2
NT
 70
     8
280
     0
  0
ATTDEF
  5
117
330
111
100
AcDbEntity
  8
AM_6
100
AcDbText
 10
6.718574582355781
 20
0.718709945620833
 30
0.0
 40
0.5
  1
1-15/16CS2i
100
AcDbAttributeDefinition
  3

  2
NB
 70
     8
280
     0
  0
ATTDEF
  5
118
330
111
100
AcDbEntity
  8
AM_6
100
AcDbText
 10
6.718574582355781
 20
0.218709945620833
 30
0.0
 40
0.5
  1
$BORE.CS2i
100
AcDbAttributeDefinition
  3

  2
NBSYN
 70
     8
280
     0
  0
ATTDEF
  5
119
330
111
100
AcDbEntity
  8
AM_6
100
AcDbText
 10
6.718574582355781
 20
-0.281290054379167
 30
0.0
 40
0.5
  1
1-15/16CS2i
100
AcDbAttributeDefinition
  3

  2
LINA
 70
     8
280
     0
  0
ATTDEF
  5
11A
330
111
100
AcDbEntity
  8
AM_6
100
AcDbText
 10
6.718574582355781
 20
-0.781290054379167
 30
0.0
 40
0.5
  1
1-15/16
100
AcDbAttributeDefinition
  3

  2
BORE
 70
     8
280
     0
  0
ATTDEF
  5
11B
330
111
100
AcDbEntity
  8
AM_6
100
AcDbText
 10
6.718574582355781
 20
-1.281290054379167
 30
0.0
 40
0.5
  1
1.937500
100
AcDbAttributeDefinition
  3

  2
BORE1
 70
     8
280
     0
  0
ATTDEF
  5
11C
330
111
100
AcDbEntity
  8
AM_6
100
AcDbText
 10
6.718574582355781
 20
-1.781290054379167
 30
0.0
 40
0.5
  1
3-7/16
100
AcDbAttributeDefinition
  3

  2
L1
 70
     8
280
     0
  0
ATTDEF
  5
11D
330
111
100
AcDbEntity
  8
AM_6
100
AcDbText
 10
6.718574582355781
 20
-2.281290054379167
 30
0.0
 40
0.5
  1
3.43750
100
AcDbAttributeDefinition
  3

  2
L
 70
     8
280
     0
  0
ATTDEF
  5
11E
330
111
100
AcDbEntity
  8
AM_6
100
AcDbText
 10
6.718574582355781
 20
-2.781290054379167
 30
0.0
 40
0.5
  1
3.34375
100
AcDbAttributeDefinition
  3

  2
L2
 70
     8
280
     0
  0
ATTDEF
  5
11F
330
111
100
AcDbEntity
  8
AM_6
100
AcDbText
 10
6.718574582355781
 20
-3.281290054379167
 30
0.0
 40
0.5
  1
3.50
100
AcDbAttributeDefinition
  3

  2
A
 70
     8
280
     0
  0
ATTDEF
  5
120
330
111
100
AcDbEntity
  8
AM_6
100
AcDbText
 10
6.718574582355781
 20
-3.781290054379167
 30
0.0
 40
0.5
  1
1.62
100
AcDbAttributeDefinition
  3

  2
B
 70
     8
280
     0
  0
ATTDEF
  5
121
330
111
100
AcDbEntity
  8
AM_6
100
AcDbText
 10
6.718574582355781
 20
-4.281290054379167
 30
0.0
 40
0.5
  1
2.31
100
AcDbAttributeDefinition
  3

  2
C
 70
     8
280
     0
  0
ATTDEF
  5
122
330
111
100
AcDbEntity
  8
AM_6
100
AcDbText
 10
6.718574582355781
 20
-4.781290054379167
 30
0.0
 40
0.5
  1
3.50
100
AcDbAttributeDefinition
  3

  2
D
 70
     8
280
     0
  0
ATTDEF
  5
123
330
111
100
AcDbEntity
  8
AM_6
100
AcDbText
 10
6.718574582355781
 20
-5.281290054379167
 30
0.0
 40
0.5
  1
0.41
100
AcDbAttributeDefinition
  3

  2
E
 70
     8
280
     0
  0
ATTDEF
  5
124
330
111
100
AcDbEntity
  8
AM_6
100
AcDbText
 10
6.718574582355781
 20
-5.781290054379167
 30
0.0
 40
0.5
  1
0.317
100
AcDbAttributeDefinition
  3

  2
F
 70
     8
280
     0
  0
ATTDEF
  5
125
330
111
100
AcDbEntity
  8
AM_6
100
AcDbText
 10
6.718574582355781
 20
-6.281290054379167
 30
0.0
 40
0.5
  1
3/8-16
100
AcDbAttributeDefinition
  3

  2
CS
 70
     8
280
     0
  0
ATTDEF
  5
126
330
111
100
AcDbEntity
  8
AM_6
100
AcDbText
 10
6.718574582355781
 20
-6.781290054379167
 30
0.0
 40
0.5
  1
0.3750
100
AcDbAttributeDefinition
  3

  2
NDM
 70
     8
280
     0
  0
ATTDEF
  5
127
330
111
100
AcDbEntity
  8
AM_6
100
AcDbText
 10
6.718574582355781
 20
-7.281290054379167
 30
0.0
 40
0.5
  1
0.3070
100
AcDbAttributeDefinition
  3

  2
KDM
 70
     8
280
     0
  0
ATTDEF
  5
128
330
111
100
AcDbEntity
  8
AM_6
100
AcDbText
 10
6.718574582355781
 20
-7.781290054379167
 30
0.0
 40
0.5
  1
1
100
AcDbAttributeDefinition
  3

  2
DD
 70
     8
280
     0
  0
ATTDEF
  5
129
330
111
100
AcDbEntity
  8
AM_6
100
AcDbText
 10
6.718574582355781
 20
-8.281290054379166
 30
0.0
 40
0.5
  1
baldor
100
AcDbAttributeDefinition
  3

  2
COMPANY
 70
     8
280
     0
  0
LINE
  5
12A
330
111
100
AcDbEntity
  8
AM_9
100
AcDbLine
 10
0.15365
 20
1.163849999999998
 30
0.0
 11
0.15365
 21
1.664799595484393
 31
0.0
  0
LINE
  5
12B
330
111
100
AcDbEntity
  8
AM_9
100
AcDbLine
 10
-0.15365
 20
1.664799595484393
 30
0.0
 11
-0.15365
 21
1.163849999999998
 31
0.0
  0
LINE
  5
12C
330
111
100
AcDbEntity
  8
AM_9
100
AcDbLine
 10
1.119741613859061
 20
0.3526100724487308
 30
0.0
 11
1.573756133159429
 21
0.5643205197120527
 31
0.0
  0
LINE
  5
12D
330
111
100
AcDbEntity
  8
AM_9
100
AcDbLine
 10
1.443885541326512
 20
0.8428289026684153
 30
0.0
 11
0.9898710220261445
 21
0.6311184554050933
 31
0.0
  0
LINE
  5
12E
330
111
100
AcDbEntity
  8
AM_9
100
AcDbLine
 10
-0.15365
 20
1.163849999999998
 30
0.0
 11
0.15365
 21
1.163849999999998
 31
0.0
  0
LINE
  5
12F
330
111
100
AcDbEntity
  8
AM_9
100
AcDbLine
 10
-0.15365
 20
1.163849999999998
 30
0.0
 11
-0.1746859813591062
 21
1.142814018640893
 31
0.0
  0
LINE
  5
130
330
111
100
AcDbEntity
  8
AM_9
100
AcDbLine
 10
0.1752604076170069
 20
1.142239592382992
 30
0.0
 11
0.15365
 21
1.163849999999998
 31
0.0
  0
LINE
  5
131
330
111
100
AcDbEntity
  8
AM_9
100
AcDbLine
 10
0.9898710220261445
 20
0.6311184554050934
 30
0.0
 11
1.119741613859061
 21
0.3526100724487308
 31
0.0
  0
LINE
  5
132
330
111
100
AcDbEntity
  8
AM_9
100
AcDbLine
 10
0.9898710220261445
 20
0.6311184554050935
 30
0.0
 11
0.961531085551157
 21
0.641433348722985
 31
0.0
  0
LINE
  5
133
330
111
100
AcDbEntity
  8
AM_9
100
AcDbLine
 10
1.109119918982896
 20
0.3234272056201272
 30
0.0
 11
1.119741613859061
 21
0.3526100724487308
 31
0.0
  0
LINE
  5
134
330
111
100
AcDbEntity
  8
AM_5
100
AcDbLine
 10
-0.1875
 20
1.661327711688757
 30
0.0
 11
-0.1875
 21
1.139679231187443
 31
0.0
  0
LINE
  5
135
330
111
100
AcDbEntity
  8
AM_5
100
AcDbLine
 10
-0.09375
 20
1.13
 30
0.0
 11
-0.1875
 21
1.13
 31
0.0
  0
LINE
  5
136
330
111
100
AcDbEntity
  8
AM_5
100
AcDbLine
 10
0.1875
 20
1.661327711688757
 30
0.0
 11
0.1875
 21
1.139679231187443
 31
0.0
  0
LINE
  5
137
330
111
100
AcDbEntity
  8
AM_5
100
AcDbLine
 10
0.09375
 20
1.13
 30
0.0
 11
0.1875
 21
1.13
 31
0.0
  0
LINE
  5
138
330
111
100
AcDbEntity
  8
AM_5
100
AcDbLine
 10
1.584915165999679
 20
0.5321747196261843
 30
0.0
 11
1.112141086025503
 21
0.3117165455570416
 31
0.0
  0
LINE
  5
139
330
111
100
AcDbEntity
  8
AM_5
100
AcDbLine
 10
1.063748261389605
 20
0.3925922807323043
 30
0.0
 11
1.103368723427796
 21
0.3076259256976184
 31
0.0
  0
LINE
  5
13A
330
111
100
AcDbEntity
  8
AM_5
100
AcDbLine
 10
1.426433317846918
 20
0.8720401397649283
 30
0.0
 11
0.9536592378727404
 21
0.6515819656957855
 31
0.0
  0
LINE
  5
13B
330
111
100
AcDbEntity
  8
AM_5
100
AcDbLine
 10
0.9845073373132237
 20
0.5625249908016762
 30
0.0
 11
0.9448868752750332
 21
0.6474913458363621
 31
0.0
  0
ARC
  5
13C
330
111
100
AcDbEntity
  8
AM_4
100
AcDbCircle
 10
0.0000000000000013
 20
0.0000000000000018
 30
0.0
 40
1.718749999999998
100
AcDbArc
 50
30.95224868423664
 51
84.04775131576338
  0
ARC
  5
13D
330
111
100
AcDbEntity
  8
AM_4
100
AcDbCircle
 10
0.0000000000000002
 20
-0.0000000000000003
 30
0.0
 40
1.71875
100
AcDbArc
 50
95.95224868423666
 51
19.04775131576332
  0
LWPOLYLINE
  5
13E
330
111
100
AcDbEntity
  8
AM_4
100
AcDbPolyline
 90
       16
 70
     0
 43
0.0
 10
1.473993545755674
 20
0.8839935461136664
 10
1.476901296848806
 20
0.8791269088512271
 10
1.48229234462532
 20
0.8700088279071433
 10
1.490192371020866
 20
0.8564042619296152
 10
1.500144557017985
 20
0.8388475241516105
 10
1.511842231730635
 20
0.8175785154073791
 10
1.524290685623603
 20
0.7941216880186757
 10
1.537457204063934
 20
0.768327344412466
 10
1.550154160379468
 20
0.7423684323783799
 10
1.562639184269448
 20
0.7157236493827165
 10
1.58478731941901
 20
0.6652448531997145
 10
1.602820377984683
 20
0.6205387968669153
 10
1.615985871747971
 20
0.5853983471201033
 10
1.62049977674168
 20
0.572788104769368
 10
1.623369631490096
 20
0.564599505893966
 10
1.624643131723091
 20
0.560924466434642
  0
LINE
  5
13F
330
111
100
AcDbEntity
  8
AM_4
100
AcDbLine
 10
1.462102694461593
 20
0.8513237006850858
 30
0.0
 11
1.473993545755674
 21
0.8839935461136664
 31
0.0
  0
LINE
  5
140
330
111
100
AcDbEntity
  8
AM_4
100
AcDbLine
 10
1.624643131723091
 20
0.560924466434642
 30
0.0
 11
1.59197328629451
 21
0.5728153177287234
 31
0.0
  0
LWPOLYLINE
  5
141
330
111
100
AcDbEntity
  8
AM_4
100
AcDbPolyline
 90
       16
 70
     0
 43
0.0
 10
-0.1782336444086849
 20
1.709483644408685
 10
-0.172594104448499
 20
1.71006223208678
 10
-0.1620519614457741
 20
1.711094713147921
 10
-0.1463833419380951
 20
1.712505030562841
 10
-0.1262655582283066
 20
1.714104976228488
 10
-0.1020456390273909
 20
1.71571799840635
 10
-0.0755255897602287
 20
1.717086845489149
 10
-0.0465835641519924
 20
1.718118603022183
 10
-0.017690834425032
 20
1.718655243122091
 10
0.011733938982014
 20
1.718709945620833
 10
0.0668434714206103
 20
1.717449711877597
 10
0.1149820182676184
 20
1.714899617463105
 10
0.1523940596023233
 20
1.711980611192172
 10
0.1657304791233179
 20
1.710742279735518
 10
0.1743647230742378
 20
1.709882600018857
 10
0.1782336444086846
 20
1.709483644408685
  0
LINE
  5
142
330
111
100
AcDbEntity
  8
AM_4
100
AcDbLine
 10
-0.15365
 20
1.6849
 30
0.0
 11
-0.1782336444086849
 21
1.709483644408685
 31
0.0
  0
LINE
  5
143
330
111
100
AcDbEntity
  8
AM_4
100
AcDbLine
 10
0.1782336444086846
 20
1.709483644408685
 30
0.0
 11
0.15365
 21
1.6849
 31
0.0
  0
LINE
  5
144
330
111
100
AcDbEntity
  8
AM_4
100
AcDbLine
 10
0.15365
 20
1.6849
 30
0.0
 11
0.15365
 21
1.664799595484393
 31
0.0
  0
LINE
  5
145
330
111
100
AcDbEntity
  8
AM_4
100
AcDbLine
 10
0.15365
 20
1.6849
 30
0.0
 11
-0.15365
 21
1.6849
 31
0.0
  0
LINE
  5
146
330
111
100
AcDbEntity
  8
AM_4
100
AcDbLine
 10
-0.15365
 20
1.664799595484393
 30
0.0
 11
-0.15365
 21
1.6849
 31
0.0
  0
LINE
  5
147
330
111
100
AcDbEntity
  8
AM_4
100
AcDbLine
 10
1.59197328629451
 20
0.5728153177287234
 30
0.0
 11
1.573756133159429
 21
0.5643205197120528
 31
0.0
  0
LINE
  5
148
330
111
100
AcDbEntity
  8
AM_4
100
AcDbLine
 10
1.59197328629451
 20
0.5728153177287234
 30
0.0
 11
1.462102694461593
 21
0.8513237006850858
 31
0.0
  0
LINE
  5
149
330
111
100
AcDbEntity
  8
AM_4
100
AcDbLine
 10
1.443885541326512
 20
0.8428289026684154
 30
0.0
 11
1.462102694461593
 21
0.8513237006850858
 31
0.0
  0
CIRCLE
  5
14A
330
111
100
AcDbEntity
  8
AM_4
100
AcDbCircle
 10
0.0
 20
0.0
 30
0.0
 40
1.155
  0
CIRCLE
  5
14B
330
111
100
AcDbEntity
  8
AM_4
100
AcDbCircle
 10
0.0
 20
0.0
 30
0.0
 40
1.566208333333333
  0
CIRCLE
  5
14C
330
111
100
AcDbEntity
  8
AM_4
100
AcDbCircle
 10
-0.0000000000000001
 20
-0.0000000000000001
 30
0.0
 40
1.671875
  0
ENDBLK
  5
114
330
111
100
AcDbEntity
  8
0
100
AcDbBlockEnd
  0
BLOCK
  5
14F
330
14D
100
AcDbEntity
  8
0
100
AcDbBlockBegin
  2
4_070005i_0_in_070811_0
 70
     2
 10
0.0
 20
0.0
 30
0.0
  3
4_070005i_0_in_070811_0
  1

  0
ATTDEF
  5
151
330
14D
100
AcDbEntity
  8
AM_6
100
AcDbText
 10
6.771447509389684
 20
1.700784
 30
0.0
 40
0.5
  1
S-2000 Insert -Inch
100
AcDbAttributeDefinition
  3

  2
NN
 70
     8
280
     0
  0
ATTDEF
  5
152
330
14D
100
AcDbEntity
  8
AM_6
100
AcDbText
 10
6.771447509389684
 20
1.200784
 30
0.0
 40
0.5
  1
S-2000 Bearings
100
AcDbAttributeDefinition
  3

  2
NT
 70
     8
280
     0
  0
ATTDEF
  5
153
330
14D
100
AcDbEntity
  8
AM_6
100
AcDbText
 10
6.771447509389684
 20
0.7007839999999999
 30
0.0
 40
0.5
  1
070005i
100
AcDbAttributeDefinition
  3

  2
NB
 70
     8
280
     0
  0
ATTDEF
  5
154
330
14D
100
AcDbEntity
  8
AM_6
100
AcDbText
 10
6.771447509389684
 20
0.2007839999999999
 30
0.0
 40
0.5
  1
$PN.i
100
AcDbAttributeDefinition
  3

  2
NBSYN
 70
     8
280
     0
  0
ATTDEF
  5
155
330
14D
100
AcDbEntity
  8
AM_6
100
AcDbText
 10
6.771447509389684
 20
-0.2992160000000001
 30
0.0
 40
0.5
  1
070005i
100
AcDbAttributeDefinition
  3

  2
LINA
 70
     8
280
     0
  0
ATTDEF
  5
156
330
14D
100
AcDbEntity
  8
AM_6
100
AcDbText
 10
6.771447509389684
 20
-0.7992160000000001
 30
0.0
 40
0.5
  1
1-15/16
100
AcDbAttributeDefinition
  3

  2
SS
 70
     8
280
     0
  0
ATTDEF
  5
157
330
14D
100
AcDbEntity
  8
AM_6
100
AcDbText
 10
6.771447509389684
 20
-1.299216
 30
0.0
 40
0.5
  1
2.31
100
AcDbAttributeDefinition
  3

  2
CC
 70
     8
280
     0
  0
ATTDEF
  5
158
330
14D
100
AcDbEntity
  8
AM_6
100
AcDbText
 10
6.771447509389684
 20
-1.799216
 30
0.0
 40
0.5
  1
1.937500
100
AcDbAttributeDefinition
  3

  2
SS1
 70
     8
280
     0
  0
ATTDEF
  5
159
330
14D
100
AcDbEntity
  8
AM_6
100
AcDbText
 10
6.771447509389684
 20
-2.299216
 30
0.0
 40
0.5
  1
070005
100
AcDbAttributeDefinition
  3

  2
PN
 70
     8
280
     0
  0
ATTDEF
  5
15A
330
14D
100
AcDbEntity
  8
AM_6
100
AcDbText
 10
6.771447509389684
 20
-2.799216
 30
0.0
 40
0.5
  1
INS-S2-115R
100
AcDbAttributeDefinition
  3

  2
DESCRIPTION
 70
     8
280
     0
  0
ATTDEF
  5
15B
330
14D
100
AcDbEntity
  8
AM_6
100
AcDbText
 10
6.771447509389684
 20
-3.299216
 30
0.0
 40
0.5
  1
Contact Seal
100
AcDbAttributeDefinition
  3

  2
ST
 70
     8
280
     0
  0
ATTDEF
  5
15C
330
14D
100
AcDbEntity
  8
AM_6
100
AcDbText
 10
6.771447509389684
 20
-3.799216
 30
0.0
 40
0.5
  1
1
100
AcDbAttributeDefinition
  3

  2
ST1
 70
     8
280
     0
  0
ATTDEF
  5
15D
330
14D
100
AcDbEntity
  8
AM_6
100
AcDbText
 10
6.771447509389684
 20
-4.299216
 30
0.0
 40
0.5
  1
3.5433
100
AcDbAttributeDefinition
  3

  2
A
 70
     8
280
     0
  0
ATTDEF
  5
15E
330
14D
100
AcDbEntity
  8
AM_6
100
AcDbText
 10
6.771447509389684
 20
-4.799216
 30
0.0
 40
0.5
  1
61/64
100
AcDbAttributeDefinition
  3

  2
B
 70
     8
280
     0
  0
ATTDEF
  5
15F
330
14D
100
AcDbEntity
  8
AM_6
100
AcDbText
 10
6.771447509389684
 20
-5.299216
 30
0.0
 40
0.5
  1
2-27/32
100
AcDbAttributeDefinition
  3

  2
C
 70
     8
280
     0
  0
ATTDEF
  5
160
330
14D
100
AcDbEntity
  8
AM_6
100
AcDbText
 10
6.771447509389684
 20
-5.799216
 30
0.0
 40
0.5
  1
0.977
100
AcDbAttributeDefinition
  3

  2
D
 70
     8
280
     0
  0
ATTDEF
  5
161
330
14D
100
AcDbEntity
  8
AM_6
100
AcDbText
 10
6.771447509389684
 20
-6.299216
 30
0.0
 40
0.5
  1
3-11/32
100
AcDbAttributeDefinition
  3

  2
E
 70
     8
280
     0
  0
ATTDEF
  5
162
330
14D
100
AcDbEntity
  8
AM_6
100
AcDbText
 10
6.771447509389684
 20
-6.799216
 30
0.0
 40
0.5
  1
0.53125
100
AcDbAttributeDefinition
  3

  2
F
 70
     8
280
     0
  0
ATTDEF
  5
163
330
14D
100
AcDbEntity
  8
AM_6
100
AcDbText
 10
6.771447509389684
 20
-7.299216
 30
0.0
 40
0.5
  1
1
100
AcDbAttributeDefinition
  3

  2
DD
 70
     8
280
     0
  0
ATTDEF
  5
164
330
14D
100
AcDbEntity
  8
AM_6
100
AcDbText
 10
6.771447509389684
 20
-7.799216
 30
0.0
 40
0.5
  1
baldor
100
AcDbAttributeDefinition
  3

  2
COMPANY
 70
     8
280
     0
  0
CIRCLE
  5
165
330
14D
100
AcDbEntity
  8
AM_9
100
AcDbCircle
 10
0.0
 20
0.0
 30
0.0
 40
1.700784
  0
ARC
  5
166
330
14D
100
AcDbEntity
  8
AM_9
100
AcDbCircle
 10
0.0
 20
0.0
 30
0.0
 40
1.77165
100
AcDbArc
 50
106.5881688805835
 51
73.41183111941655
  0
CIRCLE
  5
167
330
14D
100
AcDbEntity
  8
AM_9
100
AcDbCircle
 10
0.0
 20
0.0
 30
0.0
 40
1.6763375
  0
LINE
  5
168
330
14D
100
AcDbEntity
  8
AM_9
100
AcDbLine
 10
0.943627691988501
 20
0.6662132926086751
 30
0.0
 11
0.7715733820445463
 21
0.5859830502632352
 31
0.0
  0
LINE
  5
169
330
14D
100
AcDbEntity
  8
AM_9
100
AcDbLine
 10
0.94473916165808
 20
0.2143466326527852
 30
0.0
 11
1.116802165255484
 21
0.2945809289154057
 31
0.0
  0
LINE
  5
16A
330
14D
100
AcDbEntity
  8
AM_9
100
AcDbLine
 10
-0.2049999999999999
 20
1.136771028983426
 30
0.0
 11
-0.2049999999999999
 21
0.9469301025289373
 31
0.0
  0
LINE
  5
16B
330
14D
100
AcDbEntity
  8
AM_9
100
AcDbLine
 10
0.205
 20
0.9468112602308868
 30
0.0
 11
0.2049999999999999
 21
1.136661779070625
 31
0.0
  0
CIRCLE
  5
16C
330
14D
100
AcDbEntity
  8
AM_9
100
AcDbCircle
 10
0.0000000000000002
 20
0.0000000000000001
 30
0.0
 40
1.41732
  0
CIRCLE
  5
16D
330
14D
100
AcDbEntity
  8
AM_9
100
AcDbCircle
 10
-0.0000000000000001
 20
0.0000000000000001
 30
0.0
 40
1.3220075
  0
LINE
  5
16E
330
14D
100
AcDbEntity
  8
AM_7
100
AcDbLine
 10
-0.053681307386017
 20
-0.0250320047338722
 30
0.0
 11
1.584395944450133
 21
0.738815962446819
 31
0.0
  0
CIRCLE
  5
16F
330
14D
100
AcDbEntity
  8
AM_4
100
AcDbCircle
 10
0.0
 20
0.0
 30
0.0
 40
0.96875
  0
CIRCLE
  5
170
330
14D
100
AcDbEntity
  8
AM_4
100
AcDbCircle
 10
0.0
 20
0.0
 30
0.0
 40
1.155
  0
ENDBLK
  5
150
330
14D
100
AcDbEntity
  8
0
100
AcDbBlockEnd
  0
BLOCK
  5
173
330
171
100
AcDbEntity
  8
0
100
AcDbBlockBegin
  2
5_070811H_0_in_070811_0
 70
     2
 10
0.0
 20
0.0
 30
0.0
  3
5_070811H_0_in_070811_0
  1

  0
ATTDEF
  5
175
330
171
100
AcDbEntity
  8
AM_6
100
AcDbText
 10
8.25
 20
3.375
 30
0.0
 40
0.5
  1
TPHU-S2 -(Contact Seal)-Housing
100
AcDbAttributeDefinition
  3

  2
NN
 70
     8
280
     0
  0
ATTDEF
  5
176
330
171
100
AcDbEntity
  8
AM_6
100
AcDbText
 10
8.25
 20
2.875
 30
0.0
 40
0.5
  1
S-2000 TPHU Take-Up Bearing -Inch
100
AcDbAttributeDefinition
  3

  2
NT
 70
     8
280
     0
  0
ATTDEF
  5
177
330
171
100
AcDbEntity
  8
AM_6
100
AcDbText
 10
8.25
 20
2.375
 30
0.0
 40
0.5
  1
070811H
100
AcDbAttributeDefinition
  3

  2
NB
 70
     8
280
     0
  0
ATTDEF
  5
178
330
171
100
AcDbEntity
  8
AM_6
100
AcDbText
 10
8.25
 20
1.875
 30
0.0
 40
0.5
  1
$PN.H
100
AcDbAttributeDefinition
  3

  2
NBSYN
 70
     8
280
     0
  0
ATTDEF
  5
179
330
171
100
AcDbEntity
  8
AM_6
100
AcDbText
 10
8.25
 20
1.375
 30
0.0
 40
0.5
  1
070811
100
AcDbAttributeDefinition
  3

  2
LINA
 70
     8
280
     0
  0
ATTDEF
  5
17A
330
171
100
AcDbEntity
  8
AM_6
100
AcDbText
 10
8.25
 20
0.8750000000000004
 30
0.0
 40
0.5
  1
1-15/16
100
AcDbAttributeDefinition
  3

  2
SS
 70
     8
280
     0
  0
ATTDEF
  5
17B
330
171
100
AcDbEntity
  8
AM_6
100
AcDbText
 10
8.25
 20
0.3750000000000004
 30
0.0
 40
0.5
  1
3.5433
100
AcDbAttributeDefinition
  3

  2
BORE
 70
     8
280
     0
  0
ATTDEF
  5
17C
330
171
100
AcDbEntity
  8
AM_6
100
AcDbText
 10
8.25
 20
-0.1249999999999996
 30
0.0
 40
0.5
  1
1.937500
100
AcDbAttributeDefinition
  3

  2
SS1
 70
     8
280
     0
  0
ATTDEF
  5
17D
330
171
100
AcDbEntity
  8
AM_6
100
AcDbText
 10
8.25
 20
-0.6249999999999996
 30
0.0
 40
0.5
  1
070811
100
AcDbAttributeDefinition
  3

  2
PN
 70
     8
280
     0
  0
ATTDEF
  5
17E
330
171
100
AcDbEntity
  8
AM_6
100
AcDbText
 10
8.25
 20
-1.125
 30
0.0
 40
0.5
  1
TPHU-S2-115R
100
AcDbAttributeDefinition
  3

  2
DESCRIPTION
 70
     8
280
     0
  0
ATTDEF
  5
17F
330
171
100
AcDbEntity
  8
AM_6
100
AcDbText
 10
8.25
 20
-1.625
 30
0.0
 40
0.5
  1
Non-Expansion Type
100
AcDbAttributeDefinition
  3

  2
EF
 70
     8
280
     0
  0
ATTDEF
  5
180
330
171
100
AcDbEntity
  8
AM_6
100
AcDbText
 10
8.25
 20
-2.125
 30
0.0
 40
0.5
  1
1
100
AcDbAttributeDefinition
  3

  2
EF1
 70
     8
280
     0
  0
ATTDEF
  5
181
330
171
100
AcDbEntity
  8
AM_6
100
AcDbText
 10
8.25
 20
-2.625
 30
0.0
 40
0.5
  1
Contact Seal
100
AcDbAttributeDefinition
  3

  2
ST
 70
     8
280
     0
  0
ATTDEF
  5
182
330
171
100
AcDbEntity
  8
AM_6
100
AcDbText
 10
8.25
 20
-3.125
 30
0.0
 40
0.5
  1
1
100
AcDbAttributeDefinition
  3

  2
ST1
 70
     8
280
     0
  0
ATTDEF
  5
183
330
171
100
AcDbEntity
  8
AM_6
100
AcDbText
 10
8.25
 20
-3.625
 30
0.0
 40
0.5
  1
2-27/32
100
AcDbAttributeDefinition
  3

  2
A
 70
     8
280
     0
  0
ATTDEF
  5
184
330
171
100
AcDbEntity
  8
AM_6
100
AcDbText
 10
8.25
 20
-4.125
 30
0.0
 40
0.5
  1
2.8437500
100
AcDbAttributeDefinition
  3

  2
A1
 70
     8
280
     0
  0
ATTDEF
  5
185
330
171
100
AcDbEntity
  8
AM_6
100
AcDbText
 10
8.25
 20
-4.625
 30
0.0
 40
0.5
  1
2-3/8
100
AcDbAttributeDefinition
  3

  2
B
 70
     8
280
     0
  0
ATTDEF
  5
186
330
171
100
AcDbEntity
  8
AM_6
100
AcDbText
 10
8.25
 20
-5.125
 30
0.0
 40
0.5
  1
2.375000
100
AcDbAttributeDefinition
  3

  2
B1
 70
     8
280
     0
  0
ATTDEF
  5
187
330
171
100
AcDbEntity
  8
AM_6
100
AcDbText
 10
8.25
 20
-5.625
 30
0.0
 40
0.5
  1
13/16
100
AcDbAttributeDefinition
  3

  2
C
 70
     8
280
     0
  0
ATTDEF
  5
188
330
171
100
AcDbEntity
  8
AM_6
100
AcDbText
 10
8.25
 20
-6.125
 30
0.0
 40
0.5
  1
0.812500
100
AcDbAttributeDefinition
  3

  2
C1
 70
     8
280
     0
  0
ATTDEF
  5
189
330
171
100
AcDbEntity
  8
AM_6
100
AcDbText
 10
8.25
 20
-6.625
 30
0.0
 40
0.5
  1
5-1/4
100
AcDbAttributeDefinition
  3

  2
D
 70
     8
280
     0
  0
ATTDEF
  5
18A
330
171
100
AcDbEntity
  8
AM_6
100
AcDbText
 10
8.25
 20
-7.125
 30
0.0
 40
0.5
  1
5.250000
100
AcDbAttributeDefinition
  3

  2
D1
 70
     8
280
     0
  0
ATTDEF
  5
18B
330
171
100
AcDbEntity
  8
AM_6
100
AcDbText
 10
8.25
 20
-7.625
 30
0.0
 40
0.5
  1
2-3/8
100
AcDbAttributeDefinition
  3

  2
E
 70
     8
280
     0
  0
ATTDEF
  5
18C
330
171
100
AcDbEntity
  8
AM_6
100
AcDbText
 10
8.25
 20
-8.125
 30
0.0
 40
0.5
  1
2.375000
100
AcDbAttributeDefinition
  3

  2
E1
 70
     8
280
     0
  0
ATTDEF
  5
18D
330
171
100
AcDbEntity
  8
AM_6
100
AcDbText
 10
8.25
 20
-8.625
 30
0.0
 40
0.5
  1
1-1/16
100
AcDbAttributeDefinition
  3

  2
F
 70
     8
280
     0
  0
ATTDEF
  5
18E
330
171
100
AcDbEntity
  8
AM_6
100
AcDbText
 10
8.25
 20
-9.125
 30
0.0
 40
0.5
  1
1.062500
100
AcDbAttributeDefinition
  3

  2
F1
 70
     8
280
     0
  0
ATTDEF
  5
18F
330
171
100
AcDbEntity
  8
AM_6
100
AcDbText
 10
8.25
 20
-9.625
 30
0.0
 40
0.5
  1
7/16
100
AcDbAttributeDefinition
  3

  2
G
 70
     8
280
     0
  0
ATTDEF
  5
190
330
171
100
AcDbEntity
  8
AM_6
100
AcDbText
 10
8.25
 20
-10.125
 30
0.0
 40
0.5
  1
0.437500
100
AcDbAttributeDefinition
  3

  2
G1
 70
     8
280
     0
  0
ATTDEF
  5
191
330
171
100
AcDbEntity
  8
AM_6
100
AcDbText
 10
8.25
 20
-10.625
 30
0.0
 40
0.5
  1
6-1/2
100
AcDbAttributeDefinition
  3

  2
H
 70
     8
280
     0
  0
ATTDEF
  5
192
330
171
100
AcDbEntity
  8
AM_6
100
AcDbText
 10
8.25
 20
-11.125
 30
0.0
 40
0.5
  1
6.500000
100
AcDbAttributeDefinition
  3

  2
H1
 70
     8
280
     0
  0
ATTDEF
  5
193
330
171
100
AcDbEntity
  8
AM_6
100
AcDbText
 10
8.25
 20
-11.625
 30
0.0
 40
0.5
  1
6-7/16
100
AcDbAttributeDefinition
  3

  2
J
 70
     8
280
     0
  0
ATTDEF
  5
194
330
171
100
AcDbEntity
  8
AM_6
100
AcDbText
 10
8.25
 20
-12.125
 30
0.0
 40
0.5
  1
6.437500
100
AcDbAttributeDefinition
  3

  2
J1
 70
     8
280
     0
  0
ATTDEF
  5
195
330
171
100
AcDbEntity
  8
AM_6
100
AcDbText
 10
8.25
 20
-12.625
 30
0.0
 40
0.5
  1
3-1/16
100
AcDbAttributeDefinition
  3

  2
K
 70
     8
280
     0
  0
ATTDEF
  5
196
330
171
100
AcDbEntity
  8
AM_6
100
AcDbText
 10
8.25
 20
-13.125
 30
0.0
 40
0.5
  1
3.062500
100
AcDbAttributeDefinition
  3

  2
K1
 70
     8
280
     0
  0
ATTDEF
  5
197
330
171
100
AcDbEntity
  8
AM_6
100
AcDbText
 10
8.25
 20
-13.625
 30
0.0
 40
0.5
  1
3-7/16
100
AcDbAttributeDefinition
  3

  2
L
 70
     8
280
     0
  0
ATTDEF
  5
198
330
171
100
AcDbEntity
  8
AM_6
100
AcDbText
 10
8.25
 20
-14.125
 30
0.0
 40
0.5
  1
3.4375000
100
AcDbAttributeDefinition
  3

  2
L1
 70
     8
280
     0
  0
ATTDEF
  5
199
330
171
100
AcDbEntity
  8
AM_6
100
AcDbText
 10
8.25
 20
-14.625
 30
0.0
 40
0.5
  1
6
100
AcDbAttributeDefinition
  3

  2
M
 70
     8
280
     0
  0
ATTDEF
  5
19A
330
171
100
AcDbEntity
  8
AM_6
100
AcDbText
 10
8.25
 20
-15.125
 30
0.0
 40
0.5
  1
6.000000
100
AcDbAttributeDefinition
  3

  2
M1
 70
     8
280
     0
  0
ATTDEF
  5
19B
330
171
100
AcDbEntity
  8
AM_6
100
AcDbText
 10
8.25
 20
-15.625
 30
0.0
 40
0.5
  1
1-21/32
100
AcDbAttributeDefinition
  3

  2
N
 70
     8
280
     0
  0
ATTDEF
  5
19C
330
171
100
AcDbEntity
  8
AM_6
100
AcDbText
 10
8.25
 20
-16.125
 30
0.0
 40
0.5
  1
1.656250
100
AcDbAttributeDefinition
  3

  2
N1
 70
     8
280
     0
  0
ATTDEF
  5
19D
330
171
100
AcDbEntity
  8
AM_6
100
AcDbText
 10
8.25
 20
-16.625
 30
0.0
 40
0.5
  1
1-1/4
100
AcDbAttributeDefinition
  3

  2
P
 70
     8
280
     0
  0
ATTDEF
  5
19E
330
171
100
AcDbEntity
  8
AM_6
100
AcDbText
 10
8.25
 20
-17.125
 30
0.0
 40
0.5
  1
1.250000
100
AcDbAttributeDefinition
  3

  2
P1
 70
     8
280
     0
  0
ATTDEF
  5
19F
330
171
100
AcDbEntity
  8
AM_6
100
AcDbText
 10
8.25
 20
-17.625
 30
0.0
 40
0.5
  1
13/16
100
AcDbAttributeDefinition
  3

  2
Q
 70
     8
280
     0
  0
ATTDEF
  5
1A0
330
171
100
AcDbEntity
  8
AM_6
100
AcDbText
 10
8.25
 20
-18.125
 30
0.0
 40
0.5
  1
0.812500
100
AcDbAttributeDefinition
  3

  2
Q1
 70
     8
280
     0
  0
ATTDEF
  5
1A1
330
171
100
AcDbEntity
  8
AM_6
100
AcDbText
 10
8.25
 20
-18.625
 30
0.0
 40
0.5
  1
3-3/16
100
AcDbAttributeDefinition
  3

  2
R
 70
     8
280
     0
  0
ATTDEF
  5
1A2
330
171
100
AcDbEntity
  8
AM_6
100
AcDbText
 10
8.25
 20
-19.125
 30
0.0
 40
0.5
  1
3.187500
100
AcDbAttributeDefinition
  3

  2
R1
 70
     8
280
     0
  0
ATTDEF
  5
1A3
330
171
100
AcDbEntity
  8
AM_6
100
AcDbText
 10
8.25
 20
-19.625
 30
0.0
 40
0.5
  1
2
100
AcDbAttributeDefinition
  3

  2
S
 70
     8
280
     0
  0
ATTDEF
  5
1A4
330
171
100
AcDbEntity
  8
AM_6
100
AcDbText
 10
8.25
 20
-20.125
 30
0.0
 40
0.5
  1
2.000000
100
AcDbAttributeDefinition
  3

  2
S1
 70
     8
280
     0
  0
ATTDEF
  5
1A5
330
171
100
AcDbEntity
  8
AM_6
100
AcDbText
 10
8.25
 20
-20.625
 30
0.0
 40
0.5
  1
5/16
100
AcDbAttributeDefinition
  3

  2
T
 70
     8
280
     0
  0
ATTDEF
  5
1A6
330
171
100
AcDbEntity
  8
AM_6
100
AcDbText
 10
8.25
 20
-21.125
 30
0.0
 40
0.5
  1
0.312500
100
AcDbAttributeDefinition
  3

  2
T1
 70
     8
280
     0
  0
ATTDEF
  5
1A7
330
171
100
AcDbEntity
  8
AM_6
100
AcDbText
 10
8.25
 20
-21.625
 30
0.0
 40
0.5
  1
1-1/16
100
AcDbAttributeDefinition
  3

  2
U
 70
     8
280
     0
  0
ATTDEF
  5
1A8
330
171
100
AcDbEntity
  8
AM_6
100
AcDbText
 10
8.25
 20
-22.125
 30
0.0
 40
0.5
  1
1.062500
100
AcDbAttributeDefinition
  3

  2
U1
 70
     8
280
     0
  0
ATTDEF
  5
1A9
330
171
100
AcDbEntity
  8
AM_6
100
AcDbText
 10
8.25
 20
-22.625
 30
0.0
 40
0.5
  1
2
100
AcDbAttributeDefinition
  3

  2
V
 70
     8
280
     0
  0
ATTDEF
  5
1AA
330
171
100
AcDbEntity
  8
AM_6
100
AcDbText
 10
8.25
 20
-23.125
 30
0.0
 40
0.5
  1
2.000000
100
AcDbAttributeDefinition
  3

  2
V1
 70
     8
280
     0
  0
ATTDEF
  5
1AB
330
171
100
AcDbEntity
  8
AM_6
100
AcDbText
 10
8.25
 20
-23.625
 30
0.0
 40
0.5
  1
7/8
100
AcDbAttributeDefinition
  3

  2
W
 70
     8
280
     0
  0
ATTDEF
  5
1AC
330
171
100
AcDbEntity
  8
AM_6
100
AcDbText
 10
8.25
 20
-24.125
 30
0.0
 40
0.5
  1
0.875000
100
AcDbAttributeDefinition
  3

  2
W1
 70
     8
280
     0
  0
ATTDEF
  5
1AD
330
171
100
AcDbEntity
  8
AM_6
100
AcDbText
 10
8.25
 20
-24.625
 30
0.0
 40
0.5
  1
1/4
100
AcDbAttributeDefinition
  3

  2
X
 70
     8
280
     0
  0
ATTDEF
  5
1AE
330
171
100
AcDbEntity
  8
AM_6
100
AcDbText
 10
8.25
 20
-25.125
 30
0.0
 40
0.5
  1
0.250000
100
AcDbAttributeDefinition
  3

  2
X1
 70
     8
280
     0
  0
ATTDEF
  5
1AF
330
171
100
AcDbEntity
  8
AM_6
100
AcDbText
 10
8.25
 20
-25.625
 30
0.0
 40
0.5
  1
0.020
100
AcDbAttributeDefinition
  3

  2
Y
 70
     8
280
     0
  0
ATTDEF
  5
1B0
330
171
100
AcDbEntity
  8
AM_6
100
AcDbText
 10
8.25
 20
-26.125
 30
0.0
 40
0.5
  1
2-19/64
100
AcDbAttributeDefinition
  3

  2
Z
 70
     8
280
     0
  0
ATTDEF
  5
1B1
330
171
100
AcDbEntity
  8
AM_6
100
AcDbText
 10
8.25
 20
-26.625
 30
0.0
 40
0.5
  1
2.296875
100
AcDbAttributeDefinition
  3

  2
Z1
 70
     8
280
     0
  0
ATTDEF
  5
1B2
330
171
100
AcDbEntity
  8
AM_6
100
AcDbText
 10
8.25
 20
-27.125
 30
0.0
 40
0.5
  1
baldor
100
AcDbAttributeDefinition
  3

  2
COMPANY
 70
     8
280
     0
  0
LINE
  5
1B3
330
171
100
AcDbEntity
  8
AM_9
100
AcDbLine
 10
3.0
 20
2.375
 30
0.0
 11
1.733253175473055
 21
2.375
 31
0.0
  0
LINE
  5
1B4
330
171
100
AcDbEntity
  8
AM_9
100
AcDbLine
 10
-1.733253175473055
 20
2.375
 30
0.0
 11
-3.0
 21
2.375
 31
0.0
  0
LINE
  5
1B5
330
171
100
AcDbEntity
  8
AM_9
100
AcDbLine
 10
-2.1875
 20
1.9375
 30
0.0
 11
2.1875
 21
1.9375
 31
0.0
  0
LINE
  5
1B6
330
171
100
AcDbEntity
  8
AM_9
100
AcDbLine
 10
2.33977789004885
 20
0.4075100308440897
 30
0.0
 11
2.336917123182805
 21
0.4236075534914362
 31
0.0
  0
LWPOLYLINE
  5
1B7
330
171
100
AcDbEntity
  8
AM_9
100
AcDbPolyline
 90
        5
 70
     0
 43
0.0
 10
2.374787325072457
 20
-0.031783024953628
 10
2.375
 20
0.0
 10
2.373532883515995
 20
0.082910483448213
 10
2.36936825444273
 20
0.1634597040221527
 10
2.36814689471866
 20
0.1802922212253352
  0
LWPOLYLINE
  5
1B8
330
171
100
AcDbEntity
  8
AM_9
100
AcDbPolyline
 90
        5
 70
     0
 43
0.0
 10
2.336917123182805
 20
-0.4236075534914363
 10
2.340768939916785
 20
-0.4017782596418715
 10
2.349587634126466
 20
-0.3464593392609525
 10
2.358260934611415
 20
-0.2814788878152238
 10
2.360395310656902
 20
-0.262980944992051
  0
LINE
  5
1B9
330
171
100
AcDbEntity
  8
AM_9
100
AcDbLine
 10
-1.75
 20
3.0625
 30
0.0
 11
-2.1875
 21
3.0625
 31
0.0
  0
LINE
  5
1BA
330
171
100
AcDbEntity
  8
AM_9
100
AcDbLine
 10
2.1875
 20
3.0625
 30
0.0
 11
1.75
 21
3.0625
 31
0.0
  0
LINE
  5
1BB
330
171
100
AcDbEntity
  8
AM_9
100
AcDbLine
 10
-2.1875
 20
3.375
 30
0.0
 11
-2.1875
 21
1.71875
 31
0.0
  0
LINE
  5
1BC
330
171
100
AcDbEntity
  8
AM_9
100
AcDbLine
 10
2.1875
 20
3.375
 30
0.0
 11
2.1875
 21
1.71875
 31
0.0
  0
LINE
  5
1BD
330
171
100
AcDbEntity
  8
AM_9
100
AcDbLine
 10
-3.0
 20
1.71875
 30
0.0
 11
-2.1875
 21
1.71875
 31
0.0
  0
LINE
  5
1BE
330
171
100
AcDbEntity
  8
AM_9
100
AcDbLine
 10
2.1875
 20
1.71875
 30
0.0
 11
3.0
 21
1.71875
 31
0.0
  0
LINE
  5
1BF
330
171
100
AcDbEntity
  8
AM_9
100
AcDbLine
 10
-2.0
 20
-2.0625
 30
0.0
 11
-3.25
 21
-2.0625
 31
0.0
  0
LINE
  5
1C0
330
171
100
AcDbEntity
  8
AM_9
100
AcDbLine
 10
3.25
 20
-2.0625
 30
0.0
 11
2.0
 21
-2.0625
 31
0.0
  0
LINE
  5
1C1
330
171
100
AcDbEntity
  8
AM_9
100
AcDbLine
 10
-2.0
 20
-2.021875000000001
 30
0.0
 11
-2.0
 21
-3.0625
 31
0.0
  0
LINE
  5
1C2
330
171
100
AcDbEntity
  8
AM_9
100
AcDbLine
 10
2.0
 20
-2.021875000000001
 30
0.0
 11
-2.0
 21
-2.021875000000001
 31
0.0
  0
LINE
  5
1C3
330
171
100
AcDbEntity
  8
AM_9
100
AcDbLine
 10
2.0
 20
-2.021875000000001
 30
0.0
 11
2.0
 21
-3.0625
 31
0.0
  0
LINE
  5
1C4
330
171
100
AcDbEntity
  8
AM_7
100
AcDbLine
 10
-0.0000000000000001
 20
-1.8602325
 30
0.0
 11
-0.0000000000000001
 21
1.8602325
 31
0.0
  0
ARC
  5
1C5
330
171
100
AcDbEntity
  8
AM_4
100
AcDbCircle
 10
2.749999999999999
 20
1.39273498706228
 30
0.0
 40
0.2500000000000004
100
AcDbArc
 50
322.2193571229879
 51
0.0
  0
ARC
  5
1C6
330
171
100
AcDbEntity
  8
AM_4
100
AcDbCircle
 10
4.749824358299869
 20
-0.1574059319026977
 30
0.0
 40
2.280263688373026
100
AcDbArc
 50
142.2193571229876
 51
165.3496104744423
  0
ARC
  5
1C7
330
171
100
AcDbEntity
  8
AM_4
100
AcDbCircle
 10
-4.749824358299893
 20
-0.1574059319027109
 30
0.0
 40
2.280263688373053
100
AcDbArc
 50
320.0378699003155
 51
37.78064300938929
  0
ARC
  5
1C8
330
171
100
AcDbEntity
  8
AM_4
100
AcDbCircle
 10
-2.750000000000005
 20
1.392734987062277
 30
0.0
 40
0.2499999999999942
100
AcDbArc
 50
180.0
 51
217.7806416695944
  0
ARC
  5
1C9
330
171
100
AcDbEntity
  8
AM_4
100
AcDbCircle
 10
4.7498243582999
 20
-0.1574059319027091
 30
0.0
 40
2.28026368837306
100
AcDbArc
 50
186.7040878328014
 51
219.9621300996845
  0
LWPOLYLINE
  5
1CA
330
171
100
AcDbEntity
  8
AM_4
100
AcDbPolyline
 90
        6
 70
     0
 43
0.0
 10
-3.109445025462684
 20
-1.741311905410368
 10
-3.092902929519574
 20
-1.723999008410223
 10
-3.063991061885763
 20
-1.692843519437336
 10
-3.043024264467753
 20
-1.669497522651024
 10
-3.02128501981073
 20
-1.644602705637824
 10
-3.002072634976262
 20
-1.62197631332245
  0
LINE
  5
1CB
330
171
100
AcDbEntity
  8
AM_4
100
AcDbLine
 10
-1.734882658574035
 20
-1.62197631332245
 30
0.0
 11
-3.002072634976262
 21
-1.621976313322449
 31
0.0
  0
LWPOLYLINE
  5
1CC
330
171
100
AcDbEntity
  8
AM_4
100
AcDbPolyline
 90
        6
 70
     0
 43
0.0
 10
3.002072634976262
 20
-1.62197631332245
 10
3.042871837540955
 20
-1.669330394429654
 10
3.065167394108625
 20
-1.694126740498384
 10
3.085502832570377
 20
-1.716135012758669
 10
3.104352274160976
 20
-1.736020548847647
 10
3.109445025462685
 20
-1.741311905410368
  0
LINE
  5
1CD
330
171
100
AcDbEntity
  8
AM_4
100
AcDbLine
 10
3.002072634976262
 20
-1.621976313322449
 30
0.0
 11
1.734882658574035
 21
-1.621976313322455
 31
0.0
  0
LINE
  5
1CE
330
171
100
AcDbEntity
  8
AM_4
100
AcDbLine
 10
3.0
 20
1.458333333333334
 30
0.0
 11
1.874536979866998
 21
1.458333333333333
 31
0.0
  0
LINE
  5
1CF
330
171
100
AcDbEntity
  8
AM_4
100
AcDbLine
 10
-1.874536979866998
 20
1.458333333333333
 30
0.0
 11
-2.999999999999997
 21
1.458333333333334
 31
0.0
  0
LWPOLYLINE
  5
1D0
330
171
100
AcDbEntity
  8
AM_4
100
AcDbPolyline
 90
        4
 70
     0
 43
0.0
 10
2.525
 20
0.4236075534914362
 10
2.526168632073023
 20
0.423591431318783
 10
2.540320840947816
 20
0.4207659871372577
 10
2.543698631111883
 20
0.4193191016720878
  0
LINE
  5
1D1
330
171
100
AcDbEntity
  8
AM_4
100
AcDbLine
 10
2.575
 20
0.4499999999999995
 30
0.0
 11
2.575
 21
-0.4499999999999995
 31
0.0
  0
ARC
  5
1D2
330
171
100
AcDbEntity
  8
AM_4
100
AcDbCircle
 10
2.524999999999999
 20
-0.4499999999999994
 30
0.0
 40
0.0500000000000006
100
AcDbArc
 50
270.0
 51
0.0
  0
ARC
  5
1D3
330
171
100
AcDbEntity
  8
AM_4
100
AcDbCircle
 10
2.525000000000002
 20
0.4500000000000005
 30
0.0
 40
0.049999999999998
100
AcDbArc
 50
0.0
 51
41.46692062727798
  0
LINE
  5
1D4
330
171
100
AcDbEntity
  8
AM_4
100
AcDbLine
 10
2.525
 20
0.4236075534914362
 30
0.0
 11
2.525
 21
-0.5
 31
0.0
  0
LINE
  5
1D5
330
171
100
AcDbEntity
  8
AM_4
100
AcDbLine
 10
2.525
 20
0.4236075534914362
 30
0.0
 11
2.336917123182805
 21
0.4236075534914363
 31
0.0
  0
LINE
  5
1D6
330
171
100
AcDbEntity
  8
AM_4
100
AcDbLine
 10
2.336917123182805
 20
-0.4236075534914363
 30
0.0
 11
2.485152376494093
 21
-0.4236075534914363
 31
0.0
  0
LINE
  5
1D7
330
171
100
AcDbEntity
  8
AM_4
100
AcDbLine
 10
2.495443779733526
 20
-0.5
 30
0.0
 11
2.525
 21
-0.5
 31
0.0
  0
ARC
  5
1D8
330
171
100
AcDbEntity
  8
AM_4
100
AcDbCircle
 10
0.0000000000000001
 20
0.0
 30
0.0
 40
1.77165
100
AcDbArc
 50
106.5881688805835
 51
73.41183111941655
  0
ARC
  5
1D9
330
171
100
AcDbEntity
  8
AM_4
100
AcDbCircle
 10
-0.0000000000000002
 20
0.0000000000000007
 30
0.0
 40
2.25
100
AcDbArc
 50
276.714909190466
 51
48.99301814270034
  0
ARC
  5
1DA
330
171
100
AcDbEntity
  8
AM_4
100
AcDbCircle
 10
-0.0000000000000002
 20
0.0000000000000002
 30
0.0
 40
2.375
100
AcDbArc
 50
299.2502494774127
 51
41.81031489577859
  0
ARC
  5
1DB
330
171
100
AcDbEntity
  8
AM_4
100
AcDbCircle
 10
0.0000000000000004
 20
0.0000000000000002
 30
0.0
 40
2.375
100
AcDbArc
 50
138.1896851042214
 51
240.7497505225873
  0
ARC
  5
1DC
330
171
100
AcDbEntity
  8
AM_4
100
AcDbCircle
 10
0.0000000000000004
 20
0.0000000000000001
 30
0.0
 40
2.25
100
AcDbArc
 50
131.0069818572997
 51
263.2850908095339
  0
LINE
  5
1DD
330
171
100
AcDbEntity
  8
AM_4
100
AcDbLine
 10
-3.249999999999998
 20
-3.0625
 30
0.0
 11
-3.25
 21
-1.985068112886816
 31
0.0
  0
LINE
  5
1DE
330
171
100
AcDbEntity
  8
AM_4
100
AcDbLine
 10
3.25
 20
-1.985068112886817
 30
0.0
 11
3.25
 21
-3.0625
 31
0.0
  0
LINE
  5
1DF
330
171
100
AcDbEntity
  8
AM_4
100
AcDbLine
 10
-1.615072087578791
 20
-1.741311905410368
 30
0.0
 11
-3.109445025462684
 21
-1.741311905410368
 31
0.0
  0
LWPOLYLINE
  5
1E0
330
171
100
AcDbEntity
  8
AM_4
100
AcDbPolyline
 90
        3
 70
     0
 43
0.0
 10
-3.109445025462684
 20
-1.741311905410368
 10
-3.137882345188242
 20
-1.770243628287019
 10
-3.172889525935638
 20
-1.804487904054977
  0
LWPOLYLINE
  5
1E1
330
171
100
AcDbEntity
  8
AM_4
100
AcDbPolyline
 90
        5
 70
     0
 43
0.0
 10
-3.25
 20
-1.985068112886816
 10
-3.242381430087168
 20
-1.92382072642095
 10
-3.22120303918132
 20
-1.868581137404803
 10
-3.199651921234861
 20
-1.834605126251388
 10
-3.172889525935638
 20
-1.804487904054978
  0
LWPOLYLINE
  5
1E2
330
171
100
AcDbEntity
  8
AM_4
100
AcDbPolyline
 90
        6
 70
     0
 43
0.0
 10
3.172889525935637
 20
-1.804487904054977
 10
3.196798346831862
 20
-1.830876939759157
 10
3.216764231558746
 20
-1.860515843069096
 10
3.233004930463494
 20
-1.894453083449456
 10
3.244249334493208
 20
-1.931755238272643
 10
3.25
 20
-1.985068112886816
  0
LWPOLYLINE
  5
1E3
330
171
100
AcDbEntity
  8
AM_4
100
AcDbPolyline
 90
        3
 70
     0
 43
0.0
 10
3.172889525935637
 20
-1.804487904054977
 10
3.138197062467138
 20
-1.77055810942332
 10
3.109445025462686
 20
-1.741311905410368
  0
LINE
  5
1E4
330
171
100
AcDbEntity
  8
AM_4
100
AcDbLine
 10
3.109445025462685
 20
-1.741311905410368
 30
0.0
 11
1.615072087578791
 21
-1.741311905410368
 31
0.0
  0
LWPOLYLINE
  5
1E5
330
171
100
AcDbEntity
  8
AM_4
100
AcDbPolyline
 90
       10
 70
     0
 43
0.0
 10
1.160484471226471
 20
-2.072172963833428
 10
1.117613322962432
 20
-2.09390810720734
 10
1.072346060623952
 20
-2.11320684484093
 10
0.9754357023340333
 20
-2.146754892620591
 10
0.8716693912358788
 20
-2.174500802712266
 10
0.7654982466653617
 20
-2.196228640727397
 10
0.6557349822518533
 20
-2.212842843365212
 10
0.5449808096142458
 20
-2.224346547043985
 10
0.4043770064492761
 20
-2.232373729811035
 10
0.2630906336545127
 20
-2.234565577127524
  0
LINE
  5
1E6
330
171
100
AcDbEntity
  8
AM_4
100
AcDbLine
 10
-0.2630906336545127
 20
-2.234565577127524
 30
0.0
 11
0.2630906336545127
 21
-2.234565577127524
 31
0.0
  0
LWPOLYLINE
  5
1E7
330
171
100
AcDbEntity
  8
AM_4
100
AcDbPolyline
 90
       10
 70
     0
 43
0.0
 10
-0.2630906336545127
 20
-2.234565577127524
 10
-0.2747374863150839
 20
-2.234553686476957
 10
-0.4374933713301936
 20
-2.230877446275942
 10
-0.5997880475169984
 20
-2.219116602304532
 10
-0.7601755163384742
 20
-2.197164817926081
 10
-0.8673284476196701
 20
-2.175614854428321
 10
-0.9722109055881184
 20
-2.147893319566546
 10
-1.072777507466279
 20
-2.113035898364273
 10
-1.117819860971559
 20
-2.093812326045271
 10
-1.160484471226471
 20
-2.072172963833428
  0
LINE
  5
1E8
330
171
100
AcDbEntity
  8
AM_4
100
AcDbLine
 10
3.25
 20
-3.0625
 30
0.0
 11
-3.249999999999998
 21
-3.0625
 31
0.0
  0
LINE
  5
1E9
330
171
100
AcDbEntity
  8
AM_4
100
AcDbLine
 10
3.25
 20
-2.875
 30
0.0
 11
-3.249999999999998
 21
-2.875
 31
0.0
  0
LWPOLYLINE
  5
1EA
330
171
100
AcDbEntity
  8
AM_4
100
AcDbPolyline
 90
        8
 70
     0
 43
0.0
 10
0.505789200710688
 20
1.697916666666667
 10
0.3558813318930881
 20
1.735538014596627
 10
0.2032649912527584
 20
1.759950870289002
 10
0.0491016812942378
 20
1.770969437171088
 10
-0.1054353221073378
 20
1.768509857295718
 10
-0.2591698990440884
 20
1.752590849550881
 10
-0.4109320365580499
 20
1.723333567197672
 10
-0.5057892007106876
 20
1.697916666666667
  0
LINE
  5
1EB
330
171
100
AcDbEntity
  8
AM_4
100
AcDbLine
 10
1.476339728197936
 20
1.697916666666667
 30
0.0
 11
0.5057892007106867
 21
1.697916666666667
 31
0.0
  0
LWPOLYLINE
  5
1EC
330
171
100
AcDbEntity
  8
AM_4
100
AcDbPolyline
 90
        7
 70
     0
 43
0.0
 10
1.476339728197936
 20
1.697916666666667
 10
1.500260558814485
 20
1.69700331561668
 10
1.552031039060325
 20
1.689812764543661
 10
1.601733505207167
 20
1.677088083589807
 10
1.665955900248378
 20
1.652444703180061
 10
1.723363975255464
 20
1.620501516665068
 10
1.769637115609865
 20
1.58333333333333
  0
LINE
  5
1ED
330
171
100
AcDbEntity
  8
AM_4
100
AcDbLine
 10
3.0
 20
1.583333333333333
 30
0.0
 11
1.769637115609865
 21
1.58333333333333
 31
0.0
  0
LINE
  5
1EE
330
171
100
AcDbEntity
  8
AM_4
100
AcDbLine
 10
-1.769637115609861
 20
1.583333333333333
 30
0.0
 11
-2.999999999999997
 21
1.583333333333333
 31
0.0
  0
LWPOLYLINE
  5
1EF
330
171
100
AcDbEntity
  8
AM_4
100
AcDbPolyline
 90
        8
 70
     0
 43
0.0
 10
-1.769637115609861
 20
1.583333333333333
 10
-1.73141170363812
 20
1.615026437818877
 10
-1.686645390730636
 20
1.642187861073648
 10
-1.633360699240093
 20
1.66619215847013
 10
-1.575696299023832
 20
1.684407390449259
 10
-1.538716620563388
 20
1.692261583748705
 10
-1.500720591184532
 20
1.696969074386145
 10
-1.476339728197936
 20
1.697916666666667
  0
LINE
  5
1F0
330
171
100
AcDbEntity
  8
AM_4
100
AcDbLine
 10
-0.5057892007106867
 20
1.697916666666667
 30
0.0
 11
-1.476339728197936
 21
1.697916666666667
 31
0.0
  0
LINE
  5
1F1
330
171
100
AcDbEntity
  8
AM_4
100
AcDbLine
 10
1.75
 20
2.437500001862646
 30
0.0
 11
1.75
 21
3.375
 31
0.0
  0
LINE
  5
1F2
330
171
100
AcDbEntity
  8
AM_4
100
AcDbLine
 10
3.0
 20
3.375
 30
0.0
 11
3.0
 21
1.392734987062277
 31
0.0
  0
LINE
  5
1F3
330
171
100
AcDbEntity
  8
AM_4
100
AcDbLine
 10
3.0
 20
3.375
 30
0.0
 11
1.75
 21
3.375
 31
0.0
  0
LINE
  5
1F4
330
171
100
AcDbEntity
  8
AM_4
100
AcDbLine
 10
-1.75
 20
3.375
 30
0.0
 11
-1.75
 21
2.4375
 31
0.0
  0
ARC
  5
1F5
330
171
100
AcDbEntity
  8
AM_4
100
AcDbCircle
 10
1.625
 20
2.4375
 30
0.0
 40
0.1249999999999996
100
AcDbArc
 50
270.0
 51
0.0
  0
LINE
  5
1F6
330
171
100
AcDbEntity
  8
AM_4
100
AcDbLine
 10
-1.625
 20
2.3125
 30
0.0
 11
1.625
 21
2.3125
 31
0.0
  0
ARC
  5
1F7
330
171
100
AcDbEntity
  8
AM_4
100
AcDbCircle
 10
-1.625
 20
2.4375
 30
0.0
 40
0.1250000000000002
100
AcDbArc
 50
180.0
 51
270.0
  0
LINE
  5
1F8
330
171
100
AcDbEntity
  8
AM_4
100
AcDbLine
 10
3.0
 20
1.885416666666667
 30
0.0
 11
-2.999999999999997
 21
1.885416666666667
 31
0.0
  0
LINE
  5
1F9
330
171
100
AcDbEntity
  8
AM_4
100
AcDbLine
 10
3.0
 20
2.946428571428572
 30
0.0
 11
1.75
 21
2.946428571428572
 31
0.0
  0
LINE
  5
1FA
330
171
100
AcDbEntity
  8
AM_4
100
AcDbLine
 10
-3.0
 20
1.392734987062278
 30
0.0
 11
-2.999999999999997
 21
3.375
 31
0.0
  0
LINE
  5
1FB
330
171
100
AcDbEntity
  8
AM_4
100
AcDbLine
 10
-1.75
 20
3.375
 30
0.0
 11
-2.999999999999997
 21
3.375
 31
0.0
  0
LINE
  5
1FC
330
171
100
AcDbEntity
  8
AM_4
100
AcDbLine
 10
-1.75
 20
2.946428571428572
 30
0.0
 11
-2.999999999999997
 21
2.946428571428572
 31
0.0
  0
ENDBLK
  5
174
330
171
100
AcDbEntity
  8
0
100
AcDbBlockEnd
  0
ENDSEC
  0
SECTION
  2
ENTITIES
  0
INSERT
  5
6F
330
1F
100
AcDbEntity
  8
0
100
AcDbBlockReference
  2
1_070811_0
 10
0.0
 20
0.0
 30
0.0
  0
POINT
  5
1FE
330
1F
100
AcDbEntity
  8
ConnectionPoints
100
AcDbPoint
 10
0.0
 20
0.0
 30
2.0
  0
POINT
  5
1FF
330
1F
100
AcDbEntity
  8
ConnectionPoints
100
AcDbPoint
 10
0.0
 20
0.0
 30
2.0
  0
POINT
  5
200
330
1F
100
AcDbEntity
  8
ConnectionPoints
100
AcDbPoint
 10
0.0
 20
0.0
 30
-1.7335
  0
POINT
  5
201
330
1F
100
AcDbEntity
  8
ConnectionPoints
100
AcDbPoint
 10
0.0
 20
0.0
 30
2.0
  0
POINT
  5
202
330
1F
100
AcDbEntity
  8
ConnectionPoints
100
AcDbPoint
 10
2.575
 20
0.0
 30
0.0
  0
POINT
  5
203
330
1F
100
AcDbEntity
  8
ConnectionPoints
100
AcDbPoint
 10
0.0
 20
0.0
 30
2.25
  0
POINT
  5
204
330
1F
100
AcDbEntity
  8
ConnectionPoints
100
AcDbPoint
 10
0.0
 20
0.0
 30
2.0
  0
ENDSEC
  0
SECTION
  2
OBJECTS
  0
DICTIONARY
  5
C
330
0
100
AcDbDictionary
281
     1
  3
ACAD_DETAILVIEWSTYLE
350
20C
  3
ACAD_GROUP
350
D
  3
ACAD_LAYOUT
350
1A
  3
ACAD_MATERIAL
350
43
  3
ACAD_MLEADERSTYLE
350
6B
  3
ACAD_MLINESTYLE
350
17
  3
ACAD_PLOTSETTINGS
350
19
  3
ACAD_PLOTSTYLENAME
350
E
  3
ACAD_SCALELIST
350
47
  3
ACAD_SECTIONVIEWSTYLE
350
20D
  3
ACAD_TABLESTYLE
350
69
  3
ACAD_VISUALSTYLE
350
2A
  3
ACDB_RECOMPOSE_DATA
350
209
  3
AcDbVariableDictionary
350
205
  0
SUN
  5
6D
330
29
100
AcDbSun
 90
        1
290
     0
 63
     7
421
 16777215
 40
1.0
291
     1
 91
  2455826
 92
 54000000
292
     0
 70
     2
 71
   256
280
     1
  0
DICTIONARY
  5
20C
102
{ACAD_REACTORS
330
C
102
}
330
C
100
AcDbDictionary
281
     1
  0
DICTIONARY
  5
D
102
{ACAD_REACTORS
330
C
102
}
330
C
100
AcDbDictionary
281
     1
  0
DICTIONARY
  5
1A
102
{ACAD_REACTORS
330
C
102
}
330
C
100
AcDbDictionary
281
     1
  3
Layout1
350
1E
  3
Layout2
350
26
  3
Model
350
22
  0
DICTIONARY
  5
43
102
{ACAD_REACTORS
330
C
102
}
330
C
100
AcDbDictionary
281
     1
  3
ByBlock
350
45
  3
ByLayer
350
44
  3
Global
350
46
  0
DICTIONARY
  5
6B
102
{ACAD_REACTORS
330
C
102
}
330
C
100
AcDbDictionary
281
     1
  3
Standard
350
6C
  0
DICTIONARY
  5
17
102
{ACAD_REACTORS
330
C
102
}
330
C
100
AcDbDictionary
281
     1
  3
Standard
350
18
  0
DICTIONARY
  5
19
102
{ACAD_REACTORS
330
C
102
}
330
C
100
AcDbDictionary
281
     1
  0
ACDBDICTIONARYWDFLT
  5
E
102
{ACAD_REACTORS
330
C
102
}
330
C
100
AcDbDictionary
281
     1
  3
Normal
350
F
100
AcDbDictionaryWithDefault
340
F
  0
DICTIONARY
  5
47
102
{ACAD_REACTORS
330
C
102
}
330
C
100
AcDbDictionary
281
     1
  3
A0
350
48
  3
A1
350
49
  3
A2
350
4A
  3
A3
350
4B
  3
A4
350
4C
  3
A5
350
4D
  3
A6
350
4E
  3
A7
350
4F
  3
A8
350
50
  3
A9
350
51
  3
B0
350
52
  3
B1
350
53
  3
B2
350
54
  3
B3
350
55
  3
B4
350
56
  3
B5
350
57
  3
B6
350
58
  3
B7
350
59
  3
B8
350
5A
  3
B9
350
5B
  3
C0
350
5C
  3
C1
350
5D
  3
C2
350
5E
  3
C3
350
5F
  3
C4
350
60
  3
C5
350
61
  3
C6
350
62
  3
C7
350
63
  3
C8
350
64
  3
C9
350
65
  3
D0
350
66
  3
D1
350
67
  3
D2
350
68
  0
DICTIONARY
  5
20D
102
{ACAD_REACTORS
330
C
102
}
330
C
100
AcDbDictionary
281
     1
  0
DICTIONARY
  5
69
102
{ACAD_REACTORS
330
C
102
}
330
C
100
AcDbDictionary
281
     1
  3
Standard
350
6A
  0
DICTIONARY
  5
2A
102
{ACAD_REACTORS
330
C
102
}
330
C
100
AcDbDictionary
281
     1
  3
2dWireframe
350
2F
  3
Basic
350
32
  3
Brighten
350
36
  3
ColorChange
350
3A
  3
Conceptual
350
34
  3
Dim
350
35
  3
EdgeColorOff
350
3D
  3
Facepattern
350
39
  3
Flat
350
2B
  3
FlatWithEdges
350
2C
  3
Gouraud
350
2D
  3
GouraudWithEdges
350
2E
  3
Hidden
350
31
  3
JitterOff
350
3B
  3
Linepattern
350
38
  3
OverhangOff
350
3C
  3
Realistic
350
33
  3
Shaded
350
42
  3
Shaded with edges
350
41
  3
Shades of Gray
350
3E
  3
Sketchy
350
3F
  3
Thicken
350
37
  3
Wireframe
350
30
  3
X-Ray
350
40
  0
XRECORD
  5
209
102
{ACAD_REACTORS
330
C
102
}
330
C
100
AcDbXrecord
280
     1
 90
        1
330
6A
  0
DICTIONARY
  5
205
102
{ACAD_REACTORS
330
C
102
}
330
C
100
AcDbDictionary
281
     1
  3
CANNOSCALE
350
206
  3
CMLEADERSTYLE
350
20B
  3
CTABLESTYLE
350
20A
  0
LAYOUT
  5
1E
102
{ACAD_REACTORS
330
1A
102
}
330
1A
100
AcDbPlotSettings
  1

  2
none_device
  4

  6

 40
0.0
 41
0.0
 42
0.0
 43
0.0
 44
0.0
 45
0.0
 46
0.0
 47
0.0
 48
0.0
 49
0.0
140
0.0
141
0.0
142
1.0
143
1.0
 70
   688
 72
     0
 73
     0
 74
     5
  7

 75
    16
 76
     0
 77
     2
 78
   300
147
1.0
148
0.0
149
0.0
100
AcDbLayout
  1
Layout1
 70
     1
 71
     1
 10
0.0
 20
0.0
 11
12.0
 21
9.0
 12
0.0
 22
0.0
 32
0.0
 14
1.000000000000000E+20
 24
1.000000000000000E+20
 34
1.000000000000000E+20
 15
-1.000000000000000E+20
 25
-1.000000000000000E+20
 35
-1.000000000000000E+20
146
0.0
 13
0.0
 23
0.0
 33
0.0
 16
1.0
 26
0.0
 36
0.0
 17
0.0
 27
1.0
 37
0.0
 76
     0
330
1B
  0
LAYOUT
  5
26
102
{ACAD_REACTORS
330
1A
102
}
330
1A
100
AcDbPlotSettings
  1

  2
none_device
  4

  6

 40
0.0
 41
0.0
 42
0.0
 43
0.0
 44
0.0
 45
0.0
 46
0.0
 47
0.0
 48
0.0
 49
0.0
140
0.0
141
0.0
142
1.0
143
1.0
 70
   688
 72
     0
 73
     0
 74
     5
  7

 75
    16
 76
     0
 77
     2
 78
   300
147
1.0
148
0.0
149
0.0
100
AcDbLayout
  1
Layout2
 70
     1
 71
     2
 10
0.0
 20
0.0
 11
0.0
 21
0.0
 12
0.0
 22
0.0
 32
0.0
 14
0.0
 24
0.0
 34
0.0
 15
0.0
 25
0.0
 35
0.0
146
0.0
 13
0.0
 23
0.0
 33
0.0
 16
1.0
 26
0.0
 36
0.0
 17
0.0
 27
1.0
 37
0.0
 76
     0
330
23
  0
LAYOUT
  5
22
102
{ACAD_REACTORS
330
1A
102
}
330
1A
100
AcDbPlotSettings
  1

  2
none_device
  4
Letter_(8.50_x_11.00_Inches)
  6

 40
6.35
 41
6.35
 42
6.35000508
 43
6.35000508
 44
215.9
 45
279.4
 46
0.0
 47
0.0
 48
0.0
 49
0.0
140
0.0
141
0.0
142
1.0
143
1.0
 70
  1712
 72
     0
 73
     0
 74
     0
  7

 75
     0
 76
     0
 77
     2
 78
   300
147
1.0
148
0.0
149
0.0
100
AcDbLayout
  1
Model
 70
     1
 71
     0
 10
0.0
 20
0.0
 11
12.0
 21
9.0
 12
0.0
 22
0.0
 32
0.0
 14
1.000000000000000E+20
 24
1.000000000000000E+20
 34
1.000000000000000E+20
 15
-1.000000000000000E+20
 25
-1.000000000000000E+20
 35
-1.000000000000000E+20
146
0.0
 13
0.0
 23
0.0
 33
0.0
 16
1.0
 26
0.0
 36
0.0
 17
0.0
 27
1.0
 37
0.0
 76
     0
330
1F
331
29
  0
MATERIAL
  5
45
102
{ACAD_REACTORS
330
43
102
}
330
43
100
AcDbMaterial
  1
ByBlock
 72
     1
 94
      127
  0
MATERIAL
  5
44
102
{ACAD_REACTORS
330
43
102
}
330
43
100
AcDbMaterial
  1
ByLayer
 72
     1
 94
      127
  0
MATERIAL
  5
46
102
{ACAD_REACTORS
330
43
102
}
330
43
100
AcDbMaterial
  1
Global
 72
     1
 94
      127
  0
MLEADERSTYLE
  5
6C
102
{ACAD_REACTORS
330
6B
102
}
330
6B
100
AcDbMLeaderStyle
179
     2
170
     2
171
     1
172
     0
 90
        2
 40
0.0
 41
0.0
173
     1
 91
-1056964608
340
14
 92
       -2
290
     1
 42
0.09
291
     1
 43
0.36
  3
Standard
341
0
 44
0.18
300

342
11
174
     1
178
     6
175
     1
176
     0
 93
-1056964608
 45
0.18
292
     0
297
     0
 46
0.18
343
0
 94
-1056964608
 47
1.0
 49
1.0
140
1.0
293
     1
141
0.0
294
     1
177
     0
142
1.0
295
     0
296
     0
143
0.125
271
     0
272
     9
273
     9
298
     0
  0
MLINESTYLE
  5
18
102
{ACAD_REACTORS
330
17
102
}
330
17
100
AcDbMlineStyle
  2
Standard
 70
     0
  3

 62
   256
 51
90.0
 52
90.0
 71
     2
 49
0.5
 62
   256
  6
BYLAYER
 49
-0.5
 62
   256
  6
BYLAYER
  0
ACDBPLACEHOLDER
  5
F
102
{ACAD_REACTORS
330
E
102
}
330
E
  0
SCALE
  5
48
102
{ACAD_REACTORS
330
47
102
}
330
47
100
AcDbScale
 70
     0
300
1:1
140
1.0
141
1.0
290
     1
  0
SCALE
  5
49
102
{ACAD_REACTORS
330
47
102
}
330
47
100
AcDbScale
 70
     0
300
1:2
140
1.0
141
2.0
290
     0
  0
SCALE
  5
4A
102
{ACAD_REACTORS
330
47
102
}
330
47
100
AcDbScale
 70
     0
300
1:4
140
1.0
141
4.0
290
     0
  0
SCALE
  5
4B
102
{ACAD_REACTORS
330
47
102
}
330
47
100
AcDbScale
 70
     0
300
1:5
140
1.0
141
5.0
290
     0
  0
SCALE
  5
4C
102
{ACAD_REACTORS
330
47
102
}
330
47
100
AcDbScale
 70
     0
300
1:8
140
1.0
141
8.0
290
     0
  0
SCALE
  5
4D
102
{ACAD_REACTORS
330
47
102
}
330
47
100
AcDbScale
 70
     0
300
1:10
140
1.0
141
10.0
290
     0
  0
SCALE
  5
4E
102
{ACAD_REACTORS
330
47
102
}
330
47
100
AcDbScale
 70
     0
300
1:16
140
1.0
141
16.0
290
     0
  0
SCALE
  5
4F
102
{ACAD_REACTORS
330
47
102
}
330
47
100
AcDbScale
 70
     0
300
1:20
140
1.0
141
20.0
290
     0
  0
SCALE
  5
50
102
{ACAD_REACTORS
330
47
102
}
330
47
100
AcDbScale
 70
     0
300
1:30
140
1.0
141
30.0
290
     0
  0
SCALE
  5
51
102
{ACAD_REACTORS
330
47
102
}
330
47
100
AcDbScale
 70
     0
300
1:40
140
1.0
141
40.0
290
     0
  0
SCALE
  5
52
102
{ACAD_REACTORS
330
47
102
}
330
47
100
AcDbScale
 70
     0
300
1:50
140
1.0
141
50.0
290
     0
  0
SCALE
  5
53
102
{ACAD_REACTORS
330
47
102
}
330
47
100
AcDbScale
 70
     0
300
1:100
140
1.0
141
100.0
290
     0
  0
SCALE
  5
54
102
{ACAD_REACTORS
330
47
102
}
330
47
100
AcDbScale
 70
     0
300
2:1
140
2.0
141
1.0
290
     0
  0
SCALE
  5
55
102
{ACAD_REACTORS
330
47
102
}
330
47
100
AcDbScale
 70
     0
300
4:1
140
4.0
141
1.0
290
     0
  0
SCALE
  5
56
102
{ACAD_REACTORS
330
47
102
}
330
47
100
AcDbScale
 70
     0
300
8:1
140
8.0
141
1.0
290
     0
  0
SCALE
  5
57
102
{ACAD_REACTORS
330
47
102
}
330
47
100
AcDbScale
 70
     0
300
10:1
140
10.0
141
1.0
290
     0
  0
SCALE
  5
58
102
{ACAD_REACTORS
330
47
102
}
330
47
100
AcDbScale
 70
     0
300
100:1
140
100.0
141
1.0
290
     0
  0
SCALE
  5
59
102
{ACAD_REACTORS
330
47
102
}
330
47
100
AcDbScale
 70
     0
300
1/128" = 1'-0"
140
0.0078125
141
12.0
290
     0
  0
SCALE
  5
5A
102
{ACAD_REACTORS
330
47
102
}
330
47
100
AcDbScale
 70
     0
300
1/64" = 1'-0"
140
0.015625
141
12.0
290
     0
  0
SCALE
  5
5B
102
{ACAD_REACTORS
330
47
102
}
330
47
100
AcDbScale
 70
     0
300
1/32" = 1'-0"
140
0.03125
141
12.0
290
     0
  0
SCALE
  5
5C
102
{ACAD_REACTORS
330
47
102
}
330
47
100
AcDbScale
 70
     0
300
1/16" = 1'-0"
140
0.0625
141
12.0
290
     0
  0
SCALE
  5
5D
102
{ACAD_REACTORS
330
47
102
}
330
47
100
AcDbScale
 70
     0
300
3/32" = 1'-0"
140
0.09375
141
12.0
290
     0
  0
SCALE
  5
5E
102
{ACAD_REACTORS
330
47
102
}
330
47
100
AcDbScale
 70
     0
300
1/8" = 1'-0"
140
0.125
141
12.0
290
     0
  0
SCALE
  5
5F
102
{ACAD_REACTORS
330
47
102
}
330
47
100
AcDbScale
 70
     0
300
3/16" = 1'-0"
140
0.1875
141
12.0
290
     0
  0
SCALE
  5
60
102
{ACAD_REACTORS
330
47
102
}
330
47
100
AcDbScale
 70
     0
300
1/4" = 1'-0"
140
0.25
141
12.0
290
     0
  0
SCALE
  5
61
102
{ACAD_REACTORS
330
47
102
}
330
47
100
AcDbScale
 70
     0
300
3/8" = 1'-0"
140
0.375
141
12.0
290
     0
  0
SCALE
  5
62
102
{ACAD_REACTORS
330
47
102
}
330
47
100
AcDbScale
 70
     0
300
1/2" = 1'-0"
140
0.5
141
12.0
290
     0
  0
SCALE
  5
63
102
{ACAD_REACTORS
330
47
102
}
330
47
100
AcDbScale
 70
     0
300
3/4" = 1'-0"
140
0.75
141
12.0
290
     0
  0
SCALE
  5
64
102
{ACAD_REACTORS
330
47
102
}
330
47
100
AcDbScale
 70
     0
300
1" = 1'-0"
140
1.0
141
12.0
290
     0
  0
SCALE
  5
65
102
{ACAD_REACTORS
330
47
102
}
330
47
100
AcDbScale
 70
     0
300
1-1/2" = 1'-0"
140
1.5
141
12.0
290
     0
  0
SCALE
  5
66
102
{ACAD_REACTORS
330
47
102
}
330
47
100
AcDbScale
 70
     0
300
3" = 1'-0"
140
3.0
141
12.0
290
     0
  0
SCALE
  5
67
102
{ACAD_REACTORS
330
47
102
}
330
47
100
AcDbScale
 70
     0
300
6" = 1'-0"
140
6.0
141
12.0
290
     0
  0
SCALE
  5
68
102
{ACAD_REACTORS
330
47
102
}
330
47
100
AcDbScale
 70
     0
300
1'-0" = 1'-0"
140
12.0
141
12.0
290
     0
  0
TABLESTYLE
  5
6A
102
{ACAD_REACTORS
330
69
102
}
102
{ACAD_XDICTIONARY
360
207
102
}
330
69
100
AcDbTableStyle
  3
Standard
 70
     0
 71
     0
 40
0.06
 41
0.06
280
     0
281
     0
  7
Standard
140
0.18
170
     2
 62
     0
 63
   257
283
     0
 90
        4
 91
        0
  1

274
    -2
284
     1
 64
     0
275
    -2
285
     1
 65
     0
276
    -2
286
     1
 66
     0
277
    -2
287
     1
 67
     0
278
    -2
288
     1
 68
     0
279
    -2
289
     1
 69
     0
  7
Standard
140
0.25
170
     5
 62
     0
 63
   257
283
     0
 90
        4
 91
        0
  1

274
    -2
284
     1
 64
     0
275
    -2
285
     1
 65
     0
276
    -2
286
     1
 66
     0
277
    -2
287
     1
 67
     0
278
    -2
288
     1
 68
     0
279
    -2
289
     1
 69
     0
  7
Standard
140
0.18
170
     5
 62
     0
 63
   257
283
     0
 90
        4
 91
        0
  1

274
    -2
284
     1
 64
     0
275
    -2
285
     1
 65
     0
276
    -2
286
     1
 66
     0
277
    -2
287
     1
 67
     0
278
    -2
288
     1
 68
     0
279
    -2
289
     1
 69
     0
  0
VISUALSTYLE
  5
2F
102
{ACAD_REACTORS
330
2A
102
}
330
2A
100
AcDbVisualStyle
  2
2dWireframe
 70
     4
177
     3
291
     0
 70
    58
 90
        0
176
     1
 90
        2
176
     1
 90
        0
176
     1
 90
        0
176
     1
 40
0.6
176
     1
 40
30.0
176
     1
 62
     7
420
 16777215
176
     1
 90
        1
176
     1
 90
        4
176
     1
 62
     7
176
     1
 62
   257
176
     1
 90
        1
176
     1
 90
        1
176
     1
 40
1.0
176
     1
 90
        0
176
     1
 62
   257
176
     1
 40
1.0
176
     1
 90
        1
176
     1
 90
        6
176
     1
 90
        2
176
     1
 62
     7
176
     1
 90
        5
176
     1
 90
        0
176
     1
 90
        0
176
     1
290
     0
176
     1
 90
        1
176
     1
 40
0.0
176
     1
 90
        0
176
     1
290
     1
176
     1
290
     1
176
     1
290
     0
176
     1
290
     0
176
     1
290
     0
176
     1
290
     0
176
     1
290
     0
176
     1
290
     0
176
     1
290
     0
176
     1
 90
       50
176
     1
 40
0.0
176
     1
 40
1.0
176
     1
 90
        0
176
     1
 62
    18
420
        0
176
     1
 90
       50
176
     1
 90
        3
176
     1
 62
     5
420
      255
176
     1
290
     0
176
     1
 90
       50
176
     1
 90
       50
176
     1
 90
       50
176
     1
290
     0
176
     1
 90
       50
176
     1
 62
   256
176
     0
 40
1.0
176
     0
 90
        2
176
     1
  1
strokes_ogs.tif
176
     1
290
     0
176
     1
 40
1.0
176
     1
 40
1.0
176
     1
  0
VISUALSTYLE
  5
32
102
{ACAD_REACTORS
330
2A
102
}
330
2A
100
AcDbVisualStyle
  2
Basic
 70
     7
177
     3
291
     1
 70
    58
 90
        1
176
     1
 90
        0
176
     1
 90
        1
176
     1
 90
        0
176
     1
 40
0.6
176
     1
 40
30.0
176
     1
 62
     7
420
 16777215
176
     1
 90
        0
176
     1
 90
        4
176
     1
 62
     7
176
     1
 62
   257
176
     1
 90
        1
176
     1
 90
        1
176
     1
 40
1.0
176
     1
 90
        8
176
     1
 62
     7
176
     1
 40
1.0
176
     1
 90
        1
176
     1
 90
        6
176
     1
 90
        2
176
     1
 62
     7
176
     1
 90
        5
176
     1
 90
        0
176
     1
 90
        0
176
     1
290
     0
176
     1
 90
        1
176
     1
 40
0.0
176
     1
 90
        0
176
     1
290
     0
176
     1
290
     1
176
     1
290
     1
176
     1
290
     0
176
     1
290
     0
176
     1
290
     0
176
     1
290
     0
176
     1
290
     0
176
     1
290
     0
176
     1
 90
       50
176
     1
 40
0.0
176
     1
 40
1.0
176
     1
 90
        0
176
     1
 62
    18
420
        0
176
     1
 90
       50
176
     1
 90
        3
176
     1
 62
     5
420
      255
176
     1
290
     0
176
     1
 90
       50
176
     1
 90
       50
176
     1
 90
       50
176
     1
290
     0
176
     1
 90
       50
176
     1
 62
   256
176
     0
 40
1.0
176
     0
 90
        2
176
     1
  1
strokes_ogs.tif
176
     1
290
     0
176
     1
 40
1.0
176
     1
 40
1.0
176
     1
  0
VISUALSTYLE
  5
36
102
{ACAD_REACTORS
330
2A
102
}
330
2A
100
AcDbVisualStyle
  2
Brighten
 70
    12
177
     3
291
     1
 70
    58
 90
        2
176
     1
 90
        2
176
     1
 90
        0
176
     1
 90
        0
176
     1
 40
0.6
176
     1
 40
30.0
176
     1
 62
     7
420
 16777215
176
     1
 90
        1
176
     1
 90
        4
176
     1
 62
     7
176
     1
 62
   257
176
     1
 90
        1
176
     1
 90
        1
176
     1
 40
1.0
176
     1
 90
        8
176
     1
 62
     7
176
     1
 40
1.0
176
     1
 90
        1
176
     1
 90
        6
176
     1
 90
        2
176
     1
 62
     7
176
     1
 90
        5
176
     1
 90
        0
176
     1
 90
        0
176
     1
290
     0
176
     1
 90
        1
176
     1
 40
50.0
176
     1
 90
        0
176
     1
290
     0
176
     1
290
     1
176
     1
290
     1
176
     1
290
     0
176
     1
290
     0
176
     1
290
     0
176
     1
290
     0
176
     1
290
     0
176
     1
290
     0
176
     1
 90
       50
176
     1
 40
0.0
176
     1
 40
1.0
176
     1
 90
        0
176
     1
 62
    18
420
        0
176
     1
 90
       50
176
     1
 90
        3
176
     1
 62
     5
420
      255
176
     1
290
     0
176
     1
 90
       50
176
     1
 90
       50
176
     1
 90
       50
176
     1
290
     0
176
     1
 90
       50
176
     1
 62
   256
176
     0
 40
1.0
176
     0
 90
        2
176
     1
  1
strokes_ogs.tif
176
     1
290
     0
176
     1
 40
1.0
176
     1
 40
1.0
176
     1
  0
VISUALSTYLE
  5
3A
102
{ACAD_REACTORS
330
2A
102
}
330
2A
100
AcDbVisualStyle
  2
ColorChange
 70
    16
177
     3
291
     1
 70
    58
 90
        2
176
     1
 90
        2
176
     1
 90
        3
176
     1
 90
        0
176
     1
 40
0.6
176
     1
 40
30.0
176
     1
 62
     8
420
  8421504
176
     1
 90
        1
176
     1
 90
        4
176
     1
 62
     7
176
     1
 62
   257
176
     1
 90
        1
176
     1
 90
        1
176
     1
 40
1.0
176
     1
 90
        8
176
     1
 62
     8
420
  8421504
176
     1
 40
1.0
176
     1
 90
        1
176
     1
 90
        6
176
     1
 90
        2
176
     1
 62
     7
176
     1
 90
        5
176
     1
 90
        0
176
     1
 90
        0
176
     1
290
     0
176
     1
 90
        1
176
     1
 40
0.0
176
     1
 90
        0
176
     1
290
     0
176
     1
290
     1
176
     1
290
     1
176
     1
290
     0
176
     1
290
     0
176
     1
290
     0
176
     1
290
     0
176
     1
290
     0
176
     1
290
     0
176
     1
 90
       50
176
     1
 40
0.0
176
     1
 40
1.0
176
     1
 90
        0
176
     1
 62
    18
420
        0
176
     1
 90
       50
176
     1
 90
        3
176
     1
 62
     5
420
      255
176
     1
290
     0
176
     1
 90
       50
176
     1
 90
       50
176
     1
 90
       50
176
     1
290
     0
176
     1
 90
       50
176
     1
 62
   256
176
     0
 40
1.0
176
     0
 90
        2
176
     1
  1
strokes_ogs.tif
176
     1
290
     0
176
     1
 40
1.0
176
     1
 40
1.0
176
     1
  0
VISUALSTYLE
  5
34
102
{ACAD_REACTORS
330
2A
102
}
330
2A
100
AcDbVisualStyle
  2
Conceptual
 70
     9
177
     3
291
     0
 70
    58
 90
        3
176
     1
 90
        2
176
     1
 90
        0
176
     1
 90
        0
176
     1
 40
0.6
176
     1
 40
30.0
176
     1
 62
     7
420
 16777215
176
     1
 90
        2
176
     1
 90
        2
176
     1
 62
     7
176
     1
 62
   257
176
     1
 90
        1
176
     1
 90
        1
176
     1
 40
179.0
176
     1
 90
        8
176
     1
 62
     7
176
     1
 40
1.0
176
     1
 90
        1
176
     1
 90
        6
176
     1
 90
        2
176
     1
 62
     7
176
     1
 90
        3
176
     1
 90
        0
176
     1
 90
        0
176
     1
290
     0
176
     1
 90
        1
176
     1
 40
0.0
176
     1
 90
        0
176
     1
290
     0
176
     1
290
     1
176
     1
290
     1
176
     1
290
     0
176
     1
290
     0
176
     1
290
     0
176
     1
290
     0
176
     1
290
     0
176
     1
290
     0
176
     1
 90
       50
176
     1
 40
0.0
176
     1
 40
1.0
176
     1
 90
        0
176
     1
 62
    18
420
        0
176
     1
 90
       50
176
     1
 90
        3
176
     1
 62
     5
420
      255
176
     1
290
     0
176
     1
 90
       50
176
     1
 90
       50
176
     1
 90
       50
176
     1
290
     0
176
     1
 90
       50
176
     1
 62
   256
176
     0
 40
1.0
176
     0
 90
        2
176
     1
  1
strokes_ogs.tif
176
     1
290
     0
176
     1
 40
1.0
176
     1
 40
1.0
176
     1
  0
VISUALSTYLE
  5
35
102
{ACAD_REACTORS
330
2A
102
}
330
2A
100
AcDbVisualStyle
  2
Dim
 70
    11
177
     3
291
     1
 70
    58
 90
        2
176
     1
 90
        2
176
     1
 90
        0
176
     1
 90
        0
176
     1
 40
0.6
176
     1
 40
30.0
176
     1
 62
     7
420
 16777215
176
     1
 90
        1
176
     1
 90
        4
176
     1
 62
     7
176
     1
 62
   257
176
     1
 90
        1
176
     1
 90
        1
176
     1
 40
1.0
176
     1
 90
        8
176
     1
 62
     7
176
     1
 40
1.0
176
     1
 90
        1
176
     1
 90
        6
176
     1
 90
        2
176
     1
 62
     7
176
     1
 90
        5
176
     1
 90
        0
176
     1
 90
        0
176
     1
290
     0
176
     1
 90
        1
176
     1
 40
-50.0
176
     1
 90
        0
176
     1
290
     0
176
     1
290
     1
176
     1
290
     1
176
     1
290
     0
176
     1
290
     0
176
     1
290
     0
176
     1
290
     0
176
     1
290
     0
176
     1
290
     0
176
     1
 90
       50
176
     1
 40
0.0
176
     1
 40
1.0
176
     1
 90
        0
176
     1
 62
    18
420
        0
176
     1
 90
       50
176
     1
 90
        3
176
     1
 62
     5
420
      255
176
     1
290
     0
176
     1
 90
       50
176
     1
 90
       50
176
     1
 90
       50
176
     1
290
     0
176
     1
 90
       50
176
     1
 62
   256
176
     0
 40
1.0
176
     0
 90
        2
176
     1
  1
strokes_ogs.tif
176
     1
290
     0
176
     1
 40
1.0
176
     1
 40
1.0
176
     1
  0
VISUALSTYLE
  5
3D
102
{ACAD_REACTORS
330
2A
102
}
330
2A
100
AcDbVisualStyle
  2
EdgeColorOff
 70
    22
177
     3
291
     1
 70
    58
 90
        2
176
     0
 90
        2
176
     0
 90
        0
176
     0
 90
        0
176
     0
 40
0.6
176
     0
 40
30.0
176
     0
 62
     7
420
 16777215
176
     0
 90
        1
176
     0
 90
        4
176
     0
 62
     7
176
     0
 62
   257
176
     0
 90
        1
176
     0
 90
        1
176
     0
 40
1.0
176
     0
 90
        8
176
     2
 62
     7
176
     0
 40
1.0
176
     0
 90
        1
176
     0
 90
        6
176
     0
 90
        2
176
     0
 62
     7
176
     0
 90
        5
176
     0
 90
        0
176
     0
 90
        0
176
     0
290
     0
176
     0
 90
        1
176
     0
 40
0.0
176
     0
 90
        0
176
     0
290
     0
176
     0
290
     1
176
     0
290
     1
176
     0
290
     0
176
     0
290
     0
176
     0
290
     0
176
     0
290
     0
176
     0
290
     0
176
     0
290
     0
176
     0
 90
       50
176
     0
 40
0.0
176
     0
 40
1.0
176
     0
 90
        0
176
     0
 62
    18
420
        0
176
     0
 90
       50
176
     0
 90
        3
176
     0
 62
     5
420
      255
176
     0
290
     0
176
     0
 90
       50
176
     0
 90
       50
176
     0
 90
       50
176
     0
290
     0
176
     0
 90
       50
176
     0
 62
   256
176
     0
 40
1.0
176
     0
 90
        2
176
     0
  1
strokes_ogs.tif
176
     0
290
     0
176
     0
 40
1.0
176
     0
 40
1.0
176
     0
  0
VISUALSTYLE
  5
39
102
{ACAD_REACTORS
330
2A
102
}
330
2A
100
AcDbVisualStyle
  2
Facepattern
 70
    15
177
     3
291
     1
 70
    58
 90
        2
176
     1
 90
        2
176
     1
 90
        0
176
     1
 90
        0
176
     1
 40
0.6
176
     1
 40
30.0
176
     1
 62
     7
420
 16777215
176
     1
 90
        1
176
     1
 90
        4
176
     1
 62
     7
176
     1
 62
   257
176
     1
 90
        1
176
     1
 90
        1
176
     1
 40
1.0
176
     1
 90
        8
176
     1
 62
     7
176
     1
 40
1.0
176
     1
 90
        1
176
     1
 90
        6
176
     1
 90
        2
176
     1
 62
     7
176
     1
 90
        5
176
     1
 90
        0
176
     1
 90
        0
176
     1
290
     0
176
     1
 90
        1
176
     1
 40
0.0
176
     1
 90
        0
176
     1
290
     0
176
     1
290
     1
176
     1
290
     1
176
     1
290
     0
176
     1
290
     0
176
     1
290
     0
176
     1
290
     0
176
     1
290
     0
176
     1
290
     0
176
     1
 90
       50
176
     1
 40
0.0
176
     1
 40
1.0
176
     1
 90
        0
176
     1
 62
    18
420
        0
176
     1
 90
       50
176
     1
 90
        3
176
     1
 62
     5
420
      255
176
     1
290
     0
176
     1
 90
       50
176
     1
 90
       50
176
     1
 90
       50
176
     1
290
     0
176
     1
 90
       50
176
     1
 62
   256
176
     0
 40
1.0
176
     0
 90
        2
176
     1
  1
strokes_ogs.tif
176
     1
290
     0
176
     1
 40
1.0
176
     1
 40
1.0
176
     1
  0
VISUALSTYLE
  5
2B
102
{ACAD_REACTORS
330
2A
102
}
330
2A
100
AcDbVisualStyle
  2
Flat
 70
     0
177
     3
291
     1
 70
    58
 90
        2
176
     1
 90
        1
176
     1
 90
        1
176
     1
 90
        2
176
     1
 40
0.6
176
     1
 40
30.0
176
     1
 62
     7
420
 16777215
176
     1
 90
        0
176
     1
 90
        0
176
     1
 62
     7
176
     1
 62
   257
176
     1
 90
        1
176
     1
 90
        1
176
     1
 40
1.0
176
     1
 90
        8
176
     1
 62
     7
176
     1
 40
1.0
176
     1
 90
        1
176
     1
 90
        6
176
     1
 90
        2
176
     1
 62
     7
176
     1
 90
        5
176
     1
 90
        0
176
     1
 90
        0
176
     1
290
     0
176
     1
 90
       13
176
     1
 40
0.0
176
     1
 90
        0
176
     1
290
     0
176
     1
290
     1
176
     1
290
     1
176
     1
290
     0
176
     1
290
     0
176
     1
290
     0
176
     1
290
     0
176
     1
290
     0
176
     1
290
     0
176
     1
 90
       50
176
     1
 40
0.0
176
     1
 40
1.0
176
     1
 90
        0
176
     1
 62
    18
420
        0
176
     1
 90
       50
176
     1
 90
        3
176
     1
 62
     5
420
      255
176
     1
290
     0
176
     1
 90
       50
176
     1
 90
       50
176
     1
 90
       50
176
     1
290
     0
176
     1
 90
       50
176
     1
 62
   256
176
     0
 40
1.0
176
     0
 90
        2
176
     1
  1
strokes_ogs.tif
176
     1
290
     0
176
     1
 40
1.0
176
     1
 40
1.0
176
     1
  0
VISUALSTYLE
  5
2C
102
{ACAD_REACTORS
330
2A
102
}
330
2A
100
AcDbVisualStyle
  2
FlatWithEdges
 70
     1
177
     3
291
     1
 70
    58
 90
        2
176
     1
 90
        1
176
     1
 90
        1
176
     1
 90
        2
176
     1
 40
0.6
176
     1
 40
30.0
176
     1
 62
     7
420
 16777215
176
     1
 90
        1
176
     1
 90
        0
176
     1
 62
     7
176
     1
 62
   257
176
     1
 90
        1
176
     1
 90
        1
176
     1
 40
1.0
176
     1
 90
        0
176
     1
 62
   257
176
     1
 40
1.0
176
     1
 90
        1
176
     1
 90
        6
176
     1
 90
        2
176
     1
 62
     7
176
     1
 90
        5
176
     1
 90
        0
176
     1
 90
        0
176
     1
290
     0
176
     1
 90
       13
176
     1
 40
0.0
176
     1
 90
        0
176
     1
290
     0
176
     1
290
     1
176
     1
290
     1
176
     1
290
     0
176
     1
290
     0
176
     1
290
     0
176
     1
290
     0
176
     1
290
     0
176
     1
290
     0
176
     1
 90
       50
176
     1
 40
0.0
176
     1
 40
1.0
176
     1
 90
        0
176
     1
 62
    18
420
        0
176
     1
 90
       50
176
     1
 90
        3
176
     1
 62
     5
420
      255
176
     1
290
     0
176
     1
 90
       50
176
     1
 90
       50
176
     1
 90
       50
176
     1
290
     0
176
     1
 90
       50
176
     1
 62
   256
176
     0
 40
1.0
176
     0
 90
        2
176
     1
  1
strokes_ogs.tif
176
     1
290
     0
176
     1
 40
1.0
176
     1
 40
1.0
176
     1
  0
VISUALSTYLE
  5
2D
102
{ACAD_REACTORS
330
2A
102
}
330
2A
100
AcDbVisualStyle
  2
Gouraud
 70
     2
177
     3
291
     1
 70
    58
 90
        2
176
     1
 90
        2
176
     1
 90
        1
176
     1
 90
        2
176
     1
 40
0.6
176
     1
 40
30.0
176
     1
 62
     7
420
 16777215
176
     1
 90
        0
176
     1
 90
        0
176
     1
 62
     7
176
     1
 62
   257
176
     1
 90
        1
176
     1
 90
        1
176
     1
 40
1.0
176
     1
 90
        0
176
     1
 62
     7
176
     1
 40
1.0
176
     1
 90
        1
176
     1
 90
        6
176
     1
 90
        2
176
     1
 62
     7
176
     1
 90
        5
176
     1
 90
        0
176
     1
 90
        0
176
     1
290
     0
176
     1
 90
       13
176
     1
 40
0.0
176
     1
 90
        0
176
     1
290
     0
176
     1
290
     1
176
     1
290
     1
176
     1
290
     0
176
     1
290
     0
176
     1
290
     0
176
     1
290
     0
176
     1
290
     0
176
     1
290
     0
176
     1
 90
       50
176
     1
 40
0.0
176
     1
 40
1.0
176
     1
 90
        0
176
     1
 62
    18
420
        0
176
     1
 90
       50
176
     1
 90
        3
176
     1
 62
     5
420
      255
176
     1
290
     0
176
     1
 90
       50
176
     1
 90
       50
176
     1
 90
       50
176
     1
290
     0
176
     1
 90
       50
176
     1
 62
   256
176
     0
 40
1.0
176
     0
 90
        2
176
     1
  1
strokes_ogs.tif
176
     1
290
     0
176
     1
 40
1.0
176
     1
 40
1.0
176
     1
  0
VISUALSTYLE
  5
2E
102
{ACAD_REACTORS
330
2A
102
}
330
2A
100
AcDbVisualStyle
  2
GouraudWithEdges
 70
     3
177
     3
291
     1
 70
    58
 90
        2
176
     1
 90
        2
176
     1
 90
        1
176
     1
 90
        2
176
     1
 40
0.6
176
     1
 40
30.0
176
     1
 62
     7
420
 16777215
176
     1
 90
        1
176
     1
 90
        0
176
     1
 62
     7
176
     1
 62
   257
176
     1
 90
        1
176
     1
 90
        1
176
     1
 40
1.0
176
     1
 90
        0
176
     1
 62
   257
176
     1
 40
1.0
176
     1
 90
        1
176
     1
 90
        6
176
     1
 90
        2
176
     1
 62
     7
176
     1
 90
        5
176
     1
 90
        0
176
     1
 90
        0
176
     1
290
     0
176
     1
 90
       13
176
     1
 40
0.0
176
     1
 90
        0
176
     1
290
     0
176
     1
290
     1
176
     1
290
     1
176
     1
290
     0
176
     1
290
     0
176
     1
290
     0
176
     1
290
     0
176
     1
290
     0
176
     1
290
     0
176
     1
 90
       50
176
     1
 40
0.0
176
     1
 40
1.0
176
     1
 90
        0
176
     1
 62
    18
420
        0
176
     1
 90
       50
176
     1
 90
        3
176
     1
 62
     5
420
      255
176
     1
290
     0
176
     1
 90
       50
176
     1
 90
       50
176
     1
 90
       50
176
     1
290
     0
176
     1
 90
       50
176
     1
 62
   256
176
     0
 40
1.0
176
     0
 90
        2
176
     1
  1
strokes_ogs.tif
176
     1
290
     0
176
     1
 40
1.0
176
     1
 40
1.0
176
     1
  0
VISUALSTYLE
  5
31
102
{ACAD_REACTORS
330
2A
102
}
330
2A
100
AcDbVisualStyle
  2
Hidden
 70
     6
177
     3
291
     0
 70
    58
 90
        1
176
     1
 90
        2
176
     1
 90
        2
176
     1
 90
        0
176
     1
 40
0.6
176
     1
 40
30.0
176
     1
 62
     7
420
 16777215
176
     1
 90
        2
176
     1
 90
        2
176
     1
 62
     7
176
     1
 62
   257
176
     1
 90
        2
176
     1
 90
        1
176
     1
 40
40.0
176
     1
 90
        0
176
     1
 62
   257
176
     1
 40
1.0
176
     1
 90
        1
176
     1
 90
        6
176
     1
 90
        2
176
     1
 62
     7
176
     1
 90
        3
176
     1
 90
        0
176
     1
 90
        0
176
     1
290
     0
176
     1
 90
        1
176
     1
 40
0.0
176
     1
 90
        0
176
     1
290
     0
176
     1
290
     1
176
     1
290
     1
176
     1
290
     0
176
     1
290
     0
176
     1
290
     0
176
     1
290
     0
176
     1
290
     0
176
     1
290
     0
176
     1
 90
       50
176
     1
 40
0.0
176
     1
 40
1.0
176
     1
 90
        0
176
     1
 62
    18
420
        0
176
     1
 90
       50
176
     1
 90
        3
176
     1
 62
     5
420
      255
176
     1
290
     0
176
     1
 90
       50
176
     1
 90
       50
176
     1
 90
       50
176
     1
290
     0
176
     1
 90
       50
176
     1
 62
   256
176
     0
 40
1.0
176
     0
 90
        2
176
     1
  1
strokes_ogs.tif
176
     1
290
     0
176
     1
 40
1.0
176
     1
 40
1.0
176
     1
  0
VISUALSTYLE
  5
3B
102
{ACAD_REACTORS
330
2A
102
}
330
2A
100
AcDbVisualStyle
  2
JitterOff
 70
    20
177
     3
291
     1
 70
    58
 90
        2
176
     0
 90
        2
176
     0
 90
        0
176
     0
 90
        0
176
     0
 40
0.6
176
     0
 40
30.0
176
     0
 62
     7
420
 16777215
176
     0
 90
        1
176
     0
 90
        4
176
     0
 62
     7
176
     0
 62
   257
176
     0
 90
        1
176
     0
 90
        1
176
     0
 40
1.0
176
     0
 90
       10
176
     2
 62
     7
176
     0
 40
1.0
176
     0
 90
        1
176
     0
 90
        6
176
     0
 90
        2
176
     0
 62
     7
176
     0
 90
        5
176
     0
 90
        0
176
     0
 90
        0
176
     0
290
     0
176
     0
 90
        1
176
     0
 40
0.0
176
     0
 90
        0
176
     0
290
     0
176
     0
290
     1
176
     0
290
     1
176
     0
290
     0
176
     0
290
     0
176
     0
290
     0
176
     0
290
     0
176
     0
290
     0
176
     0
290
     0
176
     0
 90
       50
176
     0
 40
0.0
176
     0
 40
1.0
176
     0
 90
        0
176
     0
 62
    18
420
        0
176
     0
 90
       50
176
     0
 90
        3
176
     0
 62
     5
420
      255
176
     0
290
     0
176
     0
 90
       50
176
     0
 90
       50
176
     0
 90
       50
176
     0
290
     0
176
     0
 90
       50
176
     0
 62
   256
176
     0
 40
1.0
176
     0
 90
        2
176
     0
  1
strokes_ogs.tif
176
     0
290
     0
176
     0
 40
1.0
176
     0
 40
1.0
176
     0
  0
VISUALSTYLE
  5
38
102
{ACAD_REACTORS
330
2A
102
}
330
2A
100
AcDbVisualStyle
  2
Linepattern
 70
    14
177
     3
291
     1
 70
    58
 90
        2
176
     1
 90
        2
176
     1
 90
        0
176
     1
 90
        0
176
     1
 40
0.6
176
     1
 40
30.0
176
     1
 62
     7
420
 16777215
176
     1
 90
        1
176
     1
 90
        4
176
     1
 62
     7
176
     1
 62
   257
176
     1
 90
        7
176
     1
 90
        7
176
     1
 40
1.0
176
     1
 90
        8
176
     1
 62
     7
176
     1
 40
1.0
176
     1
 90
        1
176
     1
 90
        6
176
     1
 90
        2
176
     1
 62
     7
176
     1
 90
        5
176
     1
 90
        0
176
     1
 90
        0
176
     1
290
     0
176
     1
 90
        1
176
     1
 40
0.0
176
     1
 90
        0
176
     1
290
     0
176
     1
290
     1
176
     1
290
     1
176
     1
290
     0
176
     1
290
     0
176
     1
290
     0
176
     1
290
     0
176
     1
290
     0
176
     1
290
     0
176
     1
 90
       50
176
     1
 40
0.0
176
     1
 40
1.0
176
     1
 90
        0
176
     1
 62
    18
420
        0
176
     1
 90
       50
176
     1
 90
        3
176
     1
 62
     5
420
      255
176
     1
290
     0
176
     1
 90
       50
176
     1
 90
       50
176
     1
 90
       50
176
     1
290
     0
176
     1
 90
       50
176
     1
 62
   256
176
     0
 40
1.0
176
     0
 90
        2
176
     1
  1
strokes_ogs.tif
176
     1
290
     0
176
     1
 40
1.0
176
     1
 40
1.0
176
     1
  0
VISUALSTYLE
  5
3C
102
{ACAD_REACTORS
330
2A
102
}
330
2A
100
AcDbVisualStyle
  2
OverhangOff
 70
    21
177
     3
291
     1
 70
    58
 90
        2
176
     0
 90
        2
176
     0
 90
        0
176
     0
 90
        0
176
     0
 40
0.6
176
     0
 40
30.0
176
     0
 62
     7
420
 16777215
176
     0
 90
        1
176
     0
 90
        4
176
     0
 62
     7
176
     0
 62
   257
176
     0
 90
        1
176
     0
 90
        1
176
     0
 40
1.0
176
     0
 90
        9
176
     2
 62
     7
176
     0
 40
1.0
176
     0
 90
        1
176
     0
 90
        6
176
     0
 90
        2
176
     0
 62
     7
176
     0
 90
        5
176
     0
 90
        0
176
     0
 90
        0
176
     0
290
     0
176
     0
 90
        1
176
     0
 40
0.0
176
     0
 90
        0
176
     0
290
     0
176
     0
290
     1
176
     0
290
     1
176
     0
290
     0
176
     0
290
     0
176
     0
290
     0
176
     0
290
     0
176
     0
290
     0
176
     0
290
     0
176
     0
 90
       50
176
     0
 40
0.0
176
     0
 40
1.0
176
     0
 90
        0
176
     0
 62
    18
420
        0
176
     0
 90
       50
176
     0
 90
        3
176
     0
 62
     5
420
      255
176
     0
290
     0
176
     0
 90
       50
176
     0
 90
       50
176
     0
 90
       50
176
     0
290
     0
176
     0
 90
       50
176
     0
 62
   256
176
     0
 40
1.0
176
     0
 90
        2
176
     0
  1
strokes_ogs.tif
176
     0
290
     0
176
     0
 40
1.0
176
     0
 40
1.0
176
     0
  0
VISUALSTYLE
  5
33
102
{ACAD_REACTORS
330
2A
102
}
330
2A
100
AcDbVisualStyle
  2
Realistic
 70
     8
177
     3
291
     0
 70
    58
 90
        2
176
     1
 90
        3
176
     1
 90
        0
176
     1
 90
        2
176
     1
 40
0.6
176
     1
 40
30.0
176
     1
 62
     7
420
 16777215
176
     1
 90
        0
176
     1
 90
        0
176
     1
 62
     7
176
     1
 62
   257
176
     1
 90
        1
176
     1
 90
        1
176
     1
 40
1.0
176
     1
 90
        8
176
     1
 62
   257
176
     1
 40
1.0
176
     1
 90
        1
176
     1
 90
        6
176
     1
 90
        2
176
     1
 62
     7
176
     1
 90
        3
176
     1
 90
        0
176
     1
 90
        0
176
     1
290
     0
176
     1
 90
       13
176
     1
 40
0.0
176
     1
 90
        0
176
     1
290
     0
176
     1
290
     1
176
     1
290
     1
176
     1
290
     0
176
     1
290
     0
176
     1
290
     0
176
     1
290
     0
176
     1
290
     0
176
     1
290
     0
176
     1
 90
       50
176
     1
 40
0.0
176
     1
 40
1.0
176
     1
 90
        0
176
     1
 62
    18
420
        0
176
     1
 90
       50
176
     1
 90
        3
176
     1
 62
     5
420
      255
176
     1
290
     0
176
     1
 90
       50
176
     1
 90
       50
176
     1
 90
       50
176
     1
290
     0
176
     1
 90
       50
176
     1
 62
   256
176
     0
 40
1.0
176
     0
 90
        2
176
     1
  1
strokes_ogs.tif
176
     1
290
     0
176
     1
 40
1.0
176
     1
 40
1.0
176
     1
  0
VISUALSTYLE
  5
42
102
{ACAD_REACTORS
330
2A
102
}
330
2A
100
AcDbVisualStyle
  2
Shaded
 70
    27
177
     3
291
     0
 70
    58
 90
        2
176
     1
 90
        2
176
     1
 90
        1
176
     1
 90
        2
176
     1
 40
0.6
176
     1
 40
30.0
176
     1
 62
     7
420
 16777215
176
     1
 90
        0
176
     1
 90
        4
176
     1
 62
     7
176
     1
 62
   257
176
     1
 90
        1
176
     1
 90
        1
176
     1
 40
1.0
176
     1
 90
        8
176
     1
 62
   257
176
     1
 40
1.0
176
     1
 90
        1
176
     1
 90
        6
176
     1
 90
        2
176
     1
 62
     8
420
  7895160
176
     1
 90
        3
176
     1
 90
        0
176
     1
 90
        0
176
     1
290
     0
176
     1
 90
        5
176
     1
 40
0.0
176
     1
 90
        0
176
     1
290
     0
176
     1
290
     1
176
     1
290
     1
176
     1
290
     0
176
     1
290
     0
176
     1
290
     0
176
     1
290
     0
176
     1
290
     0
176
     1
290
     0
176
     1
 90
       50
176
     1
 40
0.0
176
     1
 40
1.0
176
     1
 90
        0
176
     1
 62
    18
420
        0
176
     1
 90
       50
176
     1
 90
        3
176
     1
 62
     5
420
      255
176
     1
290
     0
176
     1
 90
       50
176
     1
 90
       50
176
     1
 90
       50
176
     1
290
     0
176
     1
 90
       50
176
     1
 62
   256
176
     0
 40
1.0
176
     0
 90
        2
176
     1
  1
strokes_ogs.tif
176
     1
290
     0
176
     1
 40
1.0
176
     1
 40
1.0
176
     1
  0
VISUALSTYLE
  5
41
102
{ACAD_REACTORS
330
2A
102
}
330
2A
100
AcDbVisualStyle
  2
Shaded with edges
 70
    26
177
     3
291
     0
 70
    58
 90
        2
176
     1
 90
        2
176
     1
 90
        1
176
     1
 90
        2
176
     1
 40
0.6
176
     1
 40
30.0
176
     1
 62
     7
420
 16777215
176
     1
 90
        1
176
     1
 90
       10
176
     1
 62
     7
176
     1
 62
   257
176
     1
 90
        2
176
     1
 90
        1
176
     1
 40
1.0
176
     1
 90
        8
176
     1
 62
   257
176
     1
 40
1.0
176
     1
 90
        1
176
     1
 90
        6
176
     1
 90
        2
176
     1
 62
     7
176
     1
 90
        3
176
     1
 90
        0
176
     1
 90
        0
176
     1
290
     0
176
     1
 90
        5
176
     1
 40
0.0
176
     1
 90
        0
176
     1
290
     0
176
     1
290
     1
176
     1
290
     1
176
     1
290
     0
176
     1
290
     0
176
     1
290
     0
176
     1
290
     0
176
     1
290
     0
176
     1
290
     0
176
     1
 90
       50
176
     1
 40
0.0
176
     1
 40
1.0
176
     1
 90
        0
176
     1
 62
    18
420
        0
176
     1
 90
       50
176
     1
 90
        3
176
     1
 62
     5
420
      255
176
     1
290
     0
176
     1
 90
       50
176
     1
 90
       50
176
     1
 90
       50
176
     1
290
     0
176
     1
 90
       50
176
     1
 62
   256
176
     0
 40
1.0
176
     0
 90
        2
176
     1
  1
strokes_ogs.tif
176
     1
290
     0
176
     1
 40
1.0
176
     1
 40
1.0
176
     1
  0
VISUALSTYLE
  5
3E
102
{ACAD_REACTORS
330
2A
102
}
330
2A
100
AcDbVisualStyle
  2
Shades of Gray
 70
    23
177
     3
291
     0
 70
    58
 90
        2
176
     1
 90
        2
176
     1
 90
        3
176
     1
 90
        0
176
     1
 40
0.6
176
     1
 40
30.0
176
     1
 62
     7
420
 16777215
176
     1
 90
        2
176
     1
 90
        2
176
     1
 62
     7
176
     1
 62
     7
176
     1
 90
        1
176
     1
 90
        1
176
     1
 40
40.0
176
     1
 90
        8
176
     1
 62
     7
176
     1
 40
1.0
176
     1
 90
        1
176
     1
 90
        6
176
     1
 90
        2
176
     1
 62
     7
176
     1
 90
        3
176
     1
 90
        0
176
     1
 90
        0
176
     1
290
     0
176
     1
 90
        1
176
     1
 40
0.0
176
     1
 90
        0
176
     1
290
     0
176
     1
290
     1
176
     1
290
     1
176
     1
290
     0
176
     1
290
     0
176
     1
290
     0
176
     1
290
     0
176
     1
290
     0
176
     1
290
     0
176
     1
 90
       50
176
     1
 40
0.0
176
     1
 40
1.0
176
     1
 90
        0
176
     1
 62
    18
420
        0
176
     1
 90
       50
176
     1
 90
        3
176
     1
 62
     5
420
      255
176
     1
290
     0
176
     1
 90
       50
176
     1
 90
       50
176
     1
 90
       50
176
     1
290
     0
176
     1
 90
       50
176
     1
 62
   256
176
     0
 40
1.0
176
     0
 90
        2
176
     1
  1
strokes_ogs.tif
176
     1
290
     0
176
     1
 40
1.0
176
     1
 40
1.0
176
     1
  0
VISUALSTYLE
  5
3F
102
{ACAD_REACTORS
330
2A
102
}
330
2A
100
AcDbVisualStyle
  2
Sketchy
 70
    24
177
     3
291
     0
 70
    58
 90
        1
176
     1
 90
        2
176
     1
 90
        2
176
     1
 90
        0
176
     1
 40
0.6
176
     1
 40
30.0
176
     1
 62
     7
420
 16777215
176
     1
 90
        2
176
     1
 90
        2
176
     1
 62
     7
176
     1
 62
     7
176
     1
 90
        1
176
     1
 90
        1
176
     1
 40
40.0
176
     1
 90
       11
176
     1
 62
     7
176
     1
 40
1.0
176
     1
 90
        1
176
     1
 90
        6
176
     1
 90
        2
176
     1
 62
     7
176
     1
 90
        6
176
     1
 90
        0
176
     1
 90
        0
176
     1
290
     0
176
     1
 90
        1
176
     1
 40
0.0
176
     1
 90
        0
176
     1
290
     0
176
     1
290
     1
176
     1
290
     1
176
     1
290
     0
176
     1
290
     0
176
     1
290
     0
176
     1
290
     0
176
     1
290
     0
176
     1
290
     0
176
     1
 90
       50
176
     1
 40
0.0
176
     1
 40
1.0
176
     1
 90
        0
176
     1
 62
    18
420
        0
176
     1
 90
       50
176
     1
 90
        3
176
     1
 62
     5
420
      255
176
     1
290
     0
176
     1
 90
       50
176
     1
 90
       50
176
     1
 90
       50
176
     1
290
     0
176
     1
 90
       50
176
     1
 62
   256
176
     0
 40
1.0
176
     0
 90
        2
176
     1
  1
strokes_ogs.tif
176
     1
290
     0
176
     1
 40
1.0
176
     1
 40
1.0
176
     1
  0
VISUALSTYLE
  5
37
102
{ACAD_REACTORS
330
2A
102
}
330
2A
100
AcDbVisualStyle
  2
Thicken
 70
    13
177
     3
291
     1
 70
    58
 90
        2
176
     1
 90
        2
176
     1
 90
        0
176
     1
 90
        0
176
     1
 40
0.6
176
     1
 40
30.0
176
     1
 62
     7
420
 16777215
176
     1
 90
        1
176
     1
 90
        4
176
     1
 62
     7
176
     1
 62
   257
176
     1
 90
        1
176
     1
 90
        1
176
     1
 40
1.0
176
     1
 90
       12
176
     1
 62
     7
176
     1
 40
1.0
176
     1
 90
        1
176
     1
 90
        6
176
     1
 90
        2
176
     1
 62
     7
176
     1
 90
        5
176
     1
 90
        0
176
     1
 90
        0
176
     1
290
     0
176
     1
 90
        1
176
     1
 40
0.0
176
     1
 90
        0
176
     1
290
     0
176
     1
290
     1
176
     1
290
     1
176
     1
290
     0
176
     1
290
     0
176
     1
290
     0
176
     1
290
     0
176
     1
290
     0
176
     1
290
     0
176
     1
 90
       50
176
     1
 40
0.0
176
     1
 40
1.0
176
     1
 90
        0
176
     1
 62
    18
420
        0
176
     1
 90
       50
176
     1
 90
        3
176
     1
 62
     5
420
      255
176
     1
290
     0
176
     1
 90
       50
176
     1
 90
       50
176
     1
 90
       50
176
     1
290
     0
176
     1
 90
       50
176
     1
 62
   256
176
     0
 40
1.0
176
     0
 90
        2
176
     1
  1
strokes_ogs.tif
176
     1
290
     0
176
     1
 40
1.0
176
     1
 40
1.0
176
     1
  0
VISUALSTYLE
  5
30
102
{ACAD_REACTORS
330
2A
102
}
330
2A
100
AcDbVisualStyle
  2
Wireframe
 70
     5
177
     3
291
     0
 70
    58
 90
        0
176
     1
 90
        2
176
     1
 90
        0
176
     1
 90
        0
176
     1
 40
0.6
176
     1
 40
30.0
176
     1
 62
     7
420
 16777215
176
     1
 90
        1
176
     1
 90
        4
176
     1
 62
     7
176
     1
 62
   257
176
     1
 90
        1
176
     1
 90
        1
176
     1
 40
1.0
176
     1
 90
        0
176
     1
 62
   257
176
     1
 40
1.0
176
     1
 90
        1
176
     1
 90
        6
176
     1
 90
        2
176
     1
 62
     7
176
     1
 90
        3
176
     1
 90
        0
176
     1
 90
        0
176
     1
290
     0
176
     1
 90
        1
176
     1
 40
0.0
176
     1
 90
        0
176
     1
290
     0
176
     1
290
     1
176
     1
290
     1
176
     1
290
     0
176
     1
290
     0
176
     1
290
     0
176
     1
290
     0
176
     1
290
     0
176
     1
290
     0
176
     1
 90
       50
176
     1
 40
0.0
176
     1
 40
1.0
176
     1
 90
        0
176
     1
 62
    18
420
        0
176
     1
 90
       50
176
     1
 90
        3
176
     1
 62
     5
420
      255
176
     1
290
     0
176
     1
 90
       50
176
     1
 90
       50
176
     1
 90
       50
176
     1
290
     0
176
     1
 90
       50
176
     1
 62
   256
176
     0
 40
1.0
176
     0
 90
        2
176
     1
  1
strokes_ogs.tif
176
     1
290
     0
176
     1
 40
1.0
176
     1
 40
1.0
176
     1
  0
VISUALSTYLE
  5
40
102
{ACAD_REACTORS
330
2A
102
}
330
2A
100
AcDbVisualStyle
  2
X-Ray
 70
    25
177
     3
291
     0
 70
    58
 90
        2
176
     1
 90
        2
176
     1
 90
        1
176
     1
 90
        1
176
     1
 40
0.5
176
     1
 40
30.0
176
     1
 62
     7
420
 16777215
176
     1
 90
        1
176
     1
 90
        0
176
     1
 62
     7
176
     1
 62
   257
176
     1
 90
        1
176
     1
 90
        1
176
     1
 40
1.0
176
     1
 90
        8
176
     1
 62
     7
176
     1
 40
1.0
176
     1
 90
        1
176
     1
 90
        6
176
     1
 90
        2
176
     1
 62
     7
176
     1
 90
        3
176
     1
 90
        0
176
     1
 90
        0
176
     1
290
     0
176
     1
 90
       13
176
     1
 40
0.0
176
     1
 90
        0
176
     1
290
     0
176
     1
290
     1
176
     1
290
     1
176
     1
290
     0
176
     1
290
     0
176
     1
290
     0
176
     1
290
     0
176
     1
290
     0
176
     1
290
     0
176
     1
 90
       50
176
     1
 40
0.0
176
     1
 40
1.0
176
     1
 90
        0
176
     1
 62
    18
420
        0
176
     1
 90
       50
176
     1
 90
        3
176
     1
 62
     5
420
      255
176
     1
290
     0
176
     1
 90
       50
176
     1
 90
       50
176
     1
 90
       50
176
     1
290
     0
176
     1
 90
       50
176
     1
 62
   256
176
     0
 40
1.0
176
     0
 90
        2
176
     1
  1
strokes_ogs.tif
176
     1
290
     0
176
     1
 40
1.0
176
     1
 40
1.0
176
     1
  0
DICTIONARYVAR
  5
206
102
{ACAD_REACTORS
330
205
102
}
330
205
100
DictionaryVariables
280
     0
  1
1:1
  0
DICTIONARYVAR
  5
20B
102
{ACAD_REACTORS
330
205
102
}
330
205
100
DictionaryVariables
280
     0
  1
Standard
  0
DICTIONARYVAR
  5
20A
102
{ACAD_REACTORS
330
205
102
}
330
205
100
DictionaryVariables
280
     0
  1
Standard
  0
DICTIONARY
  5
207
330
6A
100
AcDbDictionary
280
     1
281
     1
  3
ACAD_ROUNDTRIP_2008_TABLESTYLE_CELLSTYLEMAP
360
208
  0
CELLSTYLEMAP
  5
208
102
{ACAD_REACTORS
330
207
102
}
330
207
100
AcDbCellStyleMap
 90
        3
300
CELLSTYLE
  1
TABLEFORMAT_BEGIN
 90
        5
170
     1
 91
        0
 92
    32768
 62
   257
 93
        1
300
CONTENTFORMAT
  1
CONTENTFORMAT_BEGIN
 90
        0
 91
        0
 92
        4
 93
        0
300

 40
0.0
140
1.0
 94
        5
 62
     0
340
11
144
0.25
309
CONTENTFORMAT_END
171
     1
301
MARGIN
  1
CELLMARGIN_BEGIN
 40
0.06
 40
0.06
 40
0.06
 40
0.06
 40
0.06
 40
0.06
309
CELLMARGIN_END
 94
        6
 95
        1
302
GRIDFORMAT
  1
GRIDFORMAT_BEGIN
 90
        0
 91
        1
 62
     0
 92
       -2
340
14
 93
        0
 40
0.045
309
GRIDFORMAT_END
 95
        2
302
GRIDFORMAT
  1
GRIDFORMAT_BEGIN
 90
        0
 91
        1
 62
     0
 92
       -2
340
14
 93
        0
 40
0.045
309
GRIDFORMAT_END
 95
        4
302
GRIDFORMAT
  1
GRIDFORMAT_BEGIN
 90
        0
 91
        1
 62
     0
 92
       -2
340
14
 93
        0
 40
0.045
309
GRIDFORMAT_END
 95
        8
302
GRIDFORMAT
  1
GRIDFORMAT_BEGIN
 90
        0
 91
        1
 62
     0
 92
       -2
340
14
 93
        0
 40
0.045
309
GRIDFORMAT_END
 95
       16
302
GRIDFORMAT
  1
GRIDFORMAT_BEGIN
 90
        0
 91
        1
 62
     0
 92
       -2
340
14
 93
        0
 40
0.045
309
GRIDFORMAT_END
 95
       32
302
GRIDFORMAT
  1
GRIDFORMAT_BEGIN
 90
        0
 91
        1
 62
     0
 92
       -2
340
14
 93
        0
 40
0.045
309
GRIDFORMAT_END
309
TABLEFORMAT_END
  1
CELLSTYLE_BEGIN
 90
        1
 91
        1
300
_TITLE
309
CELLSTYLE_END
300
CELLSTYLE
  1
TABLEFORMAT_BEGIN
 90
        5
170
     1
 91
        0
 92
        0
 62
   257
 93
        1
300
CONTENTFORMAT
  1
CONTENTFORMAT_BEGIN
 90
        0
 91
        0
 92
        4
 93
        0
300

 40
0.0
140
1.0
 94
        5
 62
     0
340
11
144
0.18
309
CONTENTFORMAT_END
171
     1
301
MARGIN
  1
CELLMARGIN_BEGIN
 40
0.06
 40
0.06
 40
0.06
 40
0.06
 40
0.06
 40
0.06
309
CELLMARGIN_END
 94
        6
 95
        1
302
GRIDFORMAT
  1
GRIDFORMAT_BEGIN
 90
        0
 91
        1
 62
     0
 92
       -2
340
14
 93
        0
 40
0.045
309
GRIDFORMAT_END
 95
        2
302
GRIDFORMAT
  1
GRIDFORMAT_BEGIN
 90
        0
 91
        1
 62
     0
 92
       -2
340
14
 93
        0
 40
0.045
309
GRIDFORMAT_END
 95
        4
302
GRIDFORMAT
  1
GRIDFORMAT_BEGIN
 90
        0
 91
        1
 62
     0
 92
       -2
340
14
 93
        0
 40
0.045
309
GRIDFORMAT_END
 95
        8
302
GRIDFORMAT
  1
GRIDFORMAT_BEGIN
 90
        0
 91
        1
 62
     0
 92
       -2
340
14
 93
        0
 40
0.045
309
GRIDFORMAT_END
 95
       16
302
GRIDFORMAT
  1
GRIDFORMAT_BEGIN
 90
        0
 91
        1
 62
     0
 92
       -2
340
14
 93
        0
 40
0.045
309
GRIDFORMAT_END
 95
       32
302
GRIDFORMAT
  1
GRIDFORMAT_BEGIN
 90
        0
 91
        1
 62
     0
 92
       -2
340
14
 93
        0
 40
0.045
309
GRIDFORMAT_END
309
TABLEFORMAT_END
  1
CELLSTYLE_BEGIN
 90
        2
 91
        1
300
_HEADER
309
CELLSTYLE_END
300
CELLSTYLE
  1
TABLEFORMAT_BEGIN
 90
        5
170
     1
 91
        0
 92
        0
 62
   257
 93
        1
300
CONTENTFORMAT
  1
CONTENTFORMAT_BEGIN
 90
        0
 91
        0
 92
        4
 93
        0
300

 40
0.0
140
1.0
 94
        2
 62
     0
340
11
144
0.18
309
CONTENTFORMAT_END
171
     1
301
MARGIN
  1
CELLMARGIN_BEGIN
 40
0.06
 40
0.06
 40
0.06
 40
0.06
 40
0.06
 40
0.06
309
CELLMARGIN_END
 94
        6
 95
        1
302
GRIDFORMAT
  1
GRIDFORMAT_BEGIN
 90
        0
 91
        1
 62
     0
 92
       -2
340
14
 93
        0
 40
0.045
309
GRIDFORMAT_END
 95
        2
302
GRIDFORMAT
  1
GRIDFORMAT_BEGIN
 90
        0
 91
        1
 62
     0
 92
       -2
340
14
 93
        0
 40
0.045
309
GRIDFORMAT_END
 95
        4
302
GRIDFORMAT
  1
GRIDFORMAT_BEGIN
 90
        0
 91
        1
 62
     0
 92
       -2
340
14
 93
        0
 40
0.045
309
GRIDFORMAT_END
 95
        8
302
GRIDFORMAT
  1
GRIDFORMAT_BEGIN
 90
        0
 91
        1
 62
     0
 92
       -2
340
14
 93
        0
 40
0.045
309
GRIDFORMAT_END
 95
       16
302
GRIDFORMAT
  1
GRIDFORMAT_BEGIN
 90
        0
 91
        1
 62
     0
 92
       -2
340
14
 93
        0
 40
0.045
309
GRIDFORMAT_END
 95
       32
302
GRIDFORMAT
  1
GRIDFORMAT_BEGIN
 90
        0
 91
        1
 62
     0
 92
       -2
340
14
 93
        0
 40
0.045
309
GRIDFORMAT_END
309
TABLEFORMAT_END
  1
CELLSTYLE_BEGIN
 90
        3
 91
        2
300
_DATA
309
CELLSTYLE_END
  0
ENDSEC
  0
EOF