0
SECTION
  2
HEADER
  9
$ACADVER
  1
AC1027
  9
$ACADMAINTVER
 70
     8
  9
$DWGCODEPAGE
  3
ANSI_1252
  9
$REQUIREDVERSIONS
160
                 0
  9
$COMMENTS
  1
File was created by Cadenas
  9
$CUSTOMPROPERTYTAG
  1
NN
  9
$CUSTOMPROPERTY
  1
S-2000 Wide Slot Take-Up Trident Seal
  9
$CUSTOMPROPERTYTAG
  1
NT
  9
$CUSTOMPROPERTY
  1
S-2000 Wide Slot Take-Up Bearing -Inch
  9
$CUSTOMPROPERTYTAG
  1
NB
  9
$CUSTOMPROPERTY
  1
070799
  9
$CUSTOMPROPERTYTAG
  1
NBSYN
  9
$CUSTOMPROPERTY
  1
$PN.
  9
$CUSTOMPROPERTYTAG
  1
LINA
  9
$CUSTOMPROPERTY
  1
070799
  9
$CUSTOMPROPERTYTAG
  1
SS
  9
$CUSTOMPROPERTY
  1
4-7/16
  9
$CUSTOMPROPERTYTAG
  1
PN
  9
$CUSTOMPROPERTY
  1
070799
  9
$CUSTOMPROPERTYTAG
  1
DESCRIPTION
  9
$CUSTOMPROPERTY
  1
WSTU-S2-407RE
  9
$CUSTOMPROPERTYTAG
  1
EF
  9
$CUSTOMPROPERTY
  1
Expansion Type
  9
$CUSTOMPROPERTYTAG
  1
ST
  9
$CUSTOMPROPERTY
  1
Contact Seal
  9
$CUSTOMPROPERTYTAG
  1
A
  9
$CUSTOMPROPERTY
  1
6-17/32
  9
$CUSTOMPROPERTYTAG
  1
B
  9
$CUSTOMPROPERTY
  1
13-3/8
  9
$CUSTOMPROPERTYTAG
  1
C
  9
$CUSTOMPROPERTY
  1
2-1/16
  9
$CUSTOMPROPERTYTAG
  1
D
  9
$CUSTOMPROPERTY
  1
7
  9
$CUSTOMPROPERTYTAG
  1
E
  9
$CUSTOMPROPERTY
  1
8-3/4
  9
$CUSTOMPROPERTYTAG
  1
F
  9
$CUSTOMPROPERTY
  1
2-1/8
  9
$CUSTOMPROPERTYTAG
  1
G
  9
$CUSTOMPROPERTY
  1
2
  9
$CUSTOMPROPERTYTAG
  1
H
  9
$CUSTOMPROPERTY
  1
2-1/8
  9
$CUSTOMPROPERTYTAG
  1
J
  9
$CUSTOMPROPERTY
  1
6-3/8
  9
$CUSTOMPROPERTYTAG
  1
K
  9
$CUSTOMPROPERTY
  1
3-3/8
  9
$CUSTOMPROPERTYTAG
  1
L
  9
$CUSTOMPROPERTY
  1
6-29/64
  9
$CUSTOMPROPERTYTAG
  1
M
  9
$CUSTOMPROPERTY
  1
9-1/2
  9
$CUSTOMPROPERTYTAG
  1
N
  9
$CUSTOMPROPERTY
  1
10-3/8
  9
$CUSTOMPROPERTYTAG
  1
R
  9
$CUSTOMPROPERTY
  1
5-11/32
  9
$CUSTOMPROPERTYTAG
  1
S
  9
$CUSTOMPROPERTY
  1
3-15/32
  9
$CUSTOMPROPERTYTAG
  1
T
  9
$CUSTOMPROPERTY
  1
3-3/4
  9
$CUSTOMPROPERTYTAG
  1
X
  9
$CUSTOMPROPERTY
  1
3/8
  9
$CUSTOMPROPERTYTAG
  1
Y
  9
$CUSTOMPROPERTY
  1
0.036
  9
$CUSTOMPROPERTYTAG
  1
Z
  9
$CUSTOMPROPERTY
  1
5
  9
$CUSTOMPROPERTYTAG
  1
COMPANY
  9
$CUSTOMPROPERTY
  1
baldor
  9
$INSBASE
 10
0.0
 20
0.0
 30
0.0
  9
$EXTMIN
 10
1.000000000000000E+20
 20
1.000000000000000E+20
 30
1.000000000000000E+20
  9
$EXTMAX
 10
-1.000000000000000E+20
 20
-1.000000000000000E+20
 30
-1.000000000000000E+20
  9
$LIMMIN
 10
0.0
 20
0.0
  9
$LIMMAX
 10
12.0
 20
9.0
  9
$ORTHOMODE
 70
     0
  9
$REGENMODE
 70
     1
  9
$FILLMODE
 70
     1
  9
$QTEXTMODE
 70
     0
  9
$MIRRTEXT
 70
     1
  9
$LTSCALE
 40
1.0
  9
$ATTMODE
 70
     1
  9
$TEXTSIZE
 40
0.2
  9
$TRACEWID
 40
0.05
  9
$TEXTSTYLE
  7
Standard
  9
$CLAYER
  8
0
  9
$CELTYPE
  6
ByLayer
  9
$CECOLOR
 62
   256
  9
$CELTSCALE
 40
1.0
  9
$DISPSILH
 70
     0
  9
$DIMSCALE
 40
1.0
  9
$DIMASZ
 40
0.18
  9
$DIMEXO
 40
0.0625
  9
$DIMDLI
 40
0.38
  9
$DIMRND
 40
0.0
  9
$DIMDLE
 40
0.0
  9
$DIMEXE
 40
0.18
  9
$DIMTP
 40
0.0
  9
$DIMTM
 40
0.0
  9
$DIMTXT
 40
0.18
  9
$DIMCEN
 40
0.09
  9
$DIMTSZ
 40
0.0
  9
$DIMTOL
 70
     0
  9
$DIMLIM
 70
     0
  9
$DIMTIH
 70
     1
  9
$DIMTOH
 70
     1
  9
$DIMSE1
 70
     0
  9
$DIMSE2
 70
     0
  9
$DIMTAD
 70
     0
  9
$DIMZIN
 70
     0
  9
$DIMBLK
  1

  9
$DIMASO
 70
     1
  9
$DIMSHO
 70
     1
  9
$DIMPOST
  1

  9
$DIMAPOST
  1

  9
$DIMALT
 70
     0
  9
$DIMALTD
 70
     2
  9
$DIMALTF
 40
25.4
  9
$DIMLFAC
 40
1.0
  9
$DIMTOFL
 70
     0
  9
$DIMTVP
 40
0.0
  9
$DIMTIX
 70
     0
  9
$DIMSOXD
 70
     0
  9
$DIMSAH
 70
     0
  9
$DIMBLK1
  1

  9
$DIMBLK2
  1

  9
$DIMSTYLE
  2
Standard
  9
$DIMCLRD
 70
     0
  9
$DIMCLRE
 70
     0
  9
$DIMCLRT
 70
     0
  9
$DIMTFAC
 40
1.0
  9
$DIMGAP
 40
0.09
  9
$DIMJUST
 70
     0
  9
$DIMSD1
 70
     0
  9
$DIMSD2
 70
     0
  9
$DIMTOLJ
 70
     1
  9
$DIMTZIN
 70
     0
  9
$DIMALTZ
 70
     0
  9
$DIMALTTZ
 70
     0
  9
$DIMUPT
 70
     0
  9
$DIMDEC
 70
     4
  9
$DIMTDEC
 70
     4
  9
$DIMALTU
 70
     2
  9
$DIMALTTD
 70
     2
  9
$DIMTXSTY
  7
Standard
  9
$DIMAUNIT
 70
     0
  9
$DIMADEC
 70
     0
  9
$DIMALTRND
 40
0.0
  9
$DIMAZIN
 70
     0
  9
$DIMDSEP
 70
    46
  9
$DIMATFIT
 70
     3
  9
$DIMFRAC
 70
     0
  9
$DIMLDRBLK
  1

  9
$DIMLUNIT
 70
     2
  9
$DIMLWD
 70
    -2
  9
$DIMLWE
 70
    -2
  9
$DIMTMOVE
 70
     0
  9
$DIMFXL
 40
1.0
  9
$DIMFXLON
 70
     0
  9
$DIMJOGANG
 40
0.7853981633974483
  9
$DIMTFILL
 70
     0
  9
$DIMTFILLCLR
 70
     0
  9
$DIMARCSYM
 70
     0
  9
$DIMLTYPE
  6

  9
$DIMLTEX1
  6

  9
$DIMLTEX2
  6

  9
$DIMTXTDIRECTION
 70
     0
  9
$LUNITS
 70
     2
  9
$LUPREC
 70
     4
  9
$SKETCHINC
 40
0.1
  9
$FILLETRAD
 40
0.5
  9
$AUNITS
 70
     0
  9
$AUPREC
 70
     0
  9
$MENU
  1
.
  9
$ELEVATION
 40
0.0
  9
$PELEVATION
 40
0.0
  9
$THICKNESS
 40
0.0
  9
$LIMCHECK
 70
     0
  9
$CHAMFERA
 40
0.0
  9
$CHAMFERB
 40
0.0
  9
$CHAMFERC
 40
0.0
  9
$CHAMFERD
 40
0.0
  9
$SKPOLY
 70
     0
  9
$TDCREATE
 40
2458168.984111759
  9
$TDUCREATE
 40
2458168.942445092
  9
$TDUPDATE
 40
2458168.984111933
  9
$TDUUPDATE
 40
2458168.942445266
  9
$TDINDWG
 40
0.0000000116
  9
$TDUSRTIMER
 40
0.0000000116
  9
$USRTIMER
 70
     1
  9
$ANGBASE
 50
0.0
  9
$ANGDIR
 70
     0
  9
$PDMODE
 70
     0
  9
$PDSIZE
 40
0.0
  9
$PLINEWID
 40
0.0
  9
$SPLFRAME
 70
     0
  9
$SPLINETYPE
 70
     6
  9
$SPLINESEGS
 70
     8
  9
$HANDSEED
  5
2A7
  9
$SURFTAB1
 70
     6
  9
$SURFTAB2
 70
     6
  9
$SURFTYPE
 70
     6
  9
$SURFU
 70
     6
  9
$SURFV
 70
     6
  9
$UCSBASE
  2

  9
$UCSNAME
  2

  9
$UCSORG
 10
0.0
 20
0.0
 30
0.0
  9
$UCSXDIR
 10
1.0
 20
0.0
 30
0.0
  9
$UCSYDIR
 10
0.0
 20
1.0
 30
0.0
  9
$UCSORTHOREF
  2

  9
$UCSORTHOVIEW
 70
     0
  9
$UCSORGTOP
 10
0.0
 20
0.0
 30
0.0
  9
$UCSORGBOTTOM
 10
0.0
 20
0.0
 30
0.0
  9
$UCSORGLEFT
 10
0.0
 20
0.0
 30
0.0
  9
$UCSORGRIGHT
 10
0.0
 20
0.0
 30
0.0
  9
$UCSORGFRONT
 10
0.0
 20
0.0
 30
0.0
  9
$UCSORGBACK
 10
0.0
 20
0.0
 30
0.0
  9
$PUCSBASE
  2

  9
$PUCSNAME
  2

  9
$PUCSORG
 10
0.0
 20
0.0
 30
0.0
  9
$PUCSXDIR
 10
1.0
 20
0.0
 30
0.0
  9
$PUCSYDIR
 10
0.0
 20
1.0
 30
0.0
  9
$PUCSORTHOREF
  2

  9
$PUCSORTHOVIEW
 70
     0
  9
$PUCSORGTOP
 10
0.0
 20
0.0
 30
0.0
  9
$PUCSORGBOTTOM
 10
0.0
 20
0.0
 30
0.0
  9
$PUCSORGLEFT
 10
0.0
 20
0.0
 30
0.0
  9
$PUCSORGRIGHT
 10
0.0
 20
0.0
 30
0.0
  9
$PUCSORGFRONT
 10
0.0
 20
0.0
 30
0.0
  9
$PUCSORGBACK
 10
0.0
 20
0.0
 30
0.0
  9
$USERI1
 70
     0
  9
$USERI2
 70
     0
  9
$USERI3
 70
     0
  9
$USERI4
 70
     0
  9
$USERI5
 70
     0
  9
$USERR1
 40
0.0
  9
$USERR2
 40
0.0
  9
$USERR3
 40
0.0
  9
$USERR4
 40
0.0
  9
$USERR5
 40
0.0
  9
$WORLDVIEW
 70
     1
  9
$SHADEDGE
 70
     3
  9
$SHADEDIF
 70
    70
  9
$TILEMODE
 70
     1
  9
$MAXACTVP
 70
    64
  9
$PINSBASE
 10
0.0
 20
0.0
 30
0.0
  9
$PLIMCHECK
 70
     0
  9
$PEXTMIN
 10
1.000000000000000E+20
 20
1.000000000000000E+20
 30
1.000000000000000E+20
  9
$PEXTMAX
 10
-1.000000000000000E+20
 20
-1.000000000000000E+20
 30
-1.000000000000000E+20
  9
$PLIMMIN
 10
0.0
 20
0.0
  9
$PLIMMAX
 10
12.0
 20
9.0
  9
$UNITMODE
 70
     0
  9
$VISRETAIN
 70
     1
  9
$PLINEGEN
 70
     0
  9
$PSLTSCALE
 70
     1
  9
$TREEDEPTH
 70
  3020
  9
$CMLSTYLE
  2
Standard
  9
$CMLJUST
 70
     0
  9
$CMLSCALE
 40
1.0
  9
$PROXYGRAPHICS
 70
     1
  9
$MEASUREMENT
 70
     0
  9
$CELWEIGHT
370
    -1
  9
$ENDCAPS
280
     0
  9
$JOINSTYLE
280
     0
  9
$LWDISPLAY
290
     0
  9
$INSUNITS
 70
     1
  9
$HYPERLINKBASE
  1

  9
$STYLESHEET
  1

  9
$XEDIT
290
     1
  9
$CEPSNTYPE
380
     0
  9
$PSTYLEMODE
290
     1
  9
$FINGERPRINTGUID
  2
{8B48AC85-4C42-4D62-9BB1-96081D68BAF5}
  9
$VERSIONGUID
  2
{FAEB1C32-E019-11D5-929B-00C0DF256EC4}
  9
$EXTNAMES
290
     1
  9
$PSVPSCALE
 40
0.0
  9
$OLESTARTUP
290
     0
  9
$SORTENTS
280
   127
  9
$INDEXCTL
280
     0
  9
$HIDETEXT
280
     1
  9
$XCLIPFRAME
280
     2
  9
$HALOGAP
280
     0
  9
$OBSCOLOR
 70
   257
  9
$OBSLTYPE
280
     0
  9
$INTERSECTIONDISPLAY
280
     0
  9
$INTERSECTIONCOLOR
 70
   257
  9
$DIMASSOC
280
     2
  9
$PROJECTNAME
  1

  9
$CAMERADISPLAY
290
     0
  9
$LENSLENGTH
 40
50.0
  9
$CAMERAHEIGHT
 40
0.0
  9
$STEPSPERSEC
 40
2.0
  9
$STEPSIZE
 40
6.0
  9
$3DDWFPREC
 40
2.0
  9
$PSOLWIDTH
 40
0.25
  9
$PSOLHEIGHT
 40
4.0
  9
$LOFTANG1
 40
1.570796326794897
  9
$LOFTANG2
 40
1.570796326794897
  9
$LOFTMAG1
 40
0.0
  9
$LOFTMAG2
 40
0.0
  9
$LOFTPARAM
 70
     7
  9
$LOFTNORMALS
280
     1
  9
$LATITUDE
 40
37.795
  9
$LONGITUDE
 40
-122.394
  9
$NORTHDIRECTION
 40
0.0
  9
$TIMEZONE
 70
 -8000
  9
$LIGHTGLYPHDISPLAY
280
     1
  9
$TILEMODELIGHTSYNCH
280
     1
  9
$CMATERIAL
347
44
  9
$SOLIDHIST
280
     0
  9
$SHOWHIST
280
     1
  9
$DWFFRAME
280
     2
  9
$DGNFRAME
280
     2
  9
$REALWORLDSCALE
290
     1
  9
$INTERFERECOLOR
 62
   256
  9
$CSHADOW
280
     0
  9
$SHADOWPLANELOCATION
 40
0.0
  0
ENDSEC
  0
SECTION
  2
CLASSES
  0
CLASS
  1
ACDBDICTIONARYWDFLT
  2
AcDbDictionaryWithDefault
  3
ObjectDBX Classes
 90
        0
 91
        4
280
     0
281
     0
  0
CLASS
  1
VISUALSTYLE
  2
AcDbVisualStyle
  3
ObjectDBX Classes
 90
     4095
 91
        4
280
     0
281
     0
  0
CLASS
  1
MATERIAL
  2
AcDbMaterial
  3
ObjectDBX Classes
 90
     1153
 91
        4
280
     0
281
     0
  0
CLASS
  1
SCALE
  2
AcDbScale
  3
ObjectDBX Classes
 90
     1153
 91
        4
280
     0
281
     0
  0
CLASS
  1
TABLESTYLE
  2
AcDbTableStyle
  3
ObjectDBX Classes
 90
     4095
 91
        4
280
     0
281
     0
  0
CLASS
  1
MLEADERSTYLE
  2
AcDbMLeaderStyle
  3
ACDB_MLEADERSTYLE_CLASS
 90
     4095
 91
        4
280
     0
281
     0
  0
CLASS
  1
SUN
  2
AcDbSun
  3
SCENEOE
 90
     1153
 91
        4
280
     0
281
     0
  0
CLASS
  1
DICTIONARYVAR
  2
AcDbDictionaryVar
  3
ObjectDBX Classes
 90
        0
 91
        4
280
     0
281
     0
  0
CLASS
  1
CELLSTYLEMAP
  2
AcDbCellStyleMap
  3
ObjectDBX Classes
 90
     1152
 91
        4
280
     0
281
     0
  0
ENDSEC
  0
SECTION
  2
TABLES
  0
TABLE
  2
VPORT
  5
8
330
0
100
AcDbSymbolTable
 70
     1
  0
VPORT
  5
29
330
8
100
AcDbSymbolTableRecord
100
AcDbViewportTableRecord
  2
*Active
 70
     0
 10
0.0
 20
0.0
 11
1.0
 21
1.0
 12
0.1476562500000007
 22
0.0000000000000009
 13
0.0
 23
0.0
 14
0.5
 24
0.5
 15
0.5
 25
0.5
 16
0.0
 26
0.0
 36
1.0
 17
0.0
 27
0.0
 37
0.0
 40
10.5825
 41
0.6971385542168674
 42
50.0
 43
0.0
 44
0.0
 50
0.0
 51
0.0
 71
     0
 72
   100
 73
     1
 74
     3
 75
     0
 76
     0
 77
     0
 78
     0
281
     0
 65
     1
110
0.0
120
0.0
130
0.0
111
1.0
121
0.0
131
0.0
112
0.0
122
1.0
132
0.0
 79
     0
146
0.0
348
2F
 60
     3
 61
     5
292
     1
282
     1
141
0.0
142
0.0
 63
   250
361
6D
  0
ENDTAB
  0
TABLE
  2
LTYPE
  5
5
330
0
100
AcDbSymbolTable
 70
     3
  0
LTYPE
  5
14
330
5
100
AcDbSymbolTableRecord
100
AcDbLinetypeTableRecord
  2
ByBlock
 70
     0
  3

 72
    65
 73
     0
 40
0.0
  0
LTYPE
  5
15
330
5
100
AcDbSymbolTableRecord
100
AcDbLinetypeTableRecord
  2
ByLayer
 70
     0
  3

 72
    65
 73
     0
 40
0.0
  0
LTYPE
  5
16
330
5
100
AcDbSymbolTableRecord
100
AcDbLinetypeTableRecord
  2
Continuous
 70
     0
  3
Solid line
 72
    65
 73
     0
 40
0.0
  0
LTYPE
  5
AA
330
5
100
AcDbSymbolTableRecord
100
AcDbLinetypeTableRecord
  2
Dashed
 70
     0
  3

 72
    65
 73
     2
 40
2.0
 49
1.0
 74
     0
 49
-1.0
 74
     0
  0
LTYPE
  5
1AD
330
5
100
AcDbSymbolTableRecord
100
AcDbLinetypeTableRecord
  2
Center
 70
     0
  3

 72
    65
 73
     4
 40
1.5
 49
0.45
 74
     0
 49
-0.5
 74
     0
 49
0.05
 74
     0
 49
-0.5
 74
     0
  0
ENDTAB
  0
TABLE
  2
LAYER
  5
2
330
0
100
AcDbSymbolTable
 70
     7
  0
LAYER
  5
10
330
2
100
AcDbSymbolTableRecord
100
AcDbLayerTableRecord
  2
0
 70
     0
 62
     7
  6
Continuous
370
    -3
390
F
347
46
348
0
  0
LAYER
  5
72
330
2
100
AcDbSymbolTableRecord
100
AcDbLayerTableRecord
  2
AM_6
 70
     0
 62
    -2
  6
Continuous
370
    35
390
F
347
46
348
0
  0
LAYER
  5
AB
330
2
100
AcDbSymbolTableRecord
100
AcDbLayerTableRecord
  2
AM_9
 70
     0
 62
     6
  6
Dashed
370
    25
390
F
347
46
348
0
  0
LAYER
  5
C5
330
2
100
AcDbSymbolTableRecord
100
AcDbLayerTableRecord
  2
AM_5
 70
     0
 62
     3
  6
Continuous
370
    25
390
F
347
46
348
0
  0
LAYER
  5
CA
330
2
100
AcDbSymbolTableRecord
100
AcDbLayerTableRecord
  2
AM_4
 70
     0
 62
     7
  6
Continuous
370
    50
390
F
347
46
348
0
  0
LAYER
  5
1AE
330
2
100
AcDbSymbolTableRecord
100
AcDbLayerTableRecord
  2
AM_7
 70
     0
 62
     7
  6
Center
370
    25
390
F
347
46
348
0
  0
LAYER
  5
295
330
2
100
AcDbSymbolTableRecord
100
AcDbLayerTableRecord
  2
ConnectionPoints
 70
     0
 62
     7
  6
Continuous
370
    50
390
F
347
46
348
0
  0
ENDTAB
  0
TABLE
  2
STYLE
  5
3
330
0
100
AcDbSymbolTable
 70
     1
  0
STYLE
  5
11
330
3
100
AcDbSymbolTableRecord
100
AcDbTextStyleTableRecord
  2
Standard
 70
     0
 40
0.0
 41
1.0
 50
0.0
 71
     0
 42
0.2
  3
txt
  4

  0
ENDTAB
  0
TABLE
  2
VIEW
  5
6
330
0
100
AcDbSymbolTable
 70
     0
  0
ENDTAB
  0
TABLE
  2
UCS
  5
7
330
0
100
AcDbSymbolTable
 70
     0
  0
ENDTAB
  0
TABLE
  2
APPID
  5
9
330
0
100
AcDbSymbolTable
 70
     1
  0
APPID
  5
12
330
9
100
AcDbSymbolTableRecord
100
AcDbRegAppTableRecord
  2
ACAD
 70
     0
  0
ENDTAB
  0
TABLE
  2
DIMSTYLE
  5
A
330
0
100
AcDbSymbolTable
 70
     1
100
AcDbDimStyleTable
  0
DIMSTYLE
105
27
330
A
100
AcDbSymbolTableRecord
100
AcDbDimStyleTableRecord
  2
Standard
 70
     0
178
     0
340
11
  0
ENDTAB
  0
TABLE
  2
BLOCK_RECORD
  5
1
330
0
100
AcDbSymbolTable
 70
     7
  0
BLOCK_RECORD
  5
1F
330
1
100
AcDbSymbolTableRecord
100
AcDbBlockTableRecord
  2
*Model_Space
340
22
 70
     0
280
     1
281
     0
  0
BLOCK_RECORD
  5
1B
330
1
100
AcDbSymbolTableRecord
100
AcDbBlockTableRecord
  2
*Paper_Space
340
1E
 70
     0
280
     1
281
     0
  0
BLOCK_RECORD
  5
23
330
1
100
AcDbSymbolTableRecord
100
AcDbBlockTableRecord
  2
*Paper_Space0
340
26
 70
     0
280
     1
281
     0
  0
BLOCK_RECORD
  5
6E
330
1
100
AcDbSymbolTableRecord
100
AcDbBlockTableRecord
  2
1_070799_2
340
0
102
{BLKREFS
331
6F
102
}
 70
     0
280
     1
281
     0
  0
BLOCK_RECORD
  5
91
330
1
100
AcDbSymbolTableRecord
100
AcDbBlockTableRecord
  2
2_4_7_16CS2i_1_0_in_070799_2
340
0
102
{BLKREFS
331
92
102
}
 70
     0
280
     1
281
     0
  0
BLOCK_RECORD
  5
E8
330
1
100
AcDbSymbolTableRecord
100
AcDbBlockTableRecord
  2
3_4_7_16CS2i_2_0_in_070799_2
340
0
102
{BLKREFS
331
E9
102
}
 70
     0
280
     1
281
     0
  0
BLOCK_RECORD
  5
135
330
1
100
AcDbSymbolTableRecord
100
AcDbBlockTableRecord
  2
4_070014i_0_in_070799_2
340
0
102
{BLKREFS
331
136
102
}
 70
     0
280
     1
281
     0
  0
BLOCK_RECORD
  5
1B6
330
1
100
AcDbSymbolTableRecord
100
AcDbBlockTableRecord
  2
5_405016_Inch_0_in_070799_2
340
0
102
{BLKREFS
331
1B7
102
}
 70
     0
280
     1
281
     0
  0
BLOCK_RECORD
  5
22A
330
1
100
AcDbSymbolTableRecord
100
AcDbBlockTableRecord
  2
6_070799H_0_in_070799_2
340
0
102
{BLKREFS
331
22B
102
}
 70
     0
280
     1
281
     0
  0
ENDTAB
  0
ENDSEC
  0
SECTION
  2
BLOCKS
  0
BLOCK
  5
20
330
1F
100
AcDbEntity
  8
0
100
AcDbBlockBegin
  2
*Model_Space
 70
     0
 10
0.0
 20
0.0
 30
0.0
  3
*Model_Space
  1

  0
ENDBLK
  5
21
330
1F
100
AcDbEntity
  8
0
100
AcDbBlockEnd
  0
BLOCK
  5
1C
330
1B
100
AcDbEntity
 67
     1
  8
0
100
AcDbBlockBegin
  2
*Paper_Space
 70
     0
 10
0.0
 20
0.0
 30
0.0
  3
*Paper_Space
  1

  0
ENDBLK
  5
1D
330
1B
100
AcDbEntity
 67
     1
  8
0
100
AcDbBlockEnd
  0
BLOCK
  5
24
330
23
100
AcDbEntity
  8
0
100
AcDbBlockBegin
  2
*Paper_Space0
 70
     0
 10
0.0
 20
0.0
 30
0.0
  3
*Paper_Space0
  1

  0
ENDBLK
  5
25
330
23
100
AcDbEntity
  8
0
100
AcDbBlockEnd
  0
BLOCK
  5
70
330
6E
100
AcDbEntity
  8
0
100
AcDbBlockBegin
  2
1_070799_2
 70
     2
 10
0.0
 20
0.0
 30
0.0
  3
1_070799_2
  1

  0
ATTDEF
  5
73
330
6E
100
AcDbEntity
  8
AM_6
100
AcDbText
 10
8.7640625
 20
5.187500000000002
 30
0.0
 40
0.5
  1
S-2000 Wide Slot Take-Up Trident Seal
100
AcDbAttributeDefinition
  3

  2
NN
 70
     8
280
     0
  0
ATTDEF
  5
74
330
6E
100
AcDbEntity
  8
AM_6
100
AcDbText
 10
8.7640625
 20
4.687500000000002
 30
0.0
 40
0.5
  1
S-2000 Wide Slot Take-Up Bearing -Inch
100
AcDbAttributeDefinition
  3

  2
NT
 70
     8
280
     0
  0
ATTDEF
  5
75
330
6E
100
AcDbEntity
  8
AM_6
100
AcDbText
 10
8.7640625
 20
4.187500000000002
 30
0.0
 40
0.5
  1
070799
100
AcDbAttributeDefinition
  3

  2
NB
 70
     8
280
     0
  0
ATTDEF
  5
76
330
6E
100
AcDbEntity
  8
AM_6
100
AcDbText
 10
8.7640625
 20
3.687500000000002
 30
0.0
 40
0.5
  1
$PN.
100
AcDbAttributeDefinition
  3

  2
NBSYN
 70
     8
280
     0
  0
ATTDEF
  5
77
330
6E
100
AcDbEntity
  8
AM_6
100
AcDbText
 10
8.7640625
 20
3.187500000000002
 30
0.0
 40
0.5
  1
070799
100
AcDbAttributeDefinition
  3

  2
LINA
 70
     8
280
     0
  0
ATTDEF
  5
78
330
6E
100
AcDbEntity
  8
AM_6
100
AcDbText
 10
8.7640625
 20
2.687500000000002
 30
0.0
 40
0.5
  1
4-7/16
100
AcDbAttributeDefinition
  3

  2
SS
 70
     8
280
     0
  0
ATTDEF
  5
79
330
6E
100
AcDbEntity
  8
AM_6
100
AcDbText
 10
8.7640625
 20
2.187500000000002
 30
0.0
 40
0.5
  1
070799
100
AcDbAttributeDefinition
  3

  2
PN
 70
     8
280
     0
  0
ATTDEF
  5
7A
330
6E
100
AcDbEntity
  8
AM_6
100
AcDbText
 10
8.7640625
 20
1.687500000000002
 30
0.0
 40
0.5
  1
WSTU-S2-407RE
100
AcDbAttributeDefinition
  3

  2
DESCRIPTION
 70
     8
280
     0
  0
ATTDEF
  5
7B
330
6E
100
AcDbEntity
  8
AM_6
100
AcDbText
 10
8.7640625
 20
1.187500000000002
 30
0.0
 40
0.5
  1
Expansion Type
100
AcDbAttributeDefinition
  3

  2
EF
 70
     8
280
     0
  0
ATTDEF
  5
7C
330
6E
100
AcDbEntity
  8
AM_6
100
AcDbText
 10
8.7640625
 20
0.6875000000000018
 30
0.0
 40
0.5
  1
Contact Seal
100
AcDbAttributeDefinition
  3

  2
ST
 70
     8
280
     0
  0
ATTDEF
  5
7D
330
6E
100
AcDbEntity
  8
AM_6
100
AcDbText
 10
8.7640625
 20
0.1875000000000018
 30
0.0
 40
0.5
  1
6-17/32
100
AcDbAttributeDefinition
  3

  2
A
 70
     8
280
     0
  0
ATTDEF
  5
7E
330
6E
100
AcDbEntity
  8
AM_6
100
AcDbText
 10
8.7640625
 20
-0.3124999999999982
 30
0.0
 40
0.5
  1
13-3/8
100
AcDbAttributeDefinition
  3

  2
B
 70
     8
280
     0
  0
ATTDEF
  5
7F
330
6E
100
AcDbEntity
  8
AM_6
100
AcDbText
 10
8.7640625
 20
-0.8124999999999982
 30
0.0
 40
0.5
  1
2-1/16
100
AcDbAttributeDefinition
  3

  2
C
 70
     8
280
     0
  0
ATTDEF
  5
80
330
6E
100
AcDbEntity
  8
AM_6
100
AcDbText
 10
8.7640625
 20
-1.312499999999998
 30
0.0
 40
0.5
  1
7
100
AcDbAttributeDefinition
  3

  2
D
 70
     8
280
     0
  0
ATTDEF
  5
81
330
6E
100
AcDbEntity
  8
AM_6
100
AcDbText
 10
8.7640625
 20
-1.812499999999998
 30
0.0
 40
0.5
  1
8-3/4
100
AcDbAttributeDefinition
  3

  2
E
 70
     8
280
     0
  0
ATTDEF
  5
82
330
6E
100
AcDbEntity
  8
AM_6
100
AcDbText
 10
8.7640625
 20
-2.312499999999998
 30
0.0
 40
0.5
  1
2-1/8
100
AcDbAttributeDefinition
  3

  2
F
 70
     8
280
     0
  0
ATTDEF
  5
83
330
6E
100
AcDbEntity
  8
AM_6
100
AcDbText
 10
8.7640625
 20
-2.812499999999998
 30
0.0
 40
0.5
  1
2
100
AcDbAttributeDefinition
  3

  2
G
 70
     8
280
     0
  0
ATTDEF
  5
84
330
6E
100
AcDbEntity
  8
AM_6
100
AcDbText
 10
8.7640625
 20
-3.312499999999998
 30
0.0
 40
0.5
  1
2-1/8
100
AcDbAttributeDefinition
  3

  2
H
 70
     8
280
     0
  0
ATTDEF
  5
85
330
6E
100
AcDbEntity
  8
AM_6
100
AcDbText
 10
8.7640625
 20
-3.812499999999998
 30
0.0
 40
0.5
  1
6-3/8
100
AcDbAttributeDefinition
  3

  2
J
 70
     8
280
     0
  0
ATTDEF
  5
86
330
6E
100
AcDbEntity
  8
AM_6
100
AcDbText
 10
8.7640625
 20
-4.312499999999998
 30
0.0
 40
0.5
  1
3-3/8
100
AcDbAttributeDefinition
  3

  2
K
 70
     8
280
     0
  0
ATTDEF
  5
87
330
6E
100
AcDbEntity
  8
AM_6
100
AcDbText
 10
8.7640625
 20
-4.812499999999998
 30
0.0
 40
0.5
  1
6-29/64
100
AcDbAttributeDefinition
  3

  2
L
 70
     8
280
     0
  0
ATTDEF
  5
88
330
6E
100
AcDbEntity
  8
AM_6
100
AcDbText
 10
8.7640625
 20
-5.312499999999998
 30
0.0
 40
0.5
  1
9-1/2
100
AcDbAttributeDefinition
  3

  2
M
 70
     8
280
     0
  0
ATTDEF
  5
89
330
6E
100
AcDbEntity
  8
AM_6
100
AcDbText
 10
8.7640625
 20
-5.812499999999998
 30
0.0
 40
0.5
  1
10-3/8
100
AcDbAttributeDefinition
  3

  2
N
 70
     8
280
     0
  0
ATTDEF
  5
8A
330
6E
100
AcDbEntity
  8
AM_6
100
AcDbText
 10
8.7640625
 20
-6.312499999999998
 30
0.0
 40
0.5
  1
5-11/32
100
AcDbAttributeDefinition
  3

  2
R
 70
     8
280
     0
  0
ATTDEF
  5
8B
330
6E
100
AcDbEntity
  8
AM_6
100
AcDbText
 10
8.7640625
 20
-6.812499999999998
 30
0.0
 40
0.5
  1
3-15/32
100
AcDbAttributeDefinition
  3

  2
S
 70
     8
280
     0
  0
ATTDEF
  5
8C
330
6E
100
AcDbEntity
  8
AM_6
100
AcDbText
 10
8.7640625
 20
-7.312499999999998
 30
0.0
 40
0.5
  1
3-3/4
100
AcDbAttributeDefinition
  3

  2
T
 70
     8
280
     0
  0
ATTDEF
  5
8D
330
6E
100
AcDbEntity
  8
AM_6
100
AcDbText
 10
8.7640625
 20
-7.812499999999998
 30
0.0
 40
0.5
  1
3/8
100
AcDbAttributeDefinition
  3

  2
X
 70
     8
280
     0
  0
ATTDEF
  5
8E
330
6E
100
AcDbEntity
  8
AM_6
100
AcDbText
 10
8.7640625
 20
-8.312499999999998
 30
0.0
 40
0.5
  1
0.036
100
AcDbAttributeDefinition
  3

  2
Y
 70
     8
280
     0
  0
ATTDEF
  5
8F
330
6E
100
AcDbEntity
  8
AM_6
100
AcDbText
 10
8.7640625
 20
-8.812499999999998
 30
0.0
 40
0.5
  1
5
100
AcDbAttributeDefinition
  3

  2
Z
 70
     8
280
     0
  0
ATTDEF
  5
90
330
6E
100
AcDbEntity
  8
AM_6
100
AcDbText
 10
8.7640625
 20
-9.312499999999998
 30
0.0
 40
0.5
  1
baldor
100
AcDbAttributeDefinition
  3

  2
COMPANY
 70
     8
280
     0
  0
INSERT
  5
92
330
6E
100
AcDbEntity
  8
0
100
AcDbBlockReference
  2
2_4_7_16CS2i_1_0_in_070799_2
 10
0.0
 20
0.0
 30
0.0
  0
INSERT
  5
E9
330
6E
100
AcDbEntity
  8
0
100
AcDbBlockReference
  2
3_4_7_16CS2i_2_0_in_070799_2
 10
0.0
 20
0.0
 30
0.0
  0
INSERT
  5
136
330
6E
100
AcDbEntity
  8
0
100
AcDbBlockReference
  2
4_070014i_0_in_070799_2
 10
0.0
 20
0.0
 30
0.0
  0
INSERT
  5
1B7
330
6E
100
AcDbEntity
  8
0
100
AcDbBlockReference
  2
5_405016_Inch_0_in_070799_2
 10
0.0
 20
0.0
 30
0.0
  0
INSERT
  5
22B
330
6E
100
AcDbEntity
  8
0
100
AcDbBlockReference
  2
6_070799H_0_in_070799_2
 10
0.0
 20
0.0
 30
0.0
  0
ENDBLK
  5
71
330
6E
100
AcDbEntity
  8
0
100
AcDbBlockEnd
  0
BLOCK
  5
93
330
91
100
AcDbEntity
  8
0
100
AcDbBlockBegin
  2
2_4_7_16CS2i_1_0_in_070799_2
 70
     2
 10
0.0
 20
0.0
 30
0.0
  3
2_4_7_16CS2i_1_0_in_070799_2
  1

  0
ATTDEF
  5
95
330
91
100
AcDbEntity
  8
AM_6
100
AcDbText
 10
3.14625
 20
3.22656
 30
0.0
 40
0.5
  1
S-2000 Collar -Inch
100
AcDbAttributeDefinition
  3

  2
NN
 70
     8
280
     0
  0
ATTDEF
  5
96
330
91
100
AcDbEntity
  8
AM_6
100
AcDbText
 10
3.14625
 20
2.72656
 30
0.0
 40
0.5
  1
S-2000 Bearings
100
AcDbAttributeDefinition
  3

  2
NT
 70
     8
280
     0
  0
ATTDEF
  5
97
330
91
100
AcDbEntity
  8
AM_6
100
AcDbText
 10
3.14625
 20
2.22656
 30
0.0
 40
0.5
  1
4-7/16CS2i
100
AcDbAttributeDefinition
  3

  2
NB
 70
     8
280
     0
  0
ATTDEF
  5
98
330
91
100
AcDbEntity
  8
AM_6
100
AcDbText
 10
3.14625
 20
1.72656
 30
0.0
 40
0.5
  1
$BORE.CS2i
100
AcDbAttributeDefinition
  3

  2
NBSYN
 70
     8
280
     0
  0
ATTDEF
  5
99
330
91
100
AcDbEntity
  8
AM_6
100
AcDbText
 10
3.14625
 20
1.22656
 30
0.0
 40
0.5
  1
4-7/16CS2i
100
AcDbAttributeDefinition
  3

  2
LINA
 70
     8
280
     0
  0
ATTDEF
  5
9A
330
91
100
AcDbEntity
  8
AM_6
100
AcDbText
 10
3.14625
 20
0.7265600000000001
 30
0.0
 40
0.5
  1
4-7/16
100
AcDbAttributeDefinition
  3

  2
BORE
 70
     8
280
     0
  0
ATTDEF
  5
9B
330
91
100
AcDbEntity
  8
AM_6
100
AcDbText
 10
3.14625
 20
0.2265600000000001
 30
0.0
 40
0.5
  1
4.437500
100
AcDbAttributeDefinition
  3

  2
BORE1
 70
     8
280
     0
  0
ATTDEF
  5
9C
330
91
100
AcDbEntity
  8
AM_6
100
AcDbText
 10
3.14625
 20
-0.2734399999999999
 30
0.0
 40
0.5
  1
6-29/64
100
AcDbAttributeDefinition
  3

  2
L1
 70
     8
280
     0
  0
ATTDEF
  5
9D
330
91
100
AcDbEntity
  8
AM_6
100
AcDbText
 10
3.14625
 20
-0.7734399999999999
 30
0.0
 40
0.5
  1
6.45313
100
AcDbAttributeDefinition
  3

  2
L
 70
     8
280
     0
  0
ATTDEF
  5
9E
330
91
100
AcDbEntity
  8
AM_6
100
AcDbText
 10
3.14625
 20
-1.27344
 30
0.0
 40
0.5
  1
6.45312
100
AcDbAttributeDefinition
  3

  2
L2
 70
     8
280
     0
  0
ATTDEF
  5
9F
330
91
100
AcDbEntity
  8
AM_6
100
AcDbText
 10
3.14625
 20
-1.77344
 30
0.0
 40
0.5
  1
6.75
100
AcDbAttributeDefinition
  3

  2
A
 70
     8
280
     0
  0
ATTDEF
  5
A0
330
91
100
AcDbEntity
  8
AM_6
100
AcDbText
 10
3.14625
 20
-2.27344
 30
0.0
 40
0.5
  1
3.25
100
AcDbAttributeDefinition
  3

  2
B
 70
     8
280
     0
  0
ATTDEF
  5
A1
330
91
100
AcDbEntity
  8
AM_6
100
AcDbText
 10
3.14625
 20
-2.77344
 30
0.0
 40
0.5
  1
5.00
100
AcDbAttributeDefinition
  3

  2
C
 70
     8
280
     0
  0
ATTDEF
  5
A2
330
91
100
AcDbEntity
  8
AM_6
100
AcDbText
 10
3.14625
 20
-3.27344
 30
0.0
 40
0.5
  1
7.00
100
AcDbAttributeDefinition
  3

  2
D
 70
     8
280
     0
  0
ATTDEF
  5
A3
330
91
100
AcDbEntity
  8
AM_6
100
AcDbText
 10
3.14625
 20
-3.77344
 30
0.0
 40
0.5
  1
0.78
100
AcDbAttributeDefinition
  3

  2
E
 70
     8
280
     0
  0
ATTDEF
  5
A4
330
91
100
AcDbEntity
  8
AM_6
100
AcDbText
 10
3.14625
 20
-4.27344
 30
0.0
 40
0.5
  1
0.620
100
AcDbAttributeDefinition
  3

  2
F
 70
     8
280
     0
  0
ATTDEF
  5
A5
330
91
100
AcDbEntity
  8
AM_6
100
AcDbText
 10
3.14625
 20
-4.77344
 30
0.0
 40
0.5
  1
5/8-11
100
AcDbAttributeDefinition
  3

  2
CS
 70
     8
280
     0
  0
ATTDEF
  5
A6
330
91
100
AcDbEntity
  8
AM_6
100
AcDbText
 10
3.14625
 20
-5.27344
 30
0.0
 40
0.5
  1
0.6250
100
AcDbAttributeDefinition
  3

  2
NDM
 70
     8
280
     0
  0
ATTDEF
  5
A7
330
91
100
AcDbEntity
  8
AM_6
100
AcDbText
 10
3.14625
 20
-5.77344
 30
0.0
 40
0.5
  1
0.5270
100
AcDbAttributeDefinition
  3

  2
KDM
 70
     8
280
     0
  0
ATTDEF
  5
A8
330
91
100
AcDbEntity
  8
AM_6
100
AcDbText
 10
3.14625
 20
-6.27344
 30
0.0
 40
0.5
  1
2
100
AcDbAttributeDefinition
  3

  2
DD
 70
     8
280
     0
  0
ATTDEF
  5
A9
330
91
100
AcDbEntity
  8
AM_6
100
AcDbText
 10
3.14625
 20
-6.77344
 30
0.0
 40
0.5
  1
baldor
100
AcDbAttributeDefinition
  3

  2
COMPANY
 70
     8
280
     0
  0
LINE
  5
AC
330
91
100
AcDbEntity
  8
AM_9
100
AcDbLine
 10
-2.21045
 20
2.507533333333335
 30
0.0
 11
-2.21045
 21
3.177365
 31
0.0
  0
LINE
  5
AD
330
91
100
AcDbEntity
  8
AM_9
100
AcDbLine
 10
-2.73705
 20
3.177365
 30
0.0
 11
-2.73705
 21
2.507533333333335
 31
0.0
  0
LINE
  5
AE
330
91
100
AcDbEntity
  8
AM_9
100
AcDbLine
 10
-2.73705
 20
2.507533333333335
 30
0.0
 11
-2.21045
 21
2.507533333333335
 31
0.0
  0
LINE
  5
AF
330
91
100
AcDbEntity
  8
AM_9
100
AcDbLine
 10
-2.73705
 20
2.507533333333335
 30
0.0
 11
-2.744150636618071
 21
2.500432696715263
 31
0.0
  0
LINE
  5
B0
330
91
100
AcDbEntity
  8
AM_9
100
AcDbLine
 10
-2.203290982907156
 20
2.500374316240491
 30
0.0
 11
-2.21045
 21
2.507533333333335
 31
0.0
  0
LINE
  5
B1
330
91
100
AcDbEntity
  8
AM_9
100
AcDbLine
 10
-2.73705
 20
3.177365
 30
0.0
 11
-2.21045
 21
3.177365
 31
0.0
  0
LINE
  5
B2
330
91
100
AcDbEntity
  8
AM_9
100
AcDbLine
 10
-2.21045
 20
3.177365
 30
0.0
 11
-2.190056779562012
 21
3.197758220437988
 31
0.0
  0
LINE
  5
B3
330
91
100
AcDbEntity
  8
AM_9
100
AcDbLine
 10
-2.786021060071469
 20
3.226336060071469
 30
0.0
 11
-2.73705
 21
3.177365
 31
0.0
  0
LWPOLYLINE
  5
B4
330
91
100
AcDbEntity
  8
AM_9
100
AcDbPolyline
 90
       33
 70
     0
 43
0.0
 10
-2.205685790336652
 20
1.093482218564805
 10
-2.211686690580129
 20
1.121724958276815
 10
-2.227636846836243
 20
1.163869812700173
 10
-2.25213463061327
 20
1.203766694468156
 10
-2.282569030695508
 20
1.237354656631544
 10
-2.320473027356618
 20
1.266403615936105
 10
-2.360423209141604
 20
1.287268705532796
 10
-2.405515161661826
 20
1.302033135557267
 10
-2.448595622454929
 20
1.308951792209102
 10
-2.49381226263029
 20
1.309341618737821
 10
-2.535373810947481
 20
1.303526870863969
 10
-2.576361573709104
 20
1.291541850219381
 10
-2.61384061649854
 20
1.274227810547267
 10
-2.648513357779448
 20
1.251290732745154
 10
-2.679238759461327
 20
1.223062032636301
 10
-2.705103949484822
 20
1.189880168172136
 10
-2.725265432420793
 20
1.152028132347616
 10
-2.738652687899306
 20
1.110349618095996
 10
-2.74439287397405
 20
1.066282779068711
 10
-2.741955932498214
 20
1.020289950101286
 10
-2.731307715902776
 20
0.9754786605871413
 10
-2.712022110291938
 20
0.9313398975396534
 10
-2.685913330753046
 20
0.8921557285875862
 10
-2.65184348390803
 20
0.8565160227943481
 10
-2.614304143292769
 20
0.8289054698545218
 10
-2.570740272575162
 20
0.807305047441317
 10
-2.52803639005019
 20
0.794650660633299
 10
-2.482208310322243
 20
0.789193832236339
 10
-2.439806316374696
 20
0.7912326050631485
 10
-2.397155773149242
 20
0.8002992611271947
 10
-2.358096790633994
 20
0.8153785203193633
 10
-2.321148153368126
 20
0.8367226134527721
 10
-2.272147228143253
 20
0.8796976386189219
  0
LWPOLYLINE
  5
B5
330
91
100
AcDbEntity
  8
AM_9
100
AcDbPolyline
 90
        5
 70
     0
 43
0.0
 10
-2.272147228143253
 20
0.8796976386189219
 10
-2.248121923010357
 20
0.9105387122156395
 10
-2.228606192188113
 20
0.9447451521887855
 10
-2.212719214820762
 20
0.9867393339263199
 10
-2.205852205313148
 20
1.018225597850394
  0
LINE
  5
B6
330
91
100
AcDbEntity
  8
AM_9
100
AcDbLine
 10
-3.09375
 20
-2.5
 30
0.0
 11
-1.85375
 21
-2.5
 31
0.0
  0
LINE
  5
B7
330
91
100
AcDbEntity
  8
AM_9
100
AcDbLine
 10
-1.85375
 20
2.5
 30
0.0
 11
-2.203772078063075
 21
2.5
 31
0.0
  0
LINE
  5
B8
330
91
100
AcDbEntity
  8
AM_9
100
AcDbLine
 10
-2.743595612614719
 20
2.5
 30
0.0
 11
-3.09375
 21
2.5
 31
0.0
  0
LWPOLYLINE
  5
B9
330
91
100
AcDbEntity
  8
AM_9
100
AcDbPolyline
 90
       21
 70
     0
 43
0.0
 10
-2.744583333333177
 20
2.499999999999981
 10
-2.743993196418069
 20
2.499924663806467
 10
-2.73679608257448
 20
2.499067096784265
 10
-2.721195323439968
 20
2.497275315305671
 10
-2.697663561748869
 20
2.494781034802652
 10
-2.667195010730463
 20
2.491912625272731
 10
-2.630301847804663
 20
2.488990361644827
 10
-2.589906169484282
 20
2.486497267900843
 10
-2.545677023532753
 20
2.484601550150497
 10
-2.501915803003549
 20
2.483611754094194
 10
-2.457291870743099
 20
2.483485924378374
 10
-2.415028228914739
 20
2.484214335806315
 10
-2.374397191448044
 20
2.48566943308255
 10
-2.336241300392792
 20
2.487723783783497
 10
-2.301725868315245
 20
2.490141433594235
 10
-2.270299868077672
 20
2.492808689216079
 10
-2.244350058956833
 20
2.495341360597533
 10
-2.223456849796729
 20
2.497594371749055
 10
-2.209681137430504
 20
2.499188116207189
 10
-2.203275129861821
 20
2.499952869678728
 10
-2.202916666666988
 20
2.499999999999961
  0
ELLIPSE
  5
BA
330
91
100
AcDbEntity
  8
AM_9
100
AcDbEllipse
 10
-2.473750000000005
 20
1.059729378590199
 30
0.0
 11
0.2632999999999943
 21
3.923475742340003E-9
 31
0.0
210
0.0
220
0.0
230
1.0
 40
0.9063077870366482
 41
2.506638971117043
 42
3.141592653589793
  0
LINE
  5
BB
330
91
100
AcDbEntity
  8
AM_9
100
AcDbLine
 10
-2.21045
 20
1.059729378590196
 30
0.0
 11
-2.21045
 21
1.342812473215738
 31
0.0
  0
LINE
  5
BC
330
91
100
AcDbEntity
  8
AM_9
100
AcDbLine
 10
-2.73705
 20
1.342812473215738
 30
0.0
 11
-2.73705
 21
1.059729378590196
 31
0.0
  0
ELLIPSE
  5
BD
330
91
100
AcDbEntity
  8
AM_9
100
AcDbEllipse
 10
-2.473749999999999
 20
1.059729378590196
 30
0.0
 11
0.2632999999999996
 21
0.0
 31
0.0
210
0.0
220
0.0
230
1.0
 40
0.90630778703665
 41
3.141592653589793
 42
6.918138974243856
  0
LINE
  5
BE
330
91
100
AcDbEntity
  8
AM_9
100
AcDbLine
 10
-1.875
 20
-3.072914285714285
 30
0.0
 11
-1.85375
 21
-3.072914285714285
 31
0.0
  0
LINE
  5
BF
330
91
100
AcDbEntity
  8
AM_9
100
AcDbLine
 10
-1.85375
 20
3.072914285714285
 30
0.0
 11
-1.875
 21
3.072914285714285
 31
0.0
  0
LINE
  5
C0
330
91
100
AcDbEntity
  8
AM_9
100
AcDbLine
 10
-1.85375
 20
3.072914285714285
 30
0.0
 11
-1.85375
 21
-3.072914285714285
 31
0.0
  0
LINE
  5
C1
330
91
100
AcDbEntity
  8
AM_9
100
AcDbLine
 10
-1.982134204413472
 20
0.9680190859231409
 30
0.0
 11
-1.982134204413472
 21
-0.9680190859231409
 31
0.0
  0
LINE
  5
C2
330
91
100
AcDbEntity
  8
AM_9
100
AcDbLine
 10
-2.057083333333333
 20
0.7964452992764315
 30
0.0
 11
-2.057083333333333
 21
-0.7964452992764315
 31
0.0
  0
LINE
  5
C3
330
91
100
AcDbEntity
  8
AM_9
100
AcDbLine
 10
-2.20668549474528
 20
1.221577432609382
 30
0.0
 11
-2.20668549474528
 21
1.502481439719928
 31
0.0
  0
LINE
  5
C4
330
91
100
AcDbEntity
  8
AM_9
100
AcDbLine
 10
-2.161249999999999
 20
0.4414922338131241
 30
0.0
 11
-2.161249999999999
 21
-0.4414922338131241
 31
0.0
  0
LINE
  5
C6
330
91
100
AcDbEntity
  8
AM_5
100
AcDbLine
 10
-2.78625
 20
3.22656
 30
0.0
 11
-2.78625
 21
2.5
 31
0.0
  0
LINE
  5
C7
330
91
100
AcDbEntity
  8
AM_5
100
AcDbLine
 10
-2.63
 20
2.458333333333333
 30
0.0
 11
-2.78625
 21
2.458333333333333
 31
0.0
  0
LINE
  5
C8
330
91
100
AcDbEntity
  8
AM_5
100
AcDbLine
 10
-2.16125
 20
3.147863414634147
 30
0.0
 11
-2.16125
 21
2.5
 31
0.0
  0
LINE
  5
C9
330
91
100
AcDbEntity
  8
AM_5
100
AcDbLine
 10
-2.3175
 20
2.458333333333333
 30
0.0
 11
-2.16125
 21
2.458333333333333
 31
0.0
  0
ELLIPSE
  5
CB
330
91
100
AcDbEntity
  8
AM_4
100
AcDbEllipse
 10
-2.473749999999999
 20
1.059729378590195
 30
0.0
 11
0.2633000000000014
 21
0.0
 31
0.0
210
0.0
220
0.0
230
1.0
 40
0.9063077870366482
 41
1.570796326794897
 42
2.506638986525523
  0
ELLIPSE
  5
CC
330
91
100
AcDbEntity
  8
AM_4
100
AcDbEllipse
 10
-2.47375
 20
1.059729378590196
 30
0.0
 11
0.2633000000000005
 21
0.0
 31
0.0
210
0.0
220
0.0
230
1.0
 40
0.9063077870366487
 41
0.6349536670642673
 42
1.570796326794897
  0
LINE
  5
CD
330
91
100
AcDbEntity
  8
AM_4
100
AcDbLine
 10
-1.982134204413472
 20
-3.072914285714285
 30
0.0
 11
-1.875
 21
-3.072914285714285
 31
0.0
  0
LINE
  5
CE
330
91
100
AcDbEntity
  8
AM_4
100
AcDbLine
 10
-1.875
 20
3.072914285714285
 30
0.0
 11
-1.982134204413472
 21
3.072914285714285
 31
0.0
  0
LINE
  5
CF
330
91
100
AcDbEntity
  8
AM_4
100
AcDbLine
 10
-1.982134204413472
 20
3.072914285714285
 30
0.0
 11
-2.057083333333333
 21
3.147863414634147
 31
0.0
  0
LINE
  5
D0
330
91
100
AcDbEntity
  8
AM_4
100
AcDbLine
 10
-2.057083333333333
 20
-3.147863414634147
 30
0.0
 11
-1.982134204413472
 21
-3.072914285714285
 31
0.0
  0
LINE
  5
D1
330
91
100
AcDbEntity
  8
AM_4
100
AcDbLine
 10
-1.982134204413472
 20
-0.9680190859231409
 30
0.0
 11
-1.982134204413472
 21
-3.072914285714285
 31
0.0
  0
LINE
  5
D2
330
91
100
AcDbEntity
  8
AM_4
100
AcDbLine
 10
-1.982134204413472
 20
3.072914285714285
 30
0.0
 11
-1.982134204413472
 21
0.9680190859231409
 31
0.0
  0
LINE
  5
D3
330
91
100
AcDbEntity
  8
AM_4
100
AcDbLine
 10
-2.16125
 20
-3.147863414634147
 30
0.0
 11
-2.057083333333333
 21
-3.147863414634147
 31
0.0
  0
LINE
  5
D4
330
91
100
AcDbEntity
  8
AM_4
100
AcDbLine
 10
-2.057083333333333
 20
3.147863414634147
 30
0.0
 11
-2.16125
 21
3.147863414634147
 31
0.0
  0
LINE
  5
D5
330
91
100
AcDbEntity
  8
AM_4
100
AcDbLine
 10
-2.057083333333333
 20
-0.7964452992764315
 30
0.0
 11
-2.057083333333333
 21
-3.147863414634147
 31
0.0
  0
LINE
  5
D6
330
91
100
AcDbEntity
  8
AM_4
100
AcDbLine
 10
-2.057083333333333
 20
3.147863414634147
 30
0.0
 11
-2.057083333333333
 21
0.7964452992764315
 31
0.0
  0
LWPOLYLINE
  5
D7
330
91
100
AcDbEntity
  8
AM_4
100
AcDbPolyline
 90
       33
 70
     0
 43
0.0
 10
-2.20668549474527
 20
1.221577432609382
 10
-2.226033605239229
 20
1.196527395197765
 10
-2.256835387299967
 20
1.16582417066471
 10
-2.292969401432455
 20
1.13900534815023
 10
-2.3374021637208
 20
1.115368005751427
 10
-2.386630120862031
 20
1.098291694660081
 10
-2.438582979063808
 20
1.088882786573911
 10
-2.492951737815234
 20
1.087620518286083
 10
-2.546271627863358
 20
1.094804607493172
 10
-2.599037721891285
 20
1.110771513629944
 10
-2.646571543636781
 20
1.134101153266826
 10
-2.690398055151899
 20
1.165594765229252
 10
-2.72563451856995
 20
1.201456347704374
 10
-2.754440100976484
 20
1.243593349152508
 10
-2.773307080144569
 20
1.286118052148152
 10
-2.784133159691911
 20
1.332138402695378
 10
-2.785938847278148
 20
1.375559216531143
 10
-2.779409794698018
 20
1.419603493486944
 10
-2.765406343286656
 20
1.459959986721753
 10
-2.743613158718348
 20
1.498502709815464
 10
-2.715241023066942
 20
1.532941682173372
 10
-2.680055103818515
 20
1.563523540561664
 10
-2.6391061564712
 20
1.589002047163048
 10
-2.592784683201819
 20
1.608827545018115
 10
-2.542671270586168
 20
1.62202260528788
 10
-2.489305837769852
 20
1.628091673208683
 10
-2.435658994886097
 20
1.626478738670369
 10
-2.381568497585177
 20
1.616860318285507
 10
-2.331405489763925
 20
1.599876525514029
 10
-2.283952468423491
 20
1.574865749341195
 10
-2.244174580879627
 20
1.544456325385533
 10
-2.210045061246174
 20
1.507055170784908
 10
-2.20668549474528
 20
1.502481439719928
  0
LWPOLYLINE
  5
D8
330
91
100
AcDbEntity
  8
AM_4
100
AcDbPolyline
 90
       18
 70
     0
 43
0.0
 10
-2.206685494745277
 20
3.222836208153097
 10
-2.210743445623101
 20
3.222531646011223
 10
-2.241355991497145
 20
3.220383897091899
 10
-2.27770608233278
 20
3.218173499344149
 10
-2.320106149407589
 20
3.216067527268127
 10
-2.367641840296612
 20
3.214311783870828
 10
-2.418586664070735
 20
3.213142549956771
 10
-2.47244857172315
 20
3.212709536815578
 10
-2.52605099283514
 20
3.213098759475855
 10
-2.579690707861313
 20
3.214306732308329
 10
-2.628859004559578
 20
3.216131818512597
 10
-2.674903752591529
 20
3.218461586518835
 10
-2.712874411621871
 20
3.220832730428748
 10
-2.744862201670082
 20
3.223144592617836
 10
-2.766971138294
 20
3.224909851151648
 10
-2.781236763229928
 20
3.226121266999712
 10
-2.786195917245941
 20
3.226555666377196
 10
-2.786244999999916
 20
3.226559999999993
  0
LINE
  5
D9
330
91
100
AcDbEntity
  8
AM_4
100
AcDbLine
 10
-2.887083333333333
 20
-3.22656
 30
0.0
 11
-2.20668549474528
 21
-3.22656
 31
0.0
  0
LINE
  5
DA
330
91
100
AcDbEntity
  8
AM_4
100
AcDbLine
 10
-2.785832502320562
 20
3.22656
 30
0.0
 11
-2.887083333333333
 21
3.22656
 31
0.0
  0
LINE
  5
DB
330
91
100
AcDbEntity
  8
AM_4
100
AcDbLine
 10
-3.09375
 20
3.019893333333334
 30
0.0
 11
-3.09375
 21
-3.019893333333334
 31
0.0
  0
ARC
  5
DC
330
91
100
AcDbEntity
  8
AM_4
100
AcDbCircle
 10
-2.887083333333332
 20
-3.019893333333333
 30
0.0
 40
0.2066666666666674
100
AcDbArc
 50
179.9999991462263
 51
270.0
  0
ARC
  5
DD
330
91
100
AcDbEntity
  8
AM_4
100
AcDbCircle
 10
-2.887083333333332
 20
3.019893333333333
 30
0.0
 40
0.206666666666667
100
AcDbArc
 50
90.0
 51
179.9999991462263
  0
LINE
  5
DE
330
91
100
AcDbEntity
  8
AM_4
100
AcDbLine
 10
-2.887083333333333
 20
3.22656
 30
0.0
 11
-2.887083333333333
 21
-3.22656
 31
0.0
  0
LINE
  5
DF
330
91
100
AcDbEntity
  8
AM_4
100
AcDbLine
 10
-2.206685494745277
 20
3.222836208153097
 30
0.0
 11
-2.20668549474528
 21
1.502481439719928
 31
0.0
  0
LWPOLYLINE
  5
E0
330
91
100
AcDbEntity
  8
AM_4
100
AcDbPolyline
 90
        5
 70
     0
 43
0.0
 10
-2.20668549474528
 20
1.502481439719928
 10
-2.194674094510197
 20
1.428007099274373
 10
-2.190060806074765
 20
1.353603628003569
 10
-2.194125027564243
 20
1.284927065333099
 10
-2.20668549474527
 20
1.221577432609382
  0
LINE
  5
E1
330
91
100
AcDbEntity
  8
AM_4
100
AcDbLine
 10
-2.20668549474527
 20
1.221577432609382
 30
0.0
 11
-2.20668549474528
 21
-3.22656
 31
0.0
  0
LINE
  5
E2
330
91
100
AcDbEntity
  8
AM_4
100
AcDbLine
 10
-2.16125
 20
3.147863414634147
 30
0.0
 11
-2.190056779562012
 21
3.197758220437988
 31
0.0
  0
LINE
  5
E3
330
91
100
AcDbEntity
  8
AM_4
100
AcDbLine
 10
-2.20668549474528
 20
-3.22656
 30
0.0
 11
-2.16125
 21
-3.147863414634147
 31
0.0
  0
LINE
  5
E4
330
91
100
AcDbEntity
  8
AM_4
100
AcDbLine
 10
-2.190056779562016
 20
3.197758220437995
 30
0.0
 11
-2.206685494745279
 21
3.222836208153095
 31
0.0
  0
LINE
  5
E5
330
91
100
AcDbEntity
  8
AM_4
100
AcDbLine
 10
-2.161249999999999
 20
-0.4414922338131241
 30
0.0
 11
-2.16125
 21
-3.147863414634147
 31
0.0
  0
LINE
  5
E6
330
91
100
AcDbEntity
  8
AM_4
100
AcDbLine
 10
-2.16125
 20
3.147863414634147
 30
0.0
 11
-2.161249999999999
 21
0.4414922338131241
 31
0.0
  0
ELLIPSE
  5
E7
330
91
100
AcDbEntity
  8
AM_4
100
AcDbEllipse
 10
-2.473750000000001
 20
1.342812473215737
 30
0.0
 11
0.263300000000001
 21
0.0
 31
0.0
210
0.0
220
0.0
230
1.0
 40
0.9063077870366496
 41
0.0
 42
6.283185307179586
  0
ENDBLK
  5
94
330
91
100
AcDbEntity
  8
0
100
AcDbBlockEnd
  0
BLOCK
  5
EA
330
E8
100
AcDbEntity
  8
0
100
AcDbBlockBegin
  2
3_4_7_16CS2i_2_0_in_070799_2
 70
     2
 10
0.0
 20
0.0
 30
0.0
  3
3_4_7_16CS2i_2_0_in_070799_2
  1

  0
ATTDEF
  5
EC
330
E8
100
AcDbEntity
  8
AM_6
100
AcDbText
 10
8.4375
 20
3.22656
 30
0.0
 40
0.5
  1
S-2000 Collar -Inch
100
AcDbAttributeDefinition
  3

  2
NN
 70
     8
280
     0
  0
ATTDEF
  5
ED
330
E8
100
AcDbEntity
  8
AM_6
100
AcDbText
 10
8.4375
 20
2.72656
 30
0.0
 40
0.5
  1
S-2000 Bearings
100
AcDbAttributeDefinition
  3

  2
NT
 70
     8
280
     0
  0
ATTDEF
  5
EE
330
E8
100
AcDbEntity
  8
AM_6
100
AcDbText
 10
8.4375
 20
2.22656
 30
0.0
 40
0.5
  1
4-7/16CS2i
100
AcDbAttributeDefinition
  3

  2
NB
 70
     8
280
     0
  0
ATTDEF
  5
EF
330
E8
100
AcDbEntity
  8
AM_6
100
AcDbText
 10
8.4375
 20
1.72656
 30
0.0
 40
0.5
  1
$BORE.CS2i
100
AcDbAttributeDefinition
  3

  2
NBSYN
 70
     8
280
     0
  0
ATTDEF
  5
F0
330
E8
100
AcDbEntity
  8
AM_6
100
AcDbText
 10
8.4375
 20
1.22656
 30
0.0
 40
0.5
  1
4-7/16CS2i
100
AcDbAttributeDefinition
  3

  2
LINA
 70
     8
280
     0
  0
ATTDEF
  5
F1
330
E8
100
AcDbEntity
  8
AM_6
100
AcDbText
 10
8.4375
 20
0.7265600000000001
 30
0.0
 40
0.5
  1
4-7/16
100
AcDbAttributeDefinition
  3

  2
BORE
 70
     8
280
     0
  0
ATTDEF
  5
F2
330
E8
100
AcDbEntity
  8
AM_6
100
AcDbText
 10
8.4375
 20
0.2265600000000001
 30
0.0
 40
0.5
  1
4.437500
100
AcDbAttributeDefinition
  3

  2
BORE1
 70
     8
280
     0
  0
ATTDEF
  5
F3
330
E8
100
AcDbEntity
  8
AM_6
100
AcDbText
 10
8.4375
 20
-0.2734399999999999
 30
0.0
 40
0.5
  1
6-29/64
100
AcDbAttributeDefinition
  3

  2
L1
 70
     8
280
     0
  0
ATTDEF
  5
F4
330
E8
100
AcDbEntity
  8
AM_6
100
AcDbText
 10
8.4375
 20
-0.7734399999999999
 30
0.0
 40
0.5
  1
6.45313
100
AcDbAttributeDefinition
  3

  2
L
 70
     8
280
     0
  0
ATTDEF
  5
F5
330
E8
100
AcDbEntity
  8
AM_6
100
AcDbText
 10
8.4375
 20
-1.27344
 30
0.0
 40
0.5
  1
6.45312
100
AcDbAttributeDefinition
  3

  2
L2
 70
     8
280
     0
  0
ATTDEF
  5
F6
330
E8
100
AcDbEntity
  8
AM_6
100
AcDbText
 10
8.4375
 20
-1.77344
 30
0.0
 40
0.5
  1
6.75
100
AcDbAttributeDefinition
  3

  2
A
 70
     8
280
     0
  0
ATTDEF
  5
F7
330
E8
100
AcDbEntity
  8
AM_6
100
AcDbText
 10
8.4375
 20
-2.27344
 30
0.0
 40
0.5
  1
3.25
100
AcDbAttributeDefinition
  3

  2
B
 70
     8
280
     0
  0
ATTDEF
  5
F8
330
E8
100
AcDbEntity
  8
AM_6
100
AcDbText
 10
8.4375
 20
-2.77344
 30
0.0
 40
0.5
  1
5.00
100
AcDbAttributeDefinition
  3

  2
C
 70
     8
280
     0
  0
ATTDEF
  5
F9
330
E8
100
AcDbEntity
  8
AM_6
100
AcDbText
 10
8.4375
 20
-3.27344
 30
0.0
 40
0.5
  1
7.00
100
AcDbAttributeDefinition
  3

  2
D
 70
     8
280
     0
  0
ATTDEF
  5
FA
330
E8
100
AcDbEntity
  8
AM_6
100
AcDbText
 10
8.4375
 20
-3.77344
 30
0.0
 40
0.5
  1
0.78
100
AcDbAttributeDefinition
  3

  2
E
 70
     8
280
     0
  0
ATTDEF
  5
FB
330
E8
100
AcDbEntity
  8
AM_6
100
AcDbText
 10
8.4375
 20
-4.27344
 30
0.0
 40
0.5
  1
0.620
100
AcDbAttributeDefinition
  3

  2
F
 70
     8
280
     0
  0
ATTDEF
  5
FC
330
E8
100
AcDbEntity
  8
AM_6
100
AcDbText
 10
8.4375
 20
-4.77344
 30
0.0
 40
0.5
  1
5/8-11
100
AcDbAttributeDefinition
  3

  2
CS
 70
     8
280
     0
  0
ATTDEF
  5
FD
330
E8
100
AcDbEntity
  8
AM_6
100
AcDbText
 10
8.4375
 20
-5.27344
 30
0.0
 40
0.5
  1
0.6250
100
AcDbAttributeDefinition
  3

  2
NDM
 70
     8
280
     0
  0
ATTDEF
  5
FE
330
E8
100
AcDbEntity
  8
AM_6
100
AcDbText
 10
8.4375
 20
-5.77344
 30
0.0
 40
0.5
  1
0.5270
100
AcDbAttributeDefinition
  3

  2
KDM
 70
     8
280
     0
  0
ATTDEF
  5
FF
330
E8
100
AcDbEntity
  8
AM_6
100
AcDbText
 10
8.4375
 20
-6.27344
 30
0.0
 40
0.5
  1
2
100
AcDbAttributeDefinition
  3

  2
DD
 70
     8
280
     0
  0
ATTDEF
  5
100
330
E8
100
AcDbEntity
  8
AM_6
100
AcDbText
 10
8.4375
 20
-6.77344
 30
0.0
 40
0.5
  1
baldor
100
AcDbAttributeDefinition
  3

  2
COMPANY
 70
     8
280
     0
  0
LINE
  5
101
330
E8
100
AcDbEntity
  8
AM_9
100
AcDbLine
 10
2.5542
 20
2.507533333333335
 30
0.0
 11
2.547107405996764
 21
2.5004407393301
 31
0.0
  0
LINE
  5
102
330
E8
100
AcDbEntity
  8
AM_9
100
AcDbLine
 10
3.088022499620292
 20
2.500310833713042
 30
0.0
 11
3.0808
 21
2.507533333333335
 31
0.0
  0
LINE
  5
103
330
E8
100
AcDbEntity
  8
AM_9
100
AcDbLine
 10
3.0808
 20
3.177365
 30
0.0
 11
3.129557527342593
 21
3.226122527342593
 31
0.0
  0
LINE
  5
104
330
E8
100
AcDbEntity
  8
AM_9
100
AcDbLine
 10
2.533806779562012
 20
3.197758220437989
 30
0.0
 11
2.5542
 21
3.177365
 31
0.0
  0
LINE
  5
105
330
E8
100
AcDbEntity
  8
AM_9
100
AcDbLine
 10
2.5542
 20
3.177365
 30
0.0
 11
3.0808
 21
3.177365
 31
0.0
  0
LINE
  5
106
330
E8
100
AcDbEntity
  8
AM_9
100
AcDbLine
 10
2.5542
 20
2.507533333333335
 30
0.0
 11
3.0808
 21
2.507533333333335
 31
0.0
  0
LINE
  5
107
330
E8
100
AcDbEntity
  8
AM_9
100
AcDbLine
 10
3.0808
 20
2.507533333333335
 30
0.0
 11
3.0808
 21
3.177365
 31
0.0
  0
LINE
  5
108
330
E8
100
AcDbEntity
  8
AM_9
100
AcDbLine
 10
2.5542
 20
3.177365
 30
0.0
 11
2.5542
 21
2.507533333333335
 31
0.0
  0
ELLIPSE
  5
109
330
E8
100
AcDbEntity
  8
AM_9
100
AcDbEllipse
 10
2.817499999999993
 20
1.059729378590198
 30
0.0
 11
0.2632999999999934
 21
0.0
 31
0.0
210
0.0
220
0.0
230
1.0
 40
0.9063077870366487
 41
2.506638986525509
 42
3.141592653589793
  0
ELLIPSE
  5
10A
330
E8
100
AcDbEntity
  8
AM_9
100
AcDbEllipse
 10
2.817500000000006
 20
1.059729378590198
 30
0.0
 11
0.2632999999999939
 21
0.0
 31
0.0
210
0.0
220
0.0
230
1.0
 40
0.9063077870366496
 41
3.141592653589793
 42
6.91813897424387
  0
LINE
  5
10B
330
E8
100
AcDbEntity
  8
AM_9
100
AcDbLine
 10
3.0808
 20
1.059729378590196
 30
0.0
 11
3.0808
 21
1.342812473215738
 31
0.0
  0
LINE
  5
10C
330
E8
100
AcDbEntity
  8
AM_9
100
AcDbLine
 10
2.5542
 20
1.342812473215738
 30
0.0
 11
2.5542
 21
1.059729378590196
 31
0.0
  0
LWPOLYLINE
  5
10D
330
E8
100
AcDbEntity
  8
AM_9
100
AcDbPolyline
 90
        5
 70
     0
 43
0.0
 10
2.549854400560038
 20
1.016616113545539
 10
2.558967614248012
 20
0.9785528390890358
 10
2.577335484649315
 20
0.9348526719806408
 10
2.598074102201326
 20
0.901694586169952
 10
2.62363793604528
 20
0.8714411925917833
  0
LWPOLYLINE
  5
10E
330
E8
100
AcDbEntity
  8
AM_9
100
AcDbPolyline
 90
       34
 70
     0
 43
0.0
 10
2.62363793604528
 20
0.8714411925917833
 10
2.653802086858132
 20
0.8447751244550378
 10
2.687861504859066
 20
0.8225626441473476
 10
2.729840915323669
 20
0.8039104535125804
 10
2.774630709932782
 20
0.7925335056963374
 10
2.818286541689404
 20
0.7890925148757026
 10
2.861919076317278
 20
0.7927908788247182
 10
2.903080349753514
 20
0.8031880394597111
 10
2.941917343416291
 20
0.819761007005603
 10
2.978218940027149
 20
0.84254047937082
 10
3.010269979336693
 20
0.8703293707194034
 10
3.038719514002438
 20
0.9041956461473571
 10
3.061120850913378
 20
0.9416105804883027
 10
3.077664551082581
 20
0.9838372300644276
 10
3.086661448187614
 20
1.027620855336041
 10
3.087743196418069
 20
1.073273392147605
 10
3.080546082574479
 20
1.118043958558644
 10
3.064945323439968
 20
1.161032432331966
 10
3.04141356174887
 20
1.200667587066356
 10
3.010945010730463
 20
1.235196568174819
 10
2.974051847804663
 20
1.264299655709331
 10
2.933656169484282
 20
1.286019708953716
 10
2.889427023532753
 20
1.301128000018057
 10
2.845665803003549
 20
1.30865120116257
 10
2.801041870743099
 20
1.309564179180463
 10
2.758778228914739
 20
1.304108298837959
 10
2.718147191448044
 20
1.292742280128255
 10
2.679991300392792
 20
1.275622054205542
 10
2.645475868315245
 20
1.253399129971431
 10
2.614049868077672
 20
1.225211467563067
 10
2.588100058956833
 20
1.192834056199437
 10
2.567206849796729
 20
1.154801739218291
 10
2.553431137430504
 20
1.113941953453929
 10
2.549407639254607
 20
1.093295647425522
  0
LINE
  5
10F
330
E8
100
AcDbEntity
  8
AM_9
100
AcDbLine
 10
3.4375
 20
2.5
 30
0.0
 11
3.087625054317802
 21
2.5
 31
0.0
  0
LINE
  5
110
330
E8
100
AcDbEntity
  8
AM_9
100
AcDbLine
 10
2.547669844186811
 20
2.5
 30
0.0
 11
2.1975
 21
2.5
 31
0.0
  0
LINE
  5
111
330
E8
100
AcDbEntity
  8
AM_9
100
AcDbLine
 10
2.1975
 20
-2.5
 30
0.0
 11
3.4375
 21
-2.5
 31
0.0
  0
LWPOLYLINE
  5
112
330
E8
100
AcDbEntity
  8
AM_9
100
AcDbPolyline
 90
       21
 70
     0
 43
0.0
 10
2.546666666666697
 20
2.499999999999996
 10
2.547462089025934
 20
2.499903497635898
 10
2.555436690580129
 20
2.498951241250801
 10
2.571386846836243
 20
2.497129984839264
 10
2.59588463061327
 20
2.494550268040473
 10
2.626319030695508
 20
2.491714881993043
 10
2.664223027356618
 20
2.488760482026858
 10
2.704173209141604
 20
2.48634452101742
 10
2.749265161661826
 20
2.484483842185862
 10
2.792345622454929
 20
2.483568309691009
 10
2.83756226263029
 20
2.483515891196557
 10
2.879123810947481
 20
2.48428854580457
 10
2.920111573709104
 20
2.485818969123251
 10
2.957590616498539
 20
2.487883605008898
 10
2.992263357779448
 20
2.490356382367662
 10
3.022988759461327
 20
2.492996674997758
 10
3.048853949484822
 20
2.495544129930834
 10
3.069015432420793
 20
2.497734366829319
 10
3.082402687899306
 20
2.499287115484823
 10
3.08814287397405
 20
2.4999768679742
 10
3.088333333332922
 20
2.49999999999995
  0
LINE
  5
113
330
E8
100
AcDbEntity
  8
AM_9
100
AcDbLine
 10
2.1975
 20
-0.1921215891494313
 30
0.0
 11
2.1975
 21
0.1921215891494311
 31
0.0
  0
LINE
  5
114
330
E8
100
AcDbEntity
  8
AM_9
100
AcDbLine
 10
2.55043549474528
 20
1.502481439719925
 30
0.0
 11
2.55043549474528
 21
1.221577432609368
 31
0.0
  0
LINE
  5
115
330
E8
100
AcDbEntity
  8
AM_5
100
AcDbLine
 10
3.129999999999999
 20
3.22656
 30
0.0
 11
3.129999999999999
 21
2.5
 31
0.0
  0
LINE
  5
116
330
E8
100
AcDbEntity
  8
AM_5
100
AcDbLine
 10
2.97375
 20
2.458333333333333
 30
0.0
 11
3.129999999999999
 21
2.458333333333333
 31
0.0
  0
LINE
  5
117
330
E8
100
AcDbEntity
  8
AM_5
100
AcDbLine
 10
2.504999999999999
 20
3.147863414634146
 30
0.0
 11
2.504999999999999
 21
2.5
 31
0.0
  0
LINE
  5
118
330
E8
100
AcDbEntity
  8
AM_5
100
AcDbLine
 10
2.661249999999999
 20
2.458333333333333
 30
0.0
 11
2.504999999999999
 21
2.458333333333333
 31
0.0
  0
ELLIPSE
  5
119
330
E8
100
AcDbEntity
  8
AM_4
100
AcDbEllipse
 10
2.817499999999999
 20
1.059729378590197
 30
0.0
 11
0.2632999999999992
 21
0.0
 31
0.0
210
0.0
220
0.0
230
1.0
 40
0.9063077870366498
 41
0.6349536670642744
 42
2.506638986525517
  0
ELLIPSE
  5
11A
330
E8
100
AcDbEntity
  8
AM_4
100
AcDbEllipse
 10
2.817499999999999
 20
1.342812473215737
 30
0.0
 11
0.2633000000000001
 21
0.0
 31
0.0
210
0.0
220
0.0
230
1.0
 40
0.9063077870366495
 41
3.141592653589793
 42
6.283185307179586
  0
ELLIPSE
  5
11B
330
E8
100
AcDbEntity
  8
AM_4
100
AcDbEllipse
 10
2.817499999999999
 20
1.342812473215738
 30
0.0
 11
0.2633000000000001
 21
0.0
 31
0.0
210
0.0
220
0.0
230
1.0
 40
0.9063077870366485
 41
0.0
 42
3.141592653589793
  0
LINE
  5
11C
330
E8
100
AcDbEntity
  8
AM_4
100
AcDbLine
 10
2.1975
 20
0.1921215891494311
 30
0.0
 11
2.1975
 21
3.072914285714285
 31
0.0
  0
LINE
  5
11D
330
E8
100
AcDbEntity
  8
AM_4
100
AcDbLine
 10
2.1975
 20
-3.072914285714285
 30
0.0
 11
2.1975
 21
-0.1921215891494313
 31
0.0
  0
LINE
  5
11E
330
E8
100
AcDbEntity
  8
AM_4
100
AcDbLine
 10
2.325884204413472
 20
3.072914285714285
 30
0.0
 11
2.1975
 21
3.072914285714285
 31
0.0
  0
LINE
  5
11F
330
E8
100
AcDbEntity
  8
AM_4
100
AcDbLine
 10
2.1975
 20
-3.072914285714285
 30
0.0
 11
2.325884204413472
 21
-3.072914285714285
 31
0.0
  0
LINE
  5
120
330
E8
100
AcDbEntity
  8
AM_4
100
AcDbLine
 10
2.504999999999999
 20
3.147863414634147
 30
0.0
 11
2.400833333333333
 21
3.147863414634147
 31
0.0
  0
LINE
  5
121
330
E8
100
AcDbEntity
  8
AM_4
100
AcDbLine
 10
2.400833333333333
 20
-3.147863414634147
 30
0.0
 11
2.504999999999999
 21
-3.147863414634147
 31
0.0
  0
LINE
  5
122
330
E8
100
AcDbEntity
  8
AM_4
100
AcDbLine
 10
2.400833333333333
 20
-3.147863414634147
 30
0.0
 11
2.400833333333333
 21
3.147863414634147
 31
0.0
  0
LINE
  5
123
330
E8
100
AcDbEntity
  8
AM_4
100
AcDbLine
 10
2.325884204413472
 20
-3.072914285714285
 30
0.0
 11
2.325884204413472
 21
3.072914285714285
 31
0.0
  0
LINE
  5
124
330
E8
100
AcDbEntity
  8
AM_4
100
AcDbLine
 10
2.325884204413472
 20
-3.072914285714285
 30
0.0
 11
2.400833333333333
 21
-3.147863414634147
 31
0.0
  0
LINE
  5
125
330
E8
100
AcDbEntity
  8
AM_4
100
AcDbLine
 10
2.400833333333333
 20
3.147863414634147
 30
0.0
 11
2.325884204413472
 21
3.072914285714285
 31
0.0
  0
LWPOLYLINE
  5
126
330
E8
100
AcDbEntity
  8
AM_4
100
AcDbPolyline
 90
       33
 70
     0
 43
0.0
 10
2.550435494745277
 20
1.502481439719925
 10
2.554493445623101
 20
1.507980063050908
 10
2.585105991497145
 20
1.541821302021923
 10
2.62145608233278
 20
1.570760855226788
 10
2.663856149407589
 20
1.594807312964523
 10
2.711391840296612
 20
1.61298351587133
 10
2.762336664070735
 20
1.624338478142875
 10
2.816198571723149
 20
1.628411019195383
 10
2.86980099283514
 20
1.624753443818975
 10
2.923440707861314
 20
1.613033769452893
 10
2.972609004559578
 20
1.59411262469452
 10
3.018653752591529
 20
1.567236666521951
 10
3.056624411621871
 20
1.535339991180362
 10
3.088612201670081
 20
1.496673576864699
 10
3.110721138294
 20
1.456417636706258
 10
3.124986763229928
 20
1.411639845361197
 10
3.129945917245941
 20
1.368394110534794
 10
3.126542826115448
 20
1.323389265646299
 10
3.115173457623017
 20
1.280843925046047
 10
3.096347711434315
 20
1.240325771213022
 10
3.070171234731019
 20
1.202450898775202
 10
3.037783288341223
 20
1.16877013469628
 10
2.999014659564085
 20
1.139474017292099
 10
2.954554971192199
 20
1.115677950384886
 10
2.905805138370185
 20
1.098604890941041
 10
2.853345132696373
 20
1.088952970807481
 10
2.799850614622932
 20
1.087537517964968
 10
2.74534113509394
 20
1.094726561262093
 10
2.693966041399286
 20
1.110085143835126
 10
2.644702434418701
 20
1.134086858167136
 10
2.610717834168937
 20
1.157481105654755
 10
2.580435472918606
 20
1.184867340331588
 10
2.55043549474528
 20
1.221577432609368
  0
LINE
  5
127
330
E8
100
AcDbEntity
  8
AM_4
100
AcDbLine
 10
3.230833333333333
 20
3.22656
 30
0.0
 11
3.129190409785676
 21
3.22656
 31
0.0
  0
LINE
  5
128
330
E8
100
AcDbEntity
  8
AM_4
100
AcDbLine
 10
2.55043549474528
 20
-3.22656
 30
0.0
 11
3.230833333333333
 21
-3.22656
 31
0.0
  0
LWPOLYLINE
  5
129
330
E8
100
AcDbEntity
  8
AM_4
100
AcDbPolyline
 90
       18
 70
     0
 43
0.0
 10
3.129994999999902
 20
3.226559999999992
 10
3.129688847278148
 20
3.226532980058195
 10
3.123159794698018
 20
3.225962958155766
 10
3.109156343286656
 20
3.224780423781392
 10
3.087363158718348
 20
3.2230489418715
 10
3.058991023066943
 20
3.220993941714276
 10
3.023805103818515
 20
3.218759467686689
 10
2.9828561564712
 20
3.216598452155592
 10
2.936534683201819
 20
3.214725772060353
 10
2.886421270586168
 20
3.213385562887231
 10
2.833055837769852
 20
3.212743752680266
 10
2.779408994886097
 20
3.212915888234834
 10
2.725318497585177
 20
3.213918872375139
 10
2.675155489763925
 20
3.215592135196067
 10
2.627702468423491
 20
3.217831342071409
 10
2.587924580879627
 20
3.220198245832166
 10
2.553795061246174
 20
3.222583733497722
 10
2.550435494745279
 20
3.222836208153096
  0
LINE
  5
12A
330
E8
100
AcDbEntity
  8
AM_4
100
AcDbLine
 10
3.4375
 20
-3.019893333333333
 30
0.0
 11
3.4375
 21
3.019893333333333
 31
0.0
  0
LINE
  5
12B
330
E8
100
AcDbEntity
  8
AM_4
100
AcDbLine
 10
3.230833333333333
 20
-3.22656
 30
0.0
 11
3.230833333333333
 21
3.22656
 31
0.0
  0
ARC
  5
12C
330
E8
100
AcDbEntity
  8
AM_4
100
AcDbCircle
 10
3.230833333333331
 20
3.019893333333331
 30
0.0
 40
0.2066666666666683
100
AcDbArc
 50
0.0
 51
90.0
  0
ARC
  5
12D
330
E8
100
AcDbEntity
  8
AM_4
100
AcDbCircle
 10
3.230833333333331
 20
-3.019893333333331
 30
0.0
 40
0.2066666666666683
100
AcDbArc
 50
270.0
 51
0.0
  0
LWPOLYLINE
  5
12E
330
E8
100
AcDbEntity
  8
AM_4
100
AcDbPolyline
 90
        5
 70
     0
 43
0.0
 10
2.55043549474528
 20
1.221577432609368
 10
2.538424094510198
 20
1.280744371101927
 10
2.533810806074765
 20
1.349263550279204
 10
2.537875027564242
 20
1.423124214752044
 10
2.550435494745277
 20
1.502481439719925
  0
LINE
  5
12F
330
E8
100
AcDbEntity
  8
AM_4
100
AcDbLine
 10
2.550435494745277
 20
1.502481439719925
 30
0.0
 11
2.55043549474528
 21
3.222836208153096
 31
0.0
  0
LINE
  5
130
330
E8
100
AcDbEntity
  8
AM_4
100
AcDbLine
 10
2.55043549474528
 20
3.222836208153096
 30
0.0
 11
2.533806779562016
 21
3.197758220437995
 31
0.0
  0
LINE
  5
131
330
E8
100
AcDbEntity
  8
AM_4
100
AcDbLine
 10
2.504999999999999
 20
-3.147863414634147
 30
0.0
 11
2.504999999999999
 21
3.147863414634147
 31
0.0
  0
LINE
  5
132
330
E8
100
AcDbEntity
  8
AM_4
100
AcDbLine
 10
2.504999999999999
 20
-3.147863414634147
 30
0.0
 11
2.55043549474528
 21
-3.226560000000001
 31
0.0
  0
LINE
  5
133
330
E8
100
AcDbEntity
  8
AM_4
100
AcDbLine
 10
2.533806779562012
 20
3.197758220437989
 30
0.0
 11
2.504999999999999
 21
3.147863414634147
 31
0.0
  0
LINE
  5
134
330
E8
100
AcDbEntity
  8
AM_4
100
AcDbLine
 10
2.55043549474528
 20
-3.226560000000001
 30
0.0
 11
2.55043549474528
 21
1.221577432609368
 31
0.0
  0
ENDBLK
  5
EB
330
E8
100
AcDbEntity
  8
0
100
AcDbBlockEnd
  0
BLOCK
  5
137
330
135
100
AcDbEntity
  8
0
100
AcDbBlockBegin
  2
4_070014i_0_in_070799_2
 70
     2
 10
0.0
 20
0.0
 30
0.0
  3
4_070014i_0_in_070799_2
  1

  0
ATTDEF
  5
139
330
135
100
AcDbEntity
  8
AM_6
100
AcDbText
 10
8.7640625
 20
3.936999999999999
 30
0.0
 40
0.5
  1
S-2000 Insert -Inch
100
AcDbAttributeDefinition
  3

  2
NN
 70
     8
280
     0
  0
ATTDEF
  5
13A
330
135
100
AcDbEntity
  8
AM_6
100
AcDbText
 10
8.7640625
 20
3.436999999999999
 30
0.0
 40
0.5
  1
S-2000 Bearings
100
AcDbAttributeDefinition
  3

  2
NT
 70
     8
280
     0
  0
ATTDEF
  5
13B
330
135
100
AcDbEntity
  8
AM_6
100
AcDbText
 10
8.7640625
 20
2.936999999999999
 30
0.0
 40
0.5
  1
070014i
100
AcDbAttributeDefinition
  3

  2
NB
 70
     8
280
     0
  0
ATTDEF
  5
13C
330
135
100
AcDbEntity
  8
AM_6
100
AcDbText
 10
8.7640625
 20
2.436999999999999
 30
0.0
 40
0.5
  1
$PN.i
100
AcDbAttributeDefinition
  3

  2
NBSYN
 70
     8
280
     0
  0
ATTDEF
  5
13D
330
135
100
AcDbEntity
  8
AM_6
100
AcDbText
 10
8.7640625
 20
1.936999999999999
 30
0.0
 40
0.5
  1
070014i
100
AcDbAttributeDefinition
  3

  2
LINA
 70
     8
280
     0
  0
ATTDEF
  5
13E
330
135
100
AcDbEntity
  8
AM_6
100
AcDbText
 10
8.7640625
 20
1.436999999999999
 30
0.0
 40
0.5
  1
4-7/16
100
AcDbAttributeDefinition
  3

  2
SS
 70
     8
280
     0
  0
ATTDEF
  5
13F
330
135
100
AcDbEntity
  8
AM_6
100
AcDbText
 10
8.7640625
 20
0.9369999999999994
 30
0.0
 40
0.5
  1
5.00
100
AcDbAttributeDefinition
  3

  2
CC
 70
     8
280
     0
  0
ATTDEF
  5
140
330
135
100
AcDbEntity
  8
AM_6
100
AcDbText
 10
8.7640625
 20
0.4369999999999994
 30
0.0
 40
0.5
  1
4.437500
100
AcDbAttributeDefinition
  3

  2
SS1
 70
     8
280
     0
  0
ATTDEF
  5
141
330
135
100
AcDbEntity
  8
AM_6
100
AcDbText
 10
8.7640625
 20
-0.0630000000000006
 30
0.0
 40
0.5
  1
070014
100
AcDbAttributeDefinition
  3

  2
PN
 70
     8
280
     0
  0
ATTDEF
  5
142
330
135
100
AcDbEntity
  8
AM_6
100
AcDbText
 10
8.7640625
 20
-0.5630000000000006
 30
0.0
 40
0.5
  1
INS-S2-407R
100
AcDbAttributeDefinition
  3

  2
DESCRIPTION
 70
     8
280
     0
  0
ATTDEF
  5
143
330
135
100
AcDbEntity
  8
AM_6
100
AcDbText
 10
8.7640625
 20
-1.063000000000001
 30
0.0
 40
0.5
  1
Contact Seal
100
AcDbAttributeDefinition
  3

  2
ST
 70
     8
280
     0
  0
ATTDEF
  5
144
330
135
100
AcDbEntity
  8
AM_6
100
AcDbText
 10
8.7640625
 20
-1.563000000000001
 30
0.0
 40
0.5
  1
1
100
AcDbAttributeDefinition
  3

  2
ST1
 70
     8
280
     0
  0
ATTDEF
  5
145
330
135
100
AcDbEntity
  8
AM_6
100
AcDbText
 10
8.7640625
 20
-2.063000000000001
 30
0.0
 40
0.5
  1
7.8740
100
AcDbAttributeDefinition
  3

  2
A
 70
     8
280
     0
  0
ATTDEF
  5
146
330
135
100
AcDbEntity
  8
AM_6
100
AcDbText
 10
8.7640625
 20
-2.563000000000001
 30
0.0
 40
0.5
  1
2-5/32
100
AcDbAttributeDefinition
  3

  2
B
 70
     8
280
     0
  0
ATTDEF
  5
147
330
135
100
AcDbEntity
  8
AM_6
100
AcDbText
 10
8.7640625
 20
-3.063000000000001
 30
0.0
 40
0.5
  1
6-17/32
100
AcDbAttributeDefinition
  3

  2
C
 70
     8
280
     0
  0
ATTDEF
  5
148
330
135
100
AcDbEntity
  8
AM_6
100
AcDbText
 10
8.7640625
 20
-3.563000000000001
 30
0.0
 40
0.5
  1
3.266
100
AcDbAttributeDefinition
  3

  2
D
 70
     8
280
     0
  0
ATTDEF
  5
149
330
135
100
AcDbEntity
  8
AM_6
100
AcDbText
 10
8.7640625
 20
-4.063000000000001
 30
0.0
 40
0.5
  1
6-29/64
100
AcDbAttributeDefinition
  3

  2
E
 70
     8
280
     0
  0
ATTDEF
  5
14A
330
135
100
AcDbEntity
  8
AM_6
100
AcDbText
 10
8.7640625
 20
-4.563000000000001
 30
0.0
 40
0.5
  1
0.43750
100
AcDbAttributeDefinition
  3

  2
F
 70
     8
280
     0
  0
ATTDEF
  5
14B
330
135
100
AcDbEntity
  8
AM_6
100
AcDbText
 10
8.7640625
 20
-5.063000000000001
 30
0.0
 40
0.5
  1
2
100
AcDbAttributeDefinition
  3

  2
DD
 70
     8
280
     0
  0
ATTDEF
  5
14C
330
135
100
AcDbEntity
  8
AM_6
100
AcDbText
 10
8.7640625
 20
-5.563000000000001
 30
0.0
 40
0.5
  1
baldor
100
AcDbAttributeDefinition
  3

  2
COMPANY
 70
     8
280
     0
  0
LINE
  5
14D
330
135
100
AcDbEntity
  8
AM_9
100
AcDbLine
 10
2.4275
 20
2.499797774474863
 30
0.0
 11
2.4275
 21
2.21875
 31
0.0
  0
LINE
  5
14E
330
135
100
AcDbEntity
  8
AM_9
100
AcDbLine
 10
3.2075
 20
2.21875
 30
0.0
 11
3.2075
 21
2.49996071117166
 31
0.0
  0
LINE
  5
14F
330
135
100
AcDbEntity
  8
AM_9
100
AcDbLine
 10
-2.86375
 20
2.499797774474863
 30
0.0
 11
-2.86375
 21
2.21875
 31
0.0
  0
LINE
  5
150
330
135
100
AcDbEntity
  8
AM_9
100
AcDbLine
 10
-2.08375
 20
2.21875
 30
0.0
 11
-2.08375
 21
2.49996071117166
 31
0.0
  0
LINE
  5
151
330
135
100
AcDbEntity
  8
AM_9
100
AcDbLine
 10
2.4275
 20
1.056545654351749
 30
0.0
 11
2.4275
 21
0.9376542278498087
 31
0.0
  0
LINE
  5
152
330
135
100
AcDbEntity
  8
AM_9
100
AcDbLine
 10
3.2075
 20
0.9375871661481381
 30
0.0
 11
3.2075
 21
1.056545654351749
 31
0.0
  0
LWPOLYLINE
  5
153
330
135
100
AcDbEntity
  8
AM_9
100
AcDbPolyline
 90
        3
 70
     0
 43
0.0
 10
2.43365706619972
 20
0.9997892775026006
 10
2.427535292849706
 20
0.9424367126172766
 10
2.427500001045221
 20
0.9377101459412017
  0
LWPOLYLINE
  5
154
330
135
100
AcDbEntity
  8
AM_9
100
AcDbPolyline
 90
        7
 70
     0
 43
0.0
 10
2.594426351768639
 20
1.217817498203154
 10
2.562276746073042
 20
1.196586210982685
 10
2.51672947931446
 20
1.15680298257531
 10
2.47923542042371
 20
1.109936470876936
 10
2.451320950329588
 20
1.057604709320501
 10
2.434013930682867
 20
1.00132708606545
 10
2.43365706619972
 20
0.9997892775026006
  0
LWPOLYLINE
  5
155
330
135
100
AcDbEntity
  8
AM_9
100
AcDbPolyline
 90
        3
 70
     0
 43
0.0
 10
2.649685910746447
 20
1.244870051275669
 10
2.614916700430995
 20
1.229079919867426
 10
2.594426351768639
 20
1.217817498203154
  0
LWPOLYLINE
  5
156
330
135
100
AcDbEntity
  8
AM_9
100
AcDbPolyline
 90
        3
 70
     0
 43
0.0
 10
3.039603422564613
 20
1.2183871157609
 10
2.990319289453875
 20
1.242832315363773
 10
2.978091683744157
 20
1.247679823018358
  0
LWPOLYLINE
  5
157
330
135
100
AcDbEntity
  8
AM_9
100
AcDbPolyline
 90
        7
 70
     0
 43
0.0
 10
3.202260299572488
 20
0.9950423341982617
 10
3.192827541259198
 20
1.032524687819025
 10
3.170210836839201
 20
1.085869169727892
 10
3.137687112223606
 20
1.134696839623254
 10
3.096384850784742
 20
1.177659205194924
 10
3.046605804049209
 20
1.214150144413549
 10
3.039603422564613
 20
1.2183871157609
  0
LWPOLYLINE
  5
158
330
135
100
AcDbEntity
  8
AM_9
100
AcDbPolyline
 90
        3
 70
     0
 43
0.0
 10
3.207499998777539
 20
0.9376562821718112
 10
3.205201460187932
 20
0.9758324796990245
 10
3.202260299572488
 20
0.9950423341982617
  0
LWPOLYLINE
  5
159
330
135
100
AcDbEntity
  8
AM_9
100
AcDbPolyline
 90
       11
 70
     0
 43
0.0
 10
2.427500001045221
 20
0.9377101459412017
 10
2.432110731047496
 20
0.883383951224547
 10
2.447283407621372
 20
0.8251045448647392
 10
2.472700753495647
 20
0.7694149645073506
 10
2.507510416289977
 20
0.7178511387713186
 10
2.55147382804516
 20
0.6714889255327435
 10
2.602886965091127
 20
0.6324003025284807
 10
2.660902755618053
 20
0.6017838922536218
 10
2.72345102388261
 20
0.5809116885051414
 10
2.770115885271207
 20
0.5724725596951313
 10
2.817499999999999
 20
0.5696248912265391
  0
LWPOLYLINE
  5
15A
330
135
100
AcDbEntity
  8
AM_9
100
AcDbPolyline
 90
        7
 70
     0
 43
0.0
 10
3.077442229742903
 20
1.312876921522631
 10
3.119640952837801
 20
1.274887321555765
 10
3.156811366846313
 20
1.227599313243012
 10
3.184380796168568
 20
1.174953630794841
 10
3.201349697530789
 20
1.118455936776533
 10
3.207486445149262
 20
1.059491668928759
 10
3.207499999502791
 20
1.056563502428645
  0
LWPOLYLINE
  5
15B
330
135
100
AcDbEntity
  8
AM_9
100
AcDbPolyline
 90
       11
 70
     0
 43
0.0
 10
2.557999510585561
 20
1.313214790791183
 10
2.589508316437077
 20
1.334779859685507
 10
2.645905038212915
 20
1.3635355854868
 10
2.707336956083066
 20
1.383680450545657
 10
2.771948771419975
 20
1.394828808621985
 10
2.837208854447165
 20
1.39662092234461
 10
2.90190827812604
 20
1.389302180850104
 10
2.963846153931686
 20
1.373039653997011
 10
3.021710327151315
 20
1.348304608047805
 10
3.074254636571492
 20
1.315248528208305
 10
3.077442229742903
 20
1.312876921522631
  0
LWPOLYLINE
  5
15C
330
135
100
AcDbEntity
  8
AM_9
100
AcDbPolyline
 90
        7
 70
     0
 43
0.0
 10
2.42750000135454
 20
1.056516195197752
 10
2.429865232864151
 20
1.095258922854475
 10
2.442393699057691
 20
1.152200277626733
 10
2.465228232997124
 20
1.205842707722542
 10
2.49799731167995
 20
1.254944262780038
 10
2.53957905070519
 20
1.298169913114366
 10
2.557999510585561
 20
1.313214790791183
  0
LWPOLYLINE
  5
15D
330
135
100
AcDbEntity
  8
AM_9
100
AcDbPolyline
 90
       11
 70
     0
 43
0.0
 10
3.207499999502791
 20
1.056563502428645
 10
3.202555758216103
 20
1.000340362217186
 10
3.186984847233462
 20
0.9420992131841787
 10
3.16111645570849
 20
0.886552751656288
 10
3.125818809010774
 20
0.835260414700759
 10
3.081463732736409
 20
0.7894076433717077
 10
3.029701460704578
 20
0.7508978395820479
 10
2.971514716347659
 20
0.7209509785693236
 10
2.908894023199816
 20
0.7007074193566396
 10
2.863524649156564
 20
0.6928118967409483
 10
2.817499999999999
 20
0.6901503872304681
  0
LINE
  5
15E
330
135
100
AcDbEntity
  8
AM_9
100
AcDbLine
 10
-2.86375
 20
1.056545654351749
 30
0.0
 11
-2.86375
 21
0.9376542278498087
 31
0.0
  0
LINE
  5
15F
330
135
100
AcDbEntity
  8
AM_9
100
AcDbLine
 10
-2.08375
 20
0.9375871661481381
 30
0.0
 11
-2.08375
 21
1.056545654351749
 31
0.0
  0
LWPOLYLINE
  5
160
330
135
100
AcDbEntity
  8
AM_9
100
AcDbPolyline
 90
        3
 70
     0
 43
0.0
 10
-2.85759293380028
 20
0.999789277502597
 10
-2.863714707150293
 20
0.9424367126172767
 10
-2.863749998954779
 20
0.9377101459412014
  0
LWPOLYLINE
  5
161
330
135
100
AcDbEntity
  8
AM_9
100
AcDbPolyline
 90
        7
 70
     0
 43
0.0
 10
-2.695593112048628
 20
1.218539302894996
 10
-2.728973253926958
 20
1.196586210982685
 10
-2.77452052068554
 20
1.15680298257531
 10
-2.81201457957629
 20
1.109936470876936
 10
-2.839929049670411
 20
1.057604709320501
 10
-2.857236069317132
 20
1.00132708606545
 10
-2.85759293380028
 20
0.999789277502597
  0
LWPOLYLINE
  5
162
330
135
100
AcDbEntity
  8
AM_9
100
AcDbPolyline
 90
        3
 70
     0
 43
0.0
 10
-2.633177898579189
 20
1.248118409995484
 10
-2.676333299569005
 20
1.229079919867426
 10
-2.695593112048628
 20
1.218539302894996
  0
LWPOLYLINE
  5
163
330
135
100
AcDbEntity
  8
AM_9
100
AcDbPolyline
 90
        3
 70
     0
 43
0.0
 10
-2.251456614465439
 20
1.218275885628504
 10
-2.300930710546125
 20
1.242832315363773
 10
-2.310348123433654
 20
1.246604655475985
  0
LWPOLYLINE
  5
164
330
135
100
AcDbEntity
  8
AM_9
100
AcDbPolyline
 90
        7
 70
     0
 43
0.0
 10
-2.08898970042751
 20
0.9950423341982609
 10
-2.098422458740801
 20
1.032524687819024
 10
-2.121039163160799
 20
1.085869169727892
 10
-2.153562887776394
 20
1.134696839623254
 10
-2.194865149215258
 20
1.177659205194924
 10
-2.244644195950791
 20
1.214150144413549
 10
-2.251456614465439
 20
1.218275885628504
  0
LWPOLYLINE
  5
165
330
135
100
AcDbEntity
  8
AM_9
100
AcDbPolyline
 90
        3
 70
     0
 43
0.0
 10
-2.08375000122246
 20
0.9376562821718112
 10
-2.086048539812068
 20
0.9758324796990245
 10
-2.08898970042751
 20
0.9950423341982609
  0
LWPOLYLINE
  5
166
330
135
100
AcDbEntity
  8
AM_9
100
AcDbPolyline
 90
       11
 70
     0
 43
0.0
 10
-2.863749998954779
 20
0.9377101459412014
 10
-2.859139268952504
 20
0.8833839512245472
 10
-2.843966592378627
 20
0.8251045448647392
 10
-2.818549246504352
 20
0.7694149645073508
 10
-2.783739583710023
 20
0.7178511387713187
 10
-2.73977617195484
 20
0.6714889255327436
 10
-2.688363034908873
 20
0.6324003025284807
 10
-2.630347244381946
 20
0.6017838922536218
 10
-2.567798976117389
 20
0.5809116885051414
 10
-2.521134114728793
 20
0.5724725596951313
 10
-2.47375
 20
0.5696248912265391
  0
LWPOLYLINE
  5
167
330
135
100
AcDbEntity
  8
AM_9
100
AcDbPolyline
 90
        7
 70
     0
 43
0.0
 10
-2.21435225028222
 20
1.313293220518652
 10
-2.171609047162198
 20
1.274887321555766
 10
-2.134438633153686
 20
1.227599313243012
 10
-2.106869203831431
 20
1.174953630794842
 10
-2.08990030246921
 20
1.118455936776534
 10
-2.083763554850737
 20
1.059491668928759
 10
-2.083750000497208
 20
1.056563502428645
  0
LWPOLYLINE
  5
168
330
135
100
AcDbEntity
  8
AM_9
100
AcDbPolyline
 90
       11
 70
     0
 43
0.0
 10
-2.735080719166716
 20
1.311807988232493
 10
-2.701741683562923
 20
1.334779859685508
 10
-2.645344961787085
 20
1.363535585486801
 10
-2.583913043916934
 20
1.383680450545657
 10
-2.519301228580024
 20
1.394828808621985
 10
-2.454041145552835
 20
1.39662092234461
 10
-2.389341721873959
 20
1.389302180850104
 10
-2.327403846068314
 20
1.373039653997011
 10
-2.269539672848685
 20
1.348304608047805
 10
-2.216995363428506
 20
1.315248528208305
 10
-2.21435225028222
 20
1.313293220518652
  0
LWPOLYLINE
  5
169
330
135
100
AcDbEntity
  8
AM_9
100
AcDbPolyline
 90
        7
 70
     0
 43
0.0
 10
-2.86374999864546
 20
1.056516195197752
 10
-2.861384767135848
 20
1.095258922854475
 10
-2.848856300942309
 20
1.152200277626733
 10
-2.826021767002876
 20
1.205842707722542
 10
-2.793252688320051
 20
1.254944262780037
 10
-2.75167094929481
 20
1.298169913114366
 10
-2.735080719166716
 20
1.311807988232493
  0
LWPOLYLINE
  5
16A
330
135
100
AcDbEntity
  8
AM_9
100
AcDbPolyline
 90
       11
 70
     0
 43
0.0
 10
-2.083750000497208
 20
1.056563502428645
 10
-2.088694241783896
 20
1.000340362217186
 10
-2.104265152766537
 20
0.9420992131841788
 10
-2.130133544291509
 20
0.886552751656288
 10
-2.165431190989225
 20
0.8352604147007591
 10
-2.20978626726359
 20
0.7894076433717079
 10
-2.261548539295421
 20
0.750897839582048
 10
-2.31973528365234
 20
0.7209509785693236
 10
-2.382355976800184
 20
0.7007074193566396
 10
-2.427725350843436
 20
0.6928118967409483
 10
-2.47375
 20
0.6901503872304681
  0
LWPOLYLINE
  5
16B
330
135
100
AcDbEntity
  8
AM_9
100
AcDbPolyline
 90
       11
 70
     0
 43
0.0
 10
-2.47375
 20
0.5696248912265391
 10
-2.408849590930386
 20
0.5750029334933051
 10
-2.345792431241275
 20
0.5907735786123415
 10
-2.286426067840065
 20
0.6164972531152603
 10
-2.232278040285473
 20
0.6511487649321618
 10
-2.184460235677228
 20
0.6941470810885306
 10
-2.144738192161694
 20
0.743711564398167
 10
-2.114168509657787
 20
0.7987502959731851
 10
-2.093811397687813
 20
0.8571774283120135
 10
-2.084481833380841
 20
0.9165996057253762
 10
-2.08375000122246
 20
0.9376562821718112
  0
LWPOLYLINE
  5
16C
330
135
100
AcDbEntity
  8
AM_9
100
AcDbPolyline
 90
       11
 70
     0
 43
0.0
 10
2.817499999999999
 20
0.5696248912265391
 10
2.882400409069614
 20
0.5750029334933051
 10
2.945457568758725
 20
0.5907735786123415
 10
3.004823932159935
 20
0.6164972531152599
 10
3.058971959714526
 20
0.6511487649321616
 10
3.106789764322771
 20
0.6941470810885304
 10
3.146511807838305
 20
0.743711564398167
 10
3.177081490342212
 20
0.7987502959731851
 10
3.197438602312187
 20
0.8571774283120134
 10
3.206768166619159
 20
0.9165996057253762
 10
3.207499998777539
 20
0.9376562821718112
  0
LWPOLYLINE
  5
16D
330
135
100
AcDbEntity
  8
AM_9
100
AcDbPolyline
 90
       11
 70
     0
 43
0.0
 10
-2.47375
 20
2.184205018422035
 10
-2.409771215620637
 20
2.185141836895413
 10
-2.345792431241275
 20
2.187949885601278
 10
-2.287208779638512
 20
2.192156287629591
 10
-2.232278040285473
 20
2.197512291166622
 10
-2.185055311041578
 20
2.203201349385207
 10
-2.144738192161694
 20
2.208845927672872
 10
-2.114507283651582
 20
2.21355074298047
 10
-2.093811397687813
 20
2.217003586832222
 10
-2.084499256703123
 20
2.218618422274811
 10
-2.083750000001141
 20
2.218749999999799
  0
LWPOLYLINE
  5
16E
330
135
100
AcDbEntity
  8
AM_9
100
AcDbPolyline
 90
       11
 70
     0
 43
0.0
 10
2.817499999999999
 20
2.184205018422035
 10
2.881478784379362
 20
2.185141836895413
 10
2.945457568758725
 20
2.187949885601278
 10
3.004041220361488
 20
2.192156287629591
 10
3.058971959714527
 20
2.197512291166622
 10
3.10619468895842
 20
2.203201349385207
 10
3.146511807838305
 20
2.208845927672872
 10
3.176742716348418
 20
2.21355074298047
 10
3.197438602312187
 20
2.217003586832222
 10
3.206750743296876
 20
2.218618422274811
 10
3.207499999998859
 20
2.218749999999799
  0
LINE
  5
16F
330
135
100
AcDbEntity
  8
AM_9
100
AcDbLine
 10
3.4375
 20
2.21875
 30
0.0
 11
3.206187340416501
 21
2.21875
 31
0.0
  0
LINE
  5
170
330
135
100
AcDbEntity
  8
AM_9
100
AcDbLine
 10
2.4275
 20
2.21875
 30
0.0
 11
-2.085062659583499
 21
2.21875
 31
0.0
  0
LINE
  5
171
330
135
100
AcDbEntity
  8
AM_9
100
AcDbLine
 10
-2.86375
 20
2.21875
 30
0.0
 11
-3.09375
 21
2.21875
 31
0.0
  0
LINE
  5
172
330
135
100
AcDbEntity
  8
AM_9
100
AcDbLine
 10
-3.09375
 20
-2.21875
 30
0.0
 11
3.4375
 21
-2.21875
 31
0.0
  0
LINE
  5
173
330
135
100
AcDbEntity
  8
AM_9
100
AcDbLine
 10
-2.853480563459526
 20
2.216967943684637
 30
0.0
 11
-2.863749999999107
 21
2.218749999999843
 31
0.0
  0
LINE
  5
174
330
135
100
AcDbEntity
  8
AM_9
100
AcDbLine
 10
-2.450128936103388
 20
2.18433273957051
 30
0.0
 11
-2.484341283325896
 21
2.184230697014967
 31
0.0
  0
LWPOLYLINE
  5
175
330
135
100
AcDbEntity
  8
AM_9
100
AcDbPolyline
 90
       11
 70
     0
 43
0.0
 10
-2.863749999999107
 20
2.218749999999843
 10
-2.859319471820949
 20
2.217975513864002
 10
-2.843966592378627
 20
2.215358184983287
 10
-2.819002531087242
 20
2.211323330660206
 10
-2.783739583710023
 20
2.206092723461259
 10
-2.740476696317423
 20
2.200430569917716
 10
-2.688363034908873
 20
2.194723289449674
 10
-2.631249051851194
 20
2.189876141208453
 10
-2.567798976117389
 20
2.186228892958999
 10
-2.521496586162431
 20
2.184726824797592
 10
-2.47375
 20
2.184205018422035
  0
LINE
  5
176
330
135
100
AcDbEntity
  8
AM_9
100
AcDbLine
 10
2.448207763133041
 20
2.215203900030469
 30
0.0
 11
2.427500000000893
 21
2.218749999999843
 31
0.0
  0
LINE
  5
177
330
135
100
AcDbEntity
  8
AM_9
100
AcDbLine
 10
2.841121063896611
 20
2.18433273957051
 30
0.0
 11
2.806908716674104
 21
2.184230697014967
 31
0.0
  0
LWPOLYLINE
  5
178
330
135
100
AcDbEntity
  8
AM_9
100
AcDbPolyline
 90
       11
 70
     0
 43
0.0
 10
2.427500000000893
 20
2.218749999999843
 10
2.431930528179051
 20
2.217975513864002
 10
2.447283407621372
 20
2.215358184983287
 10
2.472247468912758
 20
2.211323330660206
 10
2.507510416289977
 20
2.206092723461259
 10
2.550773303682576
 20
2.200430569917716
 10
2.602886965091127
 20
2.194723289449674
 10
2.660000948148805
 20
2.189876141208453
 10
2.72345102388261
 20
2.186228892958999
 10
2.769753413837568
 20
2.184726824797592
 10
2.817499999999999
 20
2.184205018422035
  0
LWPOLYLINE
  5
179
330
135
100
AcDbEntity
  8
AM_9
100
AcDbPolyline
 90
       11
 70
     0
 43
0.0
 10
2.817499999999999
 20
0.6901503872304681
 10
2.752478493599073
 20
0.6955005503762477
 10
2.689300646048546
 20
0.7111980396825672
 10
2.629813379812904
 20
0.7368246315835304
 10
2.575567601969556
 20
0.7713765380466073
 10
2.5277864059837
 20
0.8141953688395414
 10
2.488125561383839
 20
0.8635832127418466
 10
2.45768289003607
 20
0.9183807028504881
 10
2.437443084940538
 20
0.9765938044794265
 10
2.428197947985888
 20
1.0359856055639
 10
2.42750000135454
 20
1.056516195197752
  0
LWPOLYLINE
  5
17A
330
135
100
AcDbEntity
  8
AM_9
100
AcDbPolyline
 90
       11
 70
     0
 43
0.0
 10
2.817499999999999
 20
2.469392637876772
 10
2.753400323024273
 20
2.470224436885926
 10
2.689300646048546
 20
2.472718155058026
 10
2.63060097196474
 20
2.476455379505257
 10
2.575567601969556
 20
2.481215686960076
 10
2.528382196511971
 20
2.486260063688781
 10
2.488125561383839
 20
2.491262234453392
 10
2.458018281192031
 20
2.495421228201189
 10
2.437443084940538
 20
2.498468182443898
 10
2.428214088888232
 20
2.499888701640559
 10
2.427500000000787
 20
2.499999999999877
  0
LINE
  5
17B
330
135
100
AcDbEntity
  8
AM_9
100
AcDbLine
 10
3.4375
 20
2.5
 30
0.0
 11
3.207245357677575
 21
2.5
 31
0.0
  0
LINE
  5
17C
330
135
100
AcDbEntity
  8
AM_9
100
AcDbLine
 10
1.875000000000001
 20
2.5
 30
0.0
 11
1.76
 21
2.5
 31
0.0
  0
LINE
  5
17D
330
135
100
AcDbEntity
  8
AM_9
100
AcDbLine
 10
2.428799991555012
 20
2.5
 30
0.0
 11
2.1975
 21
2.5
 31
0.0
  0
LINE
  5
17E
330
135
100
AcDbEntity
  8
AM_9
100
AcDbLine
 10
2.197499999999999
 20
-2.5
 30
0.0
 11
3.4375
 21
-2.5
 31
0.0
  0
LINE
  5
17F
330
135
100
AcDbEntity
  8
AM_9
100
AcDbLine
 10
1.76
 20
-2.5
 30
0.0
 11
1.875000000000001
 21
-2.5
 31
0.0
  0
LINE
  5
180
330
135
100
AcDbEntity
  8
AM_9
100
AcDbLine
 10
3.186423791873211
 20
2.496798903438182
 30
0.0
 11
3.207499999999734
 21
2.499999999999959
 31
0.0
  0
LINE
  5
181
330
135
100
AcDbEntity
  8
AM_9
100
AcDbLine
 10
2.794515266351916
 20
2.469499604774391
 30
0.0
 11
2.82920314880527
 21
2.469420369984009
 31
0.0
  0
LWPOLYLINE
  5
182
330
135
100
AcDbEntity
  8
AM_9
100
AcDbPolyline
 90
       11
 70
     0
 43
0.0
 10
3.207499999999734
 20
2.499999999999959
 10
3.202741175962491
 20
2.499262043815527
 10
3.186984847233462
 20
2.496881865914992
 10
3.161579014371311
 20
2.493248958313376
 10
3.125818809010775
 20
2.488565950098535
 10
3.082172274209646
 20
2.483536070351165
 10
3.029701460704578
 20
2.478493385088037
 10
2.972414461367865
 20
2.474247055235369
 10
2.908894023199816
 20
2.471083338836764
 10
2.863854695288432
 20
2.469827677749054
 10
2.817499999999999
 20
2.469392637876772
  0
LWPOLYLINE
  5
183
330
135
100
AcDbEntity
  8
AM_9
100
AcDbPolyline
 90
       11
 70
     0
 43
0.0
 10
-2.47375
 20
0.6901503872304681
 10
-2.538771506400927
 20
0.6955005503762477
 10
-2.601949353951454
 20
0.7111980396825672
 10
-2.661436620187096
 20
0.7368246315835304
 10
-2.715682398030444
 20
0.7713765380466076
 10
-2.763463594016299
 20
0.8141953688395415
 10
-2.803124438616161
 20
0.8635832127418467
 10
-2.83356710996393
 20
0.9183807028504883
 10
-2.853806915059462
 20
0.9765938044794265
 10
-2.863052052014112
 20
1.0359856055639
 10
-2.86374999864546
 20
1.056516195197752
  0
LWPOLYLINE
  5
184
330
135
100
AcDbEntity
  8
AM_9
100
AcDbPolyline
 90
       11
 70
     0
 43
0.0
 10
-2.47375
 20
2.469392637876772
 10
-2.537849676975727
 20
2.470224436885926
 10
-2.601949353951454
 20
2.472718155058026
 10
-2.66064902803526
 20
2.476455379505257
 10
-2.715682398030444
 20
2.481215686960076
 10
-2.762867803488029
 20
2.486260063688781
 10
-2.803124438616161
 20
2.491262234453393
 10
-2.833231718807968
 20
2.495421228201189
 10
-2.853806915059462
 20
2.498468182443898
 10
-2.863035911111768
 20
2.499888701640559
 10
-2.863749999999212
 20
2.499999999999877
  0
LINE
  5
185
330
135
100
AcDbEntity
  8
AM_9
100
AcDbLine
 10
-1.41625
 20
2.5
 30
0.0
 11
-2.084004642322425
 21
2.5
 31
0.0
  0
LINE
  5
186
330
135
100
AcDbEntity
  8
AM_9
100
AcDbLine
 10
-2.862450008444987
 20
2.5
 30
0.0
 11
-3.09375
 21
2.5
 31
0.0
  0
LINE
  5
187
330
135
100
AcDbEntity
  8
AM_9
100
AcDbLine
 10
-3.09375
 20
-2.5
 30
0.0
 11
-1.41625
 21
-2.5
 31
0.0
  0
LINE
  5
188
330
135
100
AcDbEntity
  8
AM_9
100
AcDbLine
 10
-2.094154972068218
 20
2.498397963742073
 30
0.0
 11
-2.083750000000264
 21
2.499999999999959
 31
0.0
  0
LINE
  5
189
330
135
100
AcDbEntity
  8
AM_9
100
AcDbLine
 10
-2.496734733648084
 20
2.469499604774391
 30
0.0
 11
-2.462046851194729
 21
2.469420369984009
 31
0.0
  0
LWPOLYLINE
  5
18A
330
135
100
AcDbEntity
  8
AM_9
100
AcDbPolyline
 90
       11
 70
     0
 43
0.0
 10
-2.083750000000264
 20
2.499999999999959
 10
-2.088508824037508
 20
2.499262043815527
 10
-2.104265152766537
 20
2.496881865914992
 10
-2.129670985628688
 20
2.493248958313376
 10
-2.165431190989225
 20
2.488565950098535
 10
-2.209077725790353
 20
2.483536070351165
 10
-2.261548539295421
 20
2.478493385088037
 10
-2.318835538632134
 20
2.47424705523537
 10
-2.382355976800184
 20
2.471083338836764
 10
-2.427395304711567
 20
2.469827677749054
 10
-2.47375
 20
2.469392637876772
  0
LINE
  5
18B
330
135
100
AcDbEntity
  8
AM_9
100
AcDbLine
 10
-1.41625
 20
-2.933975000000001
 30
0.0
 11
-1.41625
 21
2.933975000000001
 31
0.0
  0
ARC
  5
18C
330
135
100
AcDbEntity
  8
AM_9
100
AcDbCircle
 10
-1.200625
 20
2.933974999999999
 30
0.0
 40
0.2156250000000006
100
AcDbArc
 50
90.0
 51
180.0
  0
ARC
  5
18D
330
135
100
AcDbEntity
  8
AM_9
100
AcDbCircle
 10
-1.200625
 20
-2.933974999999999
 30
0.0
 40
0.2156250000000004
100
AcDbArc
 50
180.0
 51
270.0
  0
LINE
  5
18E
330
135
100
AcDbEntity
  8
AM_9
100
AcDbLine
 10
1.544375
 20
3.1496
 30
0.0
 11
1.25
 21
3.1496
 31
0.0
  0
LINE
  5
18F
330
135
100
AcDbEntity
  8
AM_9
100
AcDbLine
 10
1.25
 20
-3.1496
 30
0.0
 11
1.544375
 21
-3.1496
 31
0.0
  0
LINE
  5
190
330
135
100
AcDbEntity
  8
AM_9
100
AcDbLine
 10
-0.9062500000000002
 20
3.1496
 30
0.0
 11
-1.200625
 21
3.1496
 31
0.0
  0
LINE
  5
191
330
135
100
AcDbEntity
  8
AM_9
100
AcDbLine
 10
-1.200625
 20
-3.1496
 30
0.0
 11
-0.9062500000000002
 21
-3.1496
 31
0.0
  0
LINE
  5
192
330
135
100
AcDbEntity
  8
AM_9
100
AcDbLine
 10
-1.200625
 20
-3.1496
 30
0.0
 11
-1.200625
 21
3.1496
 31
0.0
  0
LINE
  5
193
330
135
100
AcDbEntity
  8
AM_9
100
AcDbLine
 10
1.544375
 20
-3.1496
 30
0.0
 11
1.544375
 21
3.1496
 31
0.0
  0
LINE
  5
194
330
135
100
AcDbEntity
  8
AM_9
100
AcDbLine
 10
1.76
 20
-2.933975
 30
0.0
 11
1.76
 21
2.933975
 31
0.0
  0
ARC
  5
195
330
135
100
AcDbEntity
  8
AM_9
100
AcDbCircle
 10
1.544375
 20
2.933974999999999
 30
0.0
 40
0.215625
100
AcDbArc
 50
0.0
 51
90.0
  0
ARC
  5
196
330
135
100
AcDbEntity
  8
AM_9
100
AcDbCircle
 10
1.544375
 20
-2.933974999999999
 30
0.0
 40
0.2156250000000002
100
AcDbArc
 50
270.0
 51
0.0
  0
LINE
  5
197
330
135
100
AcDbEntity
  8
AM_9
100
AcDbLine
 10
0.2796875000000053
 20
3.77952
 30
0.0
 11
0.0640624999999947
 21
3.77952
 31
0.0
  0
LINE
  5
198
330
135
100
AcDbEntity
  8
AM_9
100
AcDbLine
 10
0.0640624999999947
 20
-3.77952
 30
0.0
 11
0.2796875000000053
 21
-3.77952
 31
0.0
  0
LINE
  5
199
330
135
100
AcDbEntity
  8
AM_9
100
AcDbLine
 10
0.0640624999999947
 20
3.77952
 30
0.0
 11
-0.0268586203919874
 21
3.936999999999999
 31
0.0
  0
LINE
  5
19A
330
135
100
AcDbEntity
  8
AM_9
100
AcDbLine
 10
-0.0268586203919874
 20
-3.936999999999999
 30
0.0
 11
0.0640624999999947
 21
-3.77952
 31
0.0
  0
LINE
  5
19B
330
135
100
AcDbEntity
  8
AM_9
100
AcDbLine
 10
0.0640624999999947
 20
-3.77952
 30
0.0
 11
0.0640624999999947
 21
3.77952
 31
0.0
  0
LINE
  5
19C
330
135
100
AcDbEntity
  8
AM_9
100
AcDbLine
 10
1.25
 20
-3.721374999999999
 30
0.0
 11
1.25
 21
3.721374999999999
 31
0.0
  0
ARC
  5
19D
330
135
100
AcDbEntity
  8
AM_9
100
AcDbCircle
 10
1.034374999999999
 20
3.721374999999998
 30
0.0
 40
0.2156250000000008
100
AcDbArc
 50
0.0000008537736463
 51
90.0
  0
ARC
  5
19E
330
135
100
AcDbEntity
  8
AM_9
100
AcDbCircle
 10
1.034374999999999
 20
-3.721374999999998
 30
0.0
 40
0.2156250000000011
100
AcDbArc
 50
270.0
 51
0.0000008537736463
  0
LINE
  5
19F
330
135
100
AcDbEntity
  8
AM_9
100
AcDbLine
 10
-0.0268586203919874
 20
3.936999999999999
 30
0.0
 11
-0.6906249999999999
 21
3.936999999999999
 31
0.0
  0
LINE
  5
1A0
330
135
100
AcDbEntity
  8
AM_9
100
AcDbLine
 10
-0.6906249999999999
 20
-3.936999999999999
 30
0.0
 11
-0.0268586203919874
 21
-3.936999999999999
 31
0.0
  0
LINE
  5
1A1
330
135
100
AcDbEntity
  8
AM_9
100
AcDbLine
 10
-0.0268586203919874
 20
-3.936999999999999
 30
0.0
 11
-0.0268586203919874
 21
3.936999999999999
 31
0.0
  0
LINE
  5
1A2
330
135
100
AcDbEntity
  8
AM_9
100
AcDbLine
 10
0.2796875000000053
 20
-3.77952
 30
0.0
 11
0.3706086203919874
 21
-3.936999999999999
 31
0.0
  0
LINE
  5
1A3
330
135
100
AcDbEntity
  8
AM_9
100
AcDbLine
 10
0.3706086203919874
 20
3.936999999999999
 30
0.0
 11
0.2796875000000053
 21
3.77952
 31
0.0
  0
LINE
  5
1A4
330
135
100
AcDbEntity
  8
AM_9
100
AcDbLine
 10
0.2796875000000053
 20
-3.77952
 30
0.0
 11
0.2796875000000053
 21
3.77952
 31
0.0
  0
LINE
  5
1A5
330
135
100
AcDbEntity
  8
AM_9
100
AcDbLine
 10
-0.9062500000000002
 20
-3.721374999999999
 30
0.0
 11
-0.9062500000000002
 21
3.721374999999999
 31
0.0
  0
ARC
  5
1A6
330
135
100
AcDbEntity
  8
AM_9
100
AcDbCircle
 10
-0.6906249999999989
 20
3.721374999999998
 30
0.0
 40
0.2156250000000011
100
AcDbArc
 50
90.0
 51
180.0
  0
ARC
  5
1A7
330
135
100
AcDbEntity
  8
AM_9
100
AcDbCircle
 10
-0.6906249999999993
 20
-3.721374999999998
 30
0.0
 40
0.215625000000001
100
AcDbArc
 50
180.0
 51
270.0
  0
LINE
  5
1A8
330
135
100
AcDbEntity
  8
AM_9
100
AcDbLine
 10
-0.6906249999999999
 20
-3.936999999999999
 30
0.0
 11
-0.6906249999999999
 21
3.936999999999999
 31
0.0
  0
LINE
  5
1A9
330
135
100
AcDbEntity
  8
AM_9
100
AcDbLine
 10
1.034375
 20
3.936999999999999
 30
0.0
 11
0.3706086203919874
 21
3.936999999999999
 31
0.0
  0
LINE
  5
1AA
330
135
100
AcDbEntity
  8
AM_9
100
AcDbLine
 10
0.3706086203919874
 20
-3.936999999999999
 30
0.0
 11
1.034375
 21
-3.936999999999999
 31
0.0
  0
LINE
  5
1AB
330
135
100
AcDbEntity
  8
AM_9
100
AcDbLine
 10
1.034375
 20
-3.936999999999999
 30
0.0
 11
1.034375
 21
3.936999999999999
 31
0.0
  0
LINE
  5
1AC
330
135
100
AcDbEntity
  8
AM_9
100
AcDbLine
 10
0.3706086203919874
 20
-3.936999999999999
 30
0.0
 11
0.3706086203919874
 21
3.936999999999999
 31
0.0
  0
LINE
  5
1AF
330
135
100
AcDbEntity
  8
AM_7
100
AcDbLine
 10
3.7640625
 20
0.0
 30
0.0
 11
-3.420312500000001
 21
0.0
 31
0.0
  0
LINE
  5
1B0
330
135
100
AcDbEntity
  8
AM_7
100
AcDbLine
 10
-2.47375
 20
-0.1282051282051282
 30
0.0
 11
-2.47375
 21
3.264976583333333
 31
0.0
  0
LINE
  5
1B1
330
135
100
AcDbEntity
  8
AM_7
100
AcDbLine
 10
2.817499999999999
 20
-0.1282051282051282
 30
0.0
 11
2.817499999999999
 21
3.264976583333333
 31
0.0
  0
LWPOLYLINE
  5
1B2
330
135
100
AcDbEntity
  8
AM_4
100
AcDbPolyline
 90
        7
 70
     0
 43
0.0
 10
2.978091683744157
 20
1.247679823018358
 10
2.928915010975738
 20
1.262981166492685
 10
2.864273751407041
 20
1.274205330377467
 10
2.799122729616475
 20
1.276154342855895
 10
2.734495983194444
 20
1.269113160695397
 10
2.67269751132022
 20
1.253273206823883
 10
2.649685910746447
 20
1.244870051275669
  0
LWPOLYLINE
  5
1B3
330
135
100
AcDbEntity
  8
AM_4
100
AcDbPolyline
 90
        7
 70
     0
 43
0.0
 10
-2.310348123433654
 20
1.246604655475985
 10
-2.362334989024261
 20
1.262981166492685
 10
-2.426976248592958
 20
1.274205330377467
 10
-2.492127270383524
 20
1.276154342855895
 10
-2.556754016805556
 20
1.269113160695397
 10
-2.61855248867978
 20
1.253273206823883
 10
-2.633177898579189
 20
1.248118409995484
  0
LINE
  5
1B4
330
135
100
AcDbEntity
  8
AM_4
100
AcDbLine
 10
2.1975
 20
2.5
 30
0.0
 11
1.875000000000001
 21
2.5
 31
0.0
  0
LINE
  5
1B5
330
135
100
AcDbEntity
  8
AM_4
100
AcDbLine
 10
1.875000000000001
 20
-2.5
 30
0.0
 11
2.197499999999999
 21
-2.5
 31
0.0
  0
ENDBLK
  5
138
330
135
100
AcDbEntity
  8
0
100
AcDbBlockEnd
  0
BLOCK
  5
1B8
330
1B6
100
AcDbEntity
  8
0
100
AcDbBlockBegin
  2
5_405016_Inch_0_in_070799_2
 70
     2
 10
0.0
 20
0.0
 30
0.0
  3
5_405016_Inch_0_in_070799_2
  1

  0
ATTDEF
  5
1BA
330
1B6
100
AcDbEntity
  8
AM_6
100
AcDbText
 10
5.21875
 20
-2.10442569835516
 30
0.0
 40
0.5
  1
405016 -Inch
100
AcDbAttributeDefinition
  3

  2
NN
 70
     8
280
     0
  0
ATTDEF
  5
1BB
330
1B6
100
AcDbEntity
  8
AM_6
100
AcDbText
 10
5.21875
 20
-2.60442569835516
 30
0.0
 40
0.5
  1
Grease Fitting
100
AcDbAttributeDefinition
  3

  2
NT
 70
     8
280
     0
  0
ATTDEF
  5
1BC
330
1B6
100
AcDbEntity
  8
AM_6
100
AcDbText
 10
5.21875
 20
-3.10442569835516
 30
0.0
 40
0.5
  1
405016-Inch
100
AcDbAttributeDefinition
  3

  2
NB
 70
     8
280
     0
  0
ATTDEF
  5
1BD
330
1B6
100
AcDbEntity
  8
AM_6
100
AcDbText
 10
5.21875
 20
-3.60442569835516
 30
0.0
 40
0.5
  1
$MN.-Inch
100
AcDbAttributeDefinition
  3

  2
NBSYN
 70
     8
280
     0
  0
ATTDEF
  5
1BE
330
1B6
100
AcDbEntity
  8
AM_6
100
AcDbText
 10
5.21875
 20
-4.104425698355159
 30
0.0
 40
0.5
  1
405016
100
AcDbAttributeDefinition
  3

  2
LINA
 70
     8
280
     0
  0
ATTDEF
  5
1BF
330
1B6
100
AcDbEntity
  8
AM_6
100
AcDbText
 10
5.21875
 20
-4.604425698355159
 30
0.0
 40
0.5
  1
405016
100
AcDbAttributeDefinition
  3

  2
MN
 70
     8
280
     0
  0
ATTDEF
  5
1C0
330
1B6
100
AcDbEntity
  8
AM_6
100
AcDbText
 10
5.21875
 20
-5.104425698355159
 30
0.0
 40
0.5
  1
7/16 HEX
100
AcDbAttributeDefinition
  3

  2
H
 70
     8
280
     0
  0
ATTDEF
  5
1C1
330
1B6
100
AcDbEntity
  8
AM_6
100
AcDbText
 10
5.21875
 20
-5.604425698355159
 30
0.0
 40
0.5
  1
0.383
100
AcDbAttributeDefinition
  3

  2
NDR
 70
     8
280
     0
  0
ATTDEF
  5
1C2
330
1B6
100
AcDbEntity
  8
AM_6
100
AcDbText
 10
5.21875
 20
-6.104425698355159
 30
0.0
 40
0.5
  1
0.337
100
AcDbAttributeDefinition
  3

  2
KDR
 70
     8
280
     0
  0
ATTDEF
  5
1C3
330
1B6
100
AcDbEntity
  8
AM_6
100
AcDbText
 10
5.21875
 20
-6.604425698355159
 30
0.0
 40
0.5
  1
0.1575
100
AcDbAttributeDefinition
  3

  2
BZE
 70
     8
280
     0
  0
ATTDEF
  5
1C4
330
1B6
100
AcDbEntity
  8
AM_6
100
AcDbText
 10
5.21875
 20
-7.104425698355159
 30
0.0
 40
0.5
  1
0.4375
100
AcDbAttributeDefinition
  3

  2
HEX
 70
     8
280
     0
  0
ATTDEF
  5
1C5
330
1B6
100
AcDbEntity
  8
AM_6
100
AcDbText
 10
5.21875
 20
-7.604425698355159
 30
0.0
 40
0.5
  1
0.281250
100
AcDbAttributeDefinition
  3

  2
HEX2
 70
     8
280
     0
  0
ATTDEF
  5
1C6
330
1B6
100
AcDbEntity
  8
AM_6
100
AcDbText
 10
5.21875
 20
-8.10442569835516
 30
0.0
 40
0.5
  1
baldor
100
AcDbAttributeDefinition
  3

  2
COMPANY
 70
     8
280
     0
  0
LWPOLYLINE
  5
1C7
330
1B6
100
AcDbEntity
  8
AM_9
100
AcDbPolyline
 90
        5
 70
     0
 43
0.0
 10
-0.1791093260592889
 20
-2.709238809059825
 10
-0.1842540823997056
 20
-2.676170119967152
 10
-0.1862220679364953
 20
-2.641812409178914
 10
-0.1844124966919383
 20
-2.605626446285355
 10
-0.1791093260592889
 20
-2.568613809059825
  0
LINE
  5
1C8
330
1B6
100
AcDbEntity
  8
AM_9
100
AcDbLine
 10
-0.1510741298357572
 20
-2.56207729571137
 30
0.0
 11
-0.1791093260592889
 21
-2.568613809059825
 31
0.0
  0
LWPOLYLINE
  5
1C9
330
1B6
100
AcDbEntity
  8
AM_9
100
AcDbPolyline
 90
        5
 70
     0
 43
0.0
 10
-0.1791093260592889
 20
-2.568613809059825
 10
-0.1988355121406941
 20
-2.537188517736611
 10
-0.2156330920108727
 20
-2.504497724328327
 10
-0.2290462109660023
 20
-2.470006153690793
 10
-0.2389369657326278
 20
-2.434669092407283
  0
LINE
  5
1CA
330
1B6
100
AcDbEntity
  8
AM_9
100
AcDbLine
 10
-0.2099962668917055
 20
-2.427921457656343
 30
0.0
 11
-0.2389369657326278
 21
-2.434669092407283
 31
0.0
  0
LINE
  5
1CB
330
1B6
100
AcDbEntity
  8
AM_9
100
AcDbLine
 10
-0.2389369657326278
 20
-2.434669092407283
 30
0.0
 11
-0.2711532636537958
 21
-2.439118123437405
 31
0.0
  0
LWPOLYLINE
  5
1CC
330
1B6
100
AcDbEntity
  8
AM_9
100
AcDbPolyline
 90
        3
 70
     0
 43
0.0
 10
-0.2813919000363602
 20
-2.440253048956783
 10
-0.2911775952746245
 20
-2.44105559349426
 10
-0.298767568988972
 20
-2.441350066725466
  0
LWPOLYLINE
  5
1CD
330
1B6
100
AcDbEntity
  8
AM_9
100
AcDbPolyline
 90
        5
 70
     0
 43
0.0
 10
-0.2389369657326278
 20
-2.715919092407283
 10
-0.2295338871417798
 20
-2.71549806213629
 10
-0.2166871171046322
 20
-2.714302555641742
 10
-0.199640205705468
 20
-2.712176787031713
 10
-0.1791093260592889
 20
-2.709238809059825
  0
LINE
  5
1CE
330
1B6
100
AcDbEntity
  8
AM_9
100
AcDbLine
 10
-0.1510741298357572
 20
-2.70270229571137
 30
0.0
 11
-0.1791093260592889
 21
-2.709238809059825
 31
0.0
  0
LINE
  5
1CF
330
1B6
100
AcDbEntity
  8
AM_9
100
AcDbLine
 10
-0.4524158089341451
 20
-2.728754016496841
 30
0.0
 11
-0.377466453400095
 21
-2.747280662014441
 31
0.0
  0
LINE
  5
1D0
330
1B6
100
AcDbEntity
  8
AM_9
100
AcDbLine
 10
-0.4395859245204077
 20
-2.480849390582632
 30
0.0
 11
-0.4986131040655765
 21
-2.530613178260487
 31
0.0
  0
LWPOLYLINE
  5
1D1
330
1B6
100
AcDbEntity
  8
AM_9
100
AcDbPolyline
 90
        3
 70
     0
 43
0.0
 10
-0.2689146070947224
 20
-2.434389734350517
 10
-0.2512755937295762
 20
-2.431738843014547
 10
-0.2360765106845276
 20
-2.429687592413266
  0
LWPOLYLINE
  5
1D2
330
1B6
100
AcDbEntity
  8
AM_9
100
AcDbPolyline
 90
        7
 70
     0
 43
0.0
 10
-0.3749209689461012
 20
-2.488358889198191
 10
-0.3822812072668881
 20
-2.482018689084509
 10
-0.3950829719887448
 20
-2.474529138230505
 10
-0.4080225369096908
 20
-2.471109437409245
 10
-0.4211137902241272
 20
-2.47172413520983
 10
-0.4340344338207473
 20
-2.476852823345117
 10
-0.4409343101656737
 20
-2.482031570406384
  0
LWPOLYLINE
  5
1D3
330
1B6
100
AcDbEntity
  8
AM_9
100
AcDbPolyline
 90
        7
 70
     0
 43
0.0
 10
-0.3779649591120768
 20
-2.747154480214561
 10
-0.3692432360722075
 20
-2.74851363614532
 10
-0.3562053572691622
 20
-2.74712079805226
 10
-0.3437795958175444
 20
-2.741350819670174
 10
-0.334172853159406
 20
-2.732581467274848
 10
-0.3266872454688775
 20
-2.721085141577439
 10
-0.3228108575421461
 20
-2.712002890527085
  0
LWPOLYLINE
  5
1D4
330
1B6
100
AcDbEntity
  8
AM_9
100
AcDbPolyline
 90
        3
 70
     0
 43
0.0
 10
-0.0000000000000003
 20
-2.228278700151692
 10
0.0544416102741493
 20
-2.258826042662264
 10
0.1093749999999997
 20
-2.287499999999999
  0
LWPOLYLINE
  5
1D5
330
1B6
100
AcDbEntity
  8
AM_9
100
AcDbPolyline
 90
        3
 70
     0
 43
0.0
 10
-0.1093750000000002
 20
-2.287499999999999
 10
-0.0546875000000002
 20
-2.258959559607482
 10
-0.0000000000000003
 20
-2.228278700151692
  0
LWPOLYLINE
  5
1D6
330
1B6
100
AcDbEntity
  8
AM_9
100
AcDbPolyline
 90
        6
 70
     0
 43
0.0
 10
-0.1510741298357572
 20
-2.70270229571137
 10
-0.1564222384464445
 20
-2.702646258798399
 10
-0.1639940363880807
 20
-2.703085121917566
 10
-0.1744063212866124
 20
-2.704146289109957
 10
-0.187675956281386
 20
-2.705863121169831
 10
-0.2099962668917055
 20
-2.709171457656343
  0
LINE
  5
1D7
330
1B6
100
AcDbEntity
  8
AM_9
100
AcDbLine
 10
-0.1420065844375434
 20
-2.625351970442589
 30
0.0
 11
-0.1419585098156052
 21
-2.630269408754153
 31
0.0
  0
LINE
  5
1D8
330
1B6
100
AcDbEntity
  8
AM_9
100
AcDbLine
 10
-0.1510741298357573
 20
-2.56207729571137
 30
0.0
 11
-0.1462498176065059
 21
-2.583931569457088
 31
0.0
  0
LWPOLYLINE
  5
1D9
330
1B6
100
AcDbEntity
  8
AM_9
100
AcDbPolyline
 90
        4
 70
     0
 43
0.0
 10
-0.2099962668917056
 20
-2.427921457656343
 10
-0.1943573015029061
 20
-2.450492854288233
 10
-0.1805491420332305
 20
-2.473956884363537
 10
-0.1765789831125446
 20
-2.48170585554236
  0
LWPOLYLINE
  5
1DA
330
1B6
100
AcDbEntity
  8
AM_9
100
AcDbPolyline
 90
        4
 70
     0
 43
0.0
 10
-0.2258378743019629
 20
-2.428552666893888
 10
-0.2189176876709016
 20
-2.428010369847583
 10
-0.2138633349839129
 20
-2.427830911862199
 10
-0.2099962668917055
 20
-2.427921457656343
  0
LWPOLYLINE
  5
1DB
330
1B6
100
AcDbEntity
  8
AM_9
100
AcDbPolyline
 90
        4
 70
     0
 43
0.0
 10
-0.1419585098156052
 20
-2.630269408754153
 10
-0.1420496512545708
 20
-2.637066312422038
 10
-0.1441228263802217
 20
-2.664095324422913
 10
-0.1510741298357572
 20
-2.70270229571137
  0
LINE
  5
1DC
330
1B6
100
AcDbEntity
  8
AM_9
100
AcDbLine
 10
-0.1545932734659111
 20
-2.544463510162679
 30
0.0
 11
-0.1510741298357572
 21
-2.56207729571137
 31
0.0
  0
LWPOLYLINE
  5
1DD
330
1B6
100
AcDbEntity
  8
AM_9
100
AcDbPolyline
 90
        4
 70
     0
 43
0.0
 10
-0.1638881260398529
 20
-2.51189004225721
 10
-0.1598729403210873
 20
-2.524268689712644
 10
-0.1549033058439658
 20
-2.543107171961478
 10
-0.1545932734659111
 20
-2.544463510162679
  0
LWPOLYLINE
  5
1DE
330
1B6
100
AcDbEntity
  8
AM_9
100
AcDbPolyline
 90
        3
 70
     0
 43
0.0
 10
-0.1765789831125446
 20
-2.48170585554236
 10
-0.1688997677199811
 20
-2.498710167846304
 10
-0.1638881260398529
 20
-2.51189004225721
  0
ELLIPSE
  5
1DF
330
1B6
100
AcDbEntity
  8
AM_9
100
AcDbEllipse
 10
-0.2013892028241525
 20
-2.565770244837313
 30
0.0
 11
-0.03193085011438829
 21
0.1369518580960531
 31
0.0
210
0.0
220
0.0
230
1.0
 40
0.3659981507704843
 41
2.150416404657532
 42
6.139946939637308
  0
LWPOLYLINE
  5
1E0
330
1B6
100
AcDbEntity
  8
AM_9
100
AcDbPolyline
 90
        3
 70
     0
 43
0.0
 10
-0.305149406774824
 20
-2.536545680941704
 10
-0.3030753670497811
 20
-2.556422855181632
 10
-0.298767568988972
 20
-2.581975066725466
  0
LINE
  5
1E1
330
1B6
100
AcDbEntity
  8
AM_9
100
AcDbLine
 10
-0.3055458577949632
 20
-2.530352494962033
 30
0.0
 11
-0.305149406774824
 21
-2.536545680941704
 31
0.0
  0
LWPOLYLINE
  5
1E2
330
1B6
100
AcDbEntity
  8
AM_9
100
AcDbPolyline
 90
        4
 70
     0
 43
0.0
 10
-0.260230468443121
 20
-2.485567949924796
 10
-0.2616913382589205
 20
-2.4709112730526
 10
-0.2647402074337709
 20
-2.452454770112759
 10
-0.2689146070947224
 20
-2.434389734350517
  0
LINE
  5
1E3
330
1B6
100
AcDbEntity
  8
AM_9
100
AcDbLine
 10
-0.2689146070947224
 20
-2.434389734350517
 30
0.0
 11
-0.298767568988972
 21
-2.441350066725466
 31
0.0
  0
LWPOLYLINE
  5
1E4
330
1B6
100
AcDbEntity
  8
AM_9
100
AcDbPolyline
 90
        3
 70
     0
 43
0.0
 10
-0.298767568988972
 20
-2.441350066725466
 10
-0.3030606061861225
 20
-2.468794122408012
 10
-0.3055458577949632
 20
-2.496133406468319
  0
LINE
  5
1E5
330
1B6
100
AcDbEntity
  8
AM_9
100
AcDbLine
 10
-0.2711532636537958
 20
-2.439118123437405
 30
0.0
 11
-0.2813919000363602
 21
-2.440253048956783
 31
0.0
  0
ELLIPSE
  5
1E6
330
1B6
100
AcDbEntity
  8
AM_9
100
AcDbEllipse
 10
-0.2467045921760209
 20
-2.576335701380858
 30
0.0
 11
-0.03193085011438246
 21
0.1369518580960944
 31
0.0
210
0.0
220
0.0
230
1.0
 40
0.3659981507706657
 41
2.150416404658199
 42
6.139946939636901
  0
ELLIPSE
  5
1E7
330
1B6
100
AcDbEntity
  8
AM_9
100
AcDbEllipse
 10
-0.2467045921754709
 20
-2.576335701380861
 30
0.0
 11
-0.03193085011464102
 21
0.1369518580963769
 31
0.0
210
0.0
220
0.0
230
1.0
 40
0.3659981507734372
 41
1.144545279139326
 42
1.951156734847487
  0
LWPOLYLINE
  5
1E8
330
1B6
100
AcDbEntity
  8
AM_9
100
AcDbPolyline
 90
        3
 70
     0
 43
0.0
 10
-0.3055458577949632
 20
-2.496133406468319
 10
-0.3064767622622304
 20
-2.513369806845231
 10
-0.3055458577949632
 20
-2.530352494962033
  0
ELLIPSE
  5
1E9
330
1B6
100
AcDbEntity
  8
AM_9
100
AcDbEllipse
 10
-0.2467045921760206
 20
-2.576335701380859
 30
0.0
 11
-0.03193085011438247
 21
0.1369518580960962
 31
0.0
210
0.0
220
0.0
230
1.0
 40
0.3659981507706646
 41
0.0560213022650178
 42
0.862632757975773
  0
LWPOLYLINE
  5
1EA
330
1B6
100
AcDbEntity
  8
AM_9
100
AcDbPolyline
 90
       10
 70
     0
 43
0.0
 10
-0.3249674170613147
 20
-2.717441289032191
 10
-0.324898818259403
 20
-2.717297491104254
 10
-0.3230281897640883
 20
-2.714176171167632
 10
-0.3180047264366436
 20
-2.708189152323239
 10
-0.3077602462910708
 20
-2.700115655092414
 10
-0.2927565430445505
 20
-2.693416743293474
 10
-0.2758368085238265
 20
-2.690793692818699
 10
-0.2612849776961258
 20
-2.692304446880502
 10
-0.2515983067815076
 20
-2.695598889416887
 10
-0.2467708442719769
 20
-2.698296563117821
  0
LWPOLYLINE
  5
1EB
330
1B6
100
AcDbEntity
  8
AM_9
100
AcDbPolyline
 90
        3
 70
     0
 43
0.0
 10
-0.2457249882508971
 20
-2.699071960916105
 10
-0.2457915132546606
 20
-2.69901284114427
 10
-0.2468555706930159
 20
-2.697954324286838
  0
LWPOLYLINE
  5
1EC
330
1B6
100
AcDbEntity
  8
AM_9
100
AcDbPolyline
 90
        3
 70
     0
 43
0.0
 10
-0.3006162425565662
 20
-2.467287486298456
 10
-0.3004091238092665
 20
-2.466645951979374
 10
-0.3001080482840257
 20
-2.465822263717043
  0
LWPOLYLINE
  5
1ED
330
1B6
100
AcDbEntity
  8
AM_9
100
AcDbPolyline
 90
       10
 70
     0
 43
0.0
 10
-0.3002186093759339
 20
-2.466060456859576
 10
-0.3020437061740975
 20
-2.469122595269615
 10
-0.3069999144465126
 20
-2.475067554033216
 10
-0.3171602855984914
 20
-2.483137163357037
 10
-0.3321007343256913
 20
-2.489884210149416
 10
-0.3490247837352449
 20
-2.492583436595088
 10
-0.3636442890030338
 20
-2.49112430812527
 10
-0.3734148643169416
 20
-2.487837353398966
 10
-0.3783136166449376
 20
-2.485116533264615
 10
-0.3793209474254372
 20
-2.48437922806931
  0
LINE
  5
1EE
330
1B6
100
AcDbEntity
  8
AM_9
100
AcDbLine
 10
-0.1771207715546621
 20
-2.447161692407327
 30
0.0
 11
-0.2263662233581054
 21
-2.458643458059951
 31
0.0
  0
LINE
  5
1EF
330
1B6
100
AcDbEntity
  8
AM_9
100
AcDbLine
 10
-0.1764121822902711
 20
-2.67289703161473
 30
0.0
 11
-0.1343592486638228
 21
-2.663092229115782
 31
0.0
  0
LINE
  5
1F0
330
1B6
100
AcDbEntity
  8
AM_9
100
AcDbLine
 10
-0.1720946995177436
 20
-2.447157651241382
 30
0.0
 11
-0.1731116383367608
 21
-2.446980939756072
 31
0.0
  0
LWPOLYLINE
  5
1F1
330
1B6
100
AcDbEntity
  8
AM_9
100
AcDbPolyline
 90
       15
 70
     0
 43
0.0
 10
-0.1343659249938089
 20
-2.66309378540361
 10
-0.1293028157827819
 20
-2.660490967168627
 10
-0.1247141396218194
 20
-2.654917196040507
 10
-0.1208880884981783
 20
-2.646297239076489
 10
-0.1181545989145991
 20
-2.635380991490921
 10
-0.116427887539613
 20
-2.621836212655023
 10
-0.1158549073091556
 20
-2.606830271317741
 10
-0.116415622703817
 20
-2.589908286749774
 10
-0.1180609686233503
 20
-2.572504703027538
 10
-0.1208367673933814
 20
-2.554107393511456
 10
-0.1245107513506025
 20
-2.536247455120002
 10
-0.1291842652280564
 20
-2.518422481606624
 10
-0.1344729790611521
 20
-2.5020960564441
 10
-0.1405186270901961
 20
-2.48682887276463
 10
-0.1441823983295032
 20
-2.478969743542697
  0
LINE
  5
1F2
330
1B6
100
AcDbEntity
  8
AM_9
100
AcDbLine
 10
-0.1771125901748266
 20
-2.447159785344161
 30
0.0
 11
-0.1790373738502116
 21
-2.447804054033761
 31
0.0
  0
LWPOLYLINE
  5
1F3
330
1B6
100
AcDbEntity
  8
AM_9
100
AcDbPolyline
 90
        3
 70
     0
 43
0.0
 10
-0.2689146070947224
 20
-2.575014734350517
 10
-0.263430848399753
 20
-2.547390958955647
 10
-0.2602304684431307
 20
-2.519787038418516
  0
LWPOLYLINE
  5
1F4
330
1B6
100
AcDbEntity
  8
AM_9
100
AcDbPolyline
 90
        5
 70
     0
 43
0.0
 10
-0.1790373738501781
 20
-2.602195945966245
 10
-0.1733931390117469
 20
-2.617709976006311
 10
-0.1670729780242513
 20
-2.631857975630669
 10
-0.1606047421316797
 20
-2.643455943415793
 10
-0.1545677748716978
 20
-2.651920442434235
  0
ARC
  5
1F5
330
1B6
100
AcDbEntity
  8
AM_9
100
AcDbCircle
 10
-0.0000000000000002
 20
-2.524999999999999
 30
0.0
 40
0.1999999999999998
100
AcDbArc
 50
219.3584480503035
 51
0.0
  0
LWPOLYLINE
  5
1F6
330
1B6
100
AcDbEntity
  8
AM_9
100
AcDbPolyline
 90
        6
 70
     0
 43
0.0
 10
-0.1545677748716978
 20
-2.651920442434235
 10
-0.1538031670974779
 20
-2.65283480254026
 10
-0.1472336073736395
 20
-2.659212011960483
 10
-0.1407130262602578
 20
-2.66276170963818
 10
-0.1347930597680669
 20
-2.663184256104103
 10
-0.1343659249938089
 20
-2.66309378540361
  0
LINE
  5
1F7
330
1B6
100
AcDbEntity
  8
AM_9
100
AcDbLine
 10
-0.2360765106845276
 20
-2.429687592413266
 30
0.0
 11
-0.2258378743019629
 21
-2.428552666893888
 31
0.0
  0
ELLIPSE
  5
1F8
330
1B6
100
AcDbEntity
  8
AM_9
100
AcDbEllipse
 10
-0.2013892028241877
 20
-2.56577024483734
 30
0.0
 11
-0.03193085011438396
 21
0.1369518580960936
 31
0.0
210
0.0
220
0.0
230
1.0
 40
0.3659981507705724
 41
0.0560213022650045
 42
0.8626327579757384
  0
LINE
  5
1F9
330
1B6
100
AcDbEntity
  8
AM_9
100
AcDbLine
 10
-0.2602304684431307
 20
-2.519787038418516
 30
0.0
 11
-0.260230468443121
 21
-2.485567949924796
 31
0.0
  0
ELLIPSE
  5
1FA
330
1B6
100
AcDbEntity
  8
AM_9
100
AcDbEllipse
 10
-0.2013892028241873
 20
-2.565770244837341
 30
0.0
 11
-0.03193085011438321
 21
0.1369518580960949
 31
0.0
210
0.0
220
0.0
230
1.0
 40
0.3659981507706703
 41
1.144545279139734
 42
1.951156734850486
  0
LWPOLYLINE
  5
1FB
330
1B6
100
AcDbEntity
  8
AM_9
100
AcDbPolyline
 90
        3
 70
     0
 43
0.0
 10
-0.2099962668917055
 20
-2.709171457656343
 10
-0.2163479371246915
 20
-2.679839189975666
 10
-0.2258378743019631
 20
-2.65055747759944
  0
LINE
  5
1FC
330
1B6
100
AcDbEntity
  8
AM_9
100
AcDbLine
 10
-0.2258378743019631
 20
-2.65055747759944
 30
0.0
 11
-0.2360765106845279
 21
-2.627465725501071
 31
0.0
  0
LWPOLYLINE
  5
1FD
330
1B6
100
AcDbEntity
  8
AM_9
100
AcDbPolyline
 90
        4
 70
     0
 43
0.0
 10
-0.2360765106845279
 20
-2.627465725501071
 10
-0.2462091938631853
 20
-2.608921611213501
 10
-0.2570505402207576
 20
-2.591784690571682
 10
-0.2689146070947224
 20
-2.575014734350517
  0
LINE
  5
1FE
330
1B6
100
AcDbEntity
  8
AM_9
100
AcDbLine
 10
-0.2689146070947224
 20
-2.575014734350517
 30
0.0
 11
-0.298767568988972
 21
-2.581975066725466
 31
0.0
  0
LWPOLYLINE
  5
1FF
330
1B6
100
AcDbEntity
  8
AM_9
100
AcDbPolyline
 90
        3
 70
     0
 43
0.0
 10
-0.298767568988972
 20
-2.581975066725466
 10
-0.2912216284034027
 20
-2.610076183495197
 10
-0.2813919000363601
 20
-2.638031182044589
  0
LINE
  5
200
330
1B6
100
AcDbEntity
  8
AM_9
100
AcDbLine
 10
-0.2813919000363601
 20
-2.638031182044589
 30
0.0
 11
-0.2711532636537958
 21
-2.661122934142957
 31
0.0
  0
LWPOLYLINE
  5
201
330
1B6
100
AcDbEntity
  8
AM_9
100
AcDbPolyline
 90
        3
 70
     0
 43
0.0
 10
-0.2711532636537958
 20
-2.661122934142957
 10
-0.2561815527589923
 20
-2.688827936735334
 10
-0.2389369657326278
 20
-2.715919092407283
  0
LINE
  5
202
330
1B6
100
AcDbEntity
  8
AM_9
100
AcDbLine
 10
-0.2099962668917055
 20
-2.709171457656343
 30
0.0
 11
-0.2389369657326278
 21
-2.715919092407283
 31
0.0
  0
LWPOLYLINE
  5
203
330
1B6
100
AcDbEntity
  8
AM_9
100
AcDbPolyline
 90
        3
 70
     0
 43
0.0
 10
0.1093749999999997
 20
-2.237499999999999
 10
0.0546874999999997
 20
-2.211352940392517
 10
-0.0000000000000003
 20
-2.187346299848307
  0
LWPOLYLINE
  5
204
330
1B6
100
AcDbEntity
  8
AM_9
100
AcDbPolyline
 90
        3
 70
     0
 43
0.0
 10
-0.0000000000000003
 20
-2.187346299848307
 10
-0.0544416102741498
 20
-2.211240567611884
 10
-0.1093750000000002
 20
-2.237499999999999
  0
LWPOLYLINE
  5
205
330
1B6
100
AcDbEntity
  8
AM_9
100
AcDbPolyline
 90
        3
 70
     0
 43
0.0
 10
0.1093749999999997
 20
-2.287499999999999
 10
0.1640624999999997
 20
-2.313647059607482
 10
0.2187499999999998
 20
-2.337653700151692
  0
LWPOLYLINE
  5
206
330
1B6
100
AcDbEntity
  8
AM_9
100
AcDbPolyline
 90
        3
 70
     0
 43
0.0
 10
-0.2187500000000002
 20
-2.337653700151692
 10
-0.1643083897258506
 20
-2.313759432388115
 10
-0.1093750000000002
 20
-2.287499999999999
  0
LINE
  5
207
330
1B6
100
AcDbEntity
  8
AM_9
100
AcDbLine
 10
-0.0000000000000003
 20
-2.228278700151692
 30
0.0
 11
-0.0000000000000003
 21
-2.187346299848307
 31
0.0
  0
LWPOLYLINE
  5
208
330
1B6
100
AcDbEntity
  8
AM_9
100
AcDbPolyline
 90
        3
 70
     0
 43
0.0
 10
0.2187499999999998
 20
-2.296721299848307
 10
0.1643083897258502
 20
-2.266173957337735
 10
0.1093749999999997
 20
-2.237499999999999
  0
LWPOLYLINE
  5
209
330
1B6
100
AcDbEntity
  8
AM_9
100
AcDbPolyline
 90
        3
 70
     0
 43
0.0
 10
-0.1093750000000002
 20
-2.237499999999999
 10
-0.1640625000000002
 20
-2.266040440392517
 10
-0.2187500000000002
 20
-2.296721299848307
  0
ELLIPSE
  5
20A
330
1B6
100
AcDbEntity
  8
AM_9
100
AcDbEllipse
 10
-0.0000000000000003
 20
-2.524999999999999
 30
0.0
 11
-0.1999999999999994
 21
2.449293598294699E-17
 31
0.0
210
0.0
220
0.0
230
1.0
 40
0.8660254037844387
 41
0.4619460205669679
 42
5.821239286612622
  0
LWPOLYLINE
  5
20B
330
1B6
100
AcDbEntity
  8
AM_9
100
AcDbPolyline
 90
        7
 70
     0
 43
0.0
 10
-0.1790373738501786
 20
-2.602195945966245
 10
-0.1842628795203942
 20
-2.586201216295605
 10
-0.1891729979031395
 20
-2.570144458256412
 10
-0.1936098952159725
 20
-2.553377825105295
 10
-0.1971856748420373
 20
-2.535929808725253
 10
-0.1994144431868156
 20
-2.518457633207592
 10
-0.199999999969953
 20
-2.50475755900097
  0
LINE
  5
20C
330
1B6
100
AcDbEntity
  8
AM_9
100
AcDbLine
 10
-0.2000000000000002
 20
-2.451562499999999
 30
0.0
 11
-0.2000000000000002
 21
-2.504846885409147
 31
0.0
  0
LINE
  5
20D
330
1B6
100
AcDbEntity
  8
AM_9
100
AcDbLine
 10
0.1999999999999997
 20
-2.524999999999999
 30
0.0
 11
0.1999999999999997
 21
-2.451562499999999
 31
0.0
  0
LWPOLYLINE
  5
20E
330
1B6
100
AcDbEntity
  8
AM_9
100
AcDbPolyline
 90
        8
 70
     0
 43
0.0
 10
-0.199999999969953
 20
-2.50475755900097
 10
-0.1999786710855129
 20
-2.502247492794571
 10
-0.1988321115509054
 20
-2.486977046299115
 10
-0.1961649429984261
 20
-2.474047828583382
 10
-0.192069430057496
 20
-2.462995849846331
 10
-0.1870948030566197
 20
-2.454726804053057
 10
-0.1815005947613932
 20
-2.449203487144151
 10
-0.1790373738501786
 20
-2.447804054033753
  0
LWPOLYLINE
  5
20F
330
1B6
100
AcDbEntity
  8
AM_9
100
AcDbPolyline
 90
        3
 70
     0
 43
0.0
 10
0.1093749999999997
 20
-2.615624999999999
 10
0.0546874999999997
 20
-2.641772059607482
 10
-0.0000000000000003
 20
-2.665778700151692
  0
LWPOLYLINE
  5
210
330
1B6
100
AcDbEntity
  8
AM_9
100
AcDbPolyline
 90
        3
 70
     0
 43
0.0
 10
0.2187499999999998
 20
-2.556403700151692
 10
0.1643083897258502
 20
-2.586951042662264
 10
0.1093749999999997
 20
-2.615624999999999
  0
LINE
  5
211
330
1B6
100
AcDbEntity
  8
AM_9
100
AcDbLine
 10
0.2187499999999998
 20
-2.556403700151692
 30
0.0
 11
0.2187499999999998
 21
-2.296721299848307
 31
0.0
  0
LWPOLYLINE
  5
212
330
1B6
100
AcDbEntity
  8
AM_9
100
AcDbPolyline
 90
        3
 70
     0
 43
0.0
 10
0.1093749999999997
 20
-2.565624999999999
 10
0.1640624999999997
 20
-2.539477940392517
 10
0.2187499999999998
 20
-2.515471299848307
  0
LWPOLYLINE
  5
213
330
1B6
100
AcDbEntity
  8
AM_9
100
AcDbPolyline
 90
        3
 70
     0
 43
0.0
 10
-0.0000000000000002
 20
-2.624846299848306
 10
0.0544416102741493
 20
-2.594298957337735
 10
0.1093749999999997
 20
-2.565624999999999
  0
LINE
  5
214
330
1B6
100
AcDbEntity
  8
AM_9
100
AcDbLine
 10
-0.2187500000000002
 20
-2.556403700151692
 30
0.0
 11
-0.2187500000000002
 21
-2.296721299848307
 31
0.0
  0
LWPOLYLINE
  5
215
330
1B6
100
AcDbEntity
  8
AM_9
100
AcDbPolyline
 90
        3
 70
     0
 43
0.0
 10
-0.1093750000000002
 20
-2.615624999999999
 10
-0.1640625000000002
 20
-2.587084559607482
 10
-0.2187500000000002
 20
-2.556403700151692
  0
LWPOLYLINE
  5
216
330
1B6
100
AcDbEntity
  8
AM_9
100
AcDbPolyline
 90
        3
 70
     0
 43
0.0
 10
-0.0000000000000003
 20
-2.665778700151692
 10
-0.0544416102741498
 20
-2.641884432388115
 10
-0.1093750000000002
 20
-2.615624999999999
  0
LINE
  5
217
330
1B6
100
AcDbEntity
  8
AM_9
100
AcDbLine
 10
-0.0000000000000003
 20
-2.665778700151692
 30
0.0
 11
-0.0000000000000002
 21
-2.624846299848306
 31
0.0
  0
LWPOLYLINE
  5
218
330
1B6
100
AcDbEntity
  8
AM_9
100
AcDbPolyline
 90
        3
 70
     0
 43
0.0
 10
-0.1093750000000002
 20
-2.565624999999999
 10
-0.0546875000000003
 20
-2.594165440392517
 10
-0.0000000000000002
 20
-2.624846299848306
  0
LWPOLYLINE
  5
219
330
1B6
100
AcDbEntity
  8
AM_9
100
AcDbPolyline
 90
        3
 70
     0
 43
0.0
 10
-0.2187500000000002
 20
-2.515471299848307
 10
-0.1643083897258506
 20
-2.539365567611884
 10
-0.1093750000000002
 20
-2.565624999999999
  0
LINE
  5
21A
330
1B6
100
AcDbEntity
  8
AM_9
100
AcDbLine
 10
-0.2000000000000002
 20
-2.362499999999999
 30
0.0
 11
-0.2000000000000002
 21
-2.401562499999999
 31
0.0
  0
LINE
  5
21B
330
1B6
100
AcDbEntity
  8
AM_9
100
AcDbLine
 10
0.1999999999999997
 20
-2.401562499999999
 30
0.0
 11
0.1999999999999997
 21
-2.362499999999999
 31
0.0
  0
LINE
  5
21C
330
1B6
100
AcDbEntity
  8
AM_9
100
AcDbLine
 10
-0.1851454569549803
 20
-2.256309912570726
 30
0.0
 11
-0.1912304659644926
 21
-2.353522462287446
 31
0.0
  0
LINE
  5
21D
330
1B6
100
AcDbEntity
  8
AM_9
100
AcDbLine
 10
0.1912304659644921
 20
-2.353522462287446
 30
0.0
 11
0.1851454569549798
 21
-2.256309912570726
 31
0.0
  0
ELLIPSE
  5
21E
330
1B6
100
AcDbEntity
  8
AM_9
100
AcDbEllipse
 10
-0.0000000000000002
 20
-2.253124999999999
 30
0.0
 11
0.1616637258772237
 21
0.0
 31
0.0
210
0.0
220
0.0
230
1.0
 40
0.8660254037844384
 41
0.0
 42
6.283185307179586
  0
ELLIPSE
  5
21F
330
1B6
100
AcDbEntity
  8
AM_9
100
AcDbEllipse
 10
-0.4687499999999992
 20
-2.628106438444095
 30
0.0
 11
-0.02349716402074492
 21
0.1007796617096748
 31
0.0
210
0.0
220
0.0
230
1.0
 40
0.3659981507706653
 41
0.0
 42
6.283185307179586
  0
ELLIPSE
  5
220
330
1B6
100
AcDbEntity
  8
AM_9
100
AcDbEllipse
 10
-0.3994303217889766
 20
-2.611944290038773
 30
0.0
 11
-0.03159560311146618
 21
0.1355139790604261
 31
0.0
210
0.0
220
0.0
230
1.0
 40
0.3659981507706702
 41
0.0
 42
6.283185307179586
  0
ELLIPSE
  5
221
330
1B6
100
AcDbEntity
  8
AM_9
100
AcDbEllipse
 10
-0.3729962569746645
 20
-2.605781086609233
 30
0.0
 11
-0.03024351534849244
 21
0.1297148559307582
 31
0.0
210
0.0
220
0.0
230
1.0
 40
0.365998150770667
 41
0.0
 42
6.283185307179586
  0
ELLIPSE
  5
222
330
1B6
100
AcDbEntity
  8
AM_9
100
AcDbEllipse
 10
-0.2013892028241882
 20
-2.56577024483734
 30
0.0
 11
-0.02497702053391697
 21
0.1071267867773891
 31
0.0
210
0.0
220
0.0
230
1.0
 40
0.3659981507706676
 41
0.0
 42
6.283185307179586
  0
ELLIPSE
  5
223
330
1B6
100
AcDbEntity
  8
AM_9
100
AcDbEllipse
 10
-0.0000000000000001
 20
-2.451562499999999
 30
0.0
 11
-0.2000000000000002
 21
2.449293598294709E-17
 31
0.0
210
0.0
220
0.0
230
1.0
 40
0.8660254037844397
 41
0.0
 42
6.283185307179586
  0
ELLIPSE
  5
224
330
1B6
100
AcDbEntity
  8
AM_9
100
AcDbEllipse
 10
-0.0000000000000002
 20
-2.451562500000002
 30
0.0
 11
-0.2187499999999971
 21
2.678914873134800E-17
 31
0.0
210
0.0
220
0.0
230
1.0
 40
0.8660254037844372
 41
0.0
 42
6.283185307179586
  0
ELLIPSE
  5
225
330
1B6
100
AcDbEntity
  8
AM_9
100
AcDbEllipse
 10
-0.0000000000000003
 20
-2.401562500000002
 30
0.0
 11
-0.2187499999999971
 21
2.678914873134800E-17
 31
0.0
210
0.0
220
0.0
230
1.0
 40
0.8660254037844372
 41
0.0
 42
6.283185307179586
  0
ELLIPSE
  5
226
330
1B6
100
AcDbEntity
  8
AM_9
100
AcDbEllipse
 10
-0.0000000000000004
 20
-2.4015625
 30
0.0
 11
-0.1999999999999995
 21
2.449293598294700E-17
 31
0.0
210
0.0
220
0.0
230
1.0
 40
0.866025403784436
 41
0.0
 42
6.283185307179586
  0
ELLIPSE
  5
227
330
1B6
100
AcDbEntity
  8
AM_9
100
AcDbEllipse
 10
-0.0000000000000004
 20
-2.362499999999999
 30
0.0
 11
-0.2
 21
2.449293598294706E-17
 31
0.0
210
0.0
220
0.0
230
1.0
 40
0.8660254037844408
 41
0.0
 42
6.283185307179586
  0
ELLIPSE
  5
228
330
1B6
100
AcDbEntity
  8
AM_9
100
AcDbEllipse
 10
-0.000000000000001
 20
-2.3625
 30
0.0
 11
-0.1915112338502289
 21
2.345336195354430E-17
 31
0.0
210
0.0
220
0.0
230
1.0
 40
0.8660254037844365
 41
0.0
 42
6.283185307179586
  0
ELLIPSE
  5
229
330
1B6
100
AcDbEntity
  8
AM_9
100
AcDbEllipse
 10
-0.0000000000000002
 20
-2.265001782423881
 30
0.0
 11
-0.1854172907249858
 21
2.762932959926596E-9
 31
0.0
210
0.0
220
0.0
230
1.0
 40
0.8660254037844292
 41
0.0
 42
6.283185307179586
  0
ENDBLK
  5
1B9
330
1B6
100
AcDbEntity
  8
0
100
AcDbBlockEnd
  0
BLOCK
  5
22C
330
22A
100
AcDbEntity
  8
0
100
AcDbBlockBegin
  2
6_070799H_0_in_070799_2
 70
     2
 10
0.0
 20
0.0
 30
0.0
  3
6_070799H_0_in_070799_2
  1

  0
ATTDEF
  5
22E
330
22A
100
AcDbEntity
  8
AM_6
100
AcDbText
 10
7.203813105311951
 20
5.187500000000002
 30
0.0
 40
0.5
  1
WSTU-S2 -(Contact Seal)-Housing
100
AcDbAttributeDefinition
  3

  2
NN
 70
     8
280
     0
  0
ATTDEF
  5
22F
330
22A
100
AcDbEntity
  8
AM_6
100
AcDbText
 10
7.203813105311951
 20
4.687500000000002
 30
0.0
 40
0.5
  1
S-2000 Wide Slot Take-Up Bearing -Inch
100
AcDbAttributeDefinition
  3

  2
NT
 70
     8
280
     0
  0
ATTDEF
  5
230
330
22A
100
AcDbEntity
  8
AM_6
100
AcDbText
 10
7.203813105311951
 20
4.187500000000002
 30
0.0
 40
0.5
  1
070799H
100
AcDbAttributeDefinition
  3

  2
NB
 70
     8
280
     0
  0
ATTDEF
  5
231
330
22A
100
AcDbEntity
  8
AM_6
100
AcDbText
 10
7.203813105311951
 20
3.687500000000002
 30
0.0
 40
0.5
  1
$PN.H
100
AcDbAttributeDefinition
  3

  2
NBSYN
 70
     8
280
     0
  0
ATTDEF
  5
232
330
22A
100
AcDbEntity
  8
AM_6
100
AcDbText
 10
7.203813105311951
 20
3.187500000000002
 30
0.0
 40
0.5
  1
070799
100
AcDbAttributeDefinition
  3

  2
LINA
 70
     8
280
     0
  0
ATTDEF
  5
233
330
22A
100
AcDbEntity
  8
AM_6
100
AcDbText
 10
7.203813105311951
 20
2.687500000000002
 30
0.0
 40
0.5
  1
4-7/16
100
AcDbAttributeDefinition
  3

  2
SS
 70
     8
280
     0
  0
ATTDEF
  5
234
330
22A
100
AcDbEntity
  8
AM_6
100
AcDbText
 10
7.203813105311951
 20
2.187500000000002
 30
0.0
 40
0.5
  1
070799
100
AcDbAttributeDefinition
  3

  2
PN
 70
     8
280
     0
  0
ATTDEF
  5
235
330
22A
100
AcDbEntity
  8
AM_6
100
AcDbText
 10
7.203813105311951
 20
1.687500000000002
 30
0.0
 40
0.5
  1
WSTU-S2-407RE
100
AcDbAttributeDefinition
  3

  2
DESCRIPTION
 70
     8
280
     0
  0
ATTDEF
  5
236
330
22A
100
AcDbEntity
  8
AM_6
100
AcDbText
 10
7.203813105311951
 20
1.187500000000002
 30
0.0
 40
0.5
  1
Expansion Type
100
AcDbAttributeDefinition
  3

  2
EF
 70
     8
280
     0
  0
ATTDEF
  5
237
330
22A
100
AcDbEntity
  8
AM_6
100
AcDbText
 10
7.203813105311951
 20
0.6875000000000018
 30
0.0
 40
0.5
  1
6-17/32
100
AcDbAttributeDefinition
  3

  2
A
 70
     8
280
     0
  0
ATTDEF
  5
238
330
22A
100
AcDbEntity
  8
AM_6
100
AcDbText
 10
7.203813105311951
 20
0.1875000000000018
 30
0.0
 40
0.5
  1
13-3/8
100
AcDbAttributeDefinition
  3

  2
B
 70
     8
280
     0
  0
ATTDEF
  5
239
330
22A
100
AcDbEntity
  8
AM_6
100
AcDbText
 10
7.203813105311951
 20
-0.3124999999999982
 30
0.0
 40
0.5
  1
2-1/16
100
AcDbAttributeDefinition
  3

  2
C
 70
     8
280
     0
  0
ATTDEF
  5
23A
330
22A
100
AcDbEntity
  8
AM_6
100
AcDbText
 10
7.203813105311951
 20
-0.8124999999999982
 30
0.0
 40
0.5
  1
8-3/4
100
AcDbAttributeDefinition
  3

  2
E
 70
     8
280
     0
  0
ATTDEF
  5
23B
330
22A
100
AcDbEntity
  8
AM_6
100
AcDbText
 10
7.203813105311951
 20
-1.312499999999998
 30
0.0
 40
0.5
  1
2-1/8
100
AcDbAttributeDefinition
  3

  2
F
 70
     8
280
     0
  0
ATTDEF
  5
23C
330
22A
100
AcDbEntity
  8
AM_6
100
AcDbText
 10
7.203813105311951
 20
-1.812499999999998
 30
0.0
 40
0.5
  1
2
100
AcDbAttributeDefinition
  3

  2
G
 70
     8
280
     0
  0
ATTDEF
  5
23D
330
22A
100
AcDbEntity
  8
AM_6
100
AcDbText
 10
7.203813105311951
 20
-2.312499999999998
 30
0.0
 40
0.5
  1
2-1/8
100
AcDbAttributeDefinition
  3

  2
H
 70
     8
280
     0
  0
ATTDEF
  5
23E
330
22A
100
AcDbEntity
  8
AM_6
100
AcDbText
 10
7.203813105311951
 20
-2.812499999999998
 30
0.0
 40
0.5
  1
6-3/8
100
AcDbAttributeDefinition
  3

  2
J
 70
     8
280
     0
  0
ATTDEF
  5
23F
330
22A
100
AcDbEntity
  8
AM_6
100
AcDbText
 10
7.203813105311951
 20
-3.312499999999998
 30
0.0
 40
0.5
  1
3-3/8
100
AcDbAttributeDefinition
  3

  2
K
 70
     8
280
     0
  0
ATTDEF
  5
240
330
22A
100
AcDbEntity
  8
AM_6
100
AcDbText
 10
7.203813105311951
 20
-3.812499999999998
 30
0.0
 40
0.5
  1
3.375000
100
AcDbAttributeDefinition
  3

  2
K1
 70
     8
280
     0
  0
ATTDEF
  5
241
330
22A
100
AcDbEntity
  8
AM_6
100
AcDbText
 10
7.203813105311951
 20
-4.312499999999998
 30
0.0
 40
0.5
  1
6-29/64
100
AcDbAttributeDefinition
  3

  2
L
 70
     8
280
     0
  0
ATTDEF
  5
242
330
22A
100
AcDbEntity
  8
AM_6
100
AcDbText
 10
7.203813105311951
 20
-4.812499999999998
 30
0.0
 40
0.5
  1
9-1/2
100
AcDbAttributeDefinition
  3

  2
M
 70
     8
280
     0
  0
ATTDEF
  5
243
330
22A
100
AcDbEntity
  8
AM_6
100
AcDbText
 10
7.203813105311951
 20
-5.312499999999998
 30
0.0
 40
0.5
  1
10-3/8
100
AcDbAttributeDefinition
  3

  2
N
 70
     8
280
     0
  0
ATTDEF
  5
244
330
22A
100
AcDbEntity
  8
AM_6
100
AcDbText
 10
7.203813105311951
 20
-5.812499999999998
 30
0.0
 40
0.5
  1
5-11/32
100
AcDbAttributeDefinition
  3

  2
R
 70
     8
280
     0
  0
ATTDEF
  5
245
330
22A
100
AcDbEntity
  8
AM_6
100
AcDbText
 10
7.203813105311951
 20
-6.312499999999998
 30
0.0
 40
0.5
  1
3-15/32
100
AcDbAttributeDefinition
  3

  2
S
 70
     8
280
     0
  0
ATTDEF
  5
246
330
22A
100
AcDbEntity
  8
AM_6
100
AcDbText
 10
7.203813105311951
 20
-6.812499999999998
 30
0.0
 40
0.5
  1
3-3/4
100
AcDbAttributeDefinition
  3

  2
T
 70
     8
280
     0
  0
ATTDEF
  5
247
330
22A
100
AcDbEntity
  8
AM_6
100
AcDbText
 10
7.203813105311951
 20
-7.312499999999998
 30
0.0
 40
0.5
  1
3.750000
100
AcDbAttributeDefinition
  3

  2
T1
 70
     8
280
     0
  0
ATTDEF
  5
248
330
22A
100
AcDbEntity
  8
AM_6
100
AcDbText
 10
7.203813105311951
 20
-7.812499999999998
 30
0.0
 40
0.5
  1
3/8
100
AcDbAttributeDefinition
  3

  2
X
 70
     8
280
     0
  0
ATTDEF
  5
249
330
22A
100
AcDbEntity
  8
AM_6
100
AcDbText
 10
7.203813105311951
 20
-8.312499999999998
 30
0.0
 40
0.5
  1
0.036
100
AcDbAttributeDefinition
  3

  2
Y
 70
     8
280
     0
  0
ATTDEF
  5
24A
330
22A
100
AcDbEntity
  8
AM_6
100
AcDbText
 10
7.203813105311951
 20
-8.812499999999998
 30
0.0
 40
0.5
  1
5
100
AcDbAttributeDefinition
  3

  2
Z
 70
     8
280
     0
  0
ATTDEF
  5
24B
330
22A
100
AcDbEntity
  8
AM_6
100
AcDbText
 10
7.203813105311951
 20
-9.312499999999998
 30
0.0
 40
0.5
  1
baldor
100
AcDbAttributeDefinition
  3

  2
COMPANY
 70
     8
280
     0
  0
LWPOLYLINE
  5
24C
330
22A
100
AcDbEntity
  8
AM_9
100
AcDbPolyline
 90
        3
 70
     0
 43
0.0
 10
0.489249672112516
 20
-2.222616237563607
 10
0.496883759359424
 20
-2.264139154293694
 10
0.4999999999999997
 20
-2.3125
  0
LWPOLYLINE
  5
24D
330
22A
100
AcDbEntity
  8
AM_9
100
AcDbPolyline
 90
       17
 70
     0
 43
0.0
 10
-0.4434006891629695
 20
-2.109494790753593
 10
-0.4234659269066339
 20
-2.078442999130225
 10
-0.3729514548427533
 20
-2.018151585950066
 10
-0.3119907406912444
 20
-1.965860167717579
 10
-0.2418381676794734
 20
-1.923184922362316
 10
-0.164817007833113
 20
-1.891612211419701
 10
-0.0831976603181705
 20
-1.872397372670937
 10
0.0007913784777598
 20
-1.865934644253653
 10
0.084325798781869
 20
-1.872572631978468
 10
0.1654830936112748
 20
-1.891826028211849
 10
0.2419062857852453
 20
-1.923217753444914
 10
0.3115598386744145
 20
-1.965547949474368
 10
0.3726881858917561
 20
-2.017886248548647
 10
0.423339093443253
 20
-2.07826231398878
 10
0.4620068843976954
 20
-2.145070962580802
 10
0.4876144560194147
 20
-2.216057151309747
 10
0.489249672112516
 20
-2.222616237563607
  0
LWPOLYLINE
  5
24E
330
22A
100
AcDbEntity
  8
AM_9
100
AcDbPolyline
 90
        5
 70
     0
 43
0.0
 10
-0.5000000000000002
 20
-2.3125
 10
-0.496819033694152
 20
-2.263640920529774
 10
-0.4873588657325329
 20
-2.21507296348485
 10
-0.4618342438348042
 20
-2.14469755142625
 10
-0.4434006891629695
 20
-2.109494790753593
  0
ELLIPSE
  5
24F
330
22A
100
AcDbEntity
  8
AM_9
100
AcDbEllipse
 10
-0.0000000000000003
 20
-2.362499999999999
 30
0.0
 11
-0.4
 21
4.898587196589413E-17
 31
0.0
210
0.0
220
0.0
230
1.0
 40
0.8660254037844384
 41
0.0
 42
6.283185307179586
  0
ELLIPSE
  5
250
330
22A
100
AcDbEntity
  8
AM_9
100
AcDbEllipse
 10
0.0000000000000018
 20
-2.3125
 30
0.0
 11
0.5000000000000022
 21
0.0
 31
0.0
210
0.0
220
0.0
230
1.0
 40
0.8660254037844394
 41
2.6551257746437
 42
3.141592653589793
  0
ELLIPSE
  5
251
330
22A
100
AcDbEntity
  8
AM_9
100
AcDbEllipse
 10
-0.0000000000000004
 20
-2.3125
 30
0.0
 11
0.5000000000000002
 21
0.0
 31
0.0
210
0.0
220
0.0
230
1.0
 40
0.8660254037844394
 41
0.2091109414185324
 42
2.6551257746437
  0
ELLIPSE
  5
252
330
22A
100
AcDbEntity
  8
AM_9
100
AcDbEllipse
 10
-0.0000000000000095
 20
-2.31249999999996
 30
0.0
 11
0.5000000000000092
 21
0.0
 31
0.0
210
0.0
220
0.0
230
1.0
 40
0.866025403784434
 41
3.141592653589793
 42
6.492296248598027
  0
LINE
  5
253
330
22A
100
AcDbEntity
  8
AM_9
100
AcDbLine
 10
0.4999469262420961
 20
-2.319015881955495
 30
0.0
 11
0.499993823210104
 21
-2.310277073793978
 31
0.0
  0
LINE
  5
254
330
22A
100
AcDbEntity
  8
AM_9
100
AcDbLine
 10
0.4995622703799823
 20
-2.331209035720842
 30
0.0
 11
0.4999469262420961
 21
-2.319015881955495
 31
0.0
  0
LWPOLYLINE
  5
255
330
22A
100
AcDbEntity
  8
AM_9
100
AcDbPolyline
 90
       32
 70
     0
 43
0.0
 10
-0.4967355464290667
 20
-2.363518676374841
 10
-0.4943403965441652
 20
-2.379594431742736
 10
-0.4847585776307125
 20
-2.422065029503595
 10
-0.4706376809371944
 20
-2.463463850731389
 10
-0.4521081647071059
 20
-2.503426633180585
 10
-0.4293326032665269
 20
-2.541598449113063
 10
-0.4025079013458455
 20
-2.57763394504042
 10
-0.3718677667436088
 20
-2.611199398714176
 10
-0.3376843449770569
 20
-2.64197655658033
 10
-0.3002681685163055
 20
-2.669667715528266
 10
-0.2599660625129394
 20
-2.694001199744559
 10
-0.2171571969754888
 20
-2.714736358960983
 10
-0.1722478812013236
 20
-2.731667456508753
 10
-0.1256658440284686
 20
-2.744626193200882
 10
-0.0778546473802667
 20
-2.753482966760858
 10
-0.0292686464019219
 20
-2.758147191706684
 10
0.0196313438645261
 20
-2.758567081613545
 10
0.0683817134706209
 20
-2.754729264913815
 10
0.1165165301743228
 20
-2.746659095814324
 10
0.1635753068160402
 20
-2.734420478305029
 10
0.209103825615358
 20
-2.718116246148444
 10
0.2526572943503347
 20
-2.697889112090885
 10
0.2938045317619645
 20
-2.673922711292266
 10
0.3321331297888391
 20
-2.646442364010794
 10
0.3672556684881307
 20
-2.615715004371
 10
0.3988167660552719
 20
-2.582047636774723
 10
0.4265003669535835
 20
-2.545783776236899
 10
0.4500363328925002
 20
-2.507297663505844
 10
0.4692052816305155
 20
-2.466986573367381
 10
0.4838408458596678
 20
-2.425262079458437
 10
0.4938290737201698
 20
-2.38254147058193
 10
0.4985730073219169
 20
-2.346262993456654
  0
LINE
  5
256
330
22A
100
AcDbEntity
  8
AM_9
100
AcDbLine
 10
-0.4999934099189887
 20
-2.314796090051168
 30
0.0
 11
-0.4998765163553359
 21
-2.322438537448519
 31
0.0
  0
LWPOLYLINE
  5
257
330
22A
100
AcDbEntity
  8
AM_9
100
AcDbPolyline
 90
       20
 70
     0
 43
0.0
 10
0.4999999999999997
 20
-2.3125
 10
0.4928998318947086
 20
-2.384569128361842
 10
0.4720053444193
 20
-2.453885997390919
 10
0.437741429071712
 20
-2.518506074728932
 10
0.3912621549812728
 20
-2.576857844669049
 10
0.3334882993772059
 20
-2.627558804735369
 10
0.2663288206351096
 20
-2.669272244103571
 10
0.191347602503373
 20
-2.700942705748744
 10
0.110916583295211
 20
-2.721839624798279
 10
0.0276015245355073
 20
-2.73130166834807
 10
-0.056497670318523
 20
-2.729359799936088
 10
-0.1386229823890424
 20
-2.715989427671397
 10
-0.2168546422855434
 20
-2.691669611084751
 10
-0.289074109486706
 20
-2.656745474991836
 10
-0.3532006550032528
 20
-2.612211219457606
 10
-0.4075802748868513
 20
-2.558703197393543
 10
-0.450471927781926
 20
-2.497853660205291
 10
-0.4804859842629706
 20
-2.431094064415867
 10
-0.4969247803607121
 20
-2.360285523209492
 10
-0.5000000000000002
 20
-2.3125
  0
LINE
  5
258
330
22A
100
AcDbEntity
  8
AM_9
100
AcDbLine
 10
1.5
 20
-3.023346655611956
 30
0.0
 11
-1.499999999999999
 21
-3.023346655611956
 31
0.0
  0
LINE
  5
259
330
22A
100
AcDbEntity
  8
AM_9
100
AcDbLine
 10
-1.499999999999999
 20
3.023346655611956
 30
0.0
 11
1.5
 21
3.023346655611956
 31
0.0
  0
LINE
  5
25A
330
22A
100
AcDbEntity
  8
AM_9
100
AcDbLine
 10
-1.248076939423077
 20
-3.936999999999999
 30
0.0
 11
1.875
 21
-3.936999999999999
 31
0.0
  0
LINE
  5
25B
330
22A
100
AcDbEntity
  8
AM_9
100
AcDbLine
 10
1.875
 20
3.936999999999999
 30
0.0
 11
-1.248076939423077
 21
3.936999999999999
 31
0.0
  0
LINE
  5
25C
330
22A
100
AcDbEntity
  8
AM_9
100
AcDbLine
 10
-1.248076939423077
 20
3.936999999999999
 30
0.0
 11
-1.875
 21
4.104983527798034
 31
0.0
  0
LINE
  5
25D
330
22A
100
AcDbEntity
  8
AM_9
100
AcDbLine
 10
-1.875
 20
-4.104983527798034
 30
0.0
 11
-1.248076939423077
 21
-3.936999999999999
 31
0.0
  0
LINE
  5
25E
330
22A
100
AcDbEntity
  8
AM_9
100
AcDbLine
 10
-1.248076939423077
 20
3.936999999999999
 30
0.0
 11
-1.248076939423077
 21
-3.936999999999999
 31
0.0
  0
LINE
  5
25F
330
22A
100
AcDbEntity
  8
AM_9
100
AcDbLine
 10
1.875
 20
1.162020634505817
 30
0.0
 11
1.875
 21
-1.162020634505817
 31
0.0
  0
LINE
  5
260
330
22A
100
AcDbEntity
  8
AM_9
100
AcDbLine
 10
1.803
 20
1.27086897633757
 30
0.0
 11
1.803
 21
-1.27086897633757
 31
0.0
  0
LINE
  5
261
330
22A
100
AcDbEntity
  8
AM_9
100
AcDbLine
 10
-1.803000000000001
 20
1.270868976337568
 30
0.0
 11
-1.803000000000001
 21
-1.270868976337568
 31
0.0
  0
LINE
  5
262
330
22A
100
AcDbEntity
  8
AM_9
100
AcDbLine
 10
-1.875
 20
1.162020634505817
 30
0.0
 11
-1.875
 21
-1.162020634505817
 31
0.0
  0
LINE
  5
263
330
22A
100
AcDbEntity
  8
AM_9
100
AcDbLine
 10
-1.5
 20
1.515100483468212
 30
0.0
 11
-1.5
 21
-1.517713377483963
 31
0.0
  0
LINE
  5
264
330
22A
100
AcDbEntity
  8
AM_9
100
AcDbLine
 10
1.5
 20
1.517713377483963
 30
0.0
 11
1.5
 21
-1.515100483468213
 31
0.0
  0
LINE
  5
265
330
22A
100
AcDbEntity
  8
AM_9
100
AcDbLine
 10
-1.5
 20
-1.6875
 30
0.0
 11
1.5
 21
-1.6875
 31
0.0
  0
LINE
  5
266
330
22A
100
AcDbEntity
  8
AM_9
100
AcDbLine
 10
-1.499999999999999
 20
-1.615500000000001
 30
0.0
 11
1.5
 21
-1.615500000000001
 31
0.0
  0
LINE
  5
267
330
22A
100
AcDbEntity
  8
AM_9
100
AcDbLine
 10
-1.499999999999999
 20
1.6155
 30
0.0
 11
1.5
 21
1.6155
 31
0.0
  0
LINE
  5
268
330
22A
100
AcDbEntity
  8
AM_9
100
AcDbLine
 10
-1.5
 20
1.6875
 30
0.0
 11
1.5
 21
1.6875
 31
0.0
  0
LINE
  5
269
330
22A
100
AcDbEntity
  8
AM_7
100
AcDbLine
 10
0.0000000000000005
 20
-1.115625
 30
0.0
 11
0.0000000000000005
 21
1.115625
 31
0.0
  0
LINE
  5
26A
330
22A
100
AcDbEntity
  8
AM_4
100
AcDbLine
 10
-1.03125
 20
4.75
 30
0.0
 11
-1.03125
 21
5.1875
 31
0.0
  0
LINE
  5
26B
330
22A
100
AcDbEntity
  8
AM_4
100
AcDbLine
 10
-1.875
 20
5.187500000000002
 30
0.0
 11
-1.03125
 21
5.1875
 31
0.0
  0
LINE
  5
26C
330
22A
100
AcDbEntity
  8
AM_4
100
AcDbLine
 10
1.03125
 20
-4.75
 30
0.0
 11
1.03125
 21
-5.1875
 31
0.0
  0
LINE
  5
26D
330
22A
100
AcDbEntity
  8
AM_4
100
AcDbLine
 10
1.03125
 20
-5.1875
 30
0.0
 11
1.875
 21
-5.1875
 31
0.0
  0
LINE
  5
26E
330
22A
100
AcDbEntity
  8
AM_4
100
AcDbLine
 10
-1.875
 20
-5.1875
 30
0.0
 11
-1.03125
 21
-5.1875
 31
0.0
  0
LINE
  5
26F
330
22A
100
AcDbEntity
  8
AM_4
100
AcDbLine
 10
-1.03125
 20
-5.1875
 30
0.0
 11
-1.03125
 21
-4.75
 31
0.0
  0
LINE
  5
270
330
22A
100
AcDbEntity
  8
AM_4
100
AcDbLine
 10
1.03125
 20
5.1875
 30
0.0
 11
1.03125
 21
4.75
 31
0.0
  0
LINE
  5
271
330
22A
100
AcDbEntity
  8
AM_4
100
AcDbLine
 10
1.03125
 20
5.1875
 30
0.0
 11
1.875
 21
5.187500000000002
 31
0.0
  0
LINE
  5
272
330
22A
100
AcDbEntity
  8
AM_4
100
AcDbLine
 10
1.03125
 20
4.75
 30
0.0
 11
-1.03125
 21
4.75
 31
0.0
  0
LINE
  5
273
330
22A
100
AcDbEntity
  8
AM_4
100
AcDbLine
 10
-1.875
 20
5.115500000000002
 30
0.0
 11
-1.03125
 21
5.115500000000002
 31
0.0
  0
LINE
  5
274
330
22A
100
AcDbEntity
  8
AM_4
100
AcDbLine
 10
1.03125
 20
5.115500000000002
 30
0.0
 11
1.875
 21
5.115500000000002
 31
0.0
  0
LINE
  5
275
330
22A
100
AcDbEntity
  8
AM_4
100
AcDbLine
 10
-1.03125
 20
-4.75
 30
0.0
 11
1.03125
 21
-4.75
 31
0.0
  0
LINE
  5
276
330
22A
100
AcDbEntity
  8
AM_4
100
AcDbLine
 10
1.03125
 20
-5.115500000000002
 30
0.0
 11
1.875
 21
-5.115500000000002
 31
0.0
  0
LINE
  5
277
330
22A
100
AcDbEntity
  8
AM_4
100
AcDbLine
 10
-1.875
 20
-5.115500000000002
 30
0.0
 11
-1.03125
 21
-5.115500000000002
 31
0.0
  0
LWPOLYLINE
  5
278
330
22A
100
AcDbEntity
  8
AM_4
100
AcDbPolyline
 90
        8
 70
     0
 43
0.0
 10
1.875
 20
-2.912011160692897
 10
1.873434140514635
 20
-2.935306341857975
 10
1.860648940706505
 20
-2.979002163800266
 10
1.844532343180775
 20
-3.003136133379327
 10
1.827697767515865
 20
-3.016659657982216
 10
1.820035717811731
 20
-3.020218265349826
 10
1.80377316654327
 20
-3.023340304932592
 10
1.803
 20
-3.023346655611956
  0
LINE
  5
279
330
22A
100
AcDbEntity
  8
AM_4
100
AcDbLine
 10
1.875
 20
-1.162020634505817
 30
0.0
 11
1.875
 21
-5.1875
 31
0.0
  0
LINE
  5
27A
330
22A
100
AcDbEntity
  8
AM_4
100
AcDbLine
 10
1.875
 20
5.187500000000002
 30
0.0
 11
1.875
 21
1.162020634505817
 31
0.0
  0
LWPOLYLINE
  5
27B
330
22A
100
AcDbEntity
  8
AM_4
100
AcDbPolyline
 90
        7
 70
     0
 43
0.0
 10
1.803
 20
3.023346655611957
 10
1.810625106373399
 20
3.022727212428403
 10
1.82575445788621
 20
3.017698570883508
 10
1.843007514631617
 20
3.004744778953109
 10
1.860541488089581
 20
2.979223151973887
 10
1.873519169820468
 20
2.934673230554965
 10
1.875
 20
2.912011160692897
  0
LINE
  5
27C
330
22A
100
AcDbEntity
  8
AM_4
100
AcDbLine
 10
1.5
 20
-3.023346655611956
 30
0.0
 11
1.803
 21
-3.023346655611956
 31
0.0
  0
LINE
  5
27D
330
22A
100
AcDbEntity
  8
AM_4
100
AcDbLine
 10
1.803
 20
-1.27086897633757
 30
0.0
 11
1.803
 21
-3.023346655611956
 31
0.0
  0
LINE
  5
27E
330
22A
100
AcDbEntity
  8
AM_4
100
AcDbLine
 10
1.803
 20
3.023346655611957
 30
0.0
 11
1.803
 21
1.27086897633757
 31
0.0
  0
LINE
  5
27F
330
22A
100
AcDbEntity
  8
AM_4
100
AcDbLine
 10
1.803
 20
3.023346655611957
 30
0.0
 11
1.5
 21
3.023346655611956
 31
0.0
  0
LINE
  5
280
330
22A
100
AcDbEntity
  8
AM_4
100
AcDbLine
 10
-1.803000000000001
 20
-3.023346655611956
 30
0.0
 11
-1.5
 21
-3.023346655611956
 31
0.0
  0
LINE
  5
281
330
22A
100
AcDbEntity
  8
AM_4
100
AcDbLine
 10
-1.5
 20
3.023346655611956
 30
0.0
 11
-1.803000000000001
 21
3.023346655611956
 31
0.0
  0
LWPOLYLINE
  5
282
330
22A
100
AcDbEntity
  8
AM_4
100
AcDbPolyline
 90
        7
 70
     0
 43
0.0
 10
-1.803000000000001
 20
-3.023346655611956
 10
-1.813604765092926
 20
-3.022145255660727
 10
-1.820035717811731
 20
-3.020218265349827
 10
-1.839386280743529
 20
-3.008224993745197
 10
-1.857235281907569
 20
-2.985509978917138
 10
-1.871817720025727
 20
-2.944999308596899
 10
-1.875
 20
-2.912011160692899
  0
LINE
  5
283
330
22A
100
AcDbEntity
  8
AM_4
100
AcDbLine
 10
-1.803000000000001
 20
-1.270868976337568
 30
0.0
 11
-1.803000000000001
 21
-3.023346655611956
 31
0.0
  0
LINE
  5
284
330
22A
100
AcDbEntity
  8
AM_4
100
AcDbLine
 10
-1.803000000000001
 20
3.023346655611956
 30
0.0
 11
-1.803000000000001
 21
1.270868976337568
 31
0.0
  0
LWPOLYLINE
  5
285
330
22A
100
AcDbEntity
  8
AM_4
100
AcDbPolyline
 90
        7
 70
     0
 43
0.0
 10
-1.875
 20
2.912011160692899
 10
-1.874004662845024
 20
2.930629772189767
 10
-1.861852625047656
 20
2.976444505430881
 10
-1.845945715106053
 20
3.001563416688538
 10
-1.828977013598674
 20
3.015922909247698
 10
-1.812729962917349
 20
3.022336189459126
 10
-1.803000000000001
 20
3.023346655611956
  0
LINE
  5
286
330
22A
100
AcDbEntity
  8
AM_4
100
AcDbLine
 10
-1.875
 20
-1.162020634505817
 30
0.0
 11
-1.875
 21
-5.1875
 31
0.0
  0
LINE
  5
287
330
22A
100
AcDbEntity
  8
AM_4
100
AcDbLine
 10
-1.875
 20
5.187500000000002
 30
0.0
 11
-1.875
 21
1.162020634505817
 31
0.0
  0
LINE
  5
288
330
22A
100
AcDbEntity
  8
AM_4
100
AcDbLine
 10
-1.499999999999999
 20
1.517713377483963
 30
0.0
 11
-1.499999999999999
 21
3.187499999999999
 31
0.0
  0
LINE
  5
289
330
22A
100
AcDbEntity
  8
AM_4
100
AcDbLine
 10
1.5
 20
1.517713377483963
 30
0.0
 11
1.5
 21
3.187499999999999
 31
0.0
  0
LINE
  5
28A
330
22A
100
AcDbEntity
  8
AM_4
100
AcDbLine
 10
-1.499999999999999
 20
3.187499999999999
 30
0.0
 11
1.5
 21
3.187499999999999
 31
0.0
  0
LINE
  5
28B
330
22A
100
AcDbEntity
  8
AM_4
100
AcDbLine
 10
-1.499999999999999
 20
-3.1875
 30
0.0
 11
-1.499999999999999
 21
-1.517713377483963
 31
0.0
  0
CIRCLE
  5
28C
330
22A
100
AcDbEntity
  8
AM_4
100
AcDbCircle
 10
0.0000000000000005
 20
0.0
 30
0.0
 40
1.0625
  0
LINE
  5
28D
330
22A
100
AcDbEntity
  8
AM_4
100
AcDbLine
 10
1.5
 20
-3.1875
 30
0.0
 11
1.5
 21
-1.517713377483963
 31
0.0
  0
LINE
  5
28E
330
22A
100
AcDbEntity
  8
AM_4
100
AcDbLine
 10
-1.499999999999999
 20
3.1155
 30
0.0
 11
1.5
 21
3.1155
 31
0.0
  0
ARC
  5
28F
330
22A
100
AcDbEntity
  8
AM_4
100
AcDbCircle
 10
0.0000000000000002
 20
0.0
 30
0.0
 40
2.205882352941177
100
AcDbArc
 50
312.8436430435963
 51
47.15635695640367
  0
ARC
  5
290
330
22A
100
AcDbEntity
  8
AM_4
100
AcDbCircle
 10
0.0000000000000007
 20
0.0000000000000001
 30
0.0
 40
2.133882352941178
100
AcDbArc
 50
314.6636890293934
 51
45.33631097060661
  0
ARC
  5
291
330
22A
100
AcDbEntity
  8
AM_4
100
AcDbCircle
 10
-0.0000000000000007
 20
0.0000000000000002
 30
0.0
 40
2.205882352941176
100
AcDbArc
 50
132.8436430435963
 51
227.1563569564037
  0
ARC
  5
292
330
22A
100
AcDbEntity
  8
AM_4
100
AcDbCircle
 10
-0.0000000000000002
 20
0.0
 30
0.0
 40
2.133882352941177
100
AcDbArc
 50
134.6636890293934
 51
225.3363109706066
  0
LINE
  5
293
330
22A
100
AcDbEntity
  8
AM_4
100
AcDbLine
 10
-1.499999999999999
 20
-3.115500000000002
 30
0.0
 11
1.5
 21
-3.115500000000002
 31
0.0
  0
LINE
  5
294
330
22A
100
AcDbEntity
  8
AM_4
100
AcDbLine
 10
-1.499999999999999
 20
-3.1875
 30
0.0
 11
1.5
 21
-3.1875
 31
0.0
  0
ENDBLK
  5
22D
330
22A
100
AcDbEntity
  8
0
100
AcDbBlockEnd
  0
ENDSEC
  0
SECTION
  2
ENTITIES
  0
INSERT
  5
6F
330
1F
100
AcDbEntity
  8
0
100
AcDbBlockReference
  2
1_070799_2
 10
0.0
 20
0.0
 30
0.0
  0
POINT
  5
296
330
1F
100
AcDbEntity
  8
ConnectionPoints
100
AcDbPoint
 10
3.4375
 20
0.0
 30
-0.0000000000000001
  0
POINT
  5
297
330
1F
100
AcDbEntity
  8
ConnectionPoints
100
AcDbPoint
 10
-3.09375
 20
0.0
 30
0.0000000000000002
  0
POINT
  5
298
330
1F
100
AcDbEntity
  8
ConnectionPoints
100
AcDbPoint
 10
3.4375
 20
0.0
 30
-0.0000000000000002
  0
POINT
  5
299
330
1F
100
AcDbEntity
  8
ConnectionPoints
100
AcDbPoint
 10
-3.09375
 20
0.0
 30
0.0000000000000002
  0
POINT
  5
29A
330
1F
100
AcDbEntity
  8
ConnectionPoints
100
AcDbPoint
 10
-0.0000000000000003
 20
-2.362499999999999
 30
-4.091970032881473
  0
POINT
  5
29B
330
1F
100
AcDbEntity
  8
ConnectionPoints
100
AcDbPoint
 10
-0.0000000000000003
 20
-2.362499999999999
 30
-4.091970032881473
  0
POINT
  5
29C
330
1F
100
AcDbEntity
  8
ConnectionPoints
100
AcDbPoint
 10
-3.09375
 20
0.0
 30
0.0000000000000002
  0
POINT
  5
29D
330
1F
100
AcDbEntity
  8
ConnectionPoints
100
AcDbPoint
 10
-3.46875
 20
0.0
 30
0.0000000000000002
  0
ENDSEC
  0
SECTION
  2
OBJECTS
  0
DICTIONARY
  5
C
330
0
100
AcDbDictionary
281
     1
  3
ACAD_DETAILVIEWSTYLE
350
2A5
  3
ACAD_GROUP
350
D
  3
ACAD_LAYOUT
350
1A
  3
ACAD_MATERIAL
350
43
  3
ACAD_MLEADERSTYLE
350
6B
  3
ACAD_MLINESTYLE
350
17
  3
ACAD_PLOTSETTINGS
350
19
  3
ACAD_PLOTSTYLENAME
350
E
  3
ACAD_SCALELIST
350
47
  3
ACAD_SECTIONVIEWSTYLE
350
2A6
  3
ACAD_TABLESTYLE
350
69
  3
ACAD_VISUALSTYLE
350
2A
  3
ACDB_RECOMPOSE_DATA
350
2A2
  3
AcDbVariableDictionary
350
29E
  0
SUN
  5
6D
330
29
100
AcDbSun
 90
        1
290
     0
 63
     7
421
 16777215
 40
1.0
291
     1
 91
  2455826
 92
 54000000
292
     0
 70
     2
 71
   256
280
     1
  0
DICTIONARY
  5
2A5
102
{ACAD_REACTORS
330
C
102
}
330
C
100
AcDbDictionary
281
     1
  0
DICTIONARY
  5
D
102
{ACAD_REACTORS
330
C
102
}
330
C
100
AcDbDictionary
281
     1
  0
DICTIONARY
  5
1A
102
{ACAD_REACTORS
330
C
102
}
330
C
100
AcDbDictionary
281
     1
  3
Layout1
350
1E
  3
Layout2
350
26
  3
Model
350
22
  0
DICTIONARY
  5
43
102
{ACAD_REACTORS
330
C
102
}
330
C
100
AcDbDictionary
281
     1
  3
ByBlock
350
45
  3
ByLayer
350
44
  3
Global
350
46
  0
DICTIONARY
  5
6B
102
{ACAD_REACTORS
330
C
102
}
330
C
100
AcDbDictionary
281
     1
  3
Standard
350
6C
  0
DICTIONARY
  5
17
102
{ACAD_REACTORS
330
C
102
}
330
C
100
AcDbDictionary
281
     1
  3
Standard
350
18
  0
DICTIONARY
  5
19
102
{ACAD_REACTORS
330
C
102
}
330
C
100
AcDbDictionary
281
     1
  0
ACDBDICTIONARYWDFLT
  5
E
102
{ACAD_REACTORS
330
C
102
}
330
C
100
AcDbDictionary
281
     1
  3
Normal
350
F
100
AcDbDictionaryWithDefault
340
F
  0
DICTIONARY
  5
47
102
{ACAD_REACTORS
330
C
102
}
330
C
100
AcDbDictionary
281
     1
  3
A0
350
48
  3
A1
350
49
  3
A2
350
4A
  3
A3
350
4B
  3
A4
350
4C
  3
A5
350
4D
  3
A6
350
4E
  3
A7
350
4F
  3
A8
350
50
  3
A9
350
51
  3
B0
350
52
  3
B1
350
53
  3
B2
350
54
  3
B3
350
55
  3
B4
350
56
  3
B5
350
57
  3
B6
350
58
  3
B7
350
59
  3
B8
350
5A
  3
B9
350
5B
  3
C0
350
5C
  3
C1
350
5D
  3
C2
350
5E
  3
C3
350
5F
  3
C4
350
60
  3
C5
350
61
  3
C6
350
62
  3
C7
350
63
  3
C8
350
64
  3
C9
350
65
  3
D0
350
66
  3
D1
350
67
  3
D2
350
68
  0
DICTIONARY
  5
2A6
102
{ACAD_REACTORS
330
C
102
}
330
C
100
AcDbDictionary
281
     1
  0
DICTIONARY
  5
69
102
{ACAD_REACTORS
330
C
102
}
330
C
100
AcDbDictionary
281
     1
  3
Standard
350
6A
  0
DICTIONARY
  5
2A
102
{ACAD_REACTORS
330
C
102
}
330
C
100
AcDbDictionary
281
     1
  3
2dWireframe
350
2F
  3
Basic
350
32
  3
Brighten
350
36
  3
ColorChange
350
3A
  3
Conceptual
350
34
  3
Dim
350
35
  3
EdgeColorOff
350
3D
  3
Facepattern
350
39
  3
Flat
350
2B
  3
FlatWithEdges
350
2C
  3
Gouraud
350
2D
  3
GouraudWithEdges
350
2E
  3
Hidden
350
31
  3
JitterOff
350
3B
  3
Linepattern
350
38
  3
OverhangOff
350
3C
  3
Realistic
350
33
  3
Shaded
350
42
  3
Shaded with edges
350
41
  3
Shades of Gray
350
3E
  3
Sketchy
350
3F
  3
Thicken
350
37
  3
Wireframe
350
30
  3
X-Ray
350
40
  0
XRECORD
  5
2A2
102
{ACAD_REACTORS
330
C
102
}
330
C
100
AcDbXrecord
280
     1
 90
        1
330
6A
  0
DICTIONARY
  5
29E
102
{ACAD_REACTORS
330
C
102
}
330
C
100
AcDbDictionary
281
     1
  3
CANNOSCALE
350
29F
  3
CMLEADERSTYLE
350
2A4
  3
CTABLESTYLE
350
2A3
  0
LAYOUT
  5
1E
102
{ACAD_REACTORS
330
1A
102
}
330
1A
100
AcDbPlotSettings
  1

  2
none_device
  4

  6

 40
0.0
 41
0.0
 42
0.0
 43
0.0
 44
0.0
 45
0.0
 46
0.0
 47
0.0
 48
0.0
 49
0.0
140
0.0
141
0.0
142
1.0
143
1.0
 70
   688
 72
     0
 73
     0
 74
     5
  7

 75
    16
 76
     0
 77
     2
 78
   300
147
1.0
148
0.0
149
0.0
100
AcDbLayout
  1
Layout1
 70
     1
 71
     1
 10
0.0
 20
0.0
 11
12.0
 21
9.0
 12
0.0
 22
0.0
 32
0.0
 14
1.000000000000000E+20
 24
1.000000000000000E+20
 34
1.000000000000000E+20
 15
-1.000000000000000E+20
 25
-1.000000000000000E+20
 35
-1.000000000000000E+20
146
0.0
 13
0.0
 23
0.0
 33
0.0
 16
1.0
 26
0.0
 36
0.0
 17
0.0
 27
1.0
 37
0.0
 76
     0
330
1B
  0
LAYOUT
  5
26
102
{ACAD_REACTORS
330
1A
102
}
330
1A
100
AcDbPlotSettings
  1

  2
none_device
  4

  6

 40
0.0
 41
0.0
 42
0.0
 43
0.0
 44
0.0
 45
0.0
 46
0.0
 47
0.0
 48
0.0
 49
0.0
140
0.0
141
0.0
142
1.0
143
1.0
 70
   688
 72
     0
 73
     0
 74
     5
  7

 75
    16
 76
     0
 77
     2
 78
   300
147
1.0
148
0.0
149
0.0
100
AcDbLayout
  1
Layout2
 70
     1
 71
     2
 10
0.0
 20
0.0
 11
0.0
 21
0.0
 12
0.0
 22
0.0
 32
0.0
 14
0.0
 24
0.0
 34
0.0
 15
0.0
 25
0.0
 35
0.0
146
0.0
 13
0.0
 23
0.0
 33
0.0
 16
1.0
 26
0.0
 36
0.0
 17
0.0
 27
1.0
 37
0.0
 76
     0
330
23
  0
LAYOUT
  5
22
102
{ACAD_REACTORS
330
1A
102
}
330
1A
100
AcDbPlotSettings
  1

  2
none_device
  4
Letter_(8.50_x_11.00_Inches)
  6

 40
6.35
 41
6.35
 42
6.35000508
 43
6.35000508
 44
215.9
 45
279.4
 46
0.0
 47
0.0
 48
0.0
 49
0.0
140
0.0
141
0.0
142
1.0
143
1.0
 70
  1712
 72
     0
 73
     0
 74
     0
  7

 75
     0
 76
     0
 77
     2
 78
   300
147
1.0
148
0.0
149
0.0
100
AcDbLayout
  1
Model
 70
     1
 71
     0
 10
0.0
 20
0.0
 11
12.0
 21
9.0
 12
0.0
 22
0.0
 32
0.0
 14
1.000000000000000E+20
 24
1.000000000000000E+20
 34
1.000000000000000E+20
 15
-1.000000000000000E+20
 25
-1.000000000000000E+20
 35
-1.000000000000000E+20
146
0.0
 13
0.0
 23
0.0
 33
0.0
 16
1.0
 26
0.0
 36
0.0
 17
0.0
 27
1.0
 37
0.0
 76
     0
330
1F
331
29
  0
MATERIAL
  5
45
102
{ACAD_REACTORS
330
43
102
}
330
43
100
AcDbMaterial
  1
ByBlock
 72
     1
 94
      127
  0
MATERIAL
  5
44
102
{ACAD_REACTORS
330
43
102
}
330
43
100
AcDbMaterial
  1
ByLayer
 72
     1
 94
      127
  0
MATERIAL
  5
46
102
{ACAD_REACTORS
330
43
102
}
330
43
100
AcDbMaterial
  1
Global
 72
     1
 94
      127
  0
MLEADERSTYLE
  5
6C
102
{ACAD_REACTORS
330
6B
102
}
330
6B
100
AcDbMLeaderStyle
179
     2
170
     2
171
     1
172
     0
 90
        2
 40
0.0
 41
0.0
173
     1
 91
-1056964608
340
14
 92
       -2
290
     1
 42
0.09
291
     1
 43
0.36
  3
Standard
341
0
 44
0.18
300

342
11
174
     1
178
     6
175
     1
176
     0
 93
-1056964608
 45
0.18
292
     0
297
     0
 46
0.18
343
0
 94
-1056964608
 47
1.0
 49
1.0
140
1.0
293
     1
141
0.0
294
     1
177
     0
142
1.0
295
     0
296
     0
143
0.125
271
     0
272
     9
273
     9
298
     0
  0
MLINESTYLE
  5
18
102
{ACAD_REACTORS
330
17
102
}
330
17
100
AcDbMlineStyle
  2
Standard
 70
     0
  3

 62
   256
 51
90.0
 52
90.0
 71
     2
 49
0.5
 62
   256
  6
BYLAYER
 49
-0.5
 62
   256
  6
BYLAYER
  0
ACDBPLACEHOLDER
  5
F
102
{ACAD_REACTORS
330
E
102
}
330
E
  0
SCALE
  5
48
102
{ACAD_REACTORS
330
47
102
}
330
47
100
AcDbScale
 70
     0
300
1:1
140
1.0
141
1.0
290
     1
  0
SCALE
  5
49
102
{ACAD_REACTORS
330
47
102
}
330
47
100
AcDbScale
 70
     0
300
1:2
140
1.0
141
2.0
290
     0
  0
SCALE
  5
4A
102
{ACAD_REACTORS
330
47
102
}
330
47
100
AcDbScale
 70
     0
300
1:4
140
1.0
141
4.0
290
     0
  0
SCALE
  5
4B
102
{ACAD_REACTORS
330
47
102
}
330
47
100
AcDbScale
 70
     0
300
1:5
140
1.0
141
5.0
290
     0
  0
SCALE
  5
4C
102
{ACAD_REACTORS
330
47
102
}
330
47
100
AcDbScale
 70
     0
300
1:8
140
1.0
141
8.0
290
     0
  0
SCALE
  5
4D
102
{ACAD_REACTORS
330
47
102
}
330
47
100
AcDbScale
 70
     0
300
1:10
140
1.0
141
10.0
290
     0
  0
SCALE
  5
4E
102
{ACAD_REACTORS
330
47
102
}
330
47
100
AcDbScale
 70
     0
300
1:16
140
1.0
141
16.0
290
     0
  0
SCALE
  5
4F
102
{ACAD_REACTORS
330
47
102
}
330
47
100
AcDbScale
 70
     0
300
1:20
140
1.0
141
20.0
290
     0
  0
SCALE
  5
50
102
{ACAD_REACTORS
330
47
102
}
330
47
100
AcDbScale
 70
     0
300
1:30
140
1.0
141
30.0
290
     0
  0
SCALE
  5
51
102
{ACAD_REACTORS
330
47
102
}
330
47
100
AcDbScale
 70
     0
300
1:40
140
1.0
141
40.0
290
     0
  0
SCALE
  5
52
102
{ACAD_REACTORS
330
47
102
}
330
47
100
AcDbScale
 70
     0
300
1:50
140
1.0
141
50.0
290
     0
  0
SCALE
  5
53
102
{ACAD_REACTORS
330
47
102
}
330
47
100
AcDbScale
 70
     0
300
1:100
140
1.0
141
100.0
290
     0
  0
SCALE
  5
54
102
{ACAD_REACTORS
330
47
102
}
330
47
100
AcDbScale
 70
     0
300
2:1
140
2.0
141
1.0
290
     0
  0
SCALE
  5
55
102
{ACAD_REACTORS
330
47
102
}
330
47
100
AcDbScale
 70
     0
300
4:1
140
4.0
141
1.0
290
     0
  0
SCALE
  5
56
102
{ACAD_REACTORS
330
47
102
}
330
47
100
AcDbScale
 70
     0
300
8:1
140
8.0
141
1.0
290
     0
  0
SCALE
  5
57
102
{ACAD_REACTORS
330
47
102
}
330
47
100
AcDbScale
 70
     0
300
10:1
140
10.0
141
1.0
290
     0
  0
SCALE
  5
58
102
{ACAD_REACTORS
330
47
102
}
330
47
100
AcDbScale
 70
     0
300
100:1
140
100.0
141
1.0
290
     0
  0
SCALE
  5
59
102
{ACAD_REACTORS
330
47
102
}
330
47
100
AcDbScale
 70
     0
300
1/128" = 1'-0"
140
0.0078125
141
12.0
290
     0
  0
SCALE
  5
5A
102
{ACAD_REACTORS
330
47
102
}
330
47
100
AcDbScale
 70
     0
300
1/64" = 1'-0"
140
0.015625
141
12.0
290
     0
  0
SCALE
  5
5B
102
{ACAD_REACTORS
330
47
102
}
330
47
100
AcDbScale
 70
     0
300
1/32" = 1'-0"
140
0.03125
141
12.0
290
     0
  0
SCALE
  5
5C
102
{ACAD_REACTORS
330
47
102
}
330
47
100
AcDbScale
 70
     0
300
1/16" = 1'-0"
140
0.0625
141
12.0
290
     0
  0
SCALE
  5
5D
102
{ACAD_REACTORS
330
47
102
}
330
47
100
AcDbScale
 70
     0
300
3/32" = 1'-0"
140
0.09375
141
12.0
290
     0
  0
SCALE
  5
5E
102
{ACAD_REACTORS
330
47
102
}
330
47
100
AcDbScale
 70
     0
300
1/8" = 1'-0"
140
0.125
141
12.0
290
     0
  0
SCALE
  5
5F
102
{ACAD_REACTORS
330
47
102
}
330
47
100
AcDbScale
 70
     0
300
3/16" = 1'-0"
140
0.1875
141
12.0
290
     0
  0
SCALE
  5
60
102
{ACAD_REACTORS
330
47
102
}
330
47
100
AcDbScale
 70
     0
300
1/4" = 1'-0"
140
0.25
141
12.0
290
     0
  0
SCALE
  5
61
102
{ACAD_REACTORS
330
47
102
}
330
47
100
AcDbScale
 70
     0
300
3/8" = 1'-0"
140
0.375
141
12.0
290
     0
  0
SCALE
  5
62
102
{ACAD_REACTORS
330
47
102
}
330
47
100
AcDbScale
 70
     0
300
1/2" = 1'-0"
140
0.5
141
12.0
290
     0
  0
SCALE
  5
63
102
{ACAD_REACTORS
330
47
102
}
330
47
100
AcDbScale
 70
     0
300
3/4" = 1'-0"
140
0.75
141
12.0
290
     0
  0
SCALE
  5
64
102
{ACAD_REACTORS
330
47
102
}
330
47
100
AcDbScale
 70
     0
300
1" = 1'-0"
140
1.0
141
12.0
290
     0
  0
SCALE
  5
65
102
{ACAD_REACTORS
330
47
102
}
330
47
100
AcDbScale
 70
     0
300
1-1/2" = 1'-0"
140
1.5
141
12.0
290
     0
  0
SCALE
  5
66
102
{ACAD_REACTORS
330
47
102
}
330
47
100
AcDbScale
 70
     0
300
3" = 1'-0"
140
3.0
141
12.0
290
     0
  0
SCALE
  5
67
102
{ACAD_REACTORS
330
47
102
}
330
47
100
AcDbScale
 70
     0
300
6" = 1'-0"
140
6.0
141
12.0
290
     0
  0
SCALE
  5
68
102
{ACAD_REACTORS
330
47
102
}
330
47
100
AcDbScale
 70
     0
300
1'-0" = 1'-0"
140
12.0
141
12.0
290
     0
  0
TABLESTYLE
  5
6A
102
{ACAD_REACTORS
330
69
102
}
102
{ACAD_XDICTIONARY
360
2A0
102
}
330
69
100
AcDbTableStyle
  3
Standard
 70
     0
 71
     0
 40
0.06
 41
0.06
280
     0
281
     0
  7
Standard
140
0.18
170
     2
 62
     0
 63
   257
283
     0
 90
        4
 91
        0
  1

274
    -2
284
     1
 64
     0
275
    -2
285
     1
 65
     0
276
    -2
286
     1
 66
     0
277
    -2
287
     1
 67
     0
278
    -2
288
     1
 68
     0
279
    -2
289
     1
 69
     0
  7
Standard
140
0.25
170
     5
 62
     0
 63
   257
283
     0
 90
        4
 91
        0
  1

274
    -2
284
     1
 64
     0
275
    -2
285
     1
 65
     0
276
    -2
286
     1
 66
     0
277
    -2
287
     1
 67
     0
278
    -2
288
     1
 68
     0
279
    -2
289
     1
 69
     0
  7
Standard
140
0.18
170
     5
 62
     0
 63
   257
283
     0
 90
        4
 91
        0
  1

274
    -2
284
     1
 64
     0
275
    -2
285
     1
 65
     0
276
    -2
286
     1
 66
     0
277
    -2
287
     1
 67
     0
278
    -2
288
     1
 68
     0
279
    -2
289
     1
 69
     0
  0
VISUALSTYLE
  5
2F
102
{ACAD_REACTORS
330
2A
102
}
330
2A
100
AcDbVisualStyle
  2
2dWireframe
 70
     4
177
     3
291
     0
 70
    58
 90
        0
176
     1
 90
        2
176
     1
 90
        0
176
     1
 90
        0
176
     1
 40
0.6
176
     1
 40
30.0
176
     1
 62
     7
420
 16777215
176
     1
 90
        1
176
     1
 90
        4
176
     1
 62
     7
176
     1
 62
   257
176
     1
 90
        1
176
     1
 90
        1
176
     1
 40
1.0
176
     1
 90
        0
176
     1
 62
   257
176
     1
 40
1.0
176
     1
 90
        1
176
     1
 90
        6
176
     1
 90
        2
176
     1
 62
     7
176
     1
 90
        5
176
     1
 90
        0
176
     1
 90
        0
176
     1
290
     0
176
     1
 90
        1
176
     1
 40
0.0
176
     1
 90
        0
176
     1
290
     1
176
     1
290
     1
176
     1
290
     0
176
     1
290
     0
176
     1
290
     0
176
     1
290
     0
176
     1
290
     0
176
     1
290
     0
176
     1
290
     0
176
     1
 90
       50
176
     1
 40
0.0
176
     1
 40
1.0
176
     1
 90
        0
176
     1
 62
    18
420
        0
176
     1
 90
       50
176
     1
 90
        3
176
     1
 62
     5
420
      255
176
     1
290
     0
176
     1
 90
       50
176
     1
 90
       50
176
     1
 90
       50
176
     1
290
     0
176
     1
 90
       50
176
     1
 62
   256
176
     0
 40
1.0
176
     0
 90
        2
176
     1
  1
strokes_ogs.tif
176
     1
290
     0
176
     1
 40
1.0
176
     1
 40
1.0
176
     1
  0
VISUALSTYLE
  5
32
102
{ACAD_REACTORS
330
2A
102
}
330
2A
100
AcDbVisualStyle
  2
Basic
 70
     7
177
     3
291
     1
 70
    58
 90
        1
176
     1
 90
        0
176
     1
 90
        1
176
     1
 90
        0
176
     1
 40
0.6
176
     1
 40
30.0
176
     1
 62
     7
420
 16777215
176
     1
 90
        0
176
     1
 90
        4
176
     1
 62
     7
176
     1
 62
   257
176
     1
 90
        1
176
     1
 90
        1
176
     1
 40
1.0
176
     1
 90
        8
176
     1
 62
     7
176
     1
 40
1.0
176
     1
 90
        1
176
     1
 90
        6
176
     1
 90
        2
176
     1
 62
     7
176
     1
 90
        5
176
     1
 90
        0
176
     1
 90
        0
176
     1
290
     0
176
     1
 90
        1
176
     1
 40
0.0
176
     1
 90
        0
176
     1
290
     0
176
     1
290
     1
176
     1
290
     1
176
     1
290
     0
176
     1
290
     0
176
     1
290
     0
176
     1
290
     0
176
     1
290
     0
176
     1
290
     0
176
     1
 90
       50
176
     1
 40
0.0
176
     1
 40
1.0
176
     1
 90
        0
176
     1
 62
    18
420
        0
176
     1
 90
       50
176
     1
 90
        3
176
     1
 62
     5
420
      255
176
     1
290
     0
176
     1
 90
       50
176
     1
 90
       50
176
     1
 90
       50
176
     1
290
     0
176
     1
 90
       50
176
     1
 62
   256
176
     0
 40
1.0
176
     0
 90
        2
176
     1
  1
strokes_ogs.tif
176
     1
290
     0
176
     1
 40
1.0
176
     1
 40
1.0
176
     1
  0
VISUALSTYLE
  5
36
102
{ACAD_REACTORS
330
2A
102
}
330
2A
100
AcDbVisualStyle
  2
Brighten
 70
    12
177
     3
291
     1
 70
    58
 90
        2
176
     1
 90
        2
176
     1
 90
        0
176
     1
 90
        0
176
     1
 40
0.6
176
     1
 40
30.0
176
     1
 62
     7
420
 16777215
176
     1
 90
        1
176
     1
 90
        4
176
     1
 62
     7
176
     1
 62
   257
176
     1
 90
        1
176
     1
 90
        1
176
     1
 40
1.0
176
     1
 90
        8
176
     1
 62
     7
176
     1
 40
1.0
176
     1
 90
        1
176
     1
 90
        6
176
     1
 90
        2
176
     1
 62
     7
176
     1
 90
        5
176
     1
 90
        0
176
     1
 90
        0
176
     1
290
     0
176
     1
 90
        1
176
     1
 40
50.0
176
     1
 90
        0
176
     1
290
     0
176
     1
290
     1
176
     1
290
     1
176
     1
290
     0
176
     1
290
     0
176
     1
290
     0
176
     1
290
     0
176
     1
290
     0
176
     1
290
     0
176
     1
 90
       50
176
     1
 40
0.0
176
     1
 40
1.0
176
     1
 90
        0
176
     1
 62
    18
420
        0
176
     1
 90
       50
176
     1
 90
        3
176
     1
 62
     5
420
      255
176
     1
290
     0
176
     1
 90
       50
176
     1
 90
       50
176
     1
 90
       50
176
     1
290
     0
176
     1
 90
       50
176
     1
 62
   256
176
     0
 40
1.0
176
     0
 90
        2
176
     1
  1
strokes_ogs.tif
176
     1
290
     0
176
     1
 40
1.0
176
     1
 40
1.0
176
     1
  0
VISUALSTYLE
  5
3A
102
{ACAD_REACTORS
330
2A
102
}
330
2A
100
AcDbVisualStyle
  2
ColorChange
 70
    16
177
     3
291
     1
 70
    58
 90
        2
176
     1
 90
        2
176
     1
 90
        3
176
     1
 90
        0
176
     1
 40
0.6
176
     1
 40
30.0
176
     1
 62
     8
420
  8421504
176
     1
 90
        1
176
     1
 90
        4
176
     1
 62
     7
176
     1
 62
   257
176
     1
 90
        1
176
     1
 90
        1
176
     1
 40
1.0
176
     1
 90
        8
176
     1
 62
     8
420
  8421504
176
     1
 40
1.0
176
     1
 90
        1
176
     1
 90
        6
176
     1
 90
        2
176
     1
 62
     7
176
     1
 90
        5
176
     1
 90
        0
176
     1
 90
        0
176
     1
290
     0
176
     1
 90
        1
176
     1
 40
0.0
176
     1
 90
        0
176
     1
290
     0
176
     1
290
     1
176
     1
290
     1
176
     1
290
     0
176
     1
290
     0
176
     1
290
     0
176
     1
290
     0
176
     1
290
     0
176
     1
290
     0
176
     1
 90
       50
176
     1
 40
0.0
176
     1
 40
1.0
176
     1
 90
        0
176
     1
 62
    18
420
        0
176
     1
 90
       50
176
     1
 90
        3
176
     1
 62
     5
420
      255
176
     1
290
     0
176
     1
 90
       50
176
     1
 90
       50
176
     1
 90
       50
176
     1
290
     0
176
     1
 90
       50
176
     1
 62
   256
176
     0
 40
1.0
176
     0
 90
        2
176
     1
  1
strokes_ogs.tif
176
     1
290
     0
176
     1
 40
1.0
176
     1
 40
1.0
176
     1
  0
VISUALSTYLE
  5
34
102
{ACAD_REACTORS
330
2A
102
}
330
2A
100
AcDbVisualStyle
  2
Conceptual
 70
     9
177
     3
291
     0
 70
    58
 90
        3
176
     1
 90
        2
176
     1
 90
        0
176
     1
 90
        0
176
     1
 40
0.6
176
     1
 40
30.0
176
     1
 62
     7
420
 16777215
176
     1
 90
        2
176
     1
 90
        2
176
     1
 62
     7
176
     1
 62
   257
176
     1
 90
        1
176
     1
 90
        1
176
     1
 40
179.0
176
     1
 90
        8
176
     1
 62
     7
176
     1
 40
1.0
176
     1
 90
        1
176
     1
 90
        6
176
     1
 90
        2
176
     1
 62
     7
176
     1
 90
        3
176
     1
 90
        0
176
     1
 90
        0
176
     1
290
     0
176
     1
 90
        1
176
     1
 40
0.0
176
     1
 90
        0
176
     1
290
     0
176
     1
290
     1
176
     1
290
     1
176
     1
290
     0
176
     1
290
     0
176
     1
290
     0
176
     1
290
     0
176
     1
290
     0
176
     1
290
     0
176
     1
 90
       50
176
     1
 40
0.0
176
     1
 40
1.0
176
     1
 90
        0
176
     1
 62
    18
420
        0
176
     1
 90
       50
176
     1
 90
        3
176
     1
 62
     5
420
      255
176
     1
290
     0
176
     1
 90
       50
176
     1
 90
       50
176
     1
 90
       50
176
     1
290
     0
176
     1
 90
       50
176
     1
 62
   256
176
     0
 40
1.0
176
     0
 90
        2
176
     1
  1
strokes_ogs.tif
176
     1
290
     0
176
     1
 40
1.0
176
     1
 40
1.0
176
     1
  0
VISUALSTYLE
  5
35
102
{ACAD_REACTORS
330
2A
102
}
330
2A
100
AcDbVisualStyle
  2
Dim
 70
    11
177
     3
291
     1
 70
    58
 90
        2
176
     1
 90
        2
176
     1
 90
        0
176
     1
 90
        0
176
     1
 40
0.6
176
     1
 40
30.0
176
     1
 62
     7
420
 16777215
176
     1
 90
        1
176
     1
 90
        4
176
     1
 62
     7
176
     1
 62
   257
176
     1
 90
        1
176
     1
 90
        1
176
     1
 40
1.0
176
     1
 90
        8
176
     1
 62
     7
176
     1
 40
1.0
176
     1
 90
        1
176
     1
 90
        6
176
     1
 90
        2
176
     1
 62
     7
176
     1
 90
        5
176
     1
 90
        0
176
     1
 90
        0
176
     1
290
     0
176
     1
 90
        1
176
     1
 40
-50.0
176
     1
 90
        0
176
     1
290
     0
176
     1
290
     1
176
     1
290
     1
176
     1
290
     0
176
     1
290
     0
176
     1
290
     0
176
     1
290
     0
176
     1
290
     0
176
     1
290
     0
176
     1
 90
       50
176
     1
 40
0.0
176
     1
 40
1.0
176
     1
 90
        0
176
     1
 62
    18
420
        0
176
     1
 90
       50
176
     1
 90
        3
176
     1
 62
     5
420
      255
176
     1
290
     0
176
     1
 90
       50
176
     1
 90
       50
176
     1
 90
       50
176
     1
290
     0
176
     1
 90
       50
176
     1
 62
   256
176
     0
 40
1.0
176
     0
 90
        2
176
     1
  1
strokes_ogs.tif
176
     1
290
     0
176
     1
 40
1.0
176
     1
 40
1.0
176
     1
  0
VISUALSTYLE
  5
3D
102
{ACAD_REACTORS
330
2A
102
}
330
2A
100
AcDbVisualStyle
  2
EdgeColorOff
 70
    22
177
     3
291
     1
 70
    58
 90
        2
176
     0
 90
        2
176
     0
 90
        0
176
     0
 90
        0
176
     0
 40
0.6
176
     0
 40
30.0
176
     0
 62
     7
420
 16777215
176
     0
 90
        1
176
     0
 90
        4
176
     0
 62
     7
176
     0
 62
   257
176
     0
 90
        1
176
     0
 90
        1
176
     0
 40
1.0
176
     0
 90
        8
176
     2
 62
     7
176
     0
 40
1.0
176
     0
 90
        1
176
     0
 90
        6
176
     0
 90
        2
176
     0
 62
     7
176
     0
 90
        5
176
     0
 90
        0
176
     0
 90
        0
176
     0
290
     0
176
     0
 90
        1
176
     0
 40
0.0
176
     0
 90
        0
176
     0
290
     0
176
     0
290
     1
176
     0
290
     1
176
     0
290
     0
176
     0
290
     0
176
     0
290
     0
176
     0
290
     0
176
     0
290
     0
176
     0
290
     0
176
     0
 90
       50
176
     0
 40
0.0
176
     0
 40
1.0
176
     0
 90
        0
176
     0
 62
    18
420
        0
176
     0
 90
       50
176
     0
 90
        3
176
     0
 62
     5
420
      255
176
     0
290
     0
176
     0
 90
       50
176
     0
 90
       50
176
     0
 90
       50
176
     0
290
     0
176
     0
 90
       50
176
     0
 62
   256
176
     0
 40
1.0
176
     0
 90
        2
176
     0
  1
strokes_ogs.tif
176
     0
290
     0
176
     0
 40
1.0
176
     0
 40
1.0
176
     0
  0
VISUALSTYLE
  5
39
102
{ACAD_REACTORS
330
2A
102
}
330
2A
100
AcDbVisualStyle
  2
Facepattern
 70
    15
177
     3
291
     1
 70
    58
 90
        2
176
     1
 90
        2
176
     1
 90
        0
176
     1
 90
        0
176
     1
 40
0.6
176
     1
 40
30.0
176
     1
 62
     7
420
 16777215
176
     1
 90
        1
176
     1
 90
        4
176
     1
 62
     7
176
     1
 62
   257
176
     1
 90
        1
176
     1
 90
        1
176
     1
 40
1.0
176
     1
 90
        8
176
     1
 62
     7
176
     1
 40
1.0
176
     1
 90
        1
176
     1
 90
        6
176
     1
 90
        2
176
     1
 62
     7
176
     1
 90
        5
176
     1
 90
        0
176
     1
 90
        0
176
     1
290
     0
176
     1
 90
        1
176
     1
 40
0.0
176
     1
 90
        0
176
     1
290
     0
176
     1
290
     1
176
     1
290
     1
176
     1
290
     0
176
     1
290
     0
176
     1
290
     0
176
     1
290
     0
176
     1
290
     0
176
     1
290
     0
176
     1
 90
       50
176
     1
 40
0.0
176
     1
 40
1.0
176
     1
 90
        0
176
     1
 62
    18
420
        0
176
     1
 90
       50
176
     1
 90
        3
176
     1
 62
     5
420
      255
176
     1
290
     0
176
     1
 90
       50
176
     1
 90
       50
176
     1
 90
       50
176
     1
290
     0
176
     1
 90
       50
176
     1
 62
   256
176
     0
 40
1.0
176
     0
 90
        2
176
     1
  1
strokes_ogs.tif
176
     1
290
     0
176
     1
 40
1.0
176
     1
 40
1.0
176
     1
  0
VISUALSTYLE
  5
2B
102
{ACAD_REACTORS
330
2A
102
}
330
2A
100
AcDbVisualStyle
  2
Flat
 70
     0
177
     3
291
     1
 70
    58
 90
        2
176
     1
 90
        1
176
     1
 90
        1
176
     1
 90
        2
176
     1
 40
0.6
176
     1
 40
30.0
176
     1
 62
     7
420
 16777215
176
     1
 90
        0
176
     1
 90
        0
176
     1
 62
     7
176
     1
 62
   257
176
     1
 90
        1
176
     1
 90
        1
176
     1
 40
1.0
176
     1
 90
        8
176
     1
 62
     7
176
     1
 40
1.0
176
     1
 90
        1
176
     1
 90
        6
176
     1
 90
        2
176
     1
 62
     7
176
     1
 90
        5
176
     1
 90
        0
176
     1
 90
        0
176
     1
290
     0
176
     1
 90
       13
176
     1
 40
0.0
176
     1
 90
        0
176
     1
290
     0
176
     1
290
     1
176
     1
290
     1
176
     1
290
     0
176
     1
290
     0
176
     1
290
     0
176
     1
290
     0
176
     1
290
     0
176
     1
290
     0
176
     1
 90
       50
176
     1
 40
0.0
176
     1
 40
1.0
176
     1
 90
        0
176
     1
 62
    18
420
        0
176
     1
 90
       50
176
     1
 90
        3
176
     1
 62
     5
420
      255
176
     1
290
     0
176
     1
 90
       50
176
     1
 90
       50
176
     1
 90
       50
176
     1
290
     0
176
     1
 90
       50
176
     1
 62
   256
176
     0
 40
1.0
176
     0
 90
        2
176
     1
  1
strokes_ogs.tif
176
     1
290
     0
176
     1
 40
1.0
176
     1
 40
1.0
176
     1
  0
VISUALSTYLE
  5
2C
102
{ACAD_REACTORS
330
2A
102
}
330
2A
100
AcDbVisualStyle
  2
FlatWithEdges
 70
     1
177
     3
291
     1
 70
    58
 90
        2
176
     1
 90
        1
176
     1
 90
        1
176
     1
 90
        2
176
     1
 40
0.6
176
     1
 40
30.0
176
     1
 62
     7
420
 16777215
176
     1
 90
        1
176
     1
 90
        0
176
     1
 62
     7
176
     1
 62
   257
176
     1
 90
        1
176
     1
 90
        1
176
     1
 40
1.0
176
     1
 90
        0
176
     1
 62
   257
176
     1
 40
1.0
176
     1
 90
        1
176
     1
 90
        6
176
     1
 90
        2
176
     1
 62
     7
176
     1
 90
        5
176
     1
 90
        0
176
     1
 90
        0
176
     1
290
     0
176
     1
 90
       13
176
     1
 40
0.0
176
     1
 90
        0
176
     1
290
     0
176
     1
290
     1
176
     1
290
     1
176
     1
290
     0
176
     1
290
     0
176
     1
290
     0
176
     1
290
     0
176
     1
290
     0
176
     1
290
     0
176
     1
 90
       50
176
     1
 40
0.0
176
     1
 40
1.0
176
     1
 90
        0
176
     1
 62
    18
420
        0
176
     1
 90
       50
176
     1
 90
        3
176
     1
 62
     5
420
      255
176
     1
290
     0
176
     1
 90
       50
176
     1
 90
       50
176
     1
 90
       50
176
     1
290
     0
176
     1
 90
       50
176
     1
 62
   256
176
     0
 40
1.0
176
     0
 90
        2
176
     1
  1
strokes_ogs.tif
176
     1
290
     0
176
     1
 40
1.0
176
     1
 40
1.0
176
     1
  0
VISUALSTYLE
  5
2D
102
{ACAD_REACTORS
330
2A
102
}
330
2A
100
AcDbVisualStyle
  2
Gouraud
 70
     2
177
     3
291
     1
 70
    58
 90
        2
176
     1
 90
        2
176
     1
 90
        1
176
     1
 90
        2
176
     1
 40
0.6
176
     1
 40
30.0
176
     1
 62
     7
420
 16777215
176
     1
 90
        0
176
     1
 90
        0
176
     1
 62
     7
176
     1
 62
   257
176
     1
 90
        1
176
     1
 90
        1
176
     1
 40
1.0
176
     1
 90
        0
176
     1
 62
     7
176
     1
 40
1.0
176
     1
 90
        1
176
     1
 90
        6
176
     1
 90
        2
176
     1
 62
     7
176
     1
 90
        5
176
     1
 90
        0
176
     1
 90
        0
176
     1
290
     0
176
     1
 90
       13
176
     1
 40
0.0
176
     1
 90
        0
176
     1
290
     0
176
     1
290
     1
176
     1
290
     1
176
     1
290
     0
176
     1
290
     0
176
     1
290
     0
176
     1
290
     0
176
     1
290
     0
176
     1
290
     0
176
     1
 90
       50
176
     1
 40
0.0
176
     1
 40
1.0
176
     1
 90
        0
176
     1
 62
    18
420
        0
176
     1
 90
       50
176
     1
 90
        3
176
     1
 62
     5
420
      255
176
     1
290
     0
176
     1
 90
       50
176
     1
 90
       50
176
     1
 90
       50
176
     1
290
     0
176
     1
 90
       50
176
     1
 62
   256
176
     0
 40
1.0
176
     0
 90
        2
176
     1
  1
strokes_ogs.tif
176
     1
290
     0
176
     1
 40
1.0
176
     1
 40
1.0
176
     1
  0
VISUALSTYLE
  5
2E
102
{ACAD_REACTORS
330
2A
102
}
330
2A
100
AcDbVisualStyle
  2
GouraudWithEdges
 70
     3
177
     3
291
     1
 70
    58
 90
        2
176
     1
 90
        2
176
     1
 90
        1
176
     1
 90
        2
176
     1
 40
0.6
176
     1
 40
30.0
176
     1
 62
     7
420
 16777215
176
     1
 90
        1
176
     1
 90
        0
176
     1
 62
     7
176
     1
 62
   257
176
     1
 90
        1
176
     1
 90
        1
176
     1
 40
1.0
176
     1
 90
        0
176
     1
 62
   257
176
     1
 40
1.0
176
     1
 90
        1
176
     1
 90
        6
176
     1
 90
        2
176
     1
 62
     7
176
     1
 90
        5
176
     1
 90
        0
176
     1
 90
        0
176
     1
290
     0
176
     1
 90
       13
176
     1
 40
0.0
176
     1
 90
        0
176
     1
290
     0
176
     1
290
     1
176
     1
290
     1
176
     1
290
     0
176
     1
290
     0
176
     1
290
     0
176
     1
290
     0
176
     1
290
     0
176
     1
290
     0
176
     1
 90
       50
176
     1
 40
0.0
176
     1
 40
1.0
176
     1
 90
        0
176
     1
 62
    18
420
        0
176
     1
 90
       50
176
     1
 90
        3
176
     1
 62
     5
420
      255
176
     1
290
     0
176
     1
 90
       50
176
     1
 90
       50
176
     1
 90
       50
176
     1
290
     0
176
     1
 90
       50
176
     1
 62
   256
176
     0
 40
1.0
176
     0
 90
        2
176
     1
  1
strokes_ogs.tif
176
     1
290
     0
176
     1
 40
1.0
176
     1
 40
1.0
176
     1
  0
VISUALSTYLE
  5
31
102
{ACAD_REACTORS
330
2A
102
}
330
2A
100
AcDbVisualStyle
  2
Hidden
 70
     6
177
     3
291
     0
 70
    58
 90
        1
176
     1
 90
        2
176
     1
 90
        2
176
     1
 90
        0
176
     1
 40
0.6
176
     1
 40
30.0
176
     1
 62
     7
420
 16777215
176
     1
 90
        2
176
     1
 90
        2
176
     1
 62
     7
176
     1
 62
   257
176
     1
 90
        2
176
     1
 90
        1
176
     1
 40
40.0
176
     1
 90
        0
176
     1
 62
   257
176
     1
 40
1.0
176
     1
 90
        1
176
     1
 90
        6
176
     1
 90
        2
176
     1
 62
     7
176
     1
 90
        3
176
     1
 90
        0
176
     1
 90
        0
176
     1
290
     0
176
     1
 90
        1
176
     1
 40
0.0
176
     1
 90
        0
176
     1
290
     0
176
     1
290
     1
176
     1
290
     1
176
     1
290
     0
176
     1
290
     0
176
     1
290
     0
176
     1
290
     0
176
     1
290
     0
176
     1
290
     0
176
     1
 90
       50
176
     1
 40
0.0
176
     1
 40
1.0
176
     1
 90
        0
176
     1
 62
    18
420
        0
176
     1
 90
       50
176
     1
 90
        3
176
     1
 62
     5
420
      255
176
     1
290
     0
176
     1
 90
       50
176
     1
 90
       50
176
     1
 90
       50
176
     1
290
     0
176
     1
 90
       50
176
     1
 62
   256
176
     0
 40
1.0
176
     0
 90
        2
176
     1
  1
strokes_ogs.tif
176
     1
290
     0
176
     1
 40
1.0
176
     1
 40
1.0
176
     1
  0
VISUALSTYLE
  5
3B
102
{ACAD_REACTORS
330
2A
102
}
330
2A
100
AcDbVisualStyle
  2
JitterOff
 70
    20
177
     3
291
     1
 70
    58
 90
        2
176
     0
 90
        2
176
     0
 90
        0
176
     0
 90
        0
176
     0
 40
0.6
176
     0
 40
30.0
176
     0
 62
     7
420
 16777215
176
     0
 90
        1
176
     0
 90
        4
176
     0
 62
     7
176
     0
 62
   257
176
     0
 90
        1
176
     0
 90
        1
176
     0
 40
1.0
176
     0
 90
       10
176
     2
 62
     7
176
     0
 40
1.0
176
     0
 90
        1
176
     0
 90
        6
176
     0
 90
        2
176
     0
 62
     7
176
     0
 90
        5
176
     0
 90
        0
176
     0
 90
        0
176
     0
290
     0
176
     0
 90
        1
176
     0
 40
0.0
176
     0
 90
        0
176
     0
290
     0
176
     0
290
     1
176
     0
290
     1
176
     0
290
     0
176
     0
290
     0
176
     0
290
     0
176
     0
290
     0
176
     0
290
     0
176
     0
290
     0
176
     0
 90
       50
176
     0
 40
0.0
176
     0
 40
1.0
176
     0
 90
        0
176
     0
 62
    18
420
        0
176
     0
 90
       50
176
     0
 90
        3
176
     0
 62
     5
420
      255
176
     0
290
     0
176
     0
 90
       50
176
     0
 90
       50
176
     0
 90
       50
176
     0
290
     0
176
     0
 90
       50
176
     0
 62
   256
176
     0
 40
1.0
176
     0
 90
        2
176
     0
  1
strokes_ogs.tif
176
     0
290
     0
176
     0
 40
1.0
176
     0
 40
1.0
176
     0
  0
VISUALSTYLE
  5
38
102
{ACAD_REACTORS
330
2A
102
}
330
2A
100
AcDbVisualStyle
  2
Linepattern
 70
    14
177
     3
291
     1
 70
    58
 90
        2
176
     1
 90
        2
176
     1
 90
        0
176
     1
 90
        0
176
     1
 40
0.6
176
     1
 40
30.0
176
     1
 62
     7
420
 16777215
176
     1
 90
        1
176
     1
 90
        4
176
     1
 62
     7
176
     1
 62
   257
176
     1
 90
        7
176
     1
 90
        7
176
     1
 40
1.0
176
     1
 90
        8
176
     1
 62
     7
176
     1
 40
1.0
176
     1
 90
        1
176
     1
 90
        6
176
     1
 90
        2
176
     1
 62
     7
176
     1
 90
        5
176
     1
 90
        0
176
     1
 90
        0
176
     1
290
     0
176
     1
 90
        1
176
     1
 40
0.0
176
     1
 90
        0
176
     1
290
     0
176
     1
290
     1
176
     1
290
     1
176
     1
290
     0
176
     1
290
     0
176
     1
290
     0
176
     1
290
     0
176
     1
290
     0
176
     1
290
     0
176
     1
 90
       50
176
     1
 40
0.0
176
     1
 40
1.0
176
     1
 90
        0
176
     1
 62
    18
420
        0
176
     1
 90
       50
176
     1
 90
        3
176
     1
 62
     5
420
      255
176
     1
290
     0
176
     1
 90
       50
176
     1
 90
       50
176
     1
 90
       50
176
     1
290
     0
176
     1
 90
       50
176
     1
 62
   256
176
     0
 40
1.0
176
     0
 90
        2
176
     1
  1
strokes_ogs.tif
176
     1
290
     0
176
     1
 40
1.0
176
     1
 40
1.0
176
     1
  0
VISUALSTYLE
  5
3C
102
{ACAD_REACTORS
330
2A
102
}
330
2A
100
AcDbVisualStyle
  2
OverhangOff
 70
    21
177
     3
291
     1
 70
    58
 90
        2
176
     0
 90
        2
176
     0
 90
        0
176
     0
 90
        0
176
     0
 40
0.6
176
     0
 40
30.0
176
     0
 62
     7
420
 16777215
176
     0
 90
        1
176
     0
 90
        4
176
     0
 62
     7
176
     0
 62
   257
176
     0
 90
        1
176
     0
 90
        1
176
     0
 40
1.0
176
     0
 90
        9
176
     2
 62
     7
176
     0
 40
1.0
176
     0
 90
        1
176
     0
 90
        6
176
     0
 90
        2
176
     0
 62
     7
176
     0
 90
        5
176
     0
 90
        0
176
     0
 90
        0
176
     0
290
     0
176
     0
 90
        1
176
     0
 40
0.0
176
     0
 90
        0
176
     0
290
     0
176
     0
290
     1
176
     0
290
     1
176
     0
290
     0
176
     0
290
     0
176
     0
290
     0
176
     0
290
     0
176
     0
290
     0
176
     0
290
     0
176
     0
 90
       50
176
     0
 40
0.0
176
     0
 40
1.0
176
     0
 90
        0
176
     0
 62
    18
420
        0
176
     0
 90
       50
176
     0
 90
        3
176
     0
 62
     5
420
      255
176
     0
290
     0
176
     0
 90
       50
176
     0
 90
       50
176
     0
 90
       50
176
     0
290
     0
176
     0
 90
       50
176
     0
 62
   256
176
     0
 40
1.0
176
     0
 90
        2
176
     0
  1
strokes_ogs.tif
176
     0
290
     0
176
     0
 40
1.0
176
     0
 40
1.0
176
     0
  0
VISUALSTYLE
  5
33
102
{ACAD_REACTORS
330
2A
102
}
330
2A
100
AcDbVisualStyle
  2
Realistic
 70
     8
177
     3
291
     0
 70
    58
 90
        2
176
     1
 90
        3
176
     1
 90
        0
176
     1
 90
        2
176
     1
 40
0.6
176
     1
 40
30.0
176
     1
 62
     7
420
 16777215
176
     1
 90
        0
176
     1
 90
        0
176
     1
 62
     7
176
     1
 62
   257
176
     1
 90
        1
176
     1
 90
        1
176
     1
 40
1.0
176
     1
 90
        8
176
     1
 62
   257
176
     1
 40
1.0
176
     1
 90
        1
176
     1
 90
        6
176
     1
 90
        2
176
     1
 62
     7
176
     1
 90
        3
176
     1
 90
        0
176
     1
 90
        0
176
     1
290
     0
176
     1
 90
       13
176
     1
 40
0.0
176
     1
 90
        0
176
     1
290
     0
176
     1
290
     1
176
     1
290
     1
176
     1
290
     0
176
     1
290
     0
176
     1
290
     0
176
     1
290
     0
176
     1
290
     0
176
     1
290
     0
176
     1
 90
       50
176
     1
 40
0.0
176
     1
 40
1.0
176
     1
 90
        0
176
     1
 62
    18
420
        0
176
     1
 90
       50
176
     1
 90
        3
176
     1
 62
     5
420
      255
176
     1
290
     0
176
     1
 90
       50
176
     1
 90
       50
176
     1
 90
       50
176
     1
290
     0
176
     1
 90
       50
176
     1
 62
   256
176
     0
 40
1.0
176
     0
 90
        2
176
     1
  1
strokes_ogs.tif
176
     1
290
     0
176
     1
 40
1.0
176
     1
 40
1.0
176
     1
  0
VISUALSTYLE
  5
42
102
{ACAD_REACTORS
330
2A
102
}
330
2A
100
AcDbVisualStyle
  2
Shaded
 70
    27
177
     3
291
     0
 70
    58
 90
        2
176
     1
 90
        2
176
     1
 90
        1
176
     1
 90
        2
176
     1
 40
0.6
176
     1
 40
30.0
176
     1
 62
     7
420
 16777215
176
     1
 90
        0
176
     1
 90
        4
176
     1
 62
     7
176
     1
 62
   257
176
     1
 90
        1
176
     1
 90
        1
176
     1
 40
1.0
176
     1
 90
        8
176
     1
 62
   257
176
     1
 40
1.0
176
     1
 90
        1
176
     1
 90
        6
176
     1
 90
        2
176
     1
 62
     8
420
  7895160
176
     1
 90
        3
176
     1
 90
        0
176
     1
 90
        0
176
     1
290
     0
176
     1
 90
        5
176
     1
 40
0.0
176
     1
 90
        0
176
     1
290
     0
176
     1
290
     1
176
     1
290
     1
176
     1
290
     0
176
     1
290
     0
176
     1
290
     0
176
     1
290
     0
176
     1
290
     0
176
     1
290
     0
176
     1
 90
       50
176
     1
 40
0.0
176
     1
 40
1.0
176
     1
 90
        0
176
     1
 62
    18
420
        0
176
     1
 90
       50
176
     1
 90
        3
176
     1
 62
     5
420
      255
176
     1
290
     0
176
     1
 90
       50
176
     1
 90
       50
176
     1
 90
       50
176
     1
290
     0
176
     1
 90
       50
176
     1
 62
   256
176
     0
 40
1.0
176
     0
 90
        2
176
     1
  1
strokes_ogs.tif
176
     1
290
     0
176
     1
 40
1.0
176
     1
 40
1.0
176
     1
  0
VISUALSTYLE
  5
41
102
{ACAD_REACTORS
330
2A
102
}
330
2A
100
AcDbVisualStyle
  2
Shaded with edges
 70
    26
177
     3
291
     0
 70
    58
 90
        2
176
     1
 90
        2
176
     1
 90
        1
176
     1
 90
        2
176
     1
 40
0.6
176
     1
 40
30.0
176
     1
 62
     7
420
 16777215
176
     1
 90
        1
176
     1
 90
       10
176
     1
 62
     7
176
     1
 62
   257
176
     1
 90
        2
176
     1
 90
        1
176
     1
 40
1.0
176
     1
 90
        8
176
     1
 62
   257
176
     1
 40
1.0
176
     1
 90
        1
176
     1
 90
        6
176
     1
 90
        2
176
     1
 62
     7
176
     1
 90
        3
176
     1
 90
        0
176
     1
 90
        0
176
     1
290
     0
176
     1
 90
        5
176
     1
 40
0.0
176
     1
 90
        0
176
     1
290
     0
176
     1
290
     1
176
     1
290
     1
176
     1
290
     0
176
     1
290
     0
176
     1
290
     0
176
     1
290
     0
176
     1
290
     0
176
     1
290
     0
176
     1
 90
       50
176
     1
 40
0.0
176
     1
 40
1.0
176
     1
 90
        0
176
     1
 62
    18
420
        0
176
     1
 90
       50
176
     1
 90
        3
176
     1
 62
     5
420
      255
176
     1
290
     0
176
     1
 90
       50
176
     1
 90
       50
176
     1
 90
       50
176
     1
290
     0
176
     1
 90
       50
176
     1
 62
   256
176
     0
 40
1.0
176
     0
 90
        2
176
     1
  1
strokes_ogs.tif
176
     1
290
     0
176
     1
 40
1.0
176
     1
 40
1.0
176
     1
  0
VISUALSTYLE
  5
3E
102
{ACAD_REACTORS
330
2A
102
}
330
2A
100
AcDbVisualStyle
  2
Shades of Gray
 70
    23
177
     3
291
     0
 70
    58
 90
        2
176
     1
 90
        2
176
     1
 90
        3
176
     1
 90
        0
176
     1
 40
0.6
176
     1
 40
30.0
176
     1
 62
     7
420
 16777215
176
     1
 90
        2
176
     1
 90
        2
176
     1
 62
     7
176
     1
 62
     7
176
     1
 90
        1
176
     1
 90
        1
176
     1
 40
40.0
176
     1
 90
        8
176
     1
 62
     7
176
     1
 40
1.0
176
     1
 90
        1
176
     1
 90
        6
176
     1
 90
        2
176
     1
 62
     7
176
     1
 90
        3
176
     1
 90
        0
176
     1
 90
        0
176
     1
290
     0
176
     1
 90
        1
176
     1
 40
0.0
176
     1
 90
        0
176
     1
290
     0
176
     1
290
     1
176
     1
290
     1
176
     1
290
     0
176
     1
290
     0
176
     1
290
     0
176
     1
290
     0
176
     1
290
     0
176
     1
290
     0
176
     1
 90
       50
176
     1
 40
0.0
176
     1
 40
1.0
176
     1
 90
        0
176
     1
 62
    18
420
        0
176
     1
 90
       50
176
     1
 90
        3
176
     1
 62
     5
420
      255
176
     1
290
     0
176
     1
 90
       50
176
     1
 90
       50
176
     1
 90
       50
176
     1
290
     0
176
     1
 90
       50
176
     1
 62
   256
176
     0
 40
1.0
176
     0
 90
        2
176
     1
  1
strokes_ogs.tif
176
     1
290
     0
176
     1
 40
1.0
176
     1
 40
1.0
176
     1
  0
VISUALSTYLE
  5
3F
102
{ACAD_REACTORS
330
2A
102
}
330
2A
100
AcDbVisualStyle
  2
Sketchy
 70
    24
177
     3
291
     0
 70
    58
 90
        1
176
     1
 90
        2
176
     1
 90
        2
176
     1
 90
        0
176
     1
 40
0.6
176
     1
 40
30.0
176
     1
 62
     7
420
 16777215
176
     1
 90
        2
176
     1
 90
        2
176
     1
 62
     7
176
     1
 62
     7
176
     1
 90
        1
176
     1
 90
        1
176
     1
 40
40.0
176
     1
 90
       11
176
     1
 62
     7
176
     1
 40
1.0
176
     1
 90
        1
176
     1
 90
        6
176
     1
 90
        2
176
     1
 62
     7
176
     1
 90
        6
176
     1
 90
        0
176
     1
 90
        0
176
     1
290
     0
176
     1
 90
        1
176
     1
 40
0.0
176
     1
 90
        0
176
     1
290
     0
176
     1
290
     1
176
     1
290
     1
176
     1
290
     0
176
     1
290
     0
176
     1
290
     0
176
     1
290
     0
176
     1
290
     0
176
     1
290
     0
176
     1
 90
       50
176
     1
 40
0.0
176
     1
 40
1.0
176
     1
 90
        0
176
     1
 62
    18
420
        0
176
     1
 90
       50
176
     1
 90
        3
176
     1
 62
     5
420
      255
176
     1
290
     0
176
     1
 90
       50
176
     1
 90
       50
176
     1
 90
       50
176
     1
290
     0
176
     1
 90
       50
176
     1
 62
   256
176
     0
 40
1.0
176
     0
 90
        2
176
     1
  1
strokes_ogs.tif
176
     1
290
     0
176
     1
 40
1.0
176
     1
 40
1.0
176
     1
  0
VISUALSTYLE
  5
37
102
{ACAD_REACTORS
330
2A
102
}
330
2A
100
AcDbVisualStyle
  2
Thicken
 70
    13
177
     3
291
     1
 70
    58
 90
        2
176
     1
 90
        2
176
     1
 90
        0
176
     1
 90
        0
176
     1
 40
0.6
176
     1
 40
30.0
176
     1
 62
     7
420
 16777215
176
     1
 90
        1
176
     1
 90
        4
176
     1
 62
     7
176
     1
 62
   257
176
     1
 90
        1
176
     1
 90
        1
176
     1
 40
1.0
176
     1
 90
       12
176
     1
 62
     7
176
     1
 40
1.0
176
     1
 90
        1
176
     1
 90
        6
176
     1
 90
        2
176
     1
 62
     7
176
     1
 90
        5
176
     1
 90
        0
176
     1
 90
        0
176
     1
290
     0
176
     1
 90
        1
176
     1
 40
0.0
176
     1
 90
        0
176
     1
290
     0
176
     1
290
     1
176
     1
290
     1
176
     1
290
     0
176
     1
290
     0
176
     1
290
     0
176
     1
290
     0
176
     1
290
     0
176
     1
290
     0
176
     1
 90
       50
176
     1
 40
0.0
176
     1
 40
1.0
176
     1
 90
        0
176
     1
 62
    18
420
        0
176
     1
 90
       50
176
     1
 90
        3
176
     1
 62
     5
420
      255
176
     1
290
     0
176
     1
 90
       50
176
     1
 90
       50
176
     1
 90
       50
176
     1
290
     0
176
     1
 90
       50
176
     1
 62
   256
176
     0
 40
1.0
176
     0
 90
        2
176
     1
  1
strokes_ogs.tif
176
     1
290
     0
176
     1
 40
1.0
176
     1
 40
1.0
176
     1
  0
VISUALSTYLE
  5
30
102
{ACAD_REACTORS
330
2A
102
}
330
2A
100
AcDbVisualStyle
  2
Wireframe
 70
     5
177
     3
291
     0
 70
    58
 90
        0
176
     1
 90
        2
176
     1
 90
        0
176
     1
 90
        0
176
     1
 40
0.6
176
     1
 40
30.0
176
     1
 62
     7
420
 16777215
176
     1
 90
        1
176
     1
 90
        4
176
     1
 62
     7
176
     1
 62
   257
176
     1
 90
        1
176
     1
 90
        1
176
     1
 40
1.0
176
     1
 90
        0
176
     1
 62
   257
176
     1
 40
1.0
176
     1
 90
        1
176
     1
 90
        6
176
     1
 90
        2
176
     1
 62
     7
176
     1
 90
        3
176
     1
 90
        0
176
     1
 90
        0
176
     1
290
     0
176
     1
 90
        1
176
     1
 40
0.0
176
     1
 90
        0
176
     1
290
     0
176
     1
290
     1
176
     1
290
     1
176
     1
290
     0
176
     1
290
     0
176
     1
290
     0
176
     1
290
     0
176
     1
290
     0
176
     1
290
     0
176
     1
 90
       50
176
     1
 40
0.0
176
     1
 40
1.0
176
     1
 90
        0
176
     1
 62
    18
420
        0
176
     1
 90
       50
176
     1
 90
        3
176
     1
 62
     5
420
      255
176
     1
290
     0
176
     1
 90
       50
176
     1
 90
       50
176
     1
 90
       50
176
     1
290
     0
176
     1
 90
       50
176
     1
 62
   256
176
     0
 40
1.0
176
     0
 90
        2
176
     1
  1
strokes_ogs.tif
176
     1
290
     0
176
     1
 40
1.0
176
     1
 40
1.0
176
     1
  0
VISUALSTYLE
  5
40
102
{ACAD_REACTORS
330
2A
102
}
330
2A
100
AcDbVisualStyle
  2
X-Ray
 70
    25
177
     3
291
     0
 70
    58
 90
        2
176
     1
 90
        2
176
     1
 90
        1
176
     1
 90
        1
176
     1
 40
0.5
176
     1
 40
30.0
176
     1
 62
     7
420
 16777215
176
     1
 90
        1
176
     1
 90
        0
176
     1
 62
     7
176
     1
 62
   257
176
     1
 90
        1
176
     1
 90
        1
176
     1
 40
1.0
176
     1
 90
        8
176
     1
 62
     7
176
     1
 40
1.0
176
     1
 90
        1
176
     1
 90
        6
176
     1
 90
        2
176
     1
 62
     7
176
     1
 90
        3
176
     1
 90
        0
176
     1
 90
        0
176
     1
290
     0
176
     1
 90
       13
176
     1
 40
0.0
176
     1
 90
        0
176
     1
290
     0
176
     1
290
     1
176
     1
290
     1
176
     1
290
     0
176
     1
290
     0
176
     1
290
     0
176
     1
290
     0
176
     1
290
     0
176
     1
290
     0
176
     1
 90
       50
176
     1
 40
0.0
176
     1
 40
1.0
176
     1
 90
        0
176
     1
 62
    18
420
        0
176
     1
 90
       50
176
     1
 90
        3
176
     1
 62
     5
420
      255
176
     1
290
     0
176
     1
 90
       50
176
     1
 90
       50
176
     1
 90
       50
176
     1
290
     0
176
     1
 90
       50
176
     1
 62
   256
176
     0
 40
1.0
176
     0
 90
        2
176
     1
  1
strokes_ogs.tif
176
     1
290
     0
176
     1
 40
1.0
176
     1
 40
1.0
176
     1
  0
DICTIONARYVAR
  5
29F
102
{ACAD_REACTORS
330
29E
102
}
330
29E
100
DictionaryVariables
280
     0
  1
1:1
  0
DICTIONARYVAR
  5
2A4
102
{ACAD_REACTORS
330
29E
102
}
330
29E
100
DictionaryVariables
280
     0
  1
Standard
  0
DICTIONARYVAR
  5
2A3
102
{ACAD_REACTORS
330
29E
102
}
330
29E
100
DictionaryVariables
280
     0
  1
Standard
  0
DICTIONARY
  5
2A0
330
6A
100
AcDbDictionary
280
     1
281
     1
  3
ACAD_ROUNDTRIP_2008_TABLESTYLE_CELLSTYLEMAP
360
2A1
  0
CELLSTYLEMAP
  5
2A1
102
{ACAD_REACTORS
330
2A0
102
}
330
2A0
100
AcDbCellStyleMap
 90
        3
300
CELLSTYLE
  1
TABLEFORMAT_BEGIN
 90
        5
170
     1
 91
        0
 92
    32768
 62
   257
 93
        1
300
CONTENTFORMAT
  1
CONTENTFORMAT_BEGIN
 90
        0
 91
        0
 92
        4
 93
        0
300

 40
0.0
140
1.0
 94
        5
 62
     0
340
11
144
0.25
309
CONTENTFORMAT_END
171
     1
301
MARGIN
  1
CELLMARGIN_BEGIN
 40
0.06
 40
0.06
 40
0.06
 40
0.06
 40
0.06
 40
0.06
309
CELLMARGIN_END
 94
        6
 95
        1
302
GRIDFORMAT
  1
GRIDFORMAT_BEGIN
 90
        0
 91
        1
 62
     0
 92
       -2
340
14
 93
        0
 40
0.045
309
GRIDFORMAT_END
 95
        2
302
GRIDFORMAT
  1
GRIDFORMAT_BEGIN
 90
        0
 91
        1
 62
     0
 92
       -2
340
14
 93
        0
 40
0.045
309
GRIDFORMAT_END
 95
        4
302
GRIDFORMAT
  1
GRIDFORMAT_BEGIN
 90
        0
 91
        1
 62
     0
 92
       -2
340
14
 93
        0
 40
0.045
309
GRIDFORMAT_END
 95
        8
302
GRIDFORMAT
  1
GRIDFORMAT_BEGIN
 90
        0
 91
        1
 62
     0
 92
       -2
340
14
 93
        0
 40
0.045
309
GRIDFORMAT_END
 95
       16
302
GRIDFORMAT
  1
GRIDFORMAT_BEGIN
 90
        0
 91
        1
 62
     0
 92
       -2
340
14
 93
        0
 40
0.045
309
GRIDFORMAT_END
 95
       32
302
GRIDFORMAT
  1
GRIDFORMAT_BEGIN
 90
        0
 91
        1
 62
     0
 92
       -2
340
14
 93
        0
 40
0.045
309
GRIDFORMAT_END
309
TABLEFORMAT_END
  1
CELLSTYLE_BEGIN
 90
        1
 91
        1
300
_TITLE
309
CELLSTYLE_END
300
CELLSTYLE
  1
TABLEFORMAT_BEGIN
 90
        5
170
     1
 91
        0
 92
        0
 62
   257
 93
        1
300
CONTENTFORMAT
  1
CONTENTFORMAT_BEGIN
 90
        0
 91
        0
 92
        4
 93
        0
300

 40
0.0
140
1.0
 94
        5
 62
     0
340
11
144
0.18
309
CONTENTFORMAT_END
171
     1
301
MARGIN
  1
CELLMARGIN_BEGIN
 40
0.06
 40
0.06
 40
0.06
 40
0.06
 40
0.06
 40
0.06
309
CELLMARGIN_END
 94
        6
 95
        1
302
GRIDFORMAT
  1
GRIDFORMAT_BEGIN
 90
        0
 91
        1
 62
     0
 92
       -2
340
14
 93
        0
 40
0.045
309
GRIDFORMAT_END
 95
        2
302
GRIDFORMAT
  1
GRIDFORMAT_BEGIN
 90
        0
 91
        1
 62
     0
 92
       -2
340
14
 93
        0
 40
0.045
309
GRIDFORMAT_END
 95
        4
302
GRIDFORMAT
  1
GRIDFORMAT_BEGIN
 90
        0
 91
        1
 62
     0
 92
       -2
340
14
 93
        0
 40
0.045
309
GRIDFORMAT_END
 95
        8
302
GRIDFORMAT
  1
GRIDFORMAT_BEGIN
 90
        0
 91
        1
 62
     0
 92
       -2
340
14
 93
        0
 40
0.045
309
GRIDFORMAT_END
 95
       16
302
GRIDFORMAT
  1
GRIDFORMAT_BEGIN
 90
        0
 91
        1
 62
     0
 92
       -2
340
14
 93
        0
 40
0.045
309
GRIDFORMAT_END
 95
       32
302
GRIDFORMAT
  1
GRIDFORMAT_BEGIN
 90
        0
 91
        1
 62
     0
 92
       -2
340
14
 93
        0
 40
0.045
309
GRIDFORMAT_END
309
TABLEFORMAT_END
  1
CELLSTYLE_BEGIN
 90
        2
 91
        1
300
_HEADER
309
CELLSTYLE_END
300
CELLSTYLE
  1
TABLEFORMAT_BEGIN
 90
        5
170
     1
 91
        0
 92
        0
 62
   257
 93
        1
300
CONTENTFORMAT
  1
CONTENTFORMAT_BEGIN
 90
        0
 91
        0
 92
        4
 93
        0
300

 40
0.0
140
1.0
 94
        2
 62
     0
340
11
144
0.18
309
CONTENTFORMAT_END
171
     1
301
MARGIN
  1
CELLMARGIN_BEGIN
 40
0.06
 40
0.06
 40
0.06
 40
0.06
 40
0.06
 40
0.06
309
CELLMARGIN_END
 94
        6
 95
        1
302
GRIDFORMAT
  1
GRIDFORMAT_BEGIN
 90
        0
 91
        1
 62
     0
 92
       -2
340
14
 93
        0
 40
0.045
309
GRIDFORMAT_END
 95
        2
302
GRIDFORMAT
  1
GRIDFORMAT_BEGIN
 90
        0
 91
        1
 62
     0
 92
       -2
340
14
 93
        0
 40
0.045
309
GRIDFORMAT_END
 95
        4
302
GRIDFORMAT
  1
GRIDFORMAT_BEGIN
 90
        0
 91
        1
 62
     0
 92
       -2
340
14
 93
        0
 40
0.045
309
GRIDFORMAT_END
 95
        8
302
GRIDFORMAT
  1
GRIDFORMAT_BEGIN
 90
        0
 91
        1
 62
     0
 92
       -2
340
14
 93
        0
 40
0.045
309
GRIDFORMAT_END
 95
       16
302
GRIDFORMAT
  1
GRIDFORMAT_BEGIN
 90
        0
 91
        1
 62
     0
 92
       -2
340
14
 93
        0
 40
0.045
309
GRIDFORMAT_END
 95
       32
302
GRIDFORMAT
  1
GRIDFORMAT_BEGIN
 90
        0
 91
        1
 62
     0
 92
       -2
340
14
 93
        0
 40
0.045
309
GRIDFORMAT_END
309
TABLEFORMAT_END
  1
CELLSTYLE_BEGIN
 90
        3
 91
        2
300
_DATA
309
CELLSTYLE_END
  0
ENDSEC
  0
EOF