0
SECTION
  2
HEADER
  9
$ACADVER
  1
AC1027
  9
$ACADMAINTVER
 70
     8
  9
$DWGCODEPAGE
  3
ANSI_1252
  9
$REQUIREDVERSIONS
160
                 0
  9
$COMMENTS
  1
File was created by Cadenas
  9
$CUSTOMPROPERTYTAG
  1
NN
  9
$CUSTOMPROPERTY
  1
S-2000 Wide Slot Take-Up Trident Seal
  9
$CUSTOMPROPERTYTAG
  1
NT
  9
$CUSTOMPROPERTY
  1
S-2000 Wide Slot Take-Up Bearing -Inch
  9
$CUSTOMPROPERTYTAG
  1
NB
  9
$CUSTOMPROPERTY
  1
070797
  9
$CUSTOMPROPERTYTAG
  1
NBSYN
  9
$CUSTOMPROPERTY
  1
$PN.
  9
$CUSTOMPROPERTYTAG
  1
LINA
  9
$CUSTOMPROPERTY
  1
070797
  9
$CUSTOMPROPERTYTAG
  1
SS
  9
$CUSTOMPROPERTY
  1
3-15/16
  9
$CUSTOMPROPERTYTAG
  1
PN
  9
$CUSTOMPROPERTY
  1
070797
  9
$CUSTOMPROPERTYTAG
  1
DESCRIPTION
  9
$CUSTOMPROPERTY
  1
WSTU-S2-315RE
  9
$CUSTOMPROPERTYTAG
  1
EF
  9
$CUSTOMPROPERTY
  1
Expansion Type
  9
$CUSTOMPROPERTYTAG
  1
ST
  9
$CUSTOMPROPERTY
  1
Contact Seal
  9
$CUSTOMPROPERTYTAG
  1
A
  9
$CUSTOMPROPERTY
  1
4-15/32
  9
$CUSTOMPROPERTYTAG
  1
B
  9
$CUSTOMPROPERTY
  1
12-9/16
  9
$CUSTOMPROPERTYTAG
  1
C
  9
$CUSTOMPROPERTY
  1
2-1/16
  9
$CUSTOMPROPERTYTAG
  1
D
  9
$CUSTOMPROPERTY
  1
7
  9
$CUSTOMPROPERTYTAG
  1
E
  9
$CUSTOMPROPERTY
  1
8-3/8
  9
$CUSTOMPROPERTYTAG
  1
F
  9
$CUSTOMPROPERTY
  1
2-1/8
  9
$CUSTOMPROPERTYTAG
  1
G
  9
$CUSTOMPROPERTY
  1
2-1/16
  9
$CUSTOMPROPERTYTAG
  1
H
  9
$CUSTOMPROPERTY
  1
2-1/8
  9
$CUSTOMPROPERTYTAG
  1
J
  9
$CUSTOMPROPERTY
  1
6
  9
$CUSTOMPROPERTYTAG
  1
K
  9
$CUSTOMPROPERTY
  1
3-3/8
  9
$CUSTOMPROPERTYTAG
  1
L
  9
$CUSTOMPROPERTY
  1
6
  9
$CUSTOMPROPERTYTAG
  1
M
  9
$CUSTOMPROPERTY
  1
8-5/8
  9
$CUSTOMPROPERTYTAG
  1
N
  9
$CUSTOMPROPERTY
  1
9-7/16
  9
$CUSTOMPROPERTYTAG
  1
R
  9
$CUSTOMPROPERTY
  1
4-37/64
  9
$CUSTOMPROPERTYTAG
  1
S
  9
$CUSTOMPROPERTY
  1
2-55/64
  9
$CUSTOMPROPERTYTAG
  1
T
  9
$CUSTOMPROPERTY
  1
3-7/16
  9
$CUSTOMPROPERTYTAG
  1
X
  9
$CUSTOMPROPERTY
  1
5/16
  9
$CUSTOMPROPERTYTAG
  1
Y
  9
$CUSTOMPROPERTY
  1
0.025
  9
$CUSTOMPROPERTYTAG
  1
Z
  9
$CUSTOMPROPERTY
  1
4-1/2
  9
$CUSTOMPROPERTYTAG
  1
COMPANY
  9
$CUSTOMPROPERTY
  1
baldor
  9
$INSBASE
 10
0.0
 20
0.0
 30
0.0
  9
$EXTMIN
 10
1.000000000000000E+20
 20
1.000000000000000E+20
 30
1.000000000000000E+20
  9
$EXTMAX
 10
-1.000000000000000E+20
 20
-1.000000000000000E+20
 30
-1.000000000000000E+20
  9
$LIMMIN
 10
0.0
 20
0.0
  9
$LIMMAX
 10
12.0
 20
9.0
  9
$ORTHOMODE
 70
     0
  9
$REGENMODE
 70
     1
  9
$FILLMODE
 70
     1
  9
$QTEXTMODE
 70
     0
  9
$MIRRTEXT
 70
     1
  9
$LTSCALE
 40
1.0
  9
$ATTMODE
 70
     1
  9
$TEXTSIZE
 40
0.2
  9
$TRACEWID
 40
0.05
  9
$TEXTSTYLE
  7
Standard
  9
$CLAYER
  8
0
  9
$CELTYPE
  6
ByLayer
  9
$CECOLOR
 62
   256
  9
$CELTSCALE
 40
1.0
  9
$DISPSILH
 70
     0
  9
$DIMSCALE
 40
1.0
  9
$DIMASZ
 40
0.18
  9
$DIMEXO
 40
0.0625
  9
$DIMDLI
 40
0.38
  9
$DIMRND
 40
0.0
  9
$DIMDLE
 40
0.0
  9
$DIMEXE
 40
0.18
  9
$DIMTP
 40
0.0
  9
$DIMTM
 40
0.0
  9
$DIMTXT
 40
0.18
  9
$DIMCEN
 40
0.09
  9
$DIMTSZ
 40
0.0
  9
$DIMTOL
 70
     0
  9
$DIMLIM
 70
     0
  9
$DIMTIH
 70
     1
  9
$DIMTOH
 70
     1
  9
$DIMSE1
 70
     0
  9
$DIMSE2
 70
     0
  9
$DIMTAD
 70
     0
  9
$DIMZIN
 70
     0
  9
$DIMBLK
  1

  9
$DIMASO
 70
     1
  9
$DIMSHO
 70
     1
  9
$DIMPOST
  1

  9
$DIMAPOST
  1

  9
$DIMALT
 70
     0
  9
$DIMALTD
 70
     2
  9
$DIMALTF
 40
25.4
  9
$DIMLFAC
 40
1.0
  9
$DIMTOFL
 70
     0
  9
$DIMTVP
 40
0.0
  9
$DIMTIX
 70
     0
  9
$DIMSOXD
 70
     0
  9
$DIMSAH
 70
     0
  9
$DIMBLK1
  1

  9
$DIMBLK2
  1

  9
$DIMSTYLE
  2
Standard
  9
$DIMCLRD
 70
     0
  9
$DIMCLRE
 70
     0
  9
$DIMCLRT
 70
     0
  9
$DIMTFAC
 40
1.0
  9
$DIMGAP
 40
0.09
  9
$DIMJUST
 70
     0
  9
$DIMSD1
 70
     0
  9
$DIMSD2
 70
     0
  9
$DIMTOLJ
 70
     1
  9
$DIMTZIN
 70
     0
  9
$DIMALTZ
 70
     0
  9
$DIMALTTZ
 70
     0
  9
$DIMUPT
 70
     0
  9
$DIMDEC
 70
     4
  9
$DIMTDEC
 70
     4
  9
$DIMALTU
 70
     2
  9
$DIMALTTD
 70
     2
  9
$DIMTXSTY
  7
Standard
  9
$DIMAUNIT
 70
     0
  9
$DIMADEC
 70
     0
  9
$DIMALTRND
 40
0.0
  9
$DIMAZIN
 70
     0
  9
$DIMDSEP
 70
    46
  9
$DIMATFIT
 70
     3
  9
$DIMFRAC
 70
     0
  9
$DIMLDRBLK
  1

  9
$DIMLUNIT
 70
     2
  9
$DIMLWD
 70
    -2
  9
$DIMLWE
 70
    -2
  9
$DIMTMOVE
 70
     0
  9
$DIMFXL
 40
1.0
  9
$DIMFXLON
 70
     0
  9
$DIMJOGANG
 40
0.7853981633974483
  9
$DIMTFILL
 70
     0
  9
$DIMTFILLCLR
 70
     0
  9
$DIMARCSYM
 70
     0
  9
$DIMLTYPE
  6

  9
$DIMLTEX1
  6

  9
$DIMLTEX2
  6

  9
$DIMTXTDIRECTION
 70
     0
  9
$LUNITS
 70
     2
  9
$LUPREC
 70
     4
  9
$SKETCHINC
 40
0.1
  9
$FILLETRAD
 40
0.5
  9
$AUNITS
 70
     0
  9
$AUPREC
 70
     0
  9
$MENU
  1
.
  9
$ELEVATION
 40
0.0
  9
$PELEVATION
 40
0.0
  9
$THICKNESS
 40
0.0
  9
$LIMCHECK
 70
     0
  9
$CHAMFERA
 40
0.0
  9
$CHAMFERB
 40
0.0
  9
$CHAMFERC
 40
0.0
  9
$CHAMFERD
 40
0.0
  9
$SKPOLY
 70
     0
  9
$TDCREATE
 40
2458168.961235614
  9
$TDUCREATE
 40
2458168.919568947
  9
$TDUPDATE
 40
2458168.961235787
  9
$TDUUPDATE
 40
2458168.91956912
  9
$TDINDWG
 40
0.0000000116
  9
$TDUSRTIMER
 40
0.0000000116
  9
$USRTIMER
 70
     1
  9
$ANGBASE
 50
0.0
  9
$ANGDIR
 70
     0
  9
$PDMODE
 70
     0
  9
$PDSIZE
 40
0.0
  9
$PLINEWID
 40
0.0
  9
$SPLFRAME
 70
     0
  9
$SPLINETYPE
 70
     6
  9
$SPLINESEGS
 70
     8
  9
$HANDSEED
  5
228
  9
$SURFTAB1
 70
     6
  9
$SURFTAB2
 70
     6
  9
$SURFTYPE
 70
     6
  9
$SURFU
 70
     6
  9
$SURFV
 70
     6
  9
$UCSBASE
  2

  9
$UCSNAME
  2

  9
$UCSORG
 10
0.0
 20
0.0
 30
0.0
  9
$UCSXDIR
 10
1.0
 20
0.0
 30
0.0
  9
$UCSYDIR
 10
0.0
 20
1.0
 30
0.0
  9
$UCSORTHOREF
  2

  9
$UCSORTHOVIEW
 70
     0
  9
$UCSORGTOP
 10
0.0
 20
0.0
 30
0.0
  9
$UCSORGBOTTOM
 10
0.0
 20
0.0
 30
0.0
  9
$UCSORGLEFT
 10
0.0
 20
0.0
 30
0.0
  9
$UCSORGRIGHT
 10
0.0
 20
0.0
 30
0.0
  9
$UCSORGFRONT
 10
0.0
 20
0.0
 30
0.0
  9
$UCSORGBACK
 10
0.0
 20
0.0
 30
0.0
  9
$PUCSBASE
  2

  9
$PUCSNAME
  2

  9
$PUCSORG
 10
0.0
 20
0.0
 30
0.0
  9
$PUCSXDIR
 10
1.0
 20
0.0
 30
0.0
  9
$PUCSYDIR
 10
0.0
 20
1.0
 30
0.0
  9
$PUCSORTHOREF
  2

  9
$PUCSORTHOVIEW
 70
     0
  9
$PUCSORGTOP
 10
0.0
 20
0.0
 30
0.0
  9
$PUCSORGBOTTOM
 10
0.0
 20
0.0
 30
0.0
  9
$PUCSORGLEFT
 10
0.0
 20
0.0
 30
0.0
  9
$PUCSORGRIGHT
 10
0.0
 20
0.0
 30
0.0
  9
$PUCSORGFRONT
 10
0.0
 20
0.0
 30
0.0
  9
$PUCSORGBACK
 10
0.0
 20
0.0
 30
0.0
  9
$USERI1
 70
     0
  9
$USERI2
 70
     0
  9
$USERI3
 70
     0
  9
$USERI4
 70
     0
  9
$USERI5
 70
     0
  9
$USERR1
 40
0.0
  9
$USERR2
 40
0.0
  9
$USERR3
 40
0.0
  9
$USERR4
 40
0.0
  9
$USERR5
 40
0.0
  9
$WORLDVIEW
 70
     1
  9
$SHADEDGE
 70
     3
  9
$SHADEDIF
 70
    70
  9
$TILEMODE
 70
     1
  9
$MAXACTVP
 70
    64
  9
$PINSBASE
 10
0.0
 20
0.0
 30
0.0
  9
$PLIMCHECK
 70
     0
  9
$PEXTMIN
 10
1.000000000000000E+20
 20
1.000000000000000E+20
 30
1.000000000000000E+20
  9
$PEXTMAX
 10
-1.000000000000000E+20
 20
-1.000000000000000E+20
 30
-1.000000000000000E+20
  9
$PLIMMIN
 10
0.0
 20
0.0
  9
$PLIMMAX
 10
12.0
 20
9.0
  9
$UNITMODE
 70
     0
  9
$VISRETAIN
 70
     1
  9
$PLINEGEN
 70
     0
  9
$PSLTSCALE
 70
     1
  9
$TREEDEPTH
 70
  3020
  9
$CMLSTYLE
  2
Standard
  9
$CMLJUST
 70
     0
  9
$CMLSCALE
 40
1.0
  9
$PROXYGRAPHICS
 70
     1
  9
$MEASUREMENT
 70
     0
  9
$CELWEIGHT
370
    -1
  9
$ENDCAPS
280
     0
  9
$JOINSTYLE
280
     0
  9
$LWDISPLAY
290
     0
  9
$INSUNITS
 70
     1
  9
$HYPERLINKBASE
  1

  9
$STYLESHEET
  1

  9
$XEDIT
290
     1
  9
$CEPSNTYPE
380
     0
  9
$PSTYLEMODE
290
     1
  9
$FINGERPRINTGUID
  2
{3330A887-4DF0-45CA-8578-4DDB732CB115}
  9
$VERSIONGUID
  2
{FAEB1C32-E019-11D5-929B-00C0DF256EC4}
  9
$EXTNAMES
290
     1
  9
$PSVPSCALE
 40
0.0
  9
$OLESTARTUP
290
     0
  9
$SORTENTS
280
   127
  9
$INDEXCTL
280
     0
  9
$HIDETEXT
280
     1
  9
$XCLIPFRAME
280
     2
  9
$HALOGAP
280
     0
  9
$OBSCOLOR
 70
   257
  9
$OBSLTYPE
280
     0
  9
$INTERSECTIONDISPLAY
280
     0
  9
$INTERSECTIONCOLOR
 70
   257
  9
$DIMASSOC
280
     2
  9
$PROJECTNAME
  1

  9
$CAMERADISPLAY
290
     0
  9
$LENSLENGTH
 40
50.0
  9
$CAMERAHEIGHT
 40
0.0
  9
$STEPSPERSEC
 40
2.0
  9
$STEPSIZE
 40
6.0
  9
$3DDWFPREC
 40
2.0
  9
$PSOLWIDTH
 40
0.25
  9
$PSOLHEIGHT
 40
4.0
  9
$LOFTANG1
 40
1.570796326794897
  9
$LOFTANG2
 40
1.570796326794897
  9
$LOFTMAG1
 40
0.0
  9
$LOFTMAG2
 40
0.0
  9
$LOFTPARAM
 70
     7
  9
$LOFTNORMALS
280
     1
  9
$LATITUDE
 40
37.795
  9
$LONGITUDE
 40
-122.394
  9
$NORTHDIRECTION
 40
0.0
  9
$TIMEZONE
 70
 -8000
  9
$LIGHTGLYPHDISPLAY
280
     1
  9
$TILEMODELIGHTSYNCH
280
     1
  9
$CMATERIAL
347
44
  9
$SOLIDHIST
280
     0
  9
$SHOWHIST
280
     1
  9
$DWFFRAME
280
     2
  9
$DGNFRAME
280
     2
  9
$REALWORLDSCALE
290
     1
  9
$INTERFERECOLOR
 62
   256
  9
$CSHADOW
280
     0
  9
$SHADOWPLANELOCATION
 40
0.0
  0
ENDSEC
  0
SECTION
  2
CLASSES
  0
CLASS
  1
ACDBDICTIONARYWDFLT
  2
AcDbDictionaryWithDefault
  3
ObjectDBX Classes
 90
        0
 91
        4
280
     0
281
     0
  0
CLASS
  1
VISUALSTYLE
  2
AcDbVisualStyle
  3
ObjectDBX Classes
 90
     4095
 91
        4
280
     0
281
     0
  0
CLASS
  1
MATERIAL
  2
AcDbMaterial
  3
ObjectDBX Classes
 90
     1153
 91
        4
280
     0
281
     0
  0
CLASS
  1
SCALE
  2
AcDbScale
  3
ObjectDBX Classes
 90
     1153
 91
        4
280
     0
281
     0
  0
CLASS
  1
TABLESTYLE
  2
AcDbTableStyle
  3
ObjectDBX Classes
 90
     4095
 91
        4
280
     0
281
     0
  0
CLASS
  1
MLEADERSTYLE
  2
AcDbMLeaderStyle
  3
ACDB_MLEADERSTYLE_CLASS
 90
     4095
 91
        4
280
     0
281
     0
  0
CLASS
  1
SUN
  2
AcDbSun
  3
SCENEOE
 90
     1153
 91
        4
280
     0
281
     0
  0
CLASS
  1
DICTIONARYVAR
  2
AcDbDictionaryVar
  3
ObjectDBX Classes
 90
        0
 91
        4
280
     0
281
     0
  0
CLASS
  1
CELLSTYLEMAP
  2
AcDbCellStyleMap
  3
ObjectDBX Classes
 90
     1152
 91
        4
280
     0
281
     0
  0
ENDSEC
  0
SECTION
  2
TABLES
  0
TABLE
  2
VPORT
  5
8
330
0
100
AcDbSymbolTable
 70
     1
  0
VPORT
  5
29
330
8
100
AcDbSymbolTableRecord
100
AcDbViewportTableRecord
  2
*Active
 70
     0
 10
0.0
 20
0.0
 11
1.0
 21
1.0
 12
2.104334804955183
 22
0.1352500000000001
 13
0.0
 23
0.0
 14
0.5
 24
0.5
 15
0.5
 25
0.5
 16
0.0
 26
0.0
 36
1.0
 17
0.0
 27
0.0
 37
0.0
 40
6.109035
 41
2.130131968124495
 42
50.0
 43
0.0
 44
0.0
 50
0.0
 51
0.0
 71
     0
 72
   100
 73
     1
 74
     3
 75
     0
 76
     0
 77
     0
 78
     0
281
     0
 65
     1
110
0.0
120
0.0
130
0.0
111
1.0
121
0.0
131
0.0
112
0.0
122
1.0
132
0.0
 79
     0
146
0.0
348
2F
 60
     3
 61
     5
292
     1
282
     1
141
0.0
142
0.0
 63
   250
361
6D
  0
ENDTAB
  0
TABLE
  2
LTYPE
  5
5
330
0
100
AcDbSymbolTable
 70
     3
  0
LTYPE
  5
14
330
5
100
AcDbSymbolTableRecord
100
AcDbLinetypeTableRecord
  2
ByBlock
 70
     0
  3

 72
    65
 73
     0
 40
0.0
  0
LTYPE
  5
15
330
5
100
AcDbSymbolTableRecord
100
AcDbLinetypeTableRecord
  2
ByLayer
 70
     0
  3

 72
    65
 73
     0
 40
0.0
  0
LTYPE
  5
16
330
5
100
AcDbSymbolTableRecord
100
AcDbLinetypeTableRecord
  2
Continuous
 70
     0
  3
Solid line
 72
    65
 73
     0
 40
0.0
  0
LTYPE
  5
AA
330
5
100
AcDbSymbolTableRecord
100
AcDbLinetypeTableRecord
  2
Dashed
 70
     0
  3

 72
    65
 73
     2
 40
2.0
 49
1.0
 74
     0
 49
-1.0
 74
     0
  0
LTYPE
  5
C7
330
5
100
AcDbSymbolTableRecord
100
AcDbLinetypeTableRecord
  2
Center
 70
     0
  3

 72
    65
 73
     4
 40
1.5
 49
0.45
 74
     0
 49
-0.5
 74
     0
 49
0.05
 74
     0
 49
-0.5
 74
     0
  0
ENDTAB
  0
TABLE
  2
LAYER
  5
2
330
0
100
AcDbSymbolTable
 70
     7
  0
LAYER
  5
10
330
2
100
AcDbSymbolTableRecord
100
AcDbLayerTableRecord
  2
0
 70
     0
 62
     7
  6
Continuous
370
    -3
390
F
347
46
348
0
  0
LAYER
  5
72
330
2
100
AcDbSymbolTableRecord
100
AcDbLayerTableRecord
  2
AM_6
 70
     0
 62
    -2
  6
Continuous
370
    35
390
F
347
46
348
0
  0
LAYER
  5
AB
330
2
100
AcDbSymbolTableRecord
100
AcDbLayerTableRecord
  2
AM_9
 70
     0
 62
     6
  6
Dashed
370
    25
390
F
347
46
348
0
  0
LAYER
  5
C8
330
2
100
AcDbSymbolTableRecord
100
AcDbLayerTableRecord
  2
AM_7
 70
     0
 62
     7
  6
Center
370
    25
390
F
347
46
348
0
  0
LAYER
  5
CA
330
2
100
AcDbSymbolTableRecord
100
AcDbLayerTableRecord
  2
AM_4
 70
     0
 62
     7
  6
Continuous
370
    50
390
F
347
46
348
0
  0
LAYER
  5
E1
330
2
100
AcDbSymbolTableRecord
100
AcDbLayerTableRecord
  2
AM_5
 70
     0
 62
     3
  6
Continuous
370
    25
390
F
347
46
348
0
  0
LAYER
  5
217
330
2
100
AcDbSymbolTableRecord
100
AcDbLayerTableRecord
  2
ConnectionPoints
 70
     0
 62
     7
  6
Continuous
370
    50
390
F
347
46
348
0
  0
ENDTAB
  0
TABLE
  2
STYLE
  5
3
330
0
100
AcDbSymbolTable
 70
     1
  0
STYLE
  5
11
330
3
100
AcDbSymbolTableRecord
100
AcDbTextStyleTableRecord
  2
Standard
 70
     0
 40
0.0
 41
1.0
 50
0.0
 71
     0
 42
0.2
  3
txt
  4

  0
ENDTAB
  0
TABLE
  2
VIEW
  5
6
330
0
100
AcDbSymbolTable
 70
     0
  0
ENDTAB
  0
TABLE
  2
UCS
  5
7
330
0
100
AcDbSymbolTable
 70
     0
  0
ENDTAB
  0
TABLE
  2
APPID
  5
9
330
0
100
AcDbSymbolTable
 70
     1
  0
APPID
  5
12
330
9
100
AcDbSymbolTableRecord
100
AcDbRegAppTableRecord
  2
ACAD
 70
     0
  0
ENDTAB
  0
TABLE
  2
DIMSTYLE
  5
A
330
0
100
AcDbSymbolTable
 70
     1
100
AcDbDimStyleTable
  0
DIMSTYLE
105
27
330
A
100
AcDbSymbolTableRecord
100
AcDbDimStyleTableRecord
  2
Standard
 70
     0
178
     0
340
11
  0
ENDTAB
  0
TABLE
  2
BLOCK_RECORD
  5
1
330
0
100
AcDbSymbolTable
 70
     6
  0
BLOCK_RECORD
  5
1F
330
1
100
AcDbSymbolTableRecord
100
AcDbBlockTableRecord
  2
*Model_Space
340
22
 70
     0
280
     1
281
     0
  0
BLOCK_RECORD
  5
1B
330
1
100
AcDbSymbolTableRecord
100
AcDbBlockTableRecord
  2
*Paper_Space
340
1E
 70
     0
280
     1
281
     0
  0
BLOCK_RECORD
  5
23
330
1
100
AcDbSymbolTableRecord
100
AcDbBlockTableRecord
  2
*Paper_Space0
340
26
 70
     0
280
     1
281
     0
  0
BLOCK_RECORD
  5
6E
330
1
100
AcDbSymbolTableRecord
100
AcDbBlockTableRecord
  2
1_070797_4
340
0
102
{BLKREFS
331
6F
102
}
 70
     0
280
     1
281
     0
  0
BLOCK_RECORD
  5
91
330
1
100
AcDbSymbolTableRecord
100
AcDbBlockTableRecord
  2
2_3_15_16CS2i_0_in_070797_4
340
0
102
{BLKREFS
331
92
102
}
 70
     0
280
     1
281
     0
  0
BLOCK_RECORD
  5
E3
330
1
100
AcDbSymbolTableRecord
100
AcDbBlockTableRecord
  2
3_070013i_0_in_070797_4
340
0
102
{BLKREFS
331
E4
102
}
 70
     0
280
     1
281
     0
  0
BLOCK_RECORD
  5
139
330
1
100
AcDbSymbolTableRecord
100
AcDbBlockTableRecord
  2
4_405016_Inch_0_in_070797_4
340
0
102
{BLKREFS
331
13A
102
}
 70
     0
280
     1
281
     0
  0
BLOCK_RECORD
  5
1BC
330
1
100
AcDbSymbolTableRecord
100
AcDbBlockTableRecord
  2
5_070797H_0_in_070797_4
340
0
102
{BLKREFS
331
1BD
102
}
 70
     0
280
     1
281
     0
  0
ENDTAB
  0
ENDSEC
  0
SECTION
  2
BLOCKS
  0
BLOCK
  5
20
330
1F
100
AcDbEntity
  8
0
100
AcDbBlockBegin
  2
*Model_Space
 70
     0
 10
0.0
 20
0.0
 30
0.0
  3
*Model_Space
  1

  0
ENDBLK
  5
21
330
1F
100
AcDbEntity
  8
0
100
AcDbBlockEnd
  0
BLOCK
  5
1C
330
1B
100
AcDbEntity
 67
     1
  8
0
100
AcDbBlockBegin
  2
*Paper_Space
 70
     0
 10
0.0
 20
0.0
 30
0.0
  3
*Paper_Space
  1

  0
ENDBLK
  5
1D
330
1B
100
AcDbEntity
 67
     1
  8
0
100
AcDbBlockEnd
  0
BLOCK
  5
24
330
23
100
AcDbEntity
  8
0
100
AcDbBlockBegin
  2
*Paper_Space0
 70
     0
 10
0.0
 20
0.0
 30
0.0
  3
*Paper_Space0
  1

  0
ENDBLK
  5
25
330
23
100
AcDbEntity
  8
0
100
AcDbBlockEnd
  0
BLOCK
  5
70
330
6E
100
AcDbEntity
  8
0
100
AcDbBlockBegin
  2
1_070797_4
 70
     2
 10
0.0
 20
0.0
 30
0.0
  3
1_070797_4
  1

  0
ATTDEF
  5
73
330
6E
100
AcDbEntity
  8
AM_6
100
AcDbText
 10
13.48328125
 20
2.16171875
 30
0.0
 40
0.5
  1
S-2000 Wide Slot Take-Up Trident Seal
100
AcDbAttributeDefinition
  3

  2
NN
 70
     8
280
     0
  0
ATTDEF
  5
74
330
6E
100
AcDbEntity
  8
AM_6
100
AcDbText
 10
13.48328125
 20
1.66171875
 30
0.0
 40
0.5
  1
S-2000 Wide Slot Take-Up Bearing -Inch
100
AcDbAttributeDefinition
  3

  2
NT
 70
     8
280
     0
  0
ATTDEF
  5
75
330
6E
100
AcDbEntity
  8
AM_6
100
AcDbText
 10
13.48328125
 20
1.16171875
 30
0.0
 40
0.5
  1
070797
100
AcDbAttributeDefinition
  3

  2
NB
 70
     8
280
     0
  0
ATTDEF
  5
76
330
6E
100
AcDbEntity
  8
AM_6
100
AcDbText
 10
13.48328125
 20
0.6617187499999999
 30
0.0
 40
0.5
  1
$PN.
100
AcDbAttributeDefinition
  3

  2
NBSYN
 70
     8
280
     0
  0
ATTDEF
  5
77
330
6E
100
AcDbEntity
  8
AM_6
100
AcDbText
 10
13.48328125
 20
0.1617187499999999
 30
0.0
 40
0.5
  1
070797
100
AcDbAttributeDefinition
  3

  2
LINA
 70
     8
280
     0
  0
ATTDEF
  5
78
330
6E
100
AcDbEntity
  8
AM_6
100
AcDbText
 10
13.48328125
 20
-0.3382812500000001
 30
0.0
 40
0.5
  1
3-15/16
100
AcDbAttributeDefinition
  3

  2
SS
 70
     8
280
     0
  0
ATTDEF
  5
79
330
6E
100
AcDbEntity
  8
AM_6
100
AcDbText
 10
13.48328125
 20
-0.8382812500000001
 30
0.0
 40
0.5
  1
070797
100
AcDbAttributeDefinition
  3

  2
PN
 70
     8
280
     0
  0
ATTDEF
  5
7A
330
6E
100
AcDbEntity
  8
AM_6
100
AcDbText
 10
13.48328125
 20
-1.33828125
 30
0.0
 40
0.5
  1
WSTU-S2-315RE
100
AcDbAttributeDefinition
  3

  2
DESCRIPTION
 70
     8
280
     0
  0
ATTDEF
  5
7B
330
6E
100
AcDbEntity
  8
AM_6
100
AcDbText
 10
13.48328125
 20
-1.83828125
 30
0.0
 40
0.5
  1
Expansion Type
100
AcDbAttributeDefinition
  3

  2
EF
 70
     8
280
     0
  0
ATTDEF
  5
7C
330
6E
100
AcDbEntity
  8
AM_6
100
AcDbText
 10
13.48328125
 20
-2.33828125
 30
0.0
 40
0.5
  1
Contact Seal
100
AcDbAttributeDefinition
  3

  2
ST
 70
     8
280
     0
  0
ATTDEF
  5
7D
330
6E
100
AcDbEntity
  8
AM_6
100
AcDbText
 10
13.48328125
 20
-2.83828125
 30
0.0
 40
0.5
  1
4-15/32
100
AcDbAttributeDefinition
  3

  2
A
 70
     8
280
     0
  0
ATTDEF
  5
7E
330
6E
100
AcDbEntity
  8
AM_6
100
AcDbText
 10
13.48328125
 20
-3.33828125
 30
0.0
 40
0.5
  1
12-9/16
100
AcDbAttributeDefinition
  3

  2
B
 70
     8
280
     0
  0
ATTDEF
  5
7F
330
6E
100
AcDbEntity
  8
AM_6
100
AcDbText
 10
13.48328125
 20
-3.83828125
 30
0.0
 40
0.5
  1
2-1/16
100
AcDbAttributeDefinition
  3

  2
C
 70
     8
280
     0
  0
ATTDEF
  5
80
330
6E
100
AcDbEntity
  8
AM_6
100
AcDbText
 10
13.48328125
 20
-4.33828125
 30
0.0
 40
0.5
  1
7
100
AcDbAttributeDefinition
  3

  2
D
 70
     8
280
     0
  0
ATTDEF
  5
81
330
6E
100
AcDbEntity
  8
AM_6
100
AcDbText
 10
13.48328125
 20
-4.83828125
 30
0.0
 40
0.5
  1
8-3/8
100
AcDbAttributeDefinition
  3

  2
E
 70
     8
280
     0
  0
ATTDEF
  5
82
330
6E
100
AcDbEntity
  8
AM_6
100
AcDbText
 10
13.48328125
 20
-5.33828125
 30
0.0
 40
0.5
  1
2-1/8
100
AcDbAttributeDefinition
  3

  2
F
 70
     8
280
     0
  0
ATTDEF
  5
83
330
6E
100
AcDbEntity
  8
AM_6
100
AcDbText
 10
13.48328125
 20
-5.83828125
 30
0.0
 40
0.5
  1
2-1/16
100
AcDbAttributeDefinition
  3

  2
G
 70
     8
280
     0
  0
ATTDEF
  5
84
330
6E
100
AcDbEntity
  8
AM_6
100
AcDbText
 10
13.48328125
 20
-6.33828125
 30
0.0
 40
0.5
  1
2-1/8
100
AcDbAttributeDefinition
  3

  2
H
 70
     8
280
     0
  0
ATTDEF
  5
85
330
6E
100
AcDbEntity
  8
AM_6
100
AcDbText
 10
13.48328125
 20
-6.83828125
 30
0.0
 40
0.5
  1
6
100
AcDbAttributeDefinition
  3

  2
J
 70
     8
280
     0
  0
ATTDEF
  5
86
330
6E
100
AcDbEntity
  8
AM_6
100
AcDbText
 10
13.48328125
 20
-7.33828125
 30
0.0
 40
0.5
  1
3-3/8
100
AcDbAttributeDefinition
  3

  2
K
 70
     8
280
     0
  0
ATTDEF
  5
87
330
6E
100
AcDbEntity
  8
AM_6
100
AcDbText
 10
13.48328125
 20
-7.83828125
 30
0.0
 40
0.5
  1
6
100
AcDbAttributeDefinition
  3

  2
L
 70
     8
280
     0
  0
ATTDEF
  5
88
330
6E
100
AcDbEntity
  8
AM_6
100
AcDbText
 10
13.48328125
 20
-8.33828125
 30
0.0
 40
0.5
  1
8-5/8
100
AcDbAttributeDefinition
  3

  2
M
 70
     8
280
     0
  0
ATTDEF
  5
89
330
6E
100
AcDbEntity
  8
AM_6
100
AcDbText
 10
13.48328125
 20
-8.83828125
 30
0.0
 40
0.5
  1
9-7/16
100
AcDbAttributeDefinition
  3

  2
N
 70
     8
280
     0
  0
ATTDEF
  5
8A
330
6E
100
AcDbEntity
  8
AM_6
100
AcDbText
 10
13.48328125
 20
-9.33828125
 30
0.0
 40
0.5
  1
4-37/64
100
AcDbAttributeDefinition
  3

  2
R
 70
     8
280
     0
  0
ATTDEF
  5
8B
330
6E
100
AcDbEntity
  8
AM_6
100
AcDbText
 10
13.48328125
 20
-9.83828125
 30
0.0
 40
0.5
  1
2-55/64
100
AcDbAttributeDefinition
  3

  2
S
 70
     8
280
     0
  0
ATTDEF
  5
8C
330
6E
100
AcDbEntity
  8
AM_6
100
AcDbText
 10
13.48328125
 20
-10.33828125
 30
0.0
 40
0.5
  1
3-7/16
100
AcDbAttributeDefinition
  3

  2
T
 70
     8
280
     0
  0
ATTDEF
  5
8D
330
6E
100
AcDbEntity
  8
AM_6
100
AcDbText
 10
13.48328125
 20
-10.83828125
 30
0.0
 40
0.5
  1
5/16
100
AcDbAttributeDefinition
  3

  2
X
 70
     8
280
     0
  0
ATTDEF
  5
8E
330
6E
100
AcDbEntity
  8
AM_6
100
AcDbText
 10
13.48328125
 20
-11.33828125
 30
0.0
 40
0.5
  1
0.025
100
AcDbAttributeDefinition
  3

  2
Y
 70
     8
280
     0
  0
ATTDEF
  5
8F
330
6E
100
AcDbEntity
  8
AM_6
100
AcDbText
 10
13.48328125
 20
-11.83828125
 30
0.0
 40
0.5
  1
4-1/2
100
AcDbAttributeDefinition
  3

  2
Z
 70
     8
280
     0
  0
ATTDEF
  5
90
330
6E
100
AcDbEntity
  8
AM_6
100
AcDbText
 10
13.48328125
 20
-12.33828125
 30
0.0
 40
0.5
  1
baldor
100
AcDbAttributeDefinition
  3

  2
COMPANY
 70
     8
280
     0
  0
INSERT
  5
92
330
6E
100
AcDbEntity
  8
0
100
AcDbBlockReference
  2
2_3_15_16CS2i_0_in_070797_4
 10
0.0
 20
0.0
 30
0.0
  0
INSERT
  5
E4
330
6E
100
AcDbEntity
  8
0
100
AcDbBlockReference
  2
3_070013i_0_in_070797_4
 10
0.0
 20
0.0
 30
0.0
  0
INSERT
  5
13A
330
6E
100
AcDbEntity
  8
0
100
AcDbBlockReference
  2
4_405016_Inch_0_in_070797_4
 10
0.0
 20
0.0
 30
0.0
  0
INSERT
  5
1BD
330
6E
100
AcDbEntity
  8
0
100
AcDbBlockReference
  2
5_070797H_0_in_070797_4
 10
0.0
 20
0.0
 30
0.0
  0
ENDBLK
  5
71
330
6E
100
AcDbEntity
  8
0
100
AcDbBlockEnd
  0
BLOCK
  5
93
330
91
100
AcDbEntity
  8
0
100
AcDbBlockBegin
  2
2_3_15_16CS2i_0_in_070797_4
 70
     2
 10
0.0
 20
0.0
 30
0.0
  3
2_3_15_16CS2i_0_in_070797_4
  1

  0
ATTDEF
  5
95
330
91
100
AcDbEntity
  8
AM_6
100
AcDbText
 10
8.0
 20
-1.536875
 30
0.0
 40
0.5
  1
S-2000 Collar -Inch
100
AcDbAttributeDefinition
  3

  2
NN
 70
     8
280
     0
  0
ATTDEF
  5
96
330
91
100
AcDbEntity
  8
AM_6
100
AcDbText
 10
8.0
 20
-2.036875
 30
0.0
 40
0.5
  1
S-2000 Bearings
100
AcDbAttributeDefinition
  3

  2
NT
 70
     8
280
     0
  0
ATTDEF
  5
97
330
91
100
AcDbEntity
  8
AM_6
100
AcDbText
 10
8.0
 20
-2.536875
 30
0.0
 40
0.5
  1
3-15/16CS2i
100
AcDbAttributeDefinition
  3

  2
NB
 70
     8
280
     0
  0
ATTDEF
  5
98
330
91
100
AcDbEntity
  8
AM_6
100
AcDbText
 10
8.0
 20
-3.036875
 30
0.0
 40
0.5
  1
$BORE.CS2i
100
AcDbAttributeDefinition
  3

  2
NBSYN
 70
     8
280
     0
  0
ATTDEF
  5
99
330
91
100
AcDbEntity
  8
AM_6
100
AcDbText
 10
8.0
 20
-3.536875
 30
0.0
 40
0.5
  1
3-15/16CS2i
100
AcDbAttributeDefinition
  3

  2
LINA
 70
     8
280
     0
  0
ATTDEF
  5
9A
330
91
100
AcDbEntity
  8
AM_6
100
AcDbText
 10
8.0
 20
-4.036875
 30
0.0
 40
0.5
  1
3-15/16
100
AcDbAttributeDefinition
  3

  2
BORE
 70
     8
280
     0
  0
ATTDEF
  5
9B
330
91
100
AcDbEntity
  8
AM_6
100
AcDbText
 10
8.0
 20
-4.536875
 30
0.0
 40
0.5
  1
3.937500
100
AcDbAttributeDefinition
  3

  2
BORE1
 70
     8
280
     0
  0
ATTDEF
  5
9C
330
91
100
AcDbEntity
  8
AM_6
100
AcDbText
 10
8.0
 20
-5.036875
 30
0.0
 40
0.5
  1
6
100
AcDbAttributeDefinition
  3

  2
L1
 70
     8
280
     0
  0
ATTDEF
  5
9D
330
91
100
AcDbEntity
  8
AM_6
100
AcDbText
 10
8.0
 20
-5.536875
 30
0.0
 40
0.5
  1
6.00000
100
AcDbAttributeDefinition
  3

  2
L
 70
     8
280
     0
  0
ATTDEF
  5
9E
330
91
100
AcDbEntity
  8
AM_6
100
AcDbText
 10
8.0
 20
-6.036875
 30
0.0
 40
0.5
  1
6.00000
100
AcDbAttributeDefinition
  3

  2
L2
 70
     8
280
     0
  0
ATTDEF
  5
9F
330
91
100
AcDbEntity
  8
AM_6
100
AcDbText
 10
8.0
 20
-6.536875
 30
0.0
 40
0.5
  1
6.25
100
AcDbAttributeDefinition
  3

  2
A
 70
     8
280
     0
  0
ATTDEF
  5
A0
330
91
100
AcDbEntity
  8
AM_6
100
AcDbText
 10
8.0
 20
-7.036875
 30
0.0
 40
0.5
  1
3.12
100
AcDbAttributeDefinition
  3

  2
B
 70
     8
280
     0
  0
ATTDEF
  5
A1
330
91
100
AcDbEntity
  8
AM_6
100
AcDbText
 10
8.0
 20
-7.536875
 30
0.0
 40
0.5
  1
4.50
100
AcDbAttributeDefinition
  3

  2
C
 70
     8
280
     0
  0
ATTDEF
  5
A2
330
91
100
AcDbEntity
  8
AM_6
100
AcDbText
 10
8.0
 20
-8.036875
 30
0.0
 40
0.5
  1
6.38
100
AcDbAttributeDefinition
  3

  2
D
 70
     8
280
     0
  0
ATTDEF
  5
A3
330
91
100
AcDbEntity
  8
AM_6
100
AcDbText
 10
8.0
 20
-8.536875
 30
0.0
 40
0.5
  1
0.66
100
AcDbAttributeDefinition
  3

  2
E
 70
     8
280
     0
  0
ATTDEF
  5
A4
330
91
100
AcDbEntity
  8
AM_6
100
AcDbText
 10
8.0
 20
-9.036875
 30
0.0
 40
0.5
  1
0.505
100
AcDbAttributeDefinition
  3

  2
F
 70
     8
280
     0
  0
ATTDEF
  5
A5
330
91
100
AcDbEntity
  8
AM_6
100
AcDbText
 10
8.0
 20
-9.536875
 30
0.0
 40
0.5
  1
5/8-11
100
AcDbAttributeDefinition
  3

  2
CS
 70
     8
280
     0
  0
ATTDEF
  5
A6
330
91
100
AcDbEntity
  8
AM_6
100
AcDbText
 10
8.0
 20
-10.036875
 30
0.0
 40
0.5
  1
0.6250
100
AcDbAttributeDefinition
  3

  2
NDM
 70
     8
280
     0
  0
ATTDEF
  5
A7
330
91
100
AcDbEntity
  8
AM_6
100
AcDbText
 10
8.0
 20
-10.536875
 30
0.0
 40
0.5
  1
0.5270
100
AcDbAttributeDefinition
  3

  2
KDM
 70
     8
280
     0
  0
ATTDEF
  5
A8
330
91
100
AcDbEntity
  8
AM_6
100
AcDbText
 10
8.0
 20
-11.036875
 30
0.0
 40
0.5
  1
2
100
AcDbAttributeDefinition
  3

  2
DD
 70
     8
280
     0
  0
ATTDEF
  5
A9
330
91
100
AcDbEntity
  8
AM_6
100
AcDbText
 10
8.0
 20
-11.536875
 30
0.0
 40
0.5
  1
baldor
100
AcDbAttributeDefinition
  3

  2
COMPANY
 70
     8
280
     0
  0
LINE
  5
AC
330
91
100
AcDbEntity
  8
AM_9
100
AcDbLine
 10
2.09790860523088
 20
-1.808953865920448
 30
0.0
 11
2.090072594686855
 21
-1.799180115083503
 31
0.0
  0
LINE
  5
AD
330
91
100
AcDbEntity
  8
AM_9
100
AcDbLine
 10
2.090202939865653
 20
-2.284407307123471
 30
0.0
 11
2.09790860523088
 21
-2.274796134079552
 31
0.0
  0
LWPOLYLINE
  5
AE
330
91
100
AcDbEntity
  8
AM_9
100
AcDbPolyline
 90
       26
 70
     0
 43
0.0
 10
2.089974291498122
 20
-1.799057503833249
 10
2.088480180615775
 20
-1.797234313984088
 10
2.070707186623837
 20
-1.780983572602767
 10
2.051235819505739
 20
-1.772400839022779
 10
2.029775768239221
 20
-1.771857978911709
 10
2.007561980939881
 20
-1.779676822298492
 10
1.985100534938405
 20
-1.795970114298601
 10
1.963415148688138
 20
-1.820256185166672
 10
1.943777574578607
 20
-1.85146384653854
 10
1.926706528307501
 20
-1.889125357517013
 10
1.913787830998972
 20
-1.930012637236524
 10
1.904772698179146
 20
-1.974670473323701
 10
1.900490200621653
 20
-2.018319316209666
 10
1.900337713668679
 20
-2.062695447616849
 10
1.904123335254844
 20
-2.104395023580484
 10
1.911465068447466
 20
-2.144367995204236
 10
1.92216707421251
 20
-2.181953911131669
 10
1.935604930807596
 20
-2.215866935643687
 10
1.952187588474347
 20
-2.246917125346484
 10
1.970504617805664
 20
-2.272465758007778
 10
1.99121768772588
 20
-2.293063683155975
 10
2.01240657652872
 20
-2.306481347972985
 10
2.034328586901402
 20
-2.312470235730553
 10
2.055378710883308
 20
-2.310223926536563
 10
2.075283835930663
 20
-2.299437895888699
 10
2.089978241654082
 20
-2.284687569970033
  0
LWPOLYLINE
  5
AF
330
91
100
AcDbEntity
  8
AM_9
100
AcDbPolyline
 90
       13
 70
     0
 43
0.0
 10
2.096850625094655
 20
-2.275213152751789
 10
2.108741995161097
 20
-2.253714356576488
 10
2.121705361583141
 20
-2.21992001513362
 10
2.131542920164773
 20
-2.181471931006786
 10
2.138717048774657
 20
-2.138267751805567
 10
2.142873560255341
 20
-2.09483772900591
 10
2.144565813751815
 20
-2.0497118690661
 10
2.143858278703619
 20
-2.00705722178112
 10
2.140961602448765
 20
-1.96539668124918
 10
2.135943316907871
 20
-1.926247715778861
 10
2.12887022227915
 20
-1.890155229800551
 10
2.12180941447251
 20
-1.864175304447081
 10
2.113541727828296
 20
-1.840957972374701
  0
LWPOLYLINE
  5
B0
330
91
100
AcDbEntity
  8
AM_9
100
AcDbPolyline
 90
        3
 70
     0
 43
0.0
 10
2.089978241654082
 20
-2.284687569970033
 10
2.093248015323252
 20
-2.280411016522359
 10
2.096850625094655
 20
-2.275213152751789
  0
LINE
  5
B1
330
91
100
AcDbEntity
  8
AM_9
100
AcDbLine
 10
2.046020039494807
 20
-2.305175
 30
0.0
 11
2.674333017987747
 21
-2.305175
 31
0.0
  0
LINE
  5
B2
330
91
100
AcDbEntity
  8
AM_9
100
AcDbLine
 10
2.674333017987747
 20
-1.778575
 30
0.0
 11
2.046020039494807
 21
-1.778575
 31
0.0
  0
ELLIPSE
  5
B3
330
91
100
AcDbEntity
  8
AM_9
100
AcDbEllipse
 10
2.674333017987746
 20
-2.041875
 30
0.0
 11
-4.836742533232473E-17
 21
-0.2633000000000001
 31
0.0
210
0.0
220
0.0
230
1.0
 40
0.4226182617406961
 41
3.481887909227096
 42
5.942264721100328
  0
LINE
  5
B4
330
91
100
AcDbEntity
  8
AM_9
100
AcDbLine
 10
2.622444452251672
 20
-2.27479613407955
 30
0.0
 11
2.65472395323312
 21
-2.315057922646713
 31
0.0
  0
LINE
  5
B5
330
91
100
AcDbEntity
  8
AM_9
100
AcDbLine
 10
2.653418428136464
 20
-1.770320441293638
 30
0.0
 11
2.622444452251672
 21
-1.80895386592045
 31
0.0
  0
LWPOLYLINE
  5
B6
330
91
100
AcDbEntity
  8
AM_9
100
AcDbPolyline
 90
       39
 70
     0
 43
0.0
 10
-0.2014674474065467
 20
-1.847610211364561
 10
-0.229735735680614
 20
-1.877314735924682
 10
-0.2537533579054705
 20
-1.911715353049987
 10
-0.2734317043856334
 20
-1.953010796202667
 10
-0.2858097120107891
 20
-1.998649836284429
 10
-0.2895404355017283
 20
-2.041410921085055
 10
-0.2857395366228411
 20
-2.085502155212641
 10
-0.2752385706158141
 20
-2.125738902850181
 10
-0.2578801168263565
 20
-2.164755977350694
 10
-0.2344921550702038
 20
-2.200465902897187
 10
-0.2050387686865359
 20
-2.232842199008948
 10
-0.1695631338298023
 20
-2.261205235923445
 10
-0.1290229167026693
 20
-2.284203153422487
 10
-0.0837394506217018
 20
-2.301076068495304
 10
-0.0350231494639944
 20
-2.310709159892086
 10
0.0151041759514524
 20
-2.312337607440461
 10
0.0662201632149352
 20
-2.305493068610811
 10
0.1145139571743325
 20
-2.290521827757243
 10
0.1608653651617134
 20
-2.266875172924427
 10
0.2004862293331476
 20
-2.237026131989309
 10
0.2352610533937078
 20
-2.19946808984657
 10
0.260570297677559
 20
-2.15970270580223
 10
0.2788768325671614
 20
-2.114518841859466
 10
0.2877851052778569
 20
-2.071576320489271
 10
0.2890600055978164
 20
-2.026314621316519
 10
0.2830497067018713
 20
-1.984995692678948
 10
0.2699287906576929
 20
-1.944123441284868
 10
0.2507191399295257
 20
-1.90668222837866
 10
0.2251762956592337
 20
-1.871896789540424
 10
0.1935578944982601
 20
-1.840694443424514
 10
0.1564955422752519
 20
-1.814188639702128
 10
0.1140352191890704
 20
-1.79303502859325
 10
0.0675112616376606
 20
-1.77854498964712
 10
0.0182919817445267
 20
-1.771585563360625
 10
-0.0328014473202251
 20
-1.772794465138446
 10
-0.0824725208459753
 20
-1.782317175541579
 10
-0.1311922493566856
 20
-1.800571355065426
 10
-0.1676812724784267
 20
-1.821280345489851
 10
-0.2014674474065467
 20
-1.847610211364561
  0
LINE
  5
B7
330
91
100
AcDbEntity
  8
AM_9
100
AcDbLine
 10
2.093692855001586
 20
-1.803952393216293
 30
0.0
 11
2.089974291498122
 21
-1.799057503833249
 31
0.0
  0
LWPOLYLINE
  5
B8
330
91
100
AcDbEntity
  8
AM_9
100
AcDbPolyline
 90
        3
 70
     0
 43
0.0
 10
2.113541727828296
 20
-1.840957972374701
 10
2.101812553264939
 20
-1.816638396888955
 10
2.093692855001586
 20
-1.803952393216293
  0
LINE
  5
B9
330
91
100
AcDbEntity
  8
AM_9
100
AcDbLine
 10
2.25
 20
-2.546875
 30
0.0
 11
2.25
 21
-1.536875
 31
0.0
  0
LINE
  5
BA
330
91
100
AcDbEntity
  8
AM_9
100
AcDbLine
 10
-2.25
 20
-1.536875
 30
0.0
 11
-2.25
 21
-2.546875
 31
0.0
  0
LINE
  5
BB
330
91
100
AcDbEntity
  8
AM_9
100
AcDbLine
 10
-2.857142857142857
 20
-1.536875
 30
0.0
 11
2.857142857142857
 21
-1.536875
 31
0.0
  0
LINE
  5
BC
330
91
100
AcDbEntity
  8
AM_9
100
AcDbLine
 10
2.857142857142857
 20
-1.555521922183507
 30
0.0
 11
2.857142857142857
 21
-1.536875
 31
0.0
  0
LINE
  5
BD
330
91
100
AcDbEntity
  8
AM_9
100
AcDbLine
 10
-2.857142857142857
 20
-1.536875
 30
0.0
 11
-2.857142857142857
 21
-1.555521922183507
 31
0.0
  0
LINE
  5
BE
330
91
100
AcDbEntity
  8
AM_9
100
AcDbLine
 10
-2.857142857142857
 20
-1.555521922183507
 30
0.0
 11
2.857142857142857
 21
-1.555521922183507
 31
0.0
  0
LINE
  5
BF
330
91
100
AcDbEntity
  8
AM_9
100
AcDbLine
 10
-2.857142857142857
 20
-1.555521922183507
 30
0.0
 11
-2.926829268292683
 21
-1.625208333333334
 31
0.0
  0
LINE
  5
C0
330
91
100
AcDbEntity
  8
AM_9
100
AcDbLine
 10
2.926829268292683
 20
-1.625208333333334
 30
0.0
 11
2.857142857142857
 21
-1.555521922183507
 31
0.0
  0
LINE
  5
C1
330
91
100
AcDbEntity
  8
AM_9
100
AcDbLine
 10
-2.926829268292683
 20
-1.625208333333334
 30
0.0
 11
2.926829268292683
 21
-1.625208333333334
 31
0.0
  0
LINE
  5
C2
330
91
100
AcDbEntity
  8
AM_9
100
AcDbLine
 10
2.926829268292683
 20
-1.71875
 30
0.0
 11
2.926829268292683
 21
-1.625208333333334
 31
0.0
  0
LINE
  5
C3
330
91
100
AcDbEntity
  8
AM_9
100
AcDbLine
 10
-2.926829268292683
 20
-1.625208333333334
 30
0.0
 11
-2.926829268292683
 21
-1.71875
 31
0.0
  0
LINE
  5
C4
330
91
100
AcDbEntity
  8
AM_9
100
AcDbLine
 10
0.1493562326912613
 20
-1.771620141648021
 30
0.0
 11
-0.1493562326913244
 21
-1.771620141648021
 31
0.0
  0
LINE
  5
C5
330
91
100
AcDbEntity
  8
AM_9
100
AcDbLine
 10
2.778672397794978
 20
-1.771620141648021
 30
0.0
 11
2.654045409714928
 21
-1.771620141648021
 31
0.0
  0
ELLIPSE
  5
C6
330
91
100
AcDbEntity
  8
AM_9
100
AcDbEllipse
 10
2.046020039494807
 20
-2.041874999999999
 30
0.0
 11
-4.836742533232489E-17
 21
-0.263300000000001
 31
0.0
210
0.0
220
0.0
230
1.0
 40
0.4226182617406981
 41
0.0
 42
6.283185307179586
  0
LINE
  5
C9
330
91
100
AcDbEntity
  8
AM_7
100
AcDbLine
 10
-0.276465
 20
-2.041875
 30
0.0
 11
0.276465
 21
-2.041875
 31
0.0
  0
ELLIPSE
  5
CB
330
91
100
AcDbEntity
  8
AM_4
100
AcDbEllipse
 10
2.674333017987747
 20
-2.041875
 30
0.0
 11
-4.836742533232473E-17
 21
-0.2633000000000001
 31
0.0
210
0.0
220
0.0
230
1.0
 40
0.4226182617406995
 41
5.942264721100323
 42
9.765073216406687
  0
LWPOLYLINE
  5
CC
330
91
100
AcDbEntity
  8
AM_4
100
AcDbPolyline
 90
        6
 70
     0
 43
0.0
 10
2.65336958822677
 20
-1.770381364652988
 10
2.667977914178306
 20
-1.760206410424741
 10
2.680259260236345
 20
-1.757132471405561
 10
2.695529133191132
 20
-1.756160354536923
 10
2.73209275016101
 20
-1.760172327016094
 10
2.778672397794976
 20
-1.771620141648019
  0
LWPOLYLINE
  5
CD
330
91
100
AcDbEntity
  8
AM_4
100
AcDbPolyline
 90
       15
 70
     0
 43
0.0
 10
2.654870598315193
 20
-2.315240829421572
 10
2.652511250162792
 20
-2.312234289742345
 10
2.633912953695401
 20
-2.28366375325909
 10
2.617330446593713
 20
-2.249196356389245
 10
2.602749248351492
 20
-2.207853732907754
 10
2.591431315399275
 20
-2.162316433730956
 10
2.583551324603338
 20
-2.111536063952347
 10
2.579920435008144
 20
-2.058896954526157
 10
2.580816728522081
 20
-2.004372392702433
 10
2.586295154514985
 20
-1.950898282560687
 10
2.596272572353213
 20
-1.899806617791961
 10
2.61028461463495
 20
-1.852836344280545
 10
2.627480641534377
 20
-1.812286540818162
 10
2.647383349836009
 20
-1.778498133971536
 10
2.65243105491469
 20
-1.771620141648021
  0
LINE
  5
CE
330
91
100
AcDbEntity
  8
AM_4
100
AcDbLine
 10
2.926829268292683
 20
-1.729375
 30
0.0
 11
2.926829268292683
 21
-1.71875
 31
0.0
  0
LINE
  5
CF
330
91
100
AcDbEntity
  8
AM_4
100
AcDbLine
 10
-2.926829268292683
 20
-1.71875
 30
0.0
 11
-2.926829268292683
 21
-1.729375
 31
0.0
  0
LWPOLYLINE
  5
D0
330
91
100
AcDbEntity
  8
AM_4
100
AcDbPolyline
 90
       20
 70
     0
 43
0.0
 10
2.778672397794977
 20
-1.771620141647948
 10
2.790217998437151
 20
-1.793327326167853
 10
2.802308294962809
 20
-1.82438966800057
 10
2.812342156992842
 20
-1.86002716784804
 10
2.821151126861398
 20
-1.904956113992195
 10
2.827238826686251
 20
-1.953416961948553
 10
2.830656794345898
 20
-2.006123817362393
 10
2.831151266923335
 20
-2.059800862772161
 10
2.828618976794678
 20
-2.114031937865601
 10
2.823040774210795
 20
-2.166215812245213
 10
2.814408296013799
 20
-2.214641196844069
 10
2.802759354324742
 20
-2.258015279055363
 10
2.788555888026537
 20
-2.293906454375199
 10
2.771723317427048
 20
-2.322396007225607
 10
2.753453832501721
 20
-2.34153382138417
 10
2.73345009519435
 20
-2.352227412953041
 10
2.713199559451878
 20
-2.354021021657973
 10
2.692427284052877
 20
-2.347653938395098
 10
2.672096848377084
 20
-2.333536024005842
 10
2.654870598315193
 20
-2.315240829421572
  0
LINE
  5
D1
330
91
100
AcDbEntity
  8
AM_4
100
AcDbLine
 10
3.0
 20
-2.378541666666667
 30
0.0
 11
3.0
 21
-1.771620141648021
 31
0.0
  0
LINE
  5
D2
330
91
100
AcDbEntity
  8
AM_4
100
AcDbLine
 10
-3.0
 20
-1.771620141648021
 30
0.0
 11
-3.0
 21
-2.378541666666667
 31
0.0
  0
LINE
  5
D3
330
91
100
AcDbEntity
  8
AM_4
100
AcDbLine
 10
-2.831666666666667
 20
-2.546875
 30
0.0
 11
2.831666666656088
 21
-2.546875
 31
0.0
  0
LINE
  5
D4
330
91
100
AcDbEntity
  8
AM_4
100
AcDbLine
 10
-3.0
 20
-2.378541666666667
 30
0.0
 11
3.0
 21
-2.378541666666667
 31
0.0
  0
ARC
  5
D5
330
91
100
AcDbEntity
  8
AM_4
100
AcDbCircle
 10
2.831666666666668
 20
-2.378541666666668
 30
0.0
 40
0.1683333333333317
100
AcDbArc
 50
270.0
 51
0.0
  0
ARC
  5
D6
330
91
100
AcDbEntity
  8
AM_4
100
AcDbCircle
 10
-2.831666666666668
 20
-2.378541666666668
 30
0.0
 40
0.1683333333333317
100
AcDbArc
 50
180.0
 51
270.0
  0
LINE
  5
D7
330
91
100
AcDbEntity
  8
AM_4
100
AcDbLine
 10
0.1493562326912613
 20
-1.771620141647982
 30
0.0
 11
2.65243105491469
 21
-1.771620141648021
 31
0.0
  0
LINE
  5
D8
330
91
100
AcDbEntity
  8
AM_4
100
AcDbLine
 10
2.65243105491469
 20
-1.771620141648022
 30
0.0
 11
2.65336958822677
 21
-1.770381364652988
 31
0.0
  0
LINE
  5
D9
330
91
100
AcDbEntity
  8
AM_4
100
AcDbLine
 10
2.778672397794978
 20
-1.771620141648012
 30
0.0
 11
3.0
 21
-1.771620141648021
 31
0.0
  0
LINE
  5
DA
330
91
100
AcDbEntity
  8
AM_4
100
AcDbLine
 10
-2.926829268292683
 20
-1.729375
 30
0.0
 11
2.926829268292683
 21
-1.729375
 31
0.0
  0
LINE
  5
DB
330
91
100
AcDbEntity
  8
AM_4
100
AcDbLine
 10
-2.926829268292683
 20
-1.729375
 30
0.0
 11
-3.0
 21
-1.771620141648021
 31
0.0
  0
LINE
  5
DC
330
91
100
AcDbEntity
  8
AM_4
100
AcDbLine
 10
3.0
 20
-1.771620141648021
 30
0.0
 11
2.926829268292683
 21
-1.729375
 31
0.0
  0
LINE
  5
DD
330
91
100
AcDbEntity
  8
AM_4
100
AcDbLine
 10
-3.0
 20
-1.771620141648021
 30
0.0
 11
-0.1493562326913244
 21
-1.771620141648021
 31
0.0
  0
LWPOLYLINE
  5
DE
330
91
100
AcDbEntity
  8
AM_4
100
AcDbPolyline
 90
       33
 70
     0
 43
0.0
 10
0.1493562326912613
 20
-1.771620141647982
 10
0.1613860015179049
 20
-1.779359006632576
 10
0.1989764844905714
 20
-1.809539958800034
 10
0.2320972207226811
 20
-1.846303551198745
 10
0.2594387939156211
 20
-1.888742307863414
 10
0.280149419091754
 20
-1.936276140104653
 10
0.293112361331371
 20
-1.987317771813926
 10
0.2976926644473602
 20
-2.041256691648928
 10
0.2933562636213561
 20
-2.094970824239786
 10
0.2797256622728502
 20
-2.148702675890446
 10
0.2578541372549977
 20
-2.19792626479883
 10
0.2269462068212475
 20
-2.243995778962604
 10
0.1905255780059908
 20
-2.281891375650638
 10
0.1466468659635599
 20
-2.313761618165171
 10
0.101434002529659
 20
-2.335640676987253
 10
0.0515107695924945
 20
-2.349651987821323
 10
0.0038493037295137
 20
-2.354348821966355
 10
-0.0453642885866422
 20
-2.35071811582029
 10
-0.0908502648909633
 20
-2.339439123520329
 10
-0.1350533676658825
 20
-2.320308449712219
 10
-0.1751017703983928
 20
-2.294511571702578
 10
-0.2114193038160966
 20
-2.261765687048853
 10
-0.2425173359329117
 20
-2.222986639665393
 10
-0.2676526439764082
 20
-2.178565320257429
 10
-0.2856593943975833
 20
-2.129745814788353
 10
-0.2957772871532122
 20
-2.077237284379947
 10
-0.2971844171032154
 20
-2.023629997410897
 10
-0.2894745734090309
 20
-1.969021941020062
 10
-0.2730798526932277
 20
-1.917558372953396
 10
-0.2474261459626467
 20
-1.868228573302442
 10
-0.22251668252969
 20
-1.834399516241088
 10
-0.1926505329044896
 20
-1.803735745092535
 10
-0.1493562326913244
 20
-1.771620141648021
  0
LWPOLYLINE
  5
DF
330
91
100
AcDbEntity
  8
AM_4
100
AcDbPolyline
 90
        6
 70
     0
 43
0.0
 10
-0.1493562326913244
 20
-1.771620141648021
 10
-0.0760697940912032
 20
-1.76020641042474
 10
-0.0373583387552804
 20
-1.757136417035385
 10
0.0020698409902697
 20
-1.756160354536923
 10
0.0757478832551036
 20
-1.760172327016093
 10
0.1493562326912613
 20
-1.771620141647982
  0
CIRCLE
  5
E0
330
91
100
AcDbEntity
  8
AM_4
100
AcDbCircle
 10
0.0
 20
-2.041875
 30
0.0
 40
0.2633
  0
CIRCLE
  5
E2
330
91
100
AcDbEntity
  8
AM_5
100
AcDbCircle
 10
0.0000000000000001
 20
-2.041875
 30
0.0
 40
0.3124999999999999
  0
ENDBLK
  5
94
330
91
100
AcDbEntity
  8
0
100
AcDbBlockEnd
  0
BLOCK
  5
E5
330
E3
100
AcDbEntity
  8
0
100
AcDbBlockBegin
  2
3_070013i_0_in_070797_4
 70
     2
 10
0.0
 20
0.0
 30
0.0
  3
3_070013i_0_in_070797_4
  1

  0
ATTDEF
  5
E7
330
E3
100
AcDbEntity
  8
AM_6
100
AcDbText
 10
8.5433
 20
2.16171875
 30
0.0
 40
0.5
  1
S-2000 Insert -Inch
100
AcDbAttributeDefinition
  3

  2
NN
 70
     8
280
     0
  0
ATTDEF
  5
E8
330
E3
100
AcDbEntity
  8
AM_6
100
AcDbText
 10
8.5433
 20
1.66171875
 30
0.0
 40
0.5
  1
S-2000 Bearings
100
AcDbAttributeDefinition
  3

  2
NT
 70
     8
280
     0
  0
ATTDEF
  5
E9
330
E3
100
AcDbEntity
  8
AM_6
100
AcDbText
 10
8.5433
 20
1.16171875
 30
0.0
 40
0.5
  1
070013i
100
AcDbAttributeDefinition
  3

  2
NB
 70
     8
280
     0
  0
ATTDEF
  5
EA
330
E3
100
AcDbEntity
  8
AM_6
100
AcDbText
 10
8.5433
 20
0.6617187499999999
 30
0.0
 40
0.5
  1
$PN.i
100
AcDbAttributeDefinition
  3

  2
NBSYN
 70
     8
280
     0
  0
ATTDEF
  5
EB
330
E3
100
AcDbEntity
  8
AM_6
100
AcDbText
 10
8.5433
 20
0.1617187499999999
 30
0.0
 40
0.5
  1
070013i
100
AcDbAttributeDefinition
  3

  2
LINA
 70
     8
280
     0
  0
ATTDEF
  5
EC
330
E3
100
AcDbEntity
  8
AM_6
100
AcDbText
 10
8.5433
 20
-0.3382812500000001
 30
0.0
 40
0.5
  1
3-15/16
100
AcDbAttributeDefinition
  3

  2
SS
 70
     8
280
     0
  0
ATTDEF
  5
ED
330
E3
100
AcDbEntity
  8
AM_6
100
AcDbText
 10
8.5433
 20
-0.8382812500000001
 30
0.0
 40
0.5
  1
4.50
100
AcDbAttributeDefinition
  3

  2
CC
 70
     8
280
     0
  0
ATTDEF
  5
EE
330
E3
100
AcDbEntity
  8
AM_6
100
AcDbText
 10
8.5433
 20
-1.33828125
 30
0.0
 40
0.5
  1
3.937500
100
AcDbAttributeDefinition
  3

  2
SS1
 70
     8
280
     0
  0
ATTDEF
  5
EF
330
E3
100
AcDbEntity
  8
AM_6
100
AcDbText
 10
8.5433
 20
-1.83828125
 30
0.0
 40
0.5
  1
070013
100
AcDbAttributeDefinition
  3

  2
PN
 70
     8
280
     0
  0
ATTDEF
  5
F0
330
E3
100
AcDbEntity
  8
AM_6
100
AcDbText
 10
8.5433
 20
-2.33828125
 30
0.0
 40
0.5
  1
INS-S2-315R
100
AcDbAttributeDefinition
  3

  2
DESCRIPTION
 70
     8
280
     0
  0
ATTDEF
  5
F1
330
E3
100
AcDbEntity
  8
AM_6
100
AcDbText
 10
8.5433
 20
-2.83828125
 30
0.0
 40
0.5
  1
Contact Seal
100
AcDbAttributeDefinition
  3

  2
ST
 70
     8
280
     0
  0
ATTDEF
  5
F2
330
E3
100
AcDbEntity
  8
AM_6
100
AcDbText
 10
8.5433
 20
-3.33828125
 30
0.0
 40
0.5
  1
1
100
AcDbAttributeDefinition
  3

  2
ST1
 70
     8
280
     0
  0
ATTDEF
  5
F3
330
E3
100
AcDbEntity
  8
AM_6
100
AcDbText
 10
8.5433
 20
-3.83828125
 30
0.0
 40
0.5
  1
7.0866
100
AcDbAttributeDefinition
  3

  2
A
 70
     8
280
     0
  0
ATTDEF
  5
F4
330
E3
100
AcDbEntity
  8
AM_6
100
AcDbText
 10
8.5433
 20
-4.33828125
 30
0.0
 40
0.5
  1
1-7/8
100
AcDbAttributeDefinition
  3

  2
B
 70
     8
280
     0
  0
ATTDEF
  5
F5
330
E3
100
AcDbEntity
  8
AM_6
100
AcDbText
 10
8.5433
 20
-4.83828125
 30
0.0
 40
0.5
  1
4-31/64
100
AcDbAttributeDefinition
  3

  2
C
 70
     8
280
     0
  0
ATTDEF
  5
F6
330
E3
100
AcDbEntity
  8
AM_6
100
AcDbText
 10
8.5433
 20
-5.33828125
 30
0.0
 40
0.5
  1
1.646
100
AcDbAttributeDefinition
  3

  2
D
 70
     8
280
     0
  0
ATTDEF
  5
F7
330
E3
100
AcDbEntity
  8
AM_6
100
AcDbText
 10
8.5433
 20
-5.83828125
 30
0.0
 40
0.5
  1
6
100
AcDbAttributeDefinition
  3

  2
E
 70
     8
280
     0
  0
ATTDEF
  5
F8
330
E3
100
AcDbEntity
  8
AM_6
100
AcDbText
 10
8.5433
 20
-6.33828125
 30
0.0
 40
0.5
  1
0.34375
100
AcDbAttributeDefinition
  3

  2
F
 70
     8
280
     0
  0
ATTDEF
  5
F9
330
E3
100
AcDbEntity
  8
AM_6
100
AcDbText
 10
8.5433
 20
-6.83828125
 30
0.0
 40
0.5
  1
2
100
AcDbAttributeDefinition
  3

  2
DD
 70
     8
280
     0
  0
ATTDEF
  5
FA
330
E3
100
AcDbEntity
  8
AM_6
100
AcDbText
 10
8.5433
 20
-7.33828125
 30
0.0
 40
0.5
  1
baldor
100
AcDbAttributeDefinition
  3

  2
COMPANY
 70
     8
280
     0
  0
LINE
  5
FB
330
E3
100
AcDbEntity
  8
AM_9
100
AcDbLine
 10
2.039192520832462
 20
-1.711875
 30
0.0
 11
1.784126112694714
 21
-1.711875
 31
0.0
  0
LINE
  5
FC
330
E3
100
AcDbEntity
  8
AM_9
100
AcDbLine
 10
1.784249267244133
 20
-2.371875
 30
0.0
 11
2.039192520832462
 21
-2.371875
 31
0.0
  0
LWPOLYLINE
  5
FD
330
E3
100
AcDbEntity
  8
AM_9
100
AcDbPolyline
 90
       21
 70
     0
 43
0.0
 10
1.784304748548791
 20
-1.711875001081875
 10
1.768783386045301
 20
-1.713843884608024
 10
1.744463704136843
 20
-1.724369766874515
 10
1.720049200667906
 20
-1.743585374747981
 10
1.696320599136341
 20
-1.771193949521049
 10
1.674324850107115
 20
-1.806242910331734
 10
1.654801067982797
 20
-1.84841818460304
 10
1.638888465591551
 20
-1.896085447890907
 10
1.627418757519156
 20
-1.948052766116869
 10
1.62092678966454
 20
-2.002738381715791
 10
1.61983424946571
 20
-2.057905226482792
 10
1.623994959449863
 20
-2.112615320311199
 10
1.633203819766625
 20
-2.164956954210204
 10
1.646921575744193
 20
-2.213878868682407
 10
1.664729989666717
 20
-2.258386507390496
 10
1.685638930246543
 20
-2.296869020120581
 10
1.709018353926043
 20
-2.328478061897489
 10
1.733659250062025
 20
-2.351973461516363
 10
1.75848134264691
 20
-2.366495617014139
 10
1.782718368953424
 20
-2.371854038394185
 10
1.784284494808594
 20
-2.371874999318831
  0
LWPOLYLINE
  5
FE
330
E3
100
AcDbEntity
  8
AM_9
100
AcDbPolyline
 90
        4
 70
     0
 43
0.0
 10
1.891850419753431
 20
-2.166127157487157
 10
1.895939712628778
 20
-2.120496342220626
 10
1.897870050611974
 20
-2.081478199391447
 10
1.898513016825742
 20
-2.041875
  0
LWPOLYLINE
  5
FF
330
E3
100
AcDbEntity
  8
AM_9
100
AcDbPolyline
 90
        9
 70
     0
 43
0.0
 10
1.784284494808594
 20
-2.371874999318831
 10
1.805295108590339
 20
-2.367854543602194
 10
1.825963439594656
 20
-2.354872818446589
 10
1.844234353345708
 20
-2.333203327738502
 10
1.859926893270822
 20
-2.303573055650594
 10
1.873020669481772
 20
-2.266231265431268
 10
1.883348530328451
 20
-2.222600872719702
 10
1.890977735809883
 20
-2.173448403038649
 10
1.891850419753431
 20
-2.166127157487157
  0
LWPOLYLINE
  5
100
330
E3
100
AcDbEntity
  8
AM_9
100
AcDbPolyline
 90
        4
 70
     0
 43
0.0
 10
2.011157474327625
 20
-1.71821232458923
 10
2.01423960695658
 20
-1.716949294062983
 10
2.038336778583334
 20
-1.711881200298957
 10
2.0391871085529
 20
-1.711875000248493
  0
LWPOLYLINE
  5
101
330
E3
100
AcDbEntity
  8
AM_9
100
AcDbPolyline
 90
       19
 70
     0
 43
0.0
 10
2.039204388092252
 20
-2.371874998805264
 10
2.023493950407833
 20
-2.369849039456844
 10
1.999291247186104
 20
-2.359191269347093
 10
1.975144590271775
 20
-2.339789660889279
 10
1.951835081291387
 20
-2.311972285822628
 10
1.930342800480956
 20
-2.276685786466518
 10
1.91141856376626
 20
-2.234383931055774
 10
1.896070627987425
 20
-2.186624495644122
 10
1.885073581336419
 20
-2.134633232267906
 10
1.878904571652315
 20
-2.079971912303111
 10
1.877948576949944
 20
-2.024711268224654
 10
1.882083930714479
 20
-1.969938307342159
 10
1.891134098132501
 20
-1.917479226687894
 10
1.904589995108458
 20
-1.868487749819561
 10
1.922027092075405
 20
-1.824063754082994
 10
1.942530527435977
 20
-1.785720228979191
 10
1.965453489742377
 20
-1.754386746803392
 10
1.989692611944469
 20
-1.731184699709472
 10
2.011157474327625
 20
-1.71821232458923
  0
LINE
  5
102
330
E3
100
AcDbEntity
  8
AM_9
100
AcDbLine
 10
2.156397686515248
 20
-2.020122577599171
 30
0.0
 11
2.156604663928396
 21
-2.041875
 31
0.0
  0
LWPOLYLINE
  5
103
330
E3
100
AcDbEntity
  8
AM_9
100
AcDbPolyline
 90
        9
 70
     0
 43
0.0
 10
2.065173850768598
 20
-1.718021043057532
 10
2.081885467056235
 20
-1.729505468604249
 10
2.100507010398975
 20
-1.751559465591985
 10
2.11662611560824
 20
-1.781605272438295
 10
2.130146378222674
 20
-1.819277875115725
 10
2.140883490866904
 20
-1.863201728268981
 10
2.148836041188578
 20
-1.912497882027201
 10
2.154006109881
 20
-1.965509936451605
 10
2.155780699684544
 20
-1.998577601131054
  0
LWPOLYLINE
  5
104
330
E3
100
AcDbEntity
  8
AM_9
100
AcDbPolyline
 90
        3
 70
     0
 43
0.0
 10
2.0391871085529
 20
-1.711875000248493
 10
2.060995331218779
 20
-1.716183630939521
 10
2.065173850768598
 20
-1.718021043057532
  0
LWPOLYLINE
  5
105
330
E3
100
AcDbEntity
  8
AM_9
100
AcDbPolyline
 90
        3
 70
     0
 43
0.0
 10
1.810125217152697
 20
-1.718004205427165
 10
1.792406544971975
 20
-1.712481920207309
 10
1.784304748548791
 20
-1.711875001081875
  0
LWPOLYLINE
  5
106
330
E3
100
AcDbEntity
  8
AM_9
100
AcDbPolyline
 90
        8
 70
     0
 43
0.0
 10
1.891682080335658
 20
-1.916155293036642
 10
1.88719850708381
 20
-1.883239052999512
 10
1.8782458633211
 20
-1.837386141892519
 10
1.86644312148431
 20
-1.796938087178227
 10
1.85186573545095
 20
-1.76334918670843
 10
1.83441570072778
 20
-1.737528470618385
 10
1.814418661600808
 20
-1.720345654594451
 10
1.810125217152697
 20
-1.718004205427165
  0
LWPOLYLINE
  5
107
330
E3
100
AcDbEntity
  8
AM_9
100
AcDbPolyline
 90
        4
 70
     0
 43
0.0
 10
1.898513016825742
 20
-2.041875
 10
1.897265675935013
 20
-1.986915506710481
 10
1.893519334374493
 20
-1.933515830395146
 10
1.891682080335658
 20
-1.916155293036642
  0
LINE
  5
108
330
E3
100
AcDbEntity
  8
AM_9
100
AcDbLine
 10
-1.96875
 20
1.9375
 30
0.0
 11
-1.96875
 21
-2.546875
 31
0.0
  0
LINE
  5
109
330
E3
100
AcDbEntity
  8
AM_9
100
AcDbLine
 10
1.96875
 20
-2.546875
 30
0.0
 11
1.96875
 21
1.9375
 31
0.0
  0
LWPOLYLINE
  5
10A
330
E3
100
AcDbEntity
  8
AM_9
100
AcDbPolyline
 90
       11
 70
     0
 43
0.0
 10
2.156073600653463
 20
-2.076674546729481
 10
2.155260891266976
 20
-2.096937261214315
 10
2.151239812495228
 20
-2.150439345510763
 10
2.144489230104766
 20
-2.200818696294787
 10
2.134999278504681
 20
-2.246754477737553
 10
2.122627873209079
 20
-2.287171235998819
 10
2.10750075307563
 20
-2.32070800116073
 10
2.089607565801016
 20
-2.346421066386123
 10
2.069305931869675
 20
-2.363504471052651
 10
2.047117043138596
 20
-2.371296562493002
 10
2.039204388092252
 20
-2.371874998805264
  0
LINE
  5
10B
330
E3
100
AcDbEntity
  8
AM_9
100
AcDbLine
 10
2.156604663928396
 20
-2.041875
 30
0.0
 11
2.156073600653463
 21
-2.076674546729481
 31
0.0
  0
LWPOLYLINE
  5
10C
330
E3
100
AcDbEntity
  8
AM_9
100
AcDbPolyline
 90
       10
 70
     0
 43
0.0
 10
0.0632859438939525
 20
-1.71800019501287
 10
0.1064202793437352
 20
-1.729505468604248
 10
0.1561649211386651
 20
-1.751164633129889
 10
0.2028784584793471
 20
-1.781605272438295
 10
0.2430678463639259
 20
-1.818675488208413
 10
0.2774452413881582
 20
-1.863201728268981
 10
0.3032560016853085
 20
-1.911737390363738
 10
0.3210426405779291
 20
-1.965509936451604
 10
0.3277209490795907
 20
-2.003158342933921
 10
0.3300000000000002
 20
-2.041875
  0
LWPOLYLINE
  5
10D
330
E3
100
AcDbEntity
  8
AM_9
100
AcDbPolyline
 90
        5
 70
     0
 43
0.0
 10
-0.0646978256228859
 20
-1.718279277902704
 10
-0.0582579230021328
 20
-1.71705810633916
 10
-0.0020229085169295
 20
-1.711881200298957
 10
0.0521694781490273
 20
-1.716024811186708
 10
0.0632859438939525
 20
-1.71800019501287
  0
LWPOLYLINE
  5
10E
330
E3
100
AcDbEntity
  8
AM_9
100
AcDbPolyline
 90
       28
 70
     0
 43
0.0
 10
0.3300000000000002
 20
-2.041875
 10
0.325504908904543
 20
-2.096157172755381
 10
0.3116308439224524
 20
-2.150439345510763
 10
0.2895666932252116
 20
-2.200150488230542
 10
0.2586975059833156
 20
-2.246754477737553
 10
0.2213073632187999
 20
-2.286666852366745
 10
0.1764997378573132
 20
-2.32070800116073
 10
0.1277643244134047
 20
-2.346138499958812
 10
0.0738544741392965
 20
-2.363504471052651
 10
0.0197516239306237
 20
-2.37128336867345
 10
-0.0365106757313633
 20
-2.369849039456844
 10
-0.089748817015879
 20
-2.35943625368856
 10
-0.1419396168348563
 20
-2.339789660889279
 10
-0.1889263935206993
 20
-2.31244258459073
 10
-0.2318704262276136
 20
-2.276685786466518
 10
-0.267550794762139
 20
-2.235049978250673
 10
-0.2965595783493973
 20
-2.186624495644122
 10
-0.3164621419989999
 20
-2.135425588888605
 10
-0.3277935711281859
 20
-2.079971912303111
 10
-0.3295939238549732
 20
-2.025509018273192
 10
-0.3220638325696498
 20
-1.969938307342159
 10
-0.3059429904575708
 20
-1.918186332007015
 10
-0.2807790260594015
 20
-1.868487749819561
 10
-0.248403763560051
 20
-1.824629585205574
 10
-0.2080498336535678
 20
-1.785720228979192
 10
-0.1626707200052014
 20
-1.754754403641972
 10
-0.1112274125626499
 20
-1.731184699709472
 10
-0.0646978256228859
 20
-1.718279277902704
  0
LINE
  5
10F
330
E3
100
AcDbEntity
  8
AM_9
100
AcDbLine
 10
-2.25
 20
-1.193125
 30
0.0
 11
-2.25
 21
-2.546875
 31
0.0
  0
LINE
  5
110
330
E3
100
AcDbEntity
  8
AM_9
100
AcDbLine
 10
2.25
 20
-2.546875
 30
0.0
 11
2.25
 21
-1.193125
 31
0.0
  0
ARC
  5
111
330
E3
100
AcDbEntity
  8
AM_9
100
AcDbCircle
 10
-2.647140000000006
 20
1.588625000000003
 30
0.0
 40
0.1874999999999929
100
AcDbArc
 50
136.0524163942837
 51
180.0
  0
ARC
  5
112
330
E3
100
AcDbEntity
  8
AM_9
100
AcDbCircle
 10
2.647140000000006
 20
1.588625000000003
 30
0.0
 40
0.1874999999999929
100
AcDbArc
 50
0.0
 51
43.94758360571634
  0
LINE
  5
113
330
E3
100
AcDbEntity
  8
AM_9
100
AcDbLine
 10
-2.834639999999999
 20
-0.6459999999999999
 30
0.0
 11
-2.834639999999999
 21
-1.005625
 31
0.0
  0
LINE
  5
114
330
E3
100
AcDbEntity
  8
AM_9
100
AcDbLine
 10
2.834639999999999
 20
-1.005625
 30
0.0
 11
2.834639999999999
 21
-0.6459999999999999
 31
0.0
  0
LINE
  5
115
330
E3
100
AcDbEntity
  8
AM_9
100
AcDbLine
 10
-2.834639999999999
 20
1.588625
 30
0.0
 11
-2.834639999999999
 21
1.229
 31
0.0
  0
LINE
  5
116
330
E3
100
AcDbEntity
  8
AM_9
100
AcDbLine
 10
2.834639999999999
 20
1.229
 30
0.0
 11
2.834639999999999
 21
1.588625
 31
0.0
  0
LINE
  5
117
330
E3
100
AcDbEntity
  8
AM_9
100
AcDbLine
 10
2.834639999999999
 20
1.588625
 30
0.0
 11
-2.834639999999999
 21
1.588625
 31
0.0
  0
LINE
  5
118
330
E3
100
AcDbEntity
  8
AM_9
100
AcDbLine
 10
2.64714
 20
-1.193125
 30
0.0
 11
-2.64714
 21
-1.193125
 31
0.0
  0
ARC
  5
119
330
E3
100
AcDbEntity
  8
AM_9
100
AcDbCircle
 10
-2.64714
 20
-1.005625
 30
0.0
 40
0.1874999999999991
100
AcDbArc
 50
180.0
 51
270.0
  0
ARC
  5
11A
330
E3
100
AcDbEntity
  8
AM_9
100
AcDbCircle
 10
2.647139999999978
 20
-1.005624999999978
 30
0.0
 40
0.1875000000000215
100
AcDbArc
 50
270.0
 51
0.0000008537736463
  0
LINE
  5
11B
330
E3
100
AcDbEntity
  8
AM_9
100
AcDbLine
 10
2.834639999999999
 20
-1.005625
 30
0.0
 11
-2.834639999999999
 21
-1.005625
 31
0.0
  0
LINE
  5
11C
330
E3
100
AcDbEntity
  8
AM_9
100
AcDbLine
 10
-3.401567999999999
 20
0.3852500000000013
 30
0.0
 11
-3.401567999999999
 21
0.1977499999999989
 31
0.0
  0
LINE
  5
11D
330
E3
100
AcDbEntity
  8
AM_9
100
AcDbLine
 10
3.401567999999999
 20
0.1977499999999989
 30
0.0
 11
3.401567999999999
 21
0.3852500000000013
 31
0.0
  0
LINE
  5
11E
330
E3
100
AcDbEntity
  8
AM_9
100
AcDbLine
 10
3.3558
 20
-0.6459999999999999
 30
0.0
 11
-3.3558
 21
-0.6459999999999999
 31
0.0
  0
ARC
  5
11F
330
E3
100
AcDbEntity
  8
AM_9
100
AcDbCircle
 10
-3.3558
 20
-0.4585000000000004
 30
0.0
 40
0.1874999999999996
100
AcDbArc
 50
180.0
 51
270.0
  0
ARC
  5
120
330
E3
100
AcDbEntity
  8
AM_9
100
AcDbCircle
 10
3.3558
 20
-0.4584999999999998
 30
0.0
 40
0.1875000000000001
100
AcDbArc
 50
270.0
 51
0.0
  0
LINE
  5
121
330
E3
100
AcDbEntity
  8
AM_9
100
AcDbLine
 10
-3.5433
 20
1.0415
 30
0.0
 11
-3.5433
 21
0.4670790083527855
 31
0.0
  0
LINE
  5
122
330
E3
100
AcDbEntity
  8
AM_9
100
AcDbLine
 10
3.5433
 20
0.4670790083527855
 30
0.0
 11
3.5433
 21
1.0415
 31
0.0
  0
LINE
  5
123
330
E3
100
AcDbEntity
  8
AM_9
100
AcDbLine
 10
-3.5433
 20
0.1159209916472147
 30
0.0
 11
-3.5433
 21
-0.4584999999999999
 31
0.0
  0
LINE
  5
124
330
E3
100
AcDbEntity
  8
AM_9
100
AcDbLine
 10
3.5433
 20
-0.4584999999999999
 30
0.0
 11
3.5433
 21
0.1159209916472147
 31
0.0
  0
LINE
  5
125
330
E3
100
AcDbEntity
  8
AM_9
100
AcDbLine
 10
3.5433
 20
-0.4584999999999999
 30
0.0
 11
-3.5433
 21
-0.4584999999999999
 31
0.0
  0
LINE
  5
126
330
E3
100
AcDbEntity
  8
AM_9
100
AcDbLine
 10
-3.401567999999999
 20
0.1977499999999989
 30
0.0
 11
-3.5433
 21
0.1159209916472147
 31
0.0
  0
LINE
  5
127
330
E3
100
AcDbEntity
  8
AM_9
100
AcDbLine
 10
3.543299999999999
 20
0.1159209916472147
 30
0.0
 11
3.401567999999999
 21
0.1977499999999989
 31
0.0
  0
LINE
  5
128
330
E3
100
AcDbEntity
  8
AM_9
100
AcDbLine
 10
3.401567999999999
 20
0.1977499999999989
 30
0.0
 11
-3.401567999999999
 21
0.1977499999999989
 31
0.0
  0
LINE
  5
129
330
E3
100
AcDbEntity
  8
AM_9
100
AcDbLine
 10
3.543299999999999
 20
0.1159209916472147
 30
0.0
 11
-3.5433
 21
0.1159209916472147
 31
0.0
  0
LINE
  5
12A
330
E3
100
AcDbEntity
  8
AM_9
100
AcDbLine
 10
3.3558
 20
1.229
 30
0.0
 11
-3.3558
 21
1.229
 31
0.0
  0
ARC
  5
12B
330
E3
100
AcDbEntity
  8
AM_9
100
AcDbCircle
 10
-3.355799999999999
 20
1.041499999999999
 30
0.0
 40
0.1875000000000009
100
AcDbArc
 50
90.0
 51
180.0
  0
ARC
  5
12C
330
E3
100
AcDbEntity
  8
AM_9
100
AcDbCircle
 10
3.3558
 20
1.0415
 30
0.0
 40
0.1875
100
AcDbArc
 50
0.0
 51
90.0
  0
LINE
  5
12D
330
E3
100
AcDbEntity
  8
AM_9
100
AcDbLine
 10
3.5433
 20
1.0415
 30
0.0
 11
-3.5433
 21
1.0415
 31
0.0
  0
LINE
  5
12E
330
E3
100
AcDbEntity
  8
AM_9
100
AcDbLine
 10
3.401567999999999
 20
0.3852500000000013
 30
0.0
 11
3.5433
 21
0.4670790083527855
 31
0.0
  0
LINE
  5
12F
330
E3
100
AcDbEntity
  8
AM_9
100
AcDbLine
 10
-3.543299999999999
 20
0.4670790083527855
 30
0.0
 11
-3.401567999999999
 21
0.3852500000000013
 31
0.0
  0
LINE
  5
130
330
E3
100
AcDbEntity
  8
AM_9
100
AcDbLine
 10
3.5433
 20
0.4670790083527855
 30
0.0
 11
-3.543299999999999
 21
0.4670790083527855
 31
0.0
  0
LINE
  5
131
330
E3
100
AcDbEntity
  8
AM_9
100
AcDbLine
 10
3.401567999999999
 20
0.3852500000000013
 30
0.0
 11
-3.401567999999999
 21
0.3852500000000013
 31
0.0
  0
LINE
  5
132
330
E3
100
AcDbEntity
  8
AM_7
100
AcDbLine
 10
0.0
 20
2.16171875
 30
0.0
 11
0.0
 21
-2.77109375
 31
0.0
  0
LINE
  5
133
330
E3
100
AcDbEntity
  8
AM_4
100
AcDbLine
 10
-2.25
 20
1.9375
 30
0.0
 11
-2.25
 21
1.776125
 31
0.0
  0
LINE
  5
134
330
E3
100
AcDbEntity
  8
AM_4
100
AcDbLine
 10
2.25
 20
1.776125
 30
0.0
 11
2.25
 21
1.9375
 31
0.0
  0
LINE
  5
135
330
E3
100
AcDbEntity
  8
AM_4
100
AcDbLine
 10
2.25
 20
1.9375
 30
0.0
 11
-2.25
 21
1.9375
 31
0.0
  0
LINE
  5
136
330
E3
100
AcDbEntity
  8
AM_4
100
AcDbLine
 10
2.647139999999999
 20
1.776125
 30
0.0
 11
-2.647139999999999
 21
1.776125
 31
0.0
  0
ARC
  5
137
330
E3
100
AcDbEntity
  8
AM_4
100
AcDbCircle
 10
-2.647140000000001
 20
1.588625000000004
 30
0.0
 40
0.187499999999996
100
AcDbArc
 50
90.0
 51
136.052416394285
  0
ARC
  5
138
330
E3
100
AcDbEntity
  8
AM_4
100
AcDbCircle
 10
2.647140000000001
 20
1.588625000000004
 30
0.0
 40
0.1874999999999961
100
AcDbArc
 50
43.94758360571501
 51
90.0
  0
ENDBLK
  5
E6
330
E3
100
AcDbEntity
  8
0
100
AcDbBlockEnd
  0
BLOCK
  5
13B
330
139
100
AcDbEntity
  8
0
100
AcDbBlockBegin
  2
4_405016_Inch_0_in_070797_4
 70
     2
 10
0.0
 20
0.0
 30
0.0
  3
4_405016_Inch_0_in_070797_4
  1

  0
ATTDEF
  5
13D
330
139
100
AcDbEntity
  8
AM_6
100
AcDbText
 10
1.557191001290678
 20
0.2187499999999999
 30
0.0
 40
0.5
  1
405016 -Inch
100
AcDbAttributeDefinition
  3

  2
NN
 70
     8
280
     0
  0
ATTDEF
  5
13E
330
139
100
AcDbEntity
  8
AM_6
100
AcDbText
 10
1.557191001290678
 20
-0.2812500000000001
 30
0.0
 40
0.5
  1
Grease Fitting
100
AcDbAttributeDefinition
  3

  2
NT
 70
     8
280
     0
  0
ATTDEF
  5
13F
330
139
100
AcDbEntity
  8
AM_6
100
AcDbText
 10
1.557191001290678
 20
-0.7812500000000001
 30
0.0
 40
0.5
  1
405016-Inch
100
AcDbAttributeDefinition
  3

  2
NB
 70
     8
280
     0
  0
ATTDEF
  5
140
330
139
100
AcDbEntity
  8
AM_6
100
AcDbText
 10
1.557191001290678
 20
-1.28125
 30
0.0
 40
0.5
  1
$MN.-Inch
100
AcDbAttributeDefinition
  3

  2
NBSYN
 70
     8
280
     0
  0
ATTDEF
  5
141
330
139
100
AcDbEntity
  8
AM_6
100
AcDbText
 10
1.557191001290678
 20
-1.78125
 30
0.0
 40
0.5
  1
405016
100
AcDbAttributeDefinition
  3

  2
LINA
 70
     8
280
     0
  0
ATTDEF
  5
142
330
139
100
AcDbEntity
  8
AM_6
100
AcDbText
 10
1.557191001290678
 20
-2.28125
 30
0.0
 40
0.5
  1
405016
100
AcDbAttributeDefinition
  3

  2
MN
 70
     8
280
     0
  0
ATTDEF
  5
143
330
139
100
AcDbEntity
  8
AM_6
100
AcDbText
 10
1.557191001290678
 20
-2.78125
 30
0.0
 40
0.5
  1
7/16 HEX
100
AcDbAttributeDefinition
  3

  2
H
 70
     8
280
     0
  0
ATTDEF
  5
144
330
139
100
AcDbEntity
  8
AM_6
100
AcDbText
 10
1.557191001290678
 20
-3.28125
 30
0.0
 40
0.5
  1
0.383
100
AcDbAttributeDefinition
  3

  2
NDR
 70
     8
280
     0
  0
ATTDEF
  5
145
330
139
100
AcDbEntity
  8
AM_6
100
AcDbText
 10
1.557191001290678
 20
-3.78125
 30
0.0
 40
0.5
  1
0.337
100
AcDbAttributeDefinition
  3

  2
KDR
 70
     8
280
     0
  0
ATTDEF
  5
146
330
139
100
AcDbEntity
  8
AM_6
100
AcDbText
 10
1.557191001290678
 20
-4.28125
 30
0.0
 40
0.5
  1
0.1575
100
AcDbAttributeDefinition
  3

  2
BZE
 70
     8
280
     0
  0
ATTDEF
  5
147
330
139
100
AcDbEntity
  8
AM_6
100
AcDbText
 10
1.557191001290678
 20
-4.78125
 30
0.0
 40
0.5
  1
0.4375
100
AcDbAttributeDefinition
  3

  2
HEX
 70
     8
280
     0
  0
ATTDEF
  5
148
330
139
100
AcDbEntity
  8
AM_6
100
AcDbText
 10
1.557191001290678
 20
-5.28125
 30
0.0
 40
0.5
  1
0.281250
100
AcDbAttributeDefinition
  3

  2
HEX2
 70
     8
280
     0
  0
ATTDEF
  5
149
330
139
100
AcDbEntity
  8
AM_6
100
AcDbText
 10
1.557191001290678
 20
-5.78125
 30
0.0
 40
0.5
  1
baldor
100
AcDbAttributeDefinition
  3

  2
COMPANY
 70
     8
280
     0
  0
LINE
  5
14A
330
139
100
AcDbEntity
  8
AM_9
100
AcDbLine
 10
-4.139951816539863
 20
-0.1510741298357571
 30
0.0
 11
-4.15127338976374
 21
-0.1791093260592888
 31
0.0
  0
LINE
  5
14B
330
139
100
AcDbEntity
  8
AM_9
100
AcDbLine
 10
-3.988776970501366
 20
-0.2099962668917054
 30
0.0
 11
-4.000464216720911
 21
-0.2389369657326277
 31
0.0
  0
LWPOLYLINE
  5
14C
330
139
100
AcDbEntity
  8
AM_9
100
AcDbPolyline
 90
        3
 70
     0
 43
0.0
 10
-3.733196550701037
 20
-0.0000000000000001
 10
-3.754674221618659
 20
-0.0544416102741497
 10
-3.77262316523596
 20
-0.1093750000000001
  0
LWPOLYLINE
  5
14D
330
139
100
AcDbEntity
  8
AM_9
100
AcDbPolyline
 90
        3
 70
     0
 43
0.0
 10
-3.77262316523596
 20
0.1093749999999998
 10
-3.754763515252037
 20
0.0546874999999998
 10
-3.733196550701037
 20
-0.0000000000000001
  0
LINE
  5
14E
330
139
100
AcDbEntity
  8
AM_9
100
AcDbLine
 10
-3.930846122079276
 20
-0.2987675689889719
 30
0.0
 11
-3.961943408340387
 21
-0.2813919000363599
 31
0.0
  0
LWPOLYLINE
  5
14F
330
139
100
AcDbEntity
  8
AM_9
100
AcDbPolyline
 90
        3
 70
     0
 43
0.0
 10
-3.686020624857516
 20
-0.1093750000000001
 10
-3.672306431995132
 20
-0.0546875000000001
 10
-3.662299553699825
 20
-0.0000000000000001
  0
LWPOLYLINE
  5
150
330
139
100
AcDbEntity
  8
AM_9
100
AcDbPolyline
 90
        3
 70
     0
 43
0.0
 10
-3.662299553699825
 20
-0.0000000000000001
 10
-3.6722537611291
 20
0.0544416102741494
 10
-3.686020624857516
 20
0.1093749999999998
  0
LWPOLYLINE
  5
151
330
139
100
AcDbEntity
  8
AM_9
100
AcDbPolyline
 90
        3
 70
     0
 43
0.0
 10
-3.943643500801853
 20
-0.2360765106845278
 10
-3.934478514225296
 20
-0.2462091938631852
 10
-3.918790472768298
 20
-0.2689146070947223
  0
LWPOLYLINE
  5
152
330
139
100
AcDbEntity
  8
AM_9
100
AcDbPolyline
 90
        3
 70
     0
 43
0.0
 10
-3.796344236393652
 20
0.2187499999999999
 10
-3.786390028964377
 20
0.1643083897258503
 10
-3.77262316523596
 20
0.1093749999999998
  0
LINE
  5
153
330
139
100
AcDbEntity
  8
AM_9
100
AcDbLine
 10
-3.733196550701037
 20
-0.0000000000000001
 30
0.0
 11
-3.662299553699825
 21
-0.0000000000000001
 31
0.0
  0
LWPOLYLINE
  5
154
330
139
100
AcDbEntity
  8
AM_9
100
AcDbPolyline
 90
        3
 70
     0
 43
0.0
 10
-3.77262316523596
 20
-0.1093750000000001
 10
-3.786337358098345
 20
-0.1640625000000001
 10
-3.796344236393652
 20
-0.2187500000000001
  0
LWPOLYLINE
  5
155
330
139
100
AcDbEntity
  8
AM_9
100
AcDbPolyline
 90
        3
 70
     0
 43
0.0
 10
-3.918790472768298
 20
-0.2689146070947223
 10
-3.931786360617909
 20
-0.2634308483997529
 10
-3.946000260732149
 20
-0.2602304684431306
  0
LINE
  5
156
330
139
100
AcDbEntity
  8
AM_9
100
AcDbLine
 10
-3.964300168270683
 20
-0.3055458577949632
 30
0.0
 11
-3.930846122079276
 21
-0.2987675689889719
 31
0.0
  0
LINE
  5
157
330
139
100
AcDbEntity
  8
AM_9
100
AcDbLine
 10
-3.918790472768298
 20
-0.2689146070947223
 30
0.0
 11
-3.930846122079276
 21
-0.2987675689889719
 31
0.0
  0
ELLIPSE
  5
158
330
139
100
AcDbEntity
  8
AM_9
100
AcDbEllipse
 10
-4.173127764928366
 20
-0.4687500000000002
 30
0.0
 11
-0.09595382955731684
 21
0.03874944547499694
 31
0.0
210
0.0
220
0.0
230
1.0
 40
0.2113091308703508
 41
1.506123912186514
 42
6.384168311072848
  0
LINE
  5
159
330
139
100
AcDbEntity
  8
AM_9
100
AcDbLine
 10
-4.078488223057021
 20
-0.509346083437832
 30
0.0
 11
-4.017876472789757
 21
-0.4540180898723598
 31
0.0
  0
ELLIPSE
  5
15A
330
139
100
AcDbEntity
  8
AM_9
100
AcDbEllipse
 10
-4.145134102730883
 20
-0.3994303217889762
 30
0.0
 11
-0.1290248947933268
 21
0.05210467522533566
 31
0.0
210
0.0
220
0.0
230
1.0
 40
0.2113091308703527
 41
3.030151490384568
 42
5.801105639492179
  0
LWPOLYLINE
  5
15B
330
139
100
AcDbEntity
  8
AM_9
100
AcDbPolyline
 90
        7
 70
     0
 43
0.0
 10
-4.018878757690161
 20
-0.4548956032219366
 10
-4.015175052282797
 20
-0.4512296471636871
 10
-4.010233661605608
 20
-0.4432327400588238
 10
-4.00793347661855
 20
-0.4335349535964926
 10
-4.008545651341532
 20
-0.4247739263368854
 10
-4.011117184809092
 20
-0.4170256860826301
 10
-4.013095560495222
 20
-0.4132371433920015
  0
ELLIPSE
  5
15C
330
139
100
AcDbEntity
  8
AM_9
100
AcDbEllipse
 10
-4.134459121253572
 20
-0.3729962569746005
 30
0.0
 11
-0.1235034625625566
 21
0.04987493162717511
 31
0.0
210
0.0
220
0.0
230
1.0
 40
0.2113091308702404
 41
1.213740903487317
 42
6.023180401206871
  0
ELLIPSE
  5
15D
330
139
100
AcDbEntity
  8
AM_9
100
AcDbEllipse
 10
-4.145134102730884
 20
-0.3994303217889758
 30
0.0
 11
-0.1290248947933277
 21
0.05210467522533603
 31
0.0
210
0.0
220
0.0
230
1.0
 40
0.2113091308703508
 41
1.322621622084515
 42
3.030151490384564
  0
LINE
  5
15E
330
139
100
AcDbEntity
  8
AM_9
100
AcDbLine
 10
-4.012036003684067
 20
-0.2987675689889719
 30
0.0
 11
-3.984056568223952
 21
-0.3055458577949632
 31
0.0
  0
LWPOLYLINE
  5
15F
330
139
100
AcDbEntity
  8
AM_9
100
AcDbPolyline
 90
        5
 70
     0
 43
0.0
 10
-4.15127338976374
 20
-0.1791093260592888
 10
-4.173135778262366
 20
-0.1842540823997055
 10
-4.194031865192359
 20
-0.1862220679364952
 10
-4.213949484747268
 20
-0.1844124966919382
 10
-4.232463271368531
 20
-0.1791093260592888
  0
LWPOLYLINE
  5
160
330
139
100
AcDbEntity
  8
AM_9
100
AcDbPolyline
 90
        5
 70
     0
 43
0.0
 10
-4.000464216720911
 20
-0.2389369657326277
 10
-4.039305505408341
 20
-0.2295338871417797
 10
-4.077440552120259
 20
-0.2166871171046321
 10
-4.115059346481442
 20
-0.1996402057054679
 10
-4.15127338976374
 20
-0.1791093260592888
  0
LWPOLYLINE
  5
161
330
139
100
AcDbEntity
  8
AM_9
100
AcDbPolyline
 90
        3
 70
     0
 43
0.0
 10
-3.973964938522193
 20
-0.2711532636537957
 10
-3.987700116286766
 20
-0.2561815527589921
 10
-4.000464216720911
 20
-0.2389369657326277
  0
ELLIPSE
  5
162
330
139
100
AcDbEntity
  8
AM_9
100
AcDbEllipse
 10
-4.083458217989532
 20
-0.246704592176036
 30
0.0
 11
-0.1303939210191976
 21
0.05265753494275214
 31
0.0
210
0.0
220
0.0
230
1.0
 40
0.211309130870321
 41
3.806340372003344
 42
6.919181903097252
  0
LWPOLYLINE
  5
163
330
139
100
AcDbEntity
  8
AM_9
100
AcDbPolyline
 90
        3
 70
     0
 43
0.0
 10
-4.187635544684259
 20
-0.2259447895590943
 10
-4.18271934087281
 20
-0.2290462109660021
 10
-4.162843979930495
 20
-0.2389369657326276
  0
LWPOLYLINE
  5
164
330
139
100
AcDbEntity
  8
AM_9
100
AcDbPolyline
 90
        3
 70
     0
 43
0.0
 10
-3.965756660685417
 20
-0.2602304684431209
 10
-3.975005296099312
 20
-0.2616913382589204
 10
-3.999980354373089
 20
-0.2689146070947223
  0
LINE
  5
165
330
139
100
AcDbEntity
  8
AM_9
100
AcDbLine
 10
-3.713697640926831
 20
0.1899916124760621
 30
0.0
 11
-3.72544723939244
 21
0.2187499999999999
 31
0.0
  0
LWPOLYLINE
  5
166
330
139
100
AcDbEntity
  8
AM_9
100
AcDbPolyline
 90
        3
 70
     0
 43
0.0
 10
-3.686020624857516
 20
0.1093749999999998
 10
-3.70388027484144
 20
0.1640624999999998
 10
-3.713697640926831
 20
0.1899916124760621
  0
LWPOLYLINE
  5
167
330
139
100
AcDbEntity
  8
AM_9
100
AcDbPolyline
 90
        3
 70
     0
 43
0.0
 10
-3.713698143423735
 20
-0.1899928891595181
 10
-3.703969568474818
 20
-0.1643083897258505
 10
-3.686020624857516
 20
-0.1093750000000001
  0
LINE
  5
168
330
139
100
AcDbEntity
  8
AM_9
100
AcDbLine
 10
-3.72544723939244
 20
-0.2187500000000001
 30
0.0
 11
-3.713698143423735
 21
-0.1899928891595181
 31
0.0
  0
LINE
  5
169
330
139
100
AcDbEntity
  8
AM_9
100
AcDbLine
 10
-4.151086617391753
 20
-0.1204089378707287
 30
0.0
 11
-4.167155333114907
 21
-0.1601993088245385
 31
0.0
  0
LINE
  5
16A
330
139
100
AcDbEntity
  8
AM_9
100
AcDbLine
 10
-3.963161287787132
 20
-0.2425790968238377
 30
0.0
 11
-3.943301543683731
 21
-0.193401141439177
 31
0.0
  0
LWPOLYLINE
  5
16B
330
139
100
AcDbEntity
  8
AM_9
100
AcDbPolyline
 90
        4
 70
     0
 43
0.0
 10
-4.151091347046773
 20
-0.1204206514110939
 10
-4.151230513031302
 20
-0.1208367673933813
 10
-4.150652929074176
 20
-0.1245107513506023
 10
-4.148747607658766
 20
-0.1273604189306746
  0
LWPOLYLINE
  5
16C
330
139
100
AcDbEntity
  8
AM_9
100
AcDbPolyline
 90
        5
 70
     0
 43
0.0
 10
-3.943298527777172
 20
-0.1933936675560913
 10
-3.943390301550838
 20
-0.1936098952159724
 10
-3.946605838503476
 20
-0.1971856748420372
 10
-3.952624201746259
 20
-0.1994144431868155
 10
-3.959488172326701
 20
-0.1999999999699529
  0
LWPOLYLINE
  5
16D
330
139
100
AcDbEntity
  8
AM_9
100
AcDbPolyline
 90
        3
 70
     0
 43
0.0
 10
-4.052785303539141
 20
-0.1745741884610185
 10
-4.025396228165709
 20
-0.1876759562813858
 10
-3.988776970501366
 20
-0.2099962668917054
  0
LINE
  5
16E
330
139
100
AcDbEntity
  8
AM_9
100
AcDbLine
 10
-4.139951816539863
 20
-0.1510741298357571
 30
0.0
 11
-4.082028600142462
 21
-0.1639460966661175
 31
0.0
  0
LINE
  5
16F
330
139
100
AcDbEntity
  8
AM_9
100
AcDbLine
 10
-4.187470832224926
 20
-0.1425926065380387
 30
0.0
 11
-4.176862696884358
 21
-0.1419585098156051
 31
0.0
  0
LWPOLYLINE
  5
170
330
139
100
AcDbEntity
  8
AM_9
100
AcDbPolyline
 90
        4
 70
     0
 43
0.0
 10
-4.151156733710948
 20
-0.2099962668917054
 10
-4.172809696902488
 20
-0.1805491420332304
 10
-4.185523671479295
 20
-0.1688997677199809
 10
-4.187437498760342
 20
-0.1674505508575327
  0
LWPOLYLINE
  5
171
330
139
100
AcDbEntity
  8
AM_9
100
AcDbPolyline
 90
        3
 70
     0
 43
0.0
 10
-3.988776970501366
 20
-0.2099962668917054
 10
-3.971803288167843
 20
-0.2163479371246913
 10
-3.95566503098366
 20
-0.2258378743019629
  0
LINE
  5
172
330
139
100
AcDbEntity
  8
AM_9
100
AcDbLine
 10
-4.175532843341529
 20
-0.1419585097669024
 30
0.0
 11
-4.176971319989682
 21
-0.1419585097669024
 31
0.0
  0
LWPOLYLINE
  5
173
330
139
100
AcDbEntity
  8
AM_9
100
AcDbPolyline
 90
        4
 70
     0
 43
0.0
 10
-4.176862696884358
 20
-0.1419585098156051
 10
-4.17298757743831
 20
-0.1420496512545707
 10
-4.158498662323558
 20
-0.1441228263802215
 10
-4.139951816539863
 20
-0.151074129835757
  0
ELLIPSE
  5
174
330
139
100
AcDbEntity
  8
AM_9
100
AcDbEllipse
 10
-4.065158310451022
 20
-0.2013892028241901
 30
0.0
 11
-0.130393921019178
 21
0.05265753494273379
 31
0.0
210
0.0
220
0.0
230
1.0
 40
0.2113091308703613
 41
3.80634037200284
 42
4.717193878136586
  0
ELLIPSE
  5
175
330
139
100
AcDbEntity
  8
AM_9
100
AcDbEllipse
 10
-4.065158310451018
 20
-0.201389202824188
 30
0.0
 11
-0.130393921019178
 21
0.05265753494273407
 31
0.0
210
0.0
220
0.0
230
1.0
 40
0.2113091308703398
 41
4.981755958389651
 42
6.005351074464243
  0
ELLIPSE
  5
176
330
139
100
AcDbEntity
  8
AM_9
100
AcDbEllipse
 10
-4.083458217989554
 20
-0.2467045921760199
 30
0.0
 11
-0.1303939210191727
 21
0.05265753494273251
 31
0.0
210
0.0
220
0.0
230
1.0
 40
0.2113091308703554
 41
0.7368928493874467
 42
1.512685599801944
  0
LINE
  5
177
330
139
100
AcDbEntity
  8
AM_9
100
AcDbLine
 10
-3.961943408340387
 20
-0.2813919000363599
 30
0.0
 11
-3.973964938522193
 21
-0.2711532636537957
 31
0.0
  0
ELLIPSE
  5
178
330
139
100
AcDbEntity
  8
AM_9
100
AcDbEllipse
 10
-4.08345821798955
 20
-0.2467045921760215
 30
0.0
 11
-0.1303939210191717
 21
0.05265753494273354
 31
0.0
210
0.0
220
0.0
230
1.0
 40
0.2113091308703484
 41
2.800469246484358
 42
3.607080702195145
  0
LINE
  5
179
330
139
100
AcDbEntity
  8
AM_9
100
AcDbLine
 10
-3.984056568223952
 20
-0.3055458577949632
 30
0.0
 11
-3.964300168270683
 21
-0.3055458577949632
 31
0.0
  0
ELLIPSE
  5
17A
330
139
100
AcDbEntity
  8
AM_9
100
AcDbEllipse
 10
-4.083458217989553
 20
-0.2467045921760203
 30
0.0
 11
-0.1303939210191744
 21
0.05265753494273415
 31
0.0
210
0.0
220
0.0
230
1.0
 40
0.2113091308703525
 41
1.711945269609631
 42
2.518556725320399
  0
LWPOLYLINE
  5
17B
330
139
100
AcDbEntity
  8
AM_9
100
AcDbPolyline
 90
       13
 70
     0
 43
0.0
 10
-4.0122842607659
 20
-0.4146701609449759
 10
-4.014755177869248
 20
-0.4092299822797852
 10
-4.018018169330062
 20
-0.398815653672494
 10
-4.019875851196169
 20
-0.3857708995056823
 10
-4.019338928458515
 20
-0.3711704138736498
 10
-4.015940486757799
 20
-0.3562451496392885
 10
-4.009139160590413
 20
-0.3410806328719606
 10
-4.000212309886934
 20
-0.3285803236110362
 10
-3.990232945500197
 20
-0.3189716750130719
 10
-3.980277769816844
 20
-0.3121930125413623
 10
-3.971470854616449
 20
-0.3079707110521867
 10
-3.964651815281137
 20
-0.3057339838181192
 10
-3.962328290487795
 20
-0.3051857889536088
  0
ELLIPSE
  5
17C
330
139
100
AcDbEntity
  8
AM_9
100
AcDbEllipse
 10
-4.065158310451019
 20
-0.2013892028241884
 30
0.0
 11
-0.1303939210191762
 21
0.0526575349427346
 31
0.0
210
0.0
220
0.0
230
1.0
 40
0.2113091308703466
 41
0.4480895138148044
 42
1.512685599801925
  0
ELLIPSE
  5
17D
330
139
100
AcDbEntity
  8
AM_9
100
AcDbEllipse
 10
-4.06515831045102
 20
-0.201389202824187
 30
0.0
 11
-0.1303939210191825
 21
0.05265753494272112
 31
0.0
210
0.0
220
0.0
230
1.0
 40
0.2113091308703647
 41
1.711945269609613
 42
2.518556725320323
  0
LINE
  5
17E
330
139
100
AcDbEntity
  8
AM_9
100
AcDbLine
 10
-3.946000260732149
 20
-0.2602304684431306
 30
0.0
 11
-3.965756660685417
 21
-0.2602304684431209
 31
0.0
  0
ELLIPSE
  5
17F
330
139
100
AcDbEntity
  8
AM_9
100
AcDbEllipse
 10
-4.065158310451022
 20
-0.2013892028241854
 30
0.0
 11
-0.1303939210191771
 21
0.05265753494273687
 31
0.0
210
0.0
220
0.0
230
1.0
 40
0.21130913087035
 41
2.800469246484381
 42
3.607080702195111
  0
LINE
  5
180
330
139
100
AcDbEntity
  8
AM_9
100
AcDbLine
 10
-3.95566503098366
 20
-0.2258378743019629
 30
0.0
 11
-3.943643500801853
 21
-0.2360765106845278
 31
0.0
  0
LWPOLYLINE
  5
181
330
139
100
AcDbEntity
  8
AM_9
100
AcDbPolyline
 90
        3
 70
     0
 43
0.0
 10
-3.999980354373089
 20
-0.2689146070947223
 10
-4.028042654341933
 20
-0.2512755937295761
 10
-4.057830759179919
 20
-0.2360765106845275
  0
LINE
  5
182
330
139
100
AcDbEntity
  8
AM_9
100
AcDbLine
 10
-4.057830759179919
 20
-0.2360765106845275
 30
0.0
 11
-4.083839568205903
 21
-0.2258378743019628
 31
0.0
  0
LWPOLYLINE
  5
183
330
139
100
AcDbEntity
  8
AM_9
100
AcDbPolyline
 90
        3
 70
     0
 43
0.0
 10
-4.083839568205903
 20
-0.2258378743019628
 10
-4.106829602898143
 20
-0.2189176876709015
 10
-4.151156733710948
 20
-0.2099962668917054
  0
LINE
  5
184
330
139
100
AcDbEntity
  8
AM_9
100
AcDbLine
 10
-4.151156733710948
 20
-0.2099962668917054
 30
0.0
 11
-4.162843979930493
 21
-0.2389369657326277
 31
0.0
  0
LWPOLYLINE
  5
185
330
139
100
AcDbEntity
  8
AM_9
100
AcDbPolyline
 90
        3
 70
     0
 43
0.0
 10
-4.162843979930493
 20
-0.2389369657326277
 10
-4.133164158696692
 20
-0.2560939713202354
 10
-4.102139475744435
 20
-0.2711532636537957
  0
LINE
  5
186
330
139
100
AcDbEntity
  8
AM_9
100
AcDbLine
 10
-4.102139475744435
 20
-0.2711532636537957
 30
0.0
 11
-4.076130666718453
 21
-0.28139190003636
 31
0.0
  0
LINE
  5
187
330
139
100
AcDbEntity
  8
AM_9
100
AcDbLine
 10
-4.076130666718453
 20
-0.28139190003636
 30
0.0
 11
-4.012036003684067
 21
-0.2987675689889719
 31
0.0
  0
LINE
  5
188
330
139
100
AcDbEntity
  8
AM_9
100
AcDbLine
 10
-3.999980354373089
 20
-0.2689146070947223
 30
0.0
 11
-4.012036003684067
 21
-0.2987675689889719
 31
0.0
  0
LWPOLYLINE
  5
189
330
139
100
AcDbEntity
  8
AM_9
100
AcDbPolyline
 90
       17
 70
     0
 43
0.0
 10
-3.949973074771763
 20
-0.179037373850178
 10
-3.957940539847955
 20
-0.1733931390117468
 10
-3.968696613282137
 20
-0.1670729780242511
 10
-3.98133966480458
 20
-0.1606047421316796
 10
-3.996230087950422
 20
-0.1538031670974777
 10
-4.012131964757303
 20
-0.1472336073736394
 10
-4.029492934579021
 20
-0.1407130262602577
 10
-4.046848411709266
 20
-0.1347930597680668
 10
-4.064706123293554
 20
-0.1293028157827818
 10
-4.081535884793628
 20
-0.1247141396218193
 10
-4.097852628694334
 20
-0.1208880884981782
 10
-4.112251679554167
 20
-0.118154598914599
 10
-4.125184032419915
 20
-0.1164278875396129
 10
-4.135543760579615
 20
-0.1158549073091555
 10
-4.143653935396312
 20
-0.1164156227038168
 10
-4.148830576587153
 20
-0.1180609686233502
 10
-4.151091347046773
 20
-0.1204206514110939
  0
ARC
  5
18A
330
139
100
AcDbEntity
  8
AM_9
100
AcDbCircle
 10
-3.994542174955733
 20
-0.0000000000000066
 30
0.0
 40
0.1999999999999877
100
AcDbArc
 50
195.2496075998485
 51
219.6399124967331
  0
ARC
  5
18B
330
139
100
AcDbEntity
  8
AM_9
100
AcDbCircle
 10
-3.994542174955726
 20
0.0000000000000038
 30
0.0
 40
0.1999999999999961
100
AcDbArc
 50
90.0
 51
164.7503924001512
  0
LWPOLYLINE
  5
18C
330
139
100
AcDbEntity
  8
AM_9
100
AcDbPolyline
 90
       10
 70
     0
 43
0.0
 10
-4.148747607658766
 20
-0.1273604189306746
 10
-4.147081225265052
 20
-0.1291842652280563
 10
-4.140803677997388
 20
-0.134472979061152
 10
-4.131646078934668
 20
-0.140518627090196
 10
-4.120349889772656
 20
-0.1468270783017121
 10
-4.106608738631906
 20
-0.1535654953592166
 10
-4.091547248892424
 20
-0.1601799433259584
 10
-4.074753826072764
 20
-0.1668493358980662
 10
-4.057354489918769
 20
-0.1731116383367606
 10
-4.039111275139666
 20
-0.1790373738502115
  0
ELLIPSE
  5
18D
330
139
100
AcDbEntity
  8
AM_9
100
AcDbEllipse
 10
-3.994542174955723
 20
-0.0000000000000001
 30
0.0
 11
1.224646799147350E-17
 21
0.1999999999999996
 31
0.0
210
0.0
220
0.0
230
1.0
 40
0.5000000000000016
 41
0.0
 42
2.679646633022835
  0
LWPOLYLINE
  5
18E
330
139
100
AcDbEntity
  8
AM_9
100
AcDbPolyline
 90
        3
 70
     0
 43
0.0
 10
-3.949973074771763
 20
-0.1790373738501784
 10
-3.945018414299695
 20
-0.1842628795203942
 10
-3.943298527777172
 20
-0.1933936675560913
  0
LINE
  5
18F
330
139
100
AcDbEntity
  8
AM_9
100
AcDbLine
 10
-3.867344693774883
 20
0.1999999999999998
 30
0.0
 11
-3.994542174955723
 21
0.1999999999999998
 31
0.0
  0
LINE
  5
190
330
139
100
AcDbEntity
  8
AM_9
100
AcDbLine
 10
-3.959635956553609
 20
-0.2000000000000001
 30
0.0
 11
-3.867344693774883
 21
-0.2000000000000001
 31
0.0
  0
LWPOLYLINE
  5
191
330
139
100
AcDbEntity
  8
AM_9
100
AcDbPolyline
 90
        8
 70
     0
 43
0.0
 10
-3.959488172326701
 20
-0.1999999999699529
 10
-3.960975289566005
 20
-0.1999786710855128
 10
-3.971848890042755
 20
-0.1988321115509054
 10
-3.984247211756737
 20
-0.196164942998426
 10
-3.998670642122728
 20
-0.1920694300574959
 10
-4.014183621983546
 20
-0.1870948030566196
 10
-4.031277025770517
 20
-0.1815005947613931
 10
-4.039111275139683
 20
-0.1790373738501784
  0
LINE
  5
192
330
139
100
AcDbEntity
  8
AM_9
100
AcDbLine
 10
-3.71308391872578
 20
0.1999999999999998
 30
0.0
 11
-3.780742153396439
 21
0.1999999999999998
 31
0.0
  0
LINE
  5
193
330
139
100
AcDbEntity
  8
AM_9
100
AcDbLine
 10
-3.780742153396439
 20
-0.2000000000000001
 30
0.0
 11
-3.71308391872578
 21
-0.2000000000000001
 31
0.0
  0
LINE
  5
194
330
139
100
AcDbEntity
  8
AM_9
100
AcDbLine
 10
-3.922639607778882
 20
0.2187499999999999
 30
0.0
 11
-3.72544723939244
 21
0.2187499999999999
 31
0.0
  0
LWPOLYLINE
  5
195
330
139
100
AcDbEntity
  8
AM_9
100
AcDbPolyline
 90
        3
 70
     0
 43
0.0
 10
-3.962066222313806
 20
0.1093749999999999
 10
-3.944206572329883
 20
0.1640624999999998
 10
-3.922639607778882
 20
0.2187499999999999
  0
LWPOLYLINE
  5
196
330
139
100
AcDbEntity
  8
AM_9
100
AcDbPolyline
 90
        3
 70
     0
 43
0.0
 10
-3.985787293471498
 20
-0.0000000000000001
 10
-3.975833086042223
 20
0.0544416102741495
 10
-3.962066222313806
 20
0.1093749999999999
  0
LINE
  5
197
330
139
100
AcDbEntity
  8
AM_9
100
AcDbLine
 10
-3.862188439180753
 20
0.1620269283978574
 30
0.0
 11
-3.875463681935362
 21
0.1093749999999999
 31
0.0
  0
LINE
  5
198
330
139
100
AcDbEntity
  8
AM_9
100
AcDbLine
 10
-3.851742610777671
 20
0.2187499999999999
 30
0.0
 11
-3.855530525502409
 21
0.1958969990070723
 31
0.0
  0
LWPOLYLINE
  5
199
330
139
100
AcDbEntity
  8
AM_9
100
AcDbPolyline
 90
        3
 70
     0
 43
0.0
 10
-3.875463681935362
 20
0.1093749999999999
 10
-3.893323331919285
 20
0.0546874999999999
 10
-3.914890296470286
 20
-0.0000000000000001
  0
LINE
  5
19A
330
139
100
AcDbEntity
  8
AM_9
100
AcDbLine
 10
-3.985787293471498
 20
-0.0000000000000001
 30
0.0
 11
-3.914890296470286
 21
-0.0000000000000001
 31
0.0
  0
LWPOLYLINE
  5
19B
330
139
100
AcDbEntity
  8
AM_9
100
AcDbPolyline
 90
        3
 70
     0
 43
0.0
 10
-3.962066222313806
 20
-0.109375
 10
-3.975780415176191
 20
-0.0546875000000001
 10
-3.985787293471498
 20
-0.0000000000000001
  0
LWPOLYLINE
  5
19C
330
139
100
AcDbEntity
  8
AM_9
100
AcDbPolyline
 90
        3
 70
     0
 43
0.0
 10
-3.922639607778882
 20
-0.2187500000000001
 10
-3.944117278696505
 20
-0.1643083897258505
 10
-3.962066222313806
 20
-0.109375
  0
LINE
  5
19D
330
139
100
AcDbEntity
  8
AM_9
100
AcDbLine
 10
-3.922639607778882
 20
-0.2187500000000001
 30
0.0
 11
-3.72544723939244
 21
-0.2187500000000001
 31
0.0
  0
LINE
  5
19E
330
139
100
AcDbEntity
  8
AM_9
100
AcDbLine
 10
-3.858465875024927
 20
-0.1801171917554278
 30
0.0
 11
-3.851742610777671
 21
-0.2187500000000001
 31
0.0
  0
LINE
  5
19F
330
139
100
AcDbEntity
  8
AM_9
100
AcDbLine
 10
-3.875463681935362
 20
-0.1093750000000001
 30
0.0
 11
-3.863979630397169
 21
-0.1539614006520547
 31
0.0
  0
LWPOLYLINE
  5
1A0
330
139
100
AcDbEntity
  8
AM_9
100
AcDbPolyline
 90
        3
 70
     0
 43
0.0
 10
-3.914890296470286
 20
-0.0000000000000001
 10
-3.893412625552664
 20
-0.0544416102741497
 10
-3.875463681935362
 20
-0.1093750000000001
  0
LINE
  5
1A1
330
139
100
AcDbEntity
  8
AM_9
100
AcDbLine
 10
-3.5433
 20
0.1854145618545059
 30
0.0
 11
-3.711356190787446
 21
0.1914800577488988
 31
0.0
  0
LINE
  5
1A2
330
139
100
AcDbEntity
  8
AM_9
100
AcDbLine
 10
-3.711356190787446
 20
-0.1914800577488991
 30
0.0
 11
-3.5433
 21
-0.1854145618545062
 31
0.0
  0
LINE
  5
1A3
330
139
100
AcDbEntity
  8
AM_9
100
AcDbLine
 10
-3.476972563821227
 20
0.1319978794387895
 30
0.0
 11
-3.490686690880296
 21
0.1513925839218322
 31
0.0
  0
LINE
  5
1A4
330
139
100
AcDbEntity
  8
AM_9
100
AcDbLine
 10
-3.490686690880296
 20
-0.1513925839218325
 30
0.0
 11
-3.476972563821227
 21
-0.1319978794387898
 31
0.0
  0
ELLIPSE
  5
1A5
330
139
100
AcDbEntity
  8
AM_9
100
AcDbEllipse
 10
-4.06515831045102
 20
-0.2013892028241882
 30
0.0
 11
-0.1019970226638876
 21
0.04118989399964964
 31
0.0
210
0.0
220
0.0
230
1.0
 40
0.2113091308703523
 41
0.0
 42
6.283185307179586
  0
ELLIPSE
  5
1A6
330
139
100
AcDbEntity
  8
AM_9
100
AcDbEllipse
 10
-3.867344693774883
 20
-0.000000000000001
 30
0.0
 11
1.339457436567412E-17
 21
0.218749999999999
 31
0.0
210
0.0
220
0.0
230
1.0
 40
0.5000000000000003
 41
0.0
 42
6.283185307179586
  0
ELLIPSE
  5
1A7
330
139
100
AcDbEntity
  8
AM_9
100
AcDbEllipse
 10
-3.867344693774884
 20
-0.0000000000000002
 30
0.0
 11
1.224646799147352E-17
 21
0.1999999999999998
 31
0.0
210
0.0
220
0.0
230
1.0
 40
0.5000000000000031
 41
0.0
 42
6.283185307179586
  0
ELLIPSE
  5
1A8
330
139
100
AcDbEntity
  8
AM_9
100
AcDbEllipse
 10
-3.78074215339644
 20
-0.0000000000000003
 30
0.0
 11
1.339457436567417E-17
 21
0.2187499999999999
 31
0.0
210
0.0
220
0.0
230
1.0
 40
0.4999999999999982
 41
0.0
 42
6.283185307179586
  0
ELLIPSE
  5
1A9
330
139
100
AcDbEntity
  8
AM_9
100
AcDbEllipse
 10
-3.78074215339644
 20
-0.0000000000000001
 30
0.0
 11
1.224646799147353E-17
 21
0.2
 31
0.0
210
0.0
220
0.0
230
1.0
 40
0.5000000000000003
 41
0.0
 42
6.283185307179586
  0
ELLIPSE
  5
1AA
330
139
100
AcDbEntity
  8
AM_9
100
AcDbEllipse
 10
-3.713083918725744
 20
-0.0000000000000068
 30
0.0
 11
1.224646799147394E-17
 21
0.2000000000000066
 31
0.0
210
0.0
220
0.0
230
1.0
 40
0.4999999999999706
 41
0.0
 42
6.283185307179586
  0
ELLIPSE
  5
1AB
330
139
100
AcDbEntity
  8
AM_9
100
AcDbEllipse
 10
-3.713083918725781
 20
0.0000000000000001
 30
0.0
 11
1.172668097677221E-17
 21
0.1915112338502298
 31
0.0
210
0.0
220
0.0
230
1.0
 40
0.5000000000000054
 41
0.0
 42
6.283185307179586
  0
ELLIPSE
  5
1AC
330
139
100
AcDbEntity
  8
AM_9
100
AcDbEllipse
 10
-3.544212052236534
 20
-0.0000000000000004
 30
0.0
 11
1.135353457964635E-17
 21
0.185417290724985
 31
0.0
210
0.0
220
0.0
230
1.0
 40
0.4999999999999849
 41
0.0
 42
6.283185307179586
  0
ELLIPSE
  5
1AD
330
139
100
AcDbEntity
  8
AM_9
100
AcDbEllipse
 10
-3.523640861647934
 20
-0.0000000000000002
 30
0.0
 11
9.899048221688862E-18
 21
0.1616637258772238
 31
0.0
210
0.0
220
0.0
230
1.0
 40
0.5000000000000034
 41
0.0
 42
6.283185307179586
  0
LINE
  5
1AE
330
139
100
AcDbEntity
  8
AM_4
100
AcDbLine
 10
-4.274611640089632
 20
-0.3503396289636353
 30
0.0
 11
-4.269418217798902
 21
-0.4322420068738782
 31
0.0
  0
ELLIPSE
  5
1AF
330
139
100
AcDbEntity
  8
AM_4
100
AcDbEllipse
 10
-4.173127764928364
 20
-0.4687500000000012
 30
0.0
 11
-0.09595382955732033
 21
0.03874944547499874
 31
0.0
210
0.0
220
0.0
230
1.0
 40
0.2113091308703423
 41
0.1009830038932735
 42
1.506123912186499
  0
LINE
  5
1B0
330
139
100
AcDbEntity
  8
AM_4
100
AcDbLine
 10
-4.221141698144654
 20
-0.1510741298357571
 30
0.0
 11
-4.232463271368531
 21
-0.1791093260592888
 31
0.0
  0
LWPOLYLINE
  5
1B1
330
139
100
AcDbEntity
  8
AM_4
100
AcDbPolyline
 90
        6
 70
     0
 43
0.0
 10
-4.250362001530632
 20
-0.3178558892580319
 10
-4.257779908259403
 20
-0.3208608540580062
 10
-4.265032716160673
 20
-0.3260391650339691
 10
-4.270769302423896
 20
-0.3333514142830997
 10
-4.274243412055829
 20
-0.3431673474527058
 10
-4.274548012207662
 20
-0.3511715628256505
  0
ELLIPSE
  5
1B2
330
139
100
AcDbEntity
  8
AM_4
100
AcDbEllipse
 10
-4.145134102730883
 20
-0.3994303217889763
 30
0.0
 11
-0.1290248947933277
 21
0.05210467522533602
 31
0.0
210
0.0
220
0.0
230
1.0
 40
0.2113091308703497
 41
0.1075853369991764
 42
1.322621622084508
  0
LWPOLYLINE
  5
1B3
330
139
100
AcDbEntity
  8
AM_4
100
AcDbPolyline
 90
        4
 70
     0
 43
0.0
 10
-4.232463271368531
 20
-0.1791093260592887
 10
-4.217586153325455
 20
-0.1988355121406939
 10
-4.201156881082781
 20
-0.2156330920108725
 10
-4.195659862471438
 20
-0.2201680623457972
  0
LINE
  5
1B4
330
139
100
AcDbEntity
  8
AM_4
100
AcDbLine
 10
-4.195659862471438
 20
-0.2201680623457972
 30
0.0
 11
-4.187635544684259
 21
-0.2259447895590943
 31
0.0
  0
LWPOLYLINE
  5
1B5
330
139
100
AcDbEntity
  8
AM_4
100
AcDbPolyline
 90
        3
 70
     0
 43
0.0
 10
-4.221141698144654
 20
-0.1510741298357571
 10
-4.188471243501993
 20
-0.1427138007556463
 10
-4.187470832224926
 20
-0.1425926065380387
  0
LWPOLYLINE
  5
1B6
330
139
100
AcDbEntity
  8
AM_4
100
AcDbPolyline
 90
        3
 70
     0
 43
0.0
 10
-4.187437498760342
 20
-0.1674505508575327
 10
-4.199419597668987
 20
-0.1598729403210871
 10
-4.221141698144654
 20
-0.1510741298357571
  0
ELLIPSE
  5
1B7
330
139
100
AcDbEntity
  8
AM_4
100
AcDbEllipse
 10
-4.083458217989651
 20
-0.2467045921758797
 30
0.0
 11
-0.1303939210190421
 21
0.05265753494257702
 31
0.0
210
0.0
220
0.0
230
1.0
 40
0.2113091308708851
 41
0.6359965959174998
 42
0.7368928493873951
  0
LWPOLYLINE
  5
1B8
330
139
100
AcDbEntity
  8
AM_4
100
AcDbPolyline
 90
       13
 70
     0
 43
0.0
 10
-4.210898933643779
 20
-0.205165809838166
 10
-4.207943625497777
 20
-0.21022915901164
 10
-4.204380080862085
 20
-0.2184795779410691
 10
-4.201387630990478
 20
-0.2296924720089056
 10
-4.200112464771473
 20
-0.2432930632093604
 10
-4.201416862458252
 20
-0.2581009045920455
 10
-4.205620731361292
 20
-0.2729200734112173
 10
-4.213055683241291
 20
-0.2874555270714298
 10
-4.222342905357365
 20
-0.2992319372340214
 10
-4.232421774209947
 20
-0.308118780501687
 10
-4.242191025812124
 20
-0.3142186378927208
 10
-4.250557742143939
 20
-0.3178790033728334
 10
-4.251278639642178
 20
-0.3181314269262031
  0
ELLIPSE
  5
1B9
330
139
100
AcDbEntity
  8
AM_4
100
AcDbEllipse
 10
-4.134459121253538
 20
-0.3729962569746645
 30
0.0
 11
-0.1235034625625949
 21
0.04987493162723584
 31
0.0
210
0.0
220
0.0
230
1.0
 40
0.211309130870348
 41
6.043741429847967
 42
7.496926210666007
  0
ELLIPSE
  5
1BA
330
139
100
AcDbEntity
  8
AM_4
100
AcDbEllipse
 10
-4.065158310451017
 20
-0.2013892028241905
 30
0.0
 11
-0.1303939210191772
 21
0.05265753494273647
 31
0.0
210
0.0
220
0.0
230
1.0
 40
0.2113091308703493
 41
6.005351074464271
 42
6.731274820994377
  0
ARC
  5
1BB
330
139
100
AcDbEntity
  8
AM_4
100
AcDbCircle
 10
-3.994542174955734
 20
0.0
 30
0.0
 40
0.1999999999999886
100
AcDbArc
 50
164.7503924001496
 51
195.2496075998504
  0
ENDBLK
  5
13C
330
139
100
AcDbEntity
  8
0
100
AcDbBlockEnd
  0
BLOCK
  5
1BE
330
1BC
100
AcDbEntity
  8
0
100
AcDbBlockBegin
  2
5_070797H_0_in_070797_4
 70
     2
 10
0.0
 20
0.0
 30
0.0
  3
5_070797H_0_in_070797_4
  1

  0
ATTDEF
  5
1C0
330
1BC
100
AcDbEntity
  8
AM_6
100
AcDbText
 10
13.48328125
 20
2.022058823529412
 30
0.0
 40
0.5
  1
WSTU-S2 -(Contact Seal)-Housing
100
AcDbAttributeDefinition
  3

  2
NN
 70
     8
280
     0
  0
ATTDEF
  5
1C1
330
1BC
100
AcDbEntity
  8
AM_6
100
AcDbText
 10
13.48328125
 20
1.522058823529412
 30
0.0
 40
0.5
  1
S-2000 Wide Slot Take-Up Bearing -Inch
100
AcDbAttributeDefinition
  3

  2
NT
 70
     8
280
     0
  0
ATTDEF
  5
1C2
330
1BC
100
AcDbEntity
  8
AM_6
100
AcDbText
 10
13.48328125
 20
1.022058823529412
 30
0.0
 40
0.5
  1
070797H
100
AcDbAttributeDefinition
  3

  2
NB
 70
     8
280
     0
  0
ATTDEF
  5
1C3
330
1BC
100
AcDbEntity
  8
AM_6
100
AcDbText
 10
13.48328125
 20
0.5220588235294117
 30
0.0
 40
0.5
  1
$PN.H
100
AcDbAttributeDefinition
  3

  2
NBSYN
 70
     8
280
     0
  0
ATTDEF
  5
1C4
330
1BC
100
AcDbEntity
  8
AM_6
100
AcDbText
 10
13.48328125
 20
0.0220588235294117
 30
0.0
 40
0.5
  1
070797
100
AcDbAttributeDefinition
  3

  2
LINA
 70
     8
280
     0
  0
ATTDEF
  5
1C5
330
1BC
100
AcDbEntity
  8
AM_6
100
AcDbText
 10
13.48328125
 20
-0.4779411764705883
 30
0.0
 40
0.5
  1
3-15/16
100
AcDbAttributeDefinition
  3

  2
SS
 70
     8
280
     0
  0
ATTDEF
  5
1C6
330
1BC
100
AcDbEntity
  8
AM_6
100
AcDbText
 10
13.48328125
 20
-0.9779411764705883
 30
0.0
 40
0.5
  1
070797
100
AcDbAttributeDefinition
  3

  2
PN
 70
     8
280
     0
  0
ATTDEF
  5
1C7
330
1BC
100
AcDbEntity
  8
AM_6
100
AcDbText
 10
13.48328125
 20
-1.477941176470588
 30
0.0
 40
0.5
  1
WSTU-S2-315RE
100
AcDbAttributeDefinition
  3

  2
DESCRIPTION
 70
     8
280
     0
  0
ATTDEF
  5
1C8
330
1BC
100
AcDbEntity
  8
AM_6
100
AcDbText
 10
13.48328125
 20
-1.977941176470588
 30
0.0
 40
0.5
  1
Expansion Type
100
AcDbAttributeDefinition
  3

  2
EF
 70
     8
280
     0
  0
ATTDEF
  5
1C9
330
1BC
100
AcDbEntity
  8
AM_6
100
AcDbText
 10
13.48328125
 20
-2.477941176470588
 30
0.0
 40
0.5
  1
4-15/32
100
AcDbAttributeDefinition
  3

  2
A
 70
     8
280
     0
  0
ATTDEF
  5
1CA
330
1BC
100
AcDbEntity
  8
AM_6
100
AcDbText
 10
13.48328125
 20
-2.977941176470588
 30
0.0
 40
0.5
  1
12-9/16
100
AcDbAttributeDefinition
  3

  2
B
 70
     8
280
     0
  0
ATTDEF
  5
1CB
330
1BC
100
AcDbEntity
  8
AM_6
100
AcDbText
 10
13.48328125
 20
-3.477941176470588
 30
0.0
 40
0.5
  1
2-1/16
100
AcDbAttributeDefinition
  3

  2
C
 70
     8
280
     0
  0
ATTDEF
  5
1CC
330
1BC
100
AcDbEntity
  8
AM_6
100
AcDbText
 10
13.48328125
 20
-3.977941176470588
 30
0.0
 40
0.5
  1
8-3/8
100
AcDbAttributeDefinition
  3

  2
E
 70
     8
280
     0
  0
ATTDEF
  5
1CD
330
1BC
100
AcDbEntity
  8
AM_6
100
AcDbText
 10
13.48328125
 20
-4.477941176470589
 30
0.0
 40
0.5
  1
2-1/8
100
AcDbAttributeDefinition
  3

  2
F
 70
     8
280
     0
  0
ATTDEF
  5
1CE
330
1BC
100
AcDbEntity
  8
AM_6
100
AcDbText
 10
13.48328125
 20
-4.977941176470589
 30
0.0
 40
0.5
  1
2-1/16
100
AcDbAttributeDefinition
  3

  2
G
 70
     8
280
     0
  0
ATTDEF
  5
1CF
330
1BC
100
AcDbEntity
  8
AM_6
100
AcDbText
 10
13.48328125
 20
-5.477941176470589
 30
0.0
 40
0.5
  1
2-1/8
100
AcDbAttributeDefinition
  3

  2
H
 70
     8
280
     0
  0
ATTDEF
  5
1D0
330
1BC
100
AcDbEntity
  8
AM_6
100
AcDbText
 10
13.48328125
 20
-5.977941176470589
 30
0.0
 40
0.5
  1
6
100
AcDbAttributeDefinition
  3

  2
J
 70
     8
280
     0
  0
ATTDEF
  5
1D1
330
1BC
100
AcDbEntity
  8
AM_6
100
AcDbText
 10
13.48328125
 20
-6.477941176470589
 30
0.0
 40
0.5
  1
3-3/8
100
AcDbAttributeDefinition
  3

  2
K
 70
     8
280
     0
  0
ATTDEF
  5
1D2
330
1BC
100
AcDbEntity
  8
AM_6
100
AcDbText
 10
13.48328125
 20
-6.977941176470589
 30
0.0
 40
0.5
  1
3.375000
100
AcDbAttributeDefinition
  3

  2
K1
 70
     8
280
     0
  0
ATTDEF
  5
1D3
330
1BC
100
AcDbEntity
  8
AM_6
100
AcDbText
 10
13.48328125
 20
-7.477941176470589
 30
0.0
 40
0.5
  1
6
100
AcDbAttributeDefinition
  3

  2
L
 70
     8
280
     0
  0
ATTDEF
  5
1D4
330
1BC
100
AcDbEntity
  8
AM_6
100
AcDbText
 10
13.48328125
 20
-7.977941176470589
 30
0.0
 40
0.5
  1
8-5/8
100
AcDbAttributeDefinition
  3

  2
M
 70
     8
280
     0
  0
ATTDEF
  5
1D5
330
1BC
100
AcDbEntity
  8
AM_6
100
AcDbText
 10
13.48328125
 20
-8.477941176470589
 30
0.0
 40
0.5
  1
9-7/16
100
AcDbAttributeDefinition
  3

  2
N
 70
     8
280
     0
  0
ATTDEF
  5
1D6
330
1BC
100
AcDbEntity
  8
AM_6
100
AcDbText
 10
13.48328125
 20
-8.977941176470589
 30
0.0
 40
0.5
  1
4-37/64
100
AcDbAttributeDefinition
  3

  2
R
 70
     8
280
     0
  0
ATTDEF
  5
1D7
330
1BC
100
AcDbEntity
  8
AM_6
100
AcDbText
 10
13.48328125
 20
-9.477941176470589
 30
0.0
 40
0.5
  1
2-55/64
100
AcDbAttributeDefinition
  3

  2
S
 70
     8
280
     0
  0
ATTDEF
  5
1D8
330
1BC
100
AcDbEntity
  8
AM_6
100
AcDbText
 10
13.48328125
 20
-9.977941176470589
 30
0.0
 40
0.5
  1
3-7/16
100
AcDbAttributeDefinition
  3

  2
T
 70
     8
280
     0
  0
ATTDEF
  5
1D9
330
1BC
100
AcDbEntity
  8
AM_6
100
AcDbText
 10
13.48328125
 20
-10.47794117647059
 30
0.0
 40
0.5
  1
3.437500
100
AcDbAttributeDefinition
  3

  2
T1
 70
     8
280
     0
  0
ATTDEF
  5
1DA
330
1BC
100
AcDbEntity
  8
AM_6
100
AcDbText
 10
13.48328125
 20
-10.97794117647059
 30
0.0
 40
0.5
  1
5/16
100
AcDbAttributeDefinition
  3

  2
X
 70
     8
280
     0
  0
ATTDEF
  5
1DB
330
1BC
100
AcDbEntity
  8
AM_6
100
AcDbText
 10
13.48328125
 20
-11.47794117647059
 30
0.0
 40
0.5
  1
0.025
100
AcDbAttributeDefinition
  3

  2
Y
 70
     8
280
     0
  0
ATTDEF
  5
1DC
330
1BC
100
AcDbEntity
  8
AM_6
100
AcDbText
 10
13.48328125
 20
-11.97794117647059
 30
0.0
 40
0.5
  1
4-1/2
100
AcDbAttributeDefinition
  3

  2
Z
 70
     8
280
     0
  0
ATTDEF
  5
1DD
330
1BC
100
AcDbEntity
  8
AM_6
100
AcDbText
 10
13.48328125
 20
-12.47794117647059
 30
0.0
 40
0.5
  1
baldor
100
AcDbAttributeDefinition
  3

  2
COMPANY
 70
     8
280
     0
  0
ELLIPSE
  5
1DE
330
1BC
100
AcDbEntity
  8
AM_9
100
AcDbEllipse
 10
-3.713083918725781
 20
-0.0000000000000001
 30
0.0
 11
2.449293598294707E-17
 21
0.4
 31
0.0
210
0.0
220
0.0
230
1.0
 40
0.5000000000000004
 41
0.0
 42
6.283185307179586
  0
ELLIPSE
  5
1DF
330
1BC
100
AcDbEntity
  8
AM_9
100
AcDbEllipse
 10
-3.626481378347343
 20
-0.0000000000000647
 30
0.0
 11
-9.184850993606425E-17
 21
-0.5000000000000695
 31
0.0
210
0.0
220
0.0
230
1.0
 40
0.4999999999999971
 41
2.611138062469263
 42
6.813639898300249
  0
LINE
  5
1E0
330
1BC
100
AcDbEntity
  8
AM_9
100
AcDbLine
 10
-3.628554189813707
 20
-0.4999892584512819
 30
0.0
 11
-3.626289924124722
 21
-0.4999999083631886
 31
0.0
  0
LWPOLYLINE
  5
1E1
330
1BC
100
AcDbEntity
  8
AM_9
100
AcDbPolyline
 90
       21
 70
     0
 43
0.0
 10
-3.926481378347336
 20
-0.0000000000000001
 10
-3.926224975037168
 20
-0.0214775445186627
 10
-3.924367204585394
 20
-0.0615559350186587
 10
-3.920715309379704
 20
-0.1012778763395225
 10
-3.915272064219782
 20
-0.1404189430307493
 10
-3.908037289965022
 20
-0.1787693267007029
 10
-3.899005420932668
 20
-0.2161259481671547
 10
-3.888162088730198
 20
-0.2522918700487532
 10
-3.875480483784001
 20
-0.2870728920623376
 10
-3.860919059751297
 20
-0.3202693550874093
 10
-3.844424264158247
 20
-0.3516606014017099
 10
-3.825945469041263
 20
-0.3809805512285797
 10
-3.805503410433972
 20
-0.4078519749895338
 10
-3.783248753235665
 20
-0.4318144568068492
 10
-3.75946395344409
 20
-0.45243455377853
 10
-3.737261816419062
 20
-0.467751520540272
 10
-3.714393462671327
 20
-0.4800718164440146
 10
-3.688451783056959
 20
-0.4902523229898599
 10
-3.662281415276507
 20
-0.4967797487869205
 10
-3.636187921476907
 20
-0.4997643708224435
 10
-3.628554189813707
 20
-0.4999892584512819
  0
LWPOLYLINE
  5
1E2
330
1BC
100
AcDbEntity
  8
AM_9
100
AcDbPolyline
 90
       21
 70
     0
 43
0.0
 10
-3.628545854814648
 20
0.4999893446648916
 10
-3.636004308990616
 20
0.4997732041310882
 10
-3.661476456539547
 20
0.4969236246765234
 10
-3.686309244184566
 20
0.4909241661950579
 10
-3.710404380912739
 20
0.4818901550613608
 10
-3.73371564140834
 20
0.4698813631514522
 10
-3.756218840491288
 20
0.4548962010806599
 10
-3.77788300953573
 20
0.4368835568511648
 10
-3.798635401306188
 20
0.4157835163273629
 10
-3.818335285601317
 20
0.3915963365823111
 10
-3.836779036362955
 20
0.3644508040861389
 10
-3.853745631820226
 20
0.3346206831731057
 10
-3.86905467631639
 20
0.3024701215089988
 10
-3.882576753271177
 20
0.2684259370433578
 10
-3.894282111527828
 20
0.2327928568690542
 10
-3.904167569510443
 20
0.1958334244162596
 10
-3.91223887295785
 20
0.1577836343781915
 10
-3.918502331607955
 20
0.1188669668231022
 10
-3.922962301984396
 20
0.0793030466338542
 10
-3.925621308624833
 20
0.0393117517246929
 10
-3.926481378347336
 20
-0.0000000000000001
  0
LINE
  5
1E3
330
1BC
100
AcDbEntity
  8
AM_9
100
AcDbLine
 10
-3.62670895681013
 20
0.4999998705200818
 30
0.0
 11
-3.628545854814648
 21
0.4999893446648916
 31
0.0
  0
LINE
  5
1E4
330
1BC
100
AcDbEntity
  8
AM_9
100
AcDbLine
 10
6.3125
 20
-1.0625
 30
0.0
 11
8.375
 21
-1.0625
 31
0.0
  0
LINE
  5
1E5
330
1BC
100
AcDbEntity
  8
AM_9
100
AcDbLine
 10
8.375
 20
1.0625
 30
0.0
 11
6.3125
 21
1.0625
 31
0.0
  0
LINE
  5
1E6
330
1BC
100
AcDbEntity
  8
AM_9
100
AcDbLine
 10
6.262499999999999
 20
-1.375
 30
0.0
 11
6.262499999999999
 21
1.375
 31
0.0
  0
LINE
  5
1E7
330
1BC
100
AcDbEntity
  8
AM_9
100
AcDbLine
 10
6.3125
 20
-1.375
 30
0.0
 11
6.3125
 21
1.375
 31
0.0
  0
LINE
  5
1E8
330
1BC
100
AcDbEntity
  8
AM_9
100
AcDbLine
 10
4.237500000000001
 20
-1.375
 30
0.0
 11
4.237500000000001
 21
1.375
 31
0.0
  0
LINE
  5
1E9
330
1BC
100
AcDbEntity
  8
AM_9
100
AcDbLine
 10
4.1875
 20
-1.375
 30
0.0
 11
4.1875
 21
1.375
 31
0.0
  0
LWPOLYLINE
  5
1EA
330
1BC
100
AcDbEntity
  8
AM_9
100
AcDbPolyline
 90
        5
 70
     0
 43
0.0
 10
-3.499999999999999
 20
-0.4381151427832157
 10
-3.540888429540576
 20
-0.4718091227449444
 10
-3.562392289109681
 20
-0.484136167550257
 10
-3.584184941257748
 20
-0.4930355071709168
 10
-3.626481378347337
 20
-0.5000000000000001
  0
LINE
  5
1EB
330
1BC
100
AcDbEntity
  8
AM_9
100
AcDbLine
 10
-3.512980226692918
 20
0.4503426867143852
 30
0.0
 11
-3.499999999999999
 21
0.4381151427832154
 31
0.0
  0
LWPOLYLINE
  5
1EC
330
1BC
100
AcDbEntity
  8
AM_9
100
AcDbPolyline
 90
        5
 70
     0
 43
0.0
 10
-3.626481378347338
 20
0.5000000000000048
 10
-3.612417830621671
 20
0.499217326396877
 10
-3.570391903968471
 20
0.4878197064008853
 10
-3.527417339771102
 20
0.4622420787896766
 10
-3.512980226692918
 20
0.4503426867143852
  0
LWPOLYLINE
  5
1ED
330
1BC
100
AcDbEntity
  8
AM_9
100
AcDbPolyline
 90
       23
 70
     0
 43
0.0
 10
-3.626481378347337
 20
-0.5000000000000001
 10
-3.667772283953133
 20
-0.4928862172729715
 10
-3.706159895610603
 20
-0.4719357858888603
 10
-3.741126951559959
 20
-0.4378941500189856
 10
-3.772007334737631
 20
-0.3913633783170302
 10
-3.798209740557704
 20
-0.3339147147309712
 10
-3.812914314504768
 20
-0.2900189705008566
 10
-3.825309224372038
 20
-0.2423150572457661
 10
-3.835259007284395
 20
-0.1916944351534075
 10
-3.842720469220107
 20
-0.138654946851054
 10
-3.84772747505589
 20
-0.0836790917607477
 10
-3.850230584447882
 20
-0.0278116525565707
 10
-3.849275936812489
 20
0.0559891764111545
 10
-3.842785514826608
 20
0.138207681543095
 10
-3.830774543974759
 20
0.2163443009008693
 10
-3.813400918279948
 20
0.2884335321349494
 10
-3.79063127393712
 20
0.3527213334560763
 10
-3.762893836436142
 20
0.4071148975309544
 10
-3.741724248276082
 20
0.4371067266950211
 10
-3.718601737690089
 20
0.4616770787848012
 10
-3.693876185348615
 20
0.4803560265369197
 10
-3.661010395073176
 20
0.4950387207977478
 10
-3.626481378347338
 20
0.5000000000000048
  0
LINE
  5
1EE
330
1BC
100
AcDbEntity
  8
AM_9
100
AcDbLine
 10
3.5433
 20
-1.200320527804488
 30
0.0
 11
3.5433
 21
1.71875
 31
0.0
  0
LINE
  5
1EF
330
1BC
100
AcDbEntity
  8
AM_9
100
AcDbLine
 10
-3.5433
 20
1.71875
 30
0.0
 11
-3.5433
 21
-1.200320527804488
 31
0.0
  0
LINE
  5
1F0
330
1BC
100
AcDbEntity
  8
AM_9
100
AcDbLine
 10
-3.5433
 20
-1.200320527804488
 30
0.0
 11
3.5433
 21
-1.200320527804488
 31
0.0
  0
LINE
  5
1F1
330
1BC
100
AcDbEntity
  8
AM_9
100
AcDbLine
 10
-3.5433
 20
-1.200320527804488
 30
0.0
 11
-3.68221275840728
 21
-1.71875
 31
0.0
  0
LINE
  5
1F2
330
1BC
100
AcDbEntity
  8
AM_9
100
AcDbLine
 10
3.68221275840728
 20
-1.71875
 30
0.0
 11
3.5433
 21
-1.200320527804488
 31
0.0
  0
LINE
  5
1F3
330
1BC
100
AcDbEntity
  8
AM_7
100
AcDbLine
 10
8.48328125
 20
0.0
 30
0.0
 11
6.10109375
 21
0.0
 31
0.0
  0
LINE
  5
1F4
330
1BC
100
AcDbEntity
  8
AM_4
100
AcDbLine
 10
8.325
 20
2.022058823529412
 30
0.0
 11
6.362500000000001
 21
2.022058823529412
 31
0.0
  0
LINE
  5
1F5
330
1BC
100
AcDbEntity
  8
AM_4
100
AcDbLine
 10
6.362500000000001
 20
-2.022058823529412
 30
0.0
 11
8.325
 21
-2.022058823529412
 31
0.0
  0
LINE
  5
1F6
330
1BC
100
AcDbEntity
  8
AM_4
100
AcDbLine
 10
6.3125
 20
1.972058823529412
 30
0.0
 11
6.3125
 21
1.375
 31
0.0
  0
ARC
  5
1F7
330
1BC
100
AcDbEntity
  8
AM_4
100
AcDbCircle
 10
6.362500000000002
 20
1.972058823529409
 30
0.0
 40
0.0500000000000027
100
AcDbArc
 50
90.0
 51
180.0
  0
LINE
  5
1F8
330
1BC
100
AcDbEntity
  8
AM_4
100
AcDbLine
 10
6.362500000000001
 20
2.022058823529412
 30
0.0
 11
6.362500000000001
 21
1.375
 31
0.0
  0
LINE
  5
1F9
330
1BC
100
AcDbEntity
  8
AM_4
100
AcDbLine
 10
6.3125
 20
-1.375
 30
0.0
 11
6.3125
 21
-1.972058823529412
 31
0.0
  0
LINE
  5
1FA
330
1BC
100
AcDbEntity
  8
AM_4
100
AcDbLine
 10
6.362500000000001
 20
-1.375
 30
0.0
 11
6.362500000000001
 21
-2.022058823529412
 31
0.0
  0
ARC
  5
1FB
330
1BC
100
AcDbEntity
  8
AM_4
100
AcDbCircle
 10
6.362500000000002
 20
-1.972058823529409
 30
0.0
 40
0.0500000000000025
100
AcDbArc
 50
180.0
 51
270.0
  0
ARC
  5
1FC
330
1BC
100
AcDbEntity
  8
AM_4
100
AcDbCircle
 10
8.325
 20
1.972058823529413
 30
0.0
 40
0.0499999999999989
100
AcDbArc
 50
0.0
 51
90.0
  0
LINE
  5
1FD
330
1BC
100
AcDbEntity
  8
AM_4
100
AcDbLine
 10
8.374999999999998
 20
1.97205882352941
 30
0.0
 11
8.374999999999998
 21
-1.97205882352941
 31
0.0
  0
LINE
  5
1FE
330
1BC
100
AcDbEntity
  8
AM_4
100
AcDbLine
 10
8.325
 20
2.022058823529412
 30
0.0
 11
8.325
 21
-2.022058823529412
 31
0.0
  0
ARC
  5
1FF
330
1BC
100
AcDbEntity
  8
AM_4
100
AcDbCircle
 10
8.325
 20
-1.972058823529413
 30
0.0
 40
0.0499999999999992
100
AcDbArc
 50
270.0
 51
0.0
  0
LINE
  5
200
330
1BC
100
AcDbEntity
  8
AM_4
100
AcDbLine
 10
4.1875
 20
1.375
 30
0.0
 11
4.1875
 21
1.66875
 31
0.0
  0
LINE
  5
201
330
1BC
100
AcDbEntity
  8
AM_4
100
AcDbLine
 10
-4.1875
 20
1.66875
 30
0.0
 11
-4.1875
 21
-1.668749999999999
 31
0.0
  0
LINE
  5
202
330
1BC
100
AcDbEntity
  8
AM_4
100
AcDbLine
 10
4.1875
 20
-1.668749999999999
 30
0.0
 11
4.1875
 21
-1.375
 31
0.0
  0
LINE
  5
203
330
1BC
100
AcDbEntity
  8
AM_4
100
AcDbLine
 10
3.5
 20
-1.668749999999998
 30
0.0
 11
4.1875
 21
-1.668749999999999
 31
0.0
  0
ARC
  5
204
330
1BC
100
AcDbEntity
  8
AM_4
100
AcDbCircle
 10
4.137499999999999
 20
-1.668749999999999
 30
0.0
 40
0.0500000000000007
100
AcDbArc
 50
270.0
 51
0.0
  0
LINE
  5
205
330
1BC
100
AcDbEntity
  8
AM_4
100
AcDbLine
 10
-4.137499999999999
 20
1.71875
 30
0.0
 11
4.137499999999999
 21
1.71875
 31
0.0
  0
ARC
  5
206
330
1BC
100
AcDbEntity
  8
AM_4
100
AcDbCircle
 10
-4.137500000000001
 20
1.66875
 30
0.0
 40
0.0499999999999996
100
AcDbArc
 50
90.0
 51
180.0
  0
LINE
  5
207
330
1BC
100
AcDbEntity
  8
AM_4
100
AcDbLine
 10
-4.1875
 20
1.66875
 30
0.0
 11
-3.5
 21
1.66875
 31
0.0
  0
LINE
  5
208
330
1BC
100
AcDbEntity
  8
AM_4
100
AcDbLine
 10
3.5
 20
1.66875
 30
0.0
 11
4.1875
 21
1.66875
 31
0.0
  0
ARC
  5
209
330
1BC
100
AcDbEntity
  8
AM_4
100
AcDbCircle
 10
4.137500000000001
 20
1.66875
 30
0.0
 40
0.0499999999999989
100
AcDbArc
 50
0.0
 51
90.0
  0
LINE
  5
20A
330
1BC
100
AcDbEntity
  8
AM_4
100
AcDbLine
 10
-4.1375
 20
-1.71875
 30
0.0
 11
4.1375
 21
-1.71875
 31
0.0
  0
ARC
  5
20B
330
1BC
100
AcDbEntity
  8
AM_4
100
AcDbCircle
 10
-4.137499999999999
 20
-1.668749999999999
 30
0.0
 40
0.0500000000000007
100
AcDbArc
 50
180.0
 51
270.0
  0
LINE
  5
20C
330
1BC
100
AcDbEntity
  8
AM_4
100
AcDbLine
 10
-4.1875
 20
-1.668749999999999
 30
0.0
 11
-3.5
 21
-1.668749999999998
 31
0.0
  0
LINE
  5
20D
330
1BC
100
AcDbEntity
  8
AM_4
100
AcDbLine
 10
8.375
 20
1.375
 30
0.0
 11
3.5
 21
1.375
 31
0.0
  0
LINE
  5
20E
330
1BC
100
AcDbEntity
  8
AM_4
100
AcDbLine
 10
8.375
 20
-1.375
 30
0.0
 11
3.5
 21
-1.375
 31
0.0
  0
LINE
  5
20F
330
1BC
100
AcDbEntity
  8
AM_4
100
AcDbLine
 10
3.5
 20
-1.71875
 30
0.0
 11
3.5
 21
1.71875
 31
0.0
  0
LINE
  5
210
330
1BC
100
AcDbEntity
  8
AM_4
100
AcDbLine
 10
3.45
 20
1.03125
 30
0.0
 11
3.45
 21
1.71875
 31
0.0
  0
LINE
  5
211
330
1BC
100
AcDbEntity
  8
AM_4
100
AcDbLine
 10
3.5
 20
-1.03125
 30
0.0
 11
-3.5
 21
-1.03125
 31
0.0
  0
LINE
  5
212
330
1BC
100
AcDbEntity
  8
AM_4
100
AcDbLine
 10
3.45
 20
-1.71875
 30
0.0
 11
3.45
 21
-1.03125
 31
0.0
  0
LINE
  5
213
330
1BC
100
AcDbEntity
  8
AM_4
100
AcDbLine
 10
-3.45
 20
-1.71875
 30
0.0
 11
-3.45
 21
-1.03125
 31
0.0
  0
LINE
  5
214
330
1BC
100
AcDbEntity
  8
AM_4
100
AcDbLine
 10
-3.5
 20
-1.71875
 30
0.0
 11
-3.5
 21
1.71875
 31
0.0
  0
LINE
  5
215
330
1BC
100
AcDbEntity
  8
AM_4
100
AcDbLine
 10
-3.5
 20
1.03125
 30
0.0
 11
3.5
 21
1.03125
 31
0.0
  0
LINE
  5
216
330
1BC
100
AcDbEntity
  8
AM_4
100
AcDbLine
 10
-3.45
 20
1.03125
 30
0.0
 11
-3.45
 21
1.71875
 31
0.0
  0
ENDBLK
  5
1BF
330
1BC
100
AcDbEntity
  8
0
100
AcDbBlockEnd
  0
ENDSEC
  0
SECTION
  2
ENTITIES
  0
INSERT
  5
6F
330
1F
100
AcDbEntity
  8
0
100
AcDbBlockReference
  2
1_070797_4
 10
0.0
 20
0.0
 30
0.0
  0
POINT
  5
218
330
1F
100
AcDbEntity
  8
ConnectionPoints
100
AcDbPoint
 10
0.0
 20
-2.546875
 30
0.0000000000000002
  0
POINT
  5
219
330
1F
100
AcDbEntity
  8
ConnectionPoints
100
AcDbPoint
 10
0.0
 20
3.129875
 30
-0.0000000000000002
  0
POINT
  5
21A
330
1F
100
AcDbEntity
  8
ConnectionPoints
100
AcDbPoint
 10
0.0
 20
-2.546875
 30
0.0000000000000002
  0
POINT
  5
21B
330
1F
100
AcDbEntity
  8
ConnectionPoints
100
AcDbPoint
 10
-3.71308391872578
 20
-0.0000000000000001
 30
-2.143749999999999
  0
POINT
  5
21C
330
1F
100
AcDbEntity
  8
ConnectionPoints
100
AcDbPoint
 10
-3.71308391872578
 20
-0.0000000000000001
 30
-2.143749999999999
  0
POINT
  5
21D
330
1F
100
AcDbEntity
  8
ConnectionPoints
100
AcDbPoint
 10
0.0
 20
-2.546875
 30
0.0000000000000002
  0
POINT
  5
21E
330
1F
100
AcDbEntity
  8
ConnectionPoints
100
AcDbPoint
 10
0.0
 20
-2.859375
 30
0.0000000000000002
  0
ENDSEC
  0
SECTION
  2
OBJECTS
  0
DICTIONARY
  5
C
330
0
100
AcDbDictionary
281
     1
  3
ACAD_DETAILVIEWSTYLE
350
226
  3
ACAD_GROUP
350
D
  3
ACAD_LAYOUT
350
1A
  3
ACAD_MATERIAL
350
43
  3
ACAD_MLEADERSTYLE
350
6B
  3
ACAD_MLINESTYLE
350
17
  3
ACAD_PLOTSETTINGS
350
19
  3
ACAD_PLOTSTYLENAME
350
E
  3
ACAD_SCALELIST
350
47
  3
ACAD_SECTIONVIEWSTYLE
350
227
  3
ACAD_TABLESTYLE
350
69
  3
ACAD_VISUALSTYLE
350
2A
  3
ACDB_RECOMPOSE_DATA
350
223
  3
AcDbVariableDictionary
350
21F
  0
SUN
  5
6D
330
29
100
AcDbSun
 90
        1
290
     0
 63
     7
421
 16777215
 40
1.0
291
     1
 91
  2455826
 92
 54000000
292
     0
 70
     2
 71
   256
280
     1
  0
DICTIONARY
  5
226
102
{ACAD_REACTORS
330
C
102
}
330
C
100
AcDbDictionary
281
     1
  0
DICTIONARY
  5
D
102
{ACAD_REACTORS
330
C
102
}
330
C
100
AcDbDictionary
281
     1
  0
DICTIONARY
  5
1A
102
{ACAD_REACTORS
330
C
102
}
330
C
100
AcDbDictionary
281
     1
  3
Layout1
350
1E
  3
Layout2
350
26
  3
Model
350
22
  0
DICTIONARY
  5
43
102
{ACAD_REACTORS
330
C
102
}
330
C
100
AcDbDictionary
281
     1
  3
ByBlock
350
45
  3
ByLayer
350
44
  3
Global
350
46
  0
DICTIONARY
  5
6B
102
{ACAD_REACTORS
330
C
102
}
330
C
100
AcDbDictionary
281
     1
  3
Standard
350
6C
  0
DICTIONARY
  5
17
102
{ACAD_REACTORS
330
C
102
}
330
C
100
AcDbDictionary
281
     1
  3
Standard
350
18
  0
DICTIONARY
  5
19
102
{ACAD_REACTORS
330
C
102
}
330
C
100
AcDbDictionary
281
     1
  0
ACDBDICTIONARYWDFLT
  5
E
102
{ACAD_REACTORS
330
C
102
}
330
C
100
AcDbDictionary
281
     1
  3
Normal
350
F
100
AcDbDictionaryWithDefault
340
F
  0
DICTIONARY
  5
47
102
{ACAD_REACTORS
330
C
102
}
330
C
100
AcDbDictionary
281
     1
  3
A0
350
48
  3
A1
350
49
  3
A2
350
4A
  3
A3
350
4B
  3
A4
350
4C
  3
A5
350
4D
  3
A6
350
4E
  3
A7
350
4F
  3
A8
350
50
  3
A9
350
51
  3
B0
350
52
  3
B1
350
53
  3
B2
350
54
  3
B3
350
55
  3
B4
350
56
  3
B5
350
57
  3
B6
350
58
  3
B7
350
59
  3
B8
350
5A
  3
B9
350
5B
  3
C0
350
5C
  3
C1
350
5D
  3
C2
350
5E
  3
C3
350
5F
  3
C4
350
60
  3
C5
350
61
  3
C6
350
62
  3
C7
350
63
  3
C8
350
64
  3
C9
350
65
  3
D0
350
66
  3
D1
350
67
  3
D2
350
68
  0
DICTIONARY
  5
227
102
{ACAD_REACTORS
330
C
102
}
330
C
100
AcDbDictionary
281
     1
  0
DICTIONARY
  5
69
102
{ACAD_REACTORS
330
C
102
}
330
C
100
AcDbDictionary
281
     1
  3
Standard
350
6A
  0
DICTIONARY
  5
2A
102
{ACAD_REACTORS
330
C
102
}
330
C
100
AcDbDictionary
281
     1
  3
2dWireframe
350
2F
  3
Basic
350
32
  3
Brighten
350
36
  3
ColorChange
350
3A
  3
Conceptual
350
34
  3
Dim
350
35
  3
EdgeColorOff
350
3D
  3
Facepattern
350
39
  3
Flat
350
2B
  3
FlatWithEdges
350
2C
  3
Gouraud
350
2D
  3
GouraudWithEdges
350
2E
  3
Hidden
350
31
  3
JitterOff
350
3B
  3
Linepattern
350
38
  3
OverhangOff
350
3C
  3
Realistic
350
33
  3
Shaded
350
42
  3
Shaded with edges
350
41
  3
Shades of Gray
350
3E
  3
Sketchy
350
3F
  3
Thicken
350
37
  3
Wireframe
350
30
  3
X-Ray
350
40
  0
XRECORD
  5
223
102
{ACAD_REACTORS
330
C
102
}
330
C
100
AcDbXrecord
280
     1
 90
        1
330
6A
  0
DICTIONARY
  5
21F
102
{ACAD_REACTORS
330
C
102
}
330
C
100
AcDbDictionary
281
     1
  3
CANNOSCALE
350
220
  3
CMLEADERSTYLE
350
225
  3
CTABLESTYLE
350
224
  0
LAYOUT
  5
1E
102
{ACAD_REACTORS
330
1A
102
}
330
1A
100
AcDbPlotSettings
  1

  2
none_device
  4

  6

 40
0.0
 41
0.0
 42
0.0
 43
0.0
 44
0.0
 45
0.0
 46
0.0
 47
0.0
 48
0.0
 49
0.0
140
0.0
141
0.0
142
1.0
143
1.0
 70
   688
 72
     0
 73
     0
 74
     5
  7

 75
    16
 76
     0
 77
     2
 78
   300
147
1.0
148
0.0
149
0.0
100
AcDbLayout
  1
Layout1
 70
     1
 71
     1
 10
0.0
 20
0.0
 11
12.0
 21
9.0
 12
0.0
 22
0.0
 32
0.0
 14
1.000000000000000E+20
 24
1.000000000000000E+20
 34
1.000000000000000E+20
 15
-1.000000000000000E+20
 25
-1.000000000000000E+20
 35
-1.000000000000000E+20
146
0.0
 13
0.0
 23
0.0
 33
0.0
 16
1.0
 26
0.0
 36
0.0
 17
0.0
 27
1.0
 37
0.0
 76
     0
330
1B
  0
LAYOUT
  5
26
102
{ACAD_REACTORS
330
1A
102
}
330
1A
100
AcDbPlotSettings
  1

  2
none_device
  4

  6

 40
0.0
 41
0.0
 42
0.0
 43
0.0
 44
0.0
 45
0.0
 46
0.0
 47
0.0
 48
0.0
 49
0.0
140
0.0
141
0.0
142
1.0
143
1.0
 70
   688
 72
     0
 73
     0
 74
     5
  7

 75
    16
 76
     0
 77
     2
 78
   300
147
1.0
148
0.0
149
0.0
100
AcDbLayout
  1
Layout2
 70
     1
 71
     2
 10
0.0
 20
0.0
 11
0.0
 21
0.0
 12
0.0
 22
0.0
 32
0.0
 14
0.0
 24
0.0
 34
0.0
 15
0.0
 25
0.0
 35
0.0
146
0.0
 13
0.0
 23
0.0
 33
0.0
 16
1.0
 26
0.0
 36
0.0
 17
0.0
 27
1.0
 37
0.0
 76
     0
330
23
  0
LAYOUT
  5
22
102
{ACAD_REACTORS
330
1A
102
}
330
1A
100
AcDbPlotSettings
  1

  2
none_device
  4
Letter_(8.50_x_11.00_Inches)
  6

 40
6.35
 41
6.35
 42
6.35000508
 43
6.35000508
 44
215.9
 45
279.4
 46
0.0
 47
0.0
 48
0.0
 49
0.0
140
0.0
141
0.0
142
1.0
143
1.0
 70
  1712
 72
     0
 73
     0
 74
     0
  7

 75
     0
 76
     0
 77
     2
 78
   300
147
1.0
148
0.0
149
0.0
100
AcDbLayout
  1
Model
 70
     1
 71
     0
 10
0.0
 20
0.0
 11
12.0
 21
9.0
 12
0.0
 22
0.0
 32
0.0
 14
1.000000000000000E+20
 24
1.000000000000000E+20
 34
1.000000000000000E+20
 15
-1.000000000000000E+20
 25
-1.000000000000000E+20
 35
-1.000000000000000E+20
146
0.0
 13
0.0
 23
0.0
 33
0.0
 16
1.0
 26
0.0
 36
0.0
 17
0.0
 27
1.0
 37
0.0
 76
     0
330
1F
331
29
  0
MATERIAL
  5
45
102
{ACAD_REACTORS
330
43
102
}
330
43
100
AcDbMaterial
  1
ByBlock
 72
     1
 94
      127
  0
MATERIAL
  5
44
102
{ACAD_REACTORS
330
43
102
}
330
43
100
AcDbMaterial
  1
ByLayer
 72
     1
 94
      127
  0
MATERIAL
  5
46
102
{ACAD_REACTORS
330
43
102
}
330
43
100
AcDbMaterial
  1
Global
 72
     1
 94
      127
  0
MLEADERSTYLE
  5
6C
102
{ACAD_REACTORS
330
6B
102
}
330
6B
100
AcDbMLeaderStyle
179
     2
170
     2
171
     1
172
     0
 90
        2
 40
0.0
 41
0.0
173
     1
 91
-1056964608
340
14
 92
       -2
290
     1
 42
0.09
291
     1
 43
0.36
  3
Standard
341
0
 44
0.18
300

342
11
174
     1
178
     6
175
     1
176
     0
 93
-1056964608
 45
0.18
292
     0
297
     0
 46
0.18
343
0
 94
-1056964608
 47
1.0
 49
1.0
140
1.0
293
     1
141
0.0
294
     1
177
     0
142
1.0
295
     0
296
     0
143
0.125
271
     0
272
     9
273
     9
298
     0
  0
MLINESTYLE
  5
18
102
{ACAD_REACTORS
330
17
102
}
330
17
100
AcDbMlineStyle
  2
Standard
 70
     0
  3

 62
   256
 51
90.0
 52
90.0
 71
     2
 49
0.5
 62
   256
  6
BYLAYER
 49
-0.5
 62
   256
  6
BYLAYER
  0
ACDBPLACEHOLDER
  5
F
102
{ACAD_REACTORS
330
E
102
}
330
E
  0
SCALE
  5
48
102
{ACAD_REACTORS
330
47
102
}
330
47
100
AcDbScale
 70
     0
300
1:1
140
1.0
141
1.0
290
     1
  0
SCALE
  5
49
102
{ACAD_REACTORS
330
47
102
}
330
47
100
AcDbScale
 70
     0
300
1:2
140
1.0
141
2.0
290
     0
  0
SCALE
  5
4A
102
{ACAD_REACTORS
330
47
102
}
330
47
100
AcDbScale
 70
     0
300
1:4
140
1.0
141
4.0
290
     0
  0
SCALE
  5
4B
102
{ACAD_REACTORS
330
47
102
}
330
47
100
AcDbScale
 70
     0
300
1:5
140
1.0
141
5.0
290
     0
  0
SCALE
  5
4C
102
{ACAD_REACTORS
330
47
102
}
330
47
100
AcDbScale
 70
     0
300
1:8
140
1.0
141
8.0
290
     0
  0
SCALE
  5
4D
102
{ACAD_REACTORS
330
47
102
}
330
47
100
AcDbScale
 70
     0
300
1:10
140
1.0
141
10.0
290
     0
  0
SCALE
  5
4E
102
{ACAD_REACTORS
330
47
102
}
330
47
100
AcDbScale
 70
     0
300
1:16
140
1.0
141
16.0
290
     0
  0
SCALE
  5
4F
102
{ACAD_REACTORS
330
47
102
}
330
47
100
AcDbScale
 70
     0
300
1:20
140
1.0
141
20.0
290
     0
  0
SCALE
  5
50
102
{ACAD_REACTORS
330
47
102
}
330
47
100
AcDbScale
 70
     0
300
1:30
140
1.0
141
30.0
290
     0
  0
SCALE
  5
51
102
{ACAD_REACTORS
330
47
102
}
330
47
100
AcDbScale
 70
     0
300
1:40
140
1.0
141
40.0
290
     0
  0
SCALE
  5
52
102
{ACAD_REACTORS
330
47
102
}
330
47
100
AcDbScale
 70
     0
300
1:50
140
1.0
141
50.0
290
     0
  0
SCALE
  5
53
102
{ACAD_REACTORS
330
47
102
}
330
47
100
AcDbScale
 70
     0
300
1:100
140
1.0
141
100.0
290
     0
  0
SCALE
  5
54
102
{ACAD_REACTORS
330
47
102
}
330
47
100
AcDbScale
 70
     0
300
2:1
140
2.0
141
1.0
290
     0
  0
SCALE
  5
55
102
{ACAD_REACTORS
330
47
102
}
330
47
100
AcDbScale
 70
     0
300
4:1
140
4.0
141
1.0
290
     0
  0
SCALE
  5
56
102
{ACAD_REACTORS
330
47
102
}
330
47
100
AcDbScale
 70
     0
300
8:1
140
8.0
141
1.0
290
     0
  0
SCALE
  5
57
102
{ACAD_REACTORS
330
47
102
}
330
47
100
AcDbScale
 70
     0
300
10:1
140
10.0
141
1.0
290
     0
  0
SCALE
  5
58
102
{ACAD_REACTORS
330
47
102
}
330
47
100
AcDbScale
 70
     0
300
100:1
140
100.0
141
1.0
290
     0
  0
SCALE
  5
59
102
{ACAD_REACTORS
330
47
102
}
330
47
100
AcDbScale
 70
     0
300
1/128" = 1'-0"
140
0.0078125
141
12.0
290
     0
  0
SCALE
  5
5A
102
{ACAD_REACTORS
330
47
102
}
330
47
100
AcDbScale
 70
     0
300
1/64" = 1'-0"
140
0.015625
141
12.0
290
     0
  0
SCALE
  5
5B
102
{ACAD_REACTORS
330
47
102
}
330
47
100
AcDbScale
 70
     0
300
1/32" = 1'-0"
140
0.03125
141
12.0
290
     0
  0
SCALE
  5
5C
102
{ACAD_REACTORS
330
47
102
}
330
47
100
AcDbScale
 70
     0
300
1/16" = 1'-0"
140
0.0625
141
12.0
290
     0
  0
SCALE
  5
5D
102
{ACAD_REACTORS
330
47
102
}
330
47
100
AcDbScale
 70
     0
300
3/32" = 1'-0"
140
0.09375
141
12.0
290
     0
  0
SCALE
  5
5E
102
{ACAD_REACTORS
330
47
102
}
330
47
100
AcDbScale
 70
     0
300
1/8" = 1'-0"
140
0.125
141
12.0
290
     0
  0
SCALE
  5
5F
102
{ACAD_REACTORS
330
47
102
}
330
47
100
AcDbScale
 70
     0
300
3/16" = 1'-0"
140
0.1875
141
12.0
290
     0
  0
SCALE
  5
60
102
{ACAD_REACTORS
330
47
102
}
330
47
100
AcDbScale
 70
     0
300
1/4" = 1'-0"
140
0.25
141
12.0
290
     0
  0
SCALE
  5
61
102
{ACAD_REACTORS
330
47
102
}
330
47
100
AcDbScale
 70
     0
300
3/8" = 1'-0"
140
0.375
141
12.0
290
     0
  0
SCALE
  5
62
102
{ACAD_REACTORS
330
47
102
}
330
47
100
AcDbScale
 70
     0
300
1/2" = 1'-0"
140
0.5
141
12.0
290
     0
  0
SCALE
  5
63
102
{ACAD_REACTORS
330
47
102
}
330
47
100
AcDbScale
 70
     0
300
3/4" = 1'-0"
140
0.75
141
12.0
290
     0
  0
SCALE
  5
64
102
{ACAD_REACTORS
330
47
102
}
330
47
100
AcDbScale
 70
     0
300
1" = 1'-0"
140
1.0
141
12.0
290
     0
  0
SCALE
  5
65
102
{ACAD_REACTORS
330
47
102
}
330
47
100
AcDbScale
 70
     0
300
1-1/2" = 1'-0"
140
1.5
141
12.0
290
     0
  0
SCALE
  5
66
102
{ACAD_REACTORS
330
47
102
}
330
47
100
AcDbScale
 70
     0
300
3" = 1'-0"
140
3.0
141
12.0
290
     0
  0
SCALE
  5
67
102
{ACAD_REACTORS
330
47
102
}
330
47
100
AcDbScale
 70
     0
300
6" = 1'-0"
140
6.0
141
12.0
290
     0
  0
SCALE
  5
68
102
{ACAD_REACTORS
330
47
102
}
330
47
100
AcDbScale
 70
     0
300
1'-0" = 1'-0"
140
12.0
141
12.0
290
     0
  0
TABLESTYLE
  5
6A
102
{ACAD_REACTORS
330
69
102
}
102
{ACAD_XDICTIONARY
360
221
102
}
330
69
100
AcDbTableStyle
  3
Standard
 70
     0
 71
     0
 40
0.06
 41
0.06
280
     0
281
     0
  7
Standard
140
0.18
170
     2
 62
     0
 63
   257
283
     0
 90
        4
 91
        0
  1

274
    -2
284
     1
 64
     0
275
    -2
285
     1
 65
     0
276
    -2
286
     1
 66
     0
277
    -2
287
     1
 67
     0
278
    -2
288
     1
 68
     0
279
    -2
289
     1
 69
     0
  7
Standard
140
0.25
170
     5
 62
     0
 63
   257
283
     0
 90
        4
 91
        0
  1

274
    -2
284
     1
 64
     0
275
    -2
285
     1
 65
     0
276
    -2
286
     1
 66
     0
277
    -2
287
     1
 67
     0
278
    -2
288
     1
 68
     0
279
    -2
289
     1
 69
     0
  7
Standard
140
0.18
170
     5
 62
     0
 63
   257
283
     0
 90
        4
 91
        0
  1

274
    -2
284
     1
 64
     0
275
    -2
285
     1
 65
     0
276
    -2
286
     1
 66
     0
277
    -2
287
     1
 67
     0
278
    -2
288
     1
 68
     0
279
    -2
289
     1
 69
     0
  0
VISUALSTYLE
  5
2F
102
{ACAD_REACTORS
330
2A
102
}
330
2A
100
AcDbVisualStyle
  2
2dWireframe
 70
     4
177
     3
291
     0
 70
    58
 90
        0
176
     1
 90
        2
176
     1
 90
        0
176
     1
 90
        0
176
     1
 40
0.6
176
     1
 40
30.0
176
     1
 62
     7
420
 16777215
176
     1
 90
        1
176
     1
 90
        4
176
     1
 62
     7
176
     1
 62
   257
176
     1
 90
        1
176
     1
 90
        1
176
     1
 40
1.0
176
     1
 90
        0
176
     1
 62
   257
176
     1
 40
1.0
176
     1
 90
        1
176
     1
 90
        6
176
     1
 90
        2
176
     1
 62
     7
176
     1
 90
        5
176
     1
 90
        0
176
     1
 90
        0
176
     1
290
     0
176
     1
 90
        1
176
     1
 40
0.0
176
     1
 90
        0
176
     1
290
     1
176
     1
290
     1
176
     1
290
     0
176
     1
290
     0
176
     1
290
     0
176
     1
290
     0
176
     1
290
     0
176
     1
290
     0
176
     1
290
     0
176
     1
 90
       50
176
     1
 40
0.0
176
     1
 40
1.0
176
     1
 90
        0
176
     1
 62
    18
420
        0
176
     1
 90
       50
176
     1
 90
        3
176
     1
 62
     5
420
      255
176
     1
290
     0
176
     1
 90
       50
176
     1
 90
       50
176
     1
 90
       50
176
     1
290
     0
176
     1
 90
       50
176
     1
 62
   256
176
     0
 40
1.0
176
     0
 90
        2
176
     1
  1
strokes_ogs.tif
176
     1
290
     0
176
     1
 40
1.0
176
     1
 40
1.0
176
     1
  0
VISUALSTYLE
  5
32
102
{ACAD_REACTORS
330
2A
102
}
330
2A
100
AcDbVisualStyle
  2
Basic
 70
     7
177
     3
291
     1
 70
    58
 90
        1
176
     1
 90
        0
176
     1
 90
        1
176
     1
 90
        0
176
     1
 40
0.6
176
     1
 40
30.0
176
     1
 62
     7
420
 16777215
176
     1
 90
        0
176
     1
 90
        4
176
     1
 62
     7
176
     1
 62
   257
176
     1
 90
        1
176
     1
 90
        1
176
     1
 40
1.0
176
     1
 90
        8
176
     1
 62
     7
176
     1
 40
1.0
176
     1
 90
        1
176
     1
 90
        6
176
     1
 90
        2
176
     1
 62
     7
176
     1
 90
        5
176
     1
 90
        0
176
     1
 90
        0
176
     1
290
     0
176
     1
 90
        1
176
     1
 40
0.0
176
     1
 90
        0
176
     1
290
     0
176
     1
290
     1
176
     1
290
     1
176
     1
290
     0
176
     1
290
     0
176
     1
290
     0
176
     1
290
     0
176
     1
290
     0
176
     1
290
     0
176
     1
 90
       50
176
     1
 40
0.0
176
     1
 40
1.0
176
     1
 90
        0
176
     1
 62
    18
420
        0
176
     1
 90
       50
176
     1
 90
        3
176
     1
 62
     5
420
      255
176
     1
290
     0
176
     1
 90
       50
176
     1
 90
       50
176
     1
 90
       50
176
     1
290
     0
176
     1
 90
       50
176
     1
 62
   256
176
     0
 40
1.0
176
     0
 90
        2
176
     1
  1
strokes_ogs.tif
176
     1
290
     0
176
     1
 40
1.0
176
     1
 40
1.0
176
     1
  0
VISUALSTYLE
  5
36
102
{ACAD_REACTORS
330
2A
102
}
330
2A
100
AcDbVisualStyle
  2
Brighten
 70
    12
177
     3
291
     1
 70
    58
 90
        2
176
     1
 90
        2
176
     1
 90
        0
176
     1
 90
        0
176
     1
 40
0.6
176
     1
 40
30.0
176
     1
 62
     7
420
 16777215
176
     1
 90
        1
176
     1
 90
        4
176
     1
 62
     7
176
     1
 62
   257
176
     1
 90
        1
176
     1
 90
        1
176
     1
 40
1.0
176
     1
 90
        8
176
     1
 62
     7
176
     1
 40
1.0
176
     1
 90
        1
176
     1
 90
        6
176
     1
 90
        2
176
     1
 62
     7
176
     1
 90
        5
176
     1
 90
        0
176
     1
 90
        0
176
     1
290
     0
176
     1
 90
        1
176
     1
 40
50.0
176
     1
 90
        0
176
     1
290
     0
176
     1
290
     1
176
     1
290
     1
176
     1
290
     0
176
     1
290
     0
176
     1
290
     0
176
     1
290
     0
176
     1
290
     0
176
     1
290
     0
176
     1
 90
       50
176
     1
 40
0.0
176
     1
 40
1.0
176
     1
 90
        0
176
     1
 62
    18
420
        0
176
     1
 90
       50
176
     1
 90
        3
176
     1
 62
     5
420
      255
176
     1
290
     0
176
     1
 90
       50
176
     1
 90
       50
176
     1
 90
       50
176
     1
290
     0
176
     1
 90
       50
176
     1
 62
   256
176
     0
 40
1.0
176
     0
 90
        2
176
     1
  1
strokes_ogs.tif
176
     1
290
     0
176
     1
 40
1.0
176
     1
 40
1.0
176
     1
  0
VISUALSTYLE
  5
3A
102
{ACAD_REACTORS
330
2A
102
}
330
2A
100
AcDbVisualStyle
  2
ColorChange
 70
    16
177
     3
291
     1
 70
    58
 90
        2
176
     1
 90
        2
176
     1
 90
        3
176
     1
 90
        0
176
     1
 40
0.6
176
     1
 40
30.0
176
     1
 62
     8
420
  8421504
176
     1
 90
        1
176
     1
 90
        4
176
     1
 62
     7
176
     1
 62
   257
176
     1
 90
        1
176
     1
 90
        1
176
     1
 40
1.0
176
     1
 90
        8
176
     1
 62
     8
420
  8421504
176
     1
 40
1.0
176
     1
 90
        1
176
     1
 90
        6
176
     1
 90
        2
176
     1
 62
     7
176
     1
 90
        5
176
     1
 90
        0
176
     1
 90
        0
176
     1
290
     0
176
     1
 90
        1
176
     1
 40
0.0
176
     1
 90
        0
176
     1
290
     0
176
     1
290
     1
176
     1
290
     1
176
     1
290
     0
176
     1
290
     0
176
     1
290
     0
176
     1
290
     0
176
     1
290
     0
176
     1
290
     0
176
     1
 90
       50
176
     1
 40
0.0
176
     1
 40
1.0
176
     1
 90
        0
176
     1
 62
    18
420
        0
176
     1
 90
       50
176
     1
 90
        3
176
     1
 62
     5
420
      255
176
     1
290
     0
176
     1
 90
       50
176
     1
 90
       50
176
     1
 90
       50
176
     1
290
     0
176
     1
 90
       50
176
     1
 62
   256
176
     0
 40
1.0
176
     0
 90
        2
176
     1
  1
strokes_ogs.tif
176
     1
290
     0
176
     1
 40
1.0
176
     1
 40
1.0
176
     1
  0
VISUALSTYLE
  5
34
102
{ACAD_REACTORS
330
2A
102
}
330
2A
100
AcDbVisualStyle
  2
Conceptual
 70
     9
177
     3
291
     0
 70
    58
 90
        3
176
     1
 90
        2
176
     1
 90
        0
176
     1
 90
        0
176
     1
 40
0.6
176
     1
 40
30.0
176
     1
 62
     7
420
 16777215
176
     1
 90
        2
176
     1
 90
        2
176
     1
 62
     7
176
     1
 62
   257
176
     1
 90
        1
176
     1
 90
        1
176
     1
 40
179.0
176
     1
 90
        8
176
     1
 62
     7
176
     1
 40
1.0
176
     1
 90
        1
176
     1
 90
        6
176
     1
 90
        2
176
     1
 62
     7
176
     1
 90
        3
176
     1
 90
        0
176
     1
 90
        0
176
     1
290
     0
176
     1
 90
        1
176
     1
 40
0.0
176
     1
 90
        0
176
     1
290
     0
176
     1
290
     1
176
     1
290
     1
176
     1
290
     0
176
     1
290
     0
176
     1
290
     0
176
     1
290
     0
176
     1
290
     0
176
     1
290
     0
176
     1
 90
       50
176
     1
 40
0.0
176
     1
 40
1.0
176
     1
 90
        0
176
     1
 62
    18
420
        0
176
     1
 90
       50
176
     1
 90
        3
176
     1
 62
     5
420
      255
176
     1
290
     0
176
     1
 90
       50
176
     1
 90
       50
176
     1
 90
       50
176
     1
290
     0
176
     1
 90
       50
176
     1
 62
   256
176
     0
 40
1.0
176
     0
 90
        2
176
     1
  1
strokes_ogs.tif
176
     1
290
     0
176
     1
 40
1.0
176
     1
 40
1.0
176
     1
  0
VISUALSTYLE
  5
35
102
{ACAD_REACTORS
330
2A
102
}
330
2A
100
AcDbVisualStyle
  2
Dim
 70
    11
177
     3
291
     1
 70
    58
 90
        2
176
     1
 90
        2
176
     1
 90
        0
176
     1
 90
        0
176
     1
 40
0.6
176
     1
 40
30.0
176
     1
 62
     7
420
 16777215
176
     1
 90
        1
176
     1
 90
        4
176
     1
 62
     7
176
     1
 62
   257
176
     1
 90
        1
176
     1
 90
        1
176
     1
 40
1.0
176
     1
 90
        8
176
     1
 62
     7
176
     1
 40
1.0
176
     1
 90
        1
176
     1
 90
        6
176
     1
 90
        2
176
     1
 62
     7
176
     1
 90
        5
176
     1
 90
        0
176
     1
 90
        0
176
     1
290
     0
176
     1
 90
        1
176
     1
 40
-50.0
176
     1
 90
        0
176
     1
290
     0
176
     1
290
     1
176
     1
290
     1
176
     1
290
     0
176
     1
290
     0
176
     1
290
     0
176
     1
290
     0
176
     1
290
     0
176
     1
290
     0
176
     1
 90
       50
176
     1
 40
0.0
176
     1
 40
1.0
176
     1
 90
        0
176
     1
 62
    18
420
        0
176
     1
 90
       50
176
     1
 90
        3
176
     1
 62
     5
420
      255
176
     1
290
     0
176
     1
 90
       50
176
     1
 90
       50
176
     1
 90
       50
176
     1
290
     0
176
     1
 90
       50
176
     1
 62
   256
176
     0
 40
1.0
176
     0
 90
        2
176
     1
  1
strokes_ogs.tif
176
     1
290
     0
176
     1
 40
1.0
176
     1
 40
1.0
176
     1
  0
VISUALSTYLE
  5
3D
102
{ACAD_REACTORS
330
2A
102
}
330
2A
100
AcDbVisualStyle
  2
EdgeColorOff
 70
    22
177
     3
291
     1
 70
    58
 90
        2
176
     0
 90
        2
176
     0
 90
        0
176
     0
 90
        0
176
     0
 40
0.6
176
     0
 40
30.0
176
     0
 62
     7
420
 16777215
176
     0
 90
        1
176
     0
 90
        4
176
     0
 62
     7
176
     0
 62
   257
176
     0
 90
        1
176
     0
 90
        1
176
     0
 40
1.0
176
     0
 90
        8
176
     2
 62
     7
176
     0
 40
1.0
176
     0
 90
        1
176
     0
 90
        6
176
     0
 90
        2
176
     0
 62
     7
176
     0
 90
        5
176
     0
 90
        0
176
     0
 90
        0
176
     0
290
     0
176
     0
 90
        1
176
     0
 40
0.0
176
     0
 90
        0
176
     0
290
     0
176
     0
290
     1
176
     0
290
     1
176
     0
290
     0
176
     0
290
     0
176
     0
290
     0
176
     0
290
     0
176
     0
290
     0
176
     0
290
     0
176
     0
 90
       50
176
     0
 40
0.0
176
     0
 40
1.0
176
     0
 90
        0
176
     0
 62
    18
420
        0
176
     0
 90
       50
176
     0
 90
        3
176
     0
 62
     5
420
      255
176
     0
290
     0
176
     0
 90
       50
176
     0
 90
       50
176
     0
 90
       50
176
     0
290
     0
176
     0
 90
       50
176
     0
 62
   256
176
     0
 40
1.0
176
     0
 90
        2
176
     0
  1
strokes_ogs.tif
176
     0
290
     0
176
     0
 40
1.0
176
     0
 40
1.0
176
     0
  0
VISUALSTYLE
  5
39
102
{ACAD_REACTORS
330
2A
102
}
330
2A
100
AcDbVisualStyle
  2
Facepattern
 70
    15
177
     3
291
     1
 70
    58
 90
        2
176
     1
 90
        2
176
     1
 90
        0
176
     1
 90
        0
176
     1
 40
0.6
176
     1
 40
30.0
176
     1
 62
     7
420
 16777215
176
     1
 90
        1
176
     1
 90
        4
176
     1
 62
     7
176
     1
 62
   257
176
     1
 90
        1
176
     1
 90
        1
176
     1
 40
1.0
176
     1
 90
        8
176
     1
 62
     7
176
     1
 40
1.0
176
     1
 90
        1
176
     1
 90
        6
176
     1
 90
        2
176
     1
 62
     7
176
     1
 90
        5
176
     1
 90
        0
176
     1
 90
        0
176
     1
290
     0
176
     1
 90
        1
176
     1
 40
0.0
176
     1
 90
        0
176
     1
290
     0
176
     1
290
     1
176
     1
290
     1
176
     1
290
     0
176
     1
290
     0
176
     1
290
     0
176
     1
290
     0
176
     1
290
     0
176
     1
290
     0
176
     1
 90
       50
176
     1
 40
0.0
176
     1
 40
1.0
176
     1
 90
        0
176
     1
 62
    18
420
        0
176
     1
 90
       50
176
     1
 90
        3
176
     1
 62
     5
420
      255
176
     1
290
     0
176
     1
 90
       50
176
     1
 90
       50
176
     1
 90
       50
176
     1
290
     0
176
     1
 90
       50
176
     1
 62
   256
176
     0
 40
1.0
176
     0
 90
        2
176
     1
  1
strokes_ogs.tif
176
     1
290
     0
176
     1
 40
1.0
176
     1
 40
1.0
176
     1
  0
VISUALSTYLE
  5
2B
102
{ACAD_REACTORS
330
2A
102
}
330
2A
100
AcDbVisualStyle
  2
Flat
 70
     0
177
     3
291
     1
 70
    58
 90
        2
176
     1
 90
        1
176
     1
 90
        1
176
     1
 90
        2
176
     1
 40
0.6
176
     1
 40
30.0
176
     1
 62
     7
420
 16777215
176
     1
 90
        0
176
     1
 90
        0
176
     1
 62
     7
176
     1
 62
   257
176
     1
 90
        1
176
     1
 90
        1
176
     1
 40
1.0
176
     1
 90
        8
176
     1
 62
     7
176
     1
 40
1.0
176
     1
 90
        1
176
     1
 90
        6
176
     1
 90
        2
176
     1
 62
     7
176
     1
 90
        5
176
     1
 90
        0
176
     1
 90
        0
176
     1
290
     0
176
     1
 90
       13
176
     1
 40
0.0
176
     1
 90
        0
176
     1
290
     0
176
     1
290
     1
176
     1
290
     1
176
     1
290
     0
176
     1
290
     0
176
     1
290
     0
176
     1
290
     0
176
     1
290
     0
176
     1
290
     0
176
     1
 90
       50
176
     1
 40
0.0
176
     1
 40
1.0
176
     1
 90
        0
176
     1
 62
    18
420
        0
176
     1
 90
       50
176
     1
 90
        3
176
     1
 62
     5
420
      255
176
     1
290
     0
176
     1
 90
       50
176
     1
 90
       50
176
     1
 90
       50
176
     1
290
     0
176
     1
 90
       50
176
     1
 62
   256
176
     0
 40
1.0
176
     0
 90
        2
176
     1
  1
strokes_ogs.tif
176
     1
290
     0
176
     1
 40
1.0
176
     1
 40
1.0
176
     1
  0
VISUALSTYLE
  5
2C
102
{ACAD_REACTORS
330
2A
102
}
330
2A
100
AcDbVisualStyle
  2
FlatWithEdges
 70
     1
177
     3
291
     1
 70
    58
 90
        2
176
     1
 90
        1
176
     1
 90
        1
176
     1
 90
        2
176
     1
 40
0.6
176
     1
 40
30.0
176
     1
 62
     7
420
 16777215
176
     1
 90
        1
176
     1
 90
        0
176
     1
 62
     7
176
     1
 62
   257
176
     1
 90
        1
176
     1
 90
        1
176
     1
 40
1.0
176
     1
 90
        0
176
     1
 62
   257
176
     1
 40
1.0
176
     1
 90
        1
176
     1
 90
        6
176
     1
 90
        2
176
     1
 62
     7
176
     1
 90
        5
176
     1
 90
        0
176
     1
 90
        0
176
     1
290
     0
176
     1
 90
       13
176
     1
 40
0.0
176
     1
 90
        0
176
     1
290
     0
176
     1
290
     1
176
     1
290
     1
176
     1
290
     0
176
     1
290
     0
176
     1
290
     0
176
     1
290
     0
176
     1
290
     0
176
     1
290
     0
176
     1
 90
       50
176
     1
 40
0.0
176
     1
 40
1.0
176
     1
 90
        0
176
     1
 62
    18
420
        0
176
     1
 90
       50
176
     1
 90
        3
176
     1
 62
     5
420
      255
176
     1
290
     0
176
     1
 90
       50
176
     1
 90
       50
176
     1
 90
       50
176
     1
290
     0
176
     1
 90
       50
176
     1
 62
   256
176
     0
 40
1.0
176
     0
 90
        2
176
     1
  1
strokes_ogs.tif
176
     1
290
     0
176
     1
 40
1.0
176
     1
 40
1.0
176
     1
  0
VISUALSTYLE
  5
2D
102
{ACAD_REACTORS
330
2A
102
}
330
2A
100
AcDbVisualStyle
  2
Gouraud
 70
     2
177
     3
291
     1
 70
    58
 90
        2
176
     1
 90
        2
176
     1
 90
        1
176
     1
 90
        2
176
     1
 40
0.6
176
     1
 40
30.0
176
     1
 62
     7
420
 16777215
176
     1
 90
        0
176
     1
 90
        0
176
     1
 62
     7
176
     1
 62
   257
176
     1
 90
        1
176
     1
 90
        1
176
     1
 40
1.0
176
     1
 90
        0
176
     1
 62
     7
176
     1
 40
1.0
176
     1
 90
        1
176
     1
 90
        6
176
     1
 90
        2
176
     1
 62
     7
176
     1
 90
        5
176
     1
 90
        0
176
     1
 90
        0
176
     1
290
     0
176
     1
 90
       13
176
     1
 40
0.0
176
     1
 90
        0
176
     1
290
     0
176
     1
290
     1
176
     1
290
     1
176
     1
290
     0
176
     1
290
     0
176
     1
290
     0
176
     1
290
     0
176
     1
290
     0
176
     1
290
     0
176
     1
 90
       50
176
     1
 40
0.0
176
     1
 40
1.0
176
     1
 90
        0
176
     1
 62
    18
420
        0
176
     1
 90
       50
176
     1
 90
        3
176
     1
 62
     5
420
      255
176
     1
290
     0
176
     1
 90
       50
176
     1
 90
       50
176
     1
 90
       50
176
     1
290
     0
176
     1
 90
       50
176
     1
 62
   256
176
     0
 40
1.0
176
     0
 90
        2
176
     1
  1
strokes_ogs.tif
176
     1
290
     0
176
     1
 40
1.0
176
     1
 40
1.0
176
     1
  0
VISUALSTYLE
  5
2E
102
{ACAD_REACTORS
330
2A
102
}
330
2A
100
AcDbVisualStyle
  2
GouraudWithEdges
 70
     3
177
     3
291
     1
 70
    58
 90
        2
176
     1
 90
        2
176
     1
 90
        1
176
     1
 90
        2
176
     1
 40
0.6
176
     1
 40
30.0
176
     1
 62
     7
420
 16777215
176
     1
 90
        1
176
     1
 90
        0
176
     1
 62
     7
176
     1
 62
   257
176
     1
 90
        1
176
     1
 90
        1
176
     1
 40
1.0
176
     1
 90
        0
176
     1
 62
   257
176
     1
 40
1.0
176
     1
 90
        1
176
     1
 90
        6
176
     1
 90
        2
176
     1
 62
     7
176
     1
 90
        5
176
     1
 90
        0
176
     1
 90
        0
176
     1
290
     0
176
     1
 90
       13
176
     1
 40
0.0
176
     1
 90
        0
176
     1
290
     0
176
     1
290
     1
176
     1
290
     1
176
     1
290
     0
176
     1
290
     0
176
     1
290
     0
176
     1
290
     0
176
     1
290
     0
176
     1
290
     0
176
     1
 90
       50
176
     1
 40
0.0
176
     1
 40
1.0
176
     1
 90
        0
176
     1
 62
    18
420
        0
176
     1
 90
       50
176
     1
 90
        3
176
     1
 62
     5
420
      255
176
     1
290
     0
176
     1
 90
       50
176
     1
 90
       50
176
     1
 90
       50
176
     1
290
     0
176
     1
 90
       50
176
     1
 62
   256
176
     0
 40
1.0
176
     0
 90
        2
176
     1
  1
strokes_ogs.tif
176
     1
290
     0
176
     1
 40
1.0
176
     1
 40
1.0
176
     1
  0
VISUALSTYLE
  5
31
102
{ACAD_REACTORS
330
2A
102
}
330
2A
100
AcDbVisualStyle
  2
Hidden
 70
     6
177
     3
291
     0
 70
    58
 90
        1
176
     1
 90
        2
176
     1
 90
        2
176
     1
 90
        0
176
     1
 40
0.6
176
     1
 40
30.0
176
     1
 62
     7
420
 16777215
176
     1
 90
        2
176
     1
 90
        2
176
     1
 62
     7
176
     1
 62
   257
176
     1
 90
        2
176
     1
 90
        1
176
     1
 40
40.0
176
     1
 90
        0
176
     1
 62
   257
176
     1
 40
1.0
176
     1
 90
        1
176
     1
 90
        6
176
     1
 90
        2
176
     1
 62
     7
176
     1
 90
        3
176
     1
 90
        0
176
     1
 90
        0
176
     1
290
     0
176
     1
 90
        1
176
     1
 40
0.0
176
     1
 90
        0
176
     1
290
     0
176
     1
290
     1
176
     1
290
     1
176
     1
290
     0
176
     1
290
     0
176
     1
290
     0
176
     1
290
     0
176
     1
290
     0
176
     1
290
     0
176
     1
 90
       50
176
     1
 40
0.0
176
     1
 40
1.0
176
     1
 90
        0
176
     1
 62
    18
420
        0
176
     1
 90
       50
176
     1
 90
        3
176
     1
 62
     5
420
      255
176
     1
290
     0
176
     1
 90
       50
176
     1
 90
       50
176
     1
 90
       50
176
     1
290
     0
176
     1
 90
       50
176
     1
 62
   256
176
     0
 40
1.0
176
     0
 90
        2
176
     1
  1
strokes_ogs.tif
176
     1
290
     0
176
     1
 40
1.0
176
     1
 40
1.0
176
     1
  0
VISUALSTYLE
  5
3B
102
{ACAD_REACTORS
330
2A
102
}
330
2A
100
AcDbVisualStyle
  2
JitterOff
 70
    20
177
     3
291
     1
 70
    58
 90
        2
176
     0
 90
        2
176
     0
 90
        0
176
     0
 90
        0
176
     0
 40
0.6
176
     0
 40
30.0
176
     0
 62
     7
420
 16777215
176
     0
 90
        1
176
     0
 90
        4
176
     0
 62
     7
176
     0
 62
   257
176
     0
 90
        1
176
     0
 90
        1
176
     0
 40
1.0
176
     0
 90
       10
176
     2
 62
     7
176
     0
 40
1.0
176
     0
 90
        1
176
     0
 90
        6
176
     0
 90
        2
176
     0
 62
     7
176
     0
 90
        5
176
     0
 90
        0
176
     0
 90
        0
176
     0
290
     0
176
     0
 90
        1
176
     0
 40
0.0
176
     0
 90
        0
176
     0
290
     0
176
     0
290
     1
176
     0
290
     1
176
     0
290
     0
176
     0
290
     0
176
     0
290
     0
176
     0
290
     0
176
     0
290
     0
176
     0
290
     0
176
     0
 90
       50
176
     0
 40
0.0
176
     0
 40
1.0
176
     0
 90
        0
176
     0
 62
    18
420
        0
176
     0
 90
       50
176
     0
 90
        3
176
     0
 62
     5
420
      255
176
     0
290
     0
176
     0
 90
       50
176
     0
 90
       50
176
     0
 90
       50
176
     0
290
     0
176
     0
 90
       50
176
     0
 62
   256
176
     0
 40
1.0
176
     0
 90
        2
176
     0
  1
strokes_ogs.tif
176
     0
290
     0
176
     0
 40
1.0
176
     0
 40
1.0
176
     0
  0
VISUALSTYLE
  5
38
102
{ACAD_REACTORS
330
2A
102
}
330
2A
100
AcDbVisualStyle
  2
Linepattern
 70
    14
177
     3
291
     1
 70
    58
 90
        2
176
     1
 90
        2
176
     1
 90
        0
176
     1
 90
        0
176
     1
 40
0.6
176
     1
 40
30.0
176
     1
 62
     7
420
 16777215
176
     1
 90
        1
176
     1
 90
        4
176
     1
 62
     7
176
     1
 62
   257
176
     1
 90
        7
176
     1
 90
        7
176
     1
 40
1.0
176
     1
 90
        8
176
     1
 62
     7
176
     1
 40
1.0
176
     1
 90
        1
176
     1
 90
        6
176
     1
 90
        2
176
     1
 62
     7
176
     1
 90
        5
176
     1
 90
        0
176
     1
 90
        0
176
     1
290
     0
176
     1
 90
        1
176
     1
 40
0.0
176
     1
 90
        0
176
     1
290
     0
176
     1
290
     1
176
     1
290
     1
176
     1
290
     0
176
     1
290
     0
176
     1
290
     0
176
     1
290
     0
176
     1
290
     0
176
     1
290
     0
176
     1
 90
       50
176
     1
 40
0.0
176
     1
 40
1.0
176
     1
 90
        0
176
     1
 62
    18
420
        0
176
     1
 90
       50
176
     1
 90
        3
176
     1
 62
     5
420
      255
176
     1
290
     0
176
     1
 90
       50
176
     1
 90
       50
176
     1
 90
       50
176
     1
290
     0
176
     1
 90
       50
176
     1
 62
   256
176
     0
 40
1.0
176
     0
 90
        2
176
     1
  1
strokes_ogs.tif
176
     1
290
     0
176
     1
 40
1.0
176
     1
 40
1.0
176
     1
  0
VISUALSTYLE
  5
3C
102
{ACAD_REACTORS
330
2A
102
}
330
2A
100
AcDbVisualStyle
  2
OverhangOff
 70
    21
177
     3
291
     1
 70
    58
 90
        2
176
     0
 90
        2
176
     0
 90
        0
176
     0
 90
        0
176
     0
 40
0.6
176
     0
 40
30.0
176
     0
 62
     7
420
 16777215
176
     0
 90
        1
176
     0
 90
        4
176
     0
 62
     7
176
     0
 62
   257
176
     0
 90
        1
176
     0
 90
        1
176
     0
 40
1.0
176
     0
 90
        9
176
     2
 62
     7
176
     0
 40
1.0
176
     0
 90
        1
176
     0
 90
        6
176
     0
 90
        2
176
     0
 62
     7
176
     0
 90
        5
176
     0
 90
        0
176
     0
 90
        0
176
     0
290
     0
176
     0
 90
        1
176
     0
 40
0.0
176
     0
 90
        0
176
     0
290
     0
176
     0
290
     1
176
     0
290
     1
176
     0
290
     0
176
     0
290
     0
176
     0
290
     0
176
     0
290
     0
176
     0
290
     0
176
     0
290
     0
176
     0
 90
       50
176
     0
 40
0.0
176
     0
 40
1.0
176
     0
 90
        0
176
     0
 62
    18
420
        0
176
     0
 90
       50
176
     0
 90
        3
176
     0
 62
     5
420
      255
176
     0
290
     0
176
     0
 90
       50
176
     0
 90
       50
176
     0
 90
       50
176
     0
290
     0
176
     0
 90
       50
176
     0
 62
   256
176
     0
 40
1.0
176
     0
 90
        2
176
     0
  1
strokes_ogs.tif
176
     0
290
     0
176
     0
 40
1.0
176
     0
 40
1.0
176
     0
  0
VISUALSTYLE
  5
33
102
{ACAD_REACTORS
330
2A
102
}
330
2A
100
AcDbVisualStyle
  2
Realistic
 70
     8
177
     3
291
     0
 70
    58
 90
        2
176
     1
 90
        3
176
     1
 90
        0
176
     1
 90
        2
176
     1
 40
0.6
176
     1
 40
30.0
176
     1
 62
     7
420
 16777215
176
     1
 90
        0
176
     1
 90
        0
176
     1
 62
     7
176
     1
 62
   257
176
     1
 90
        1
176
     1
 90
        1
176
     1
 40
1.0
176
     1
 90
        8
176
     1
 62
   257
176
     1
 40
1.0
176
     1
 90
        1
176
     1
 90
        6
176
     1
 90
        2
176
     1
 62
     7
176
     1
 90
        3
176
     1
 90
        0
176
     1
 90
        0
176
     1
290
     0
176
     1
 90
       13
176
     1
 40
0.0
176
     1
 90
        0
176
     1
290
     0
176
     1
290
     1
176
     1
290
     1
176
     1
290
     0
176
     1
290
     0
176
     1
290
     0
176
     1
290
     0
176
     1
290
     0
176
     1
290
     0
176
     1
 90
       50
176
     1
 40
0.0
176
     1
 40
1.0
176
     1
 90
        0
176
     1
 62
    18
420
        0
176
     1
 90
       50
176
     1
 90
        3
176
     1
 62
     5
420
      255
176
     1
290
     0
176
     1
 90
       50
176
     1
 90
       50
176
     1
 90
       50
176
     1
290
     0
176
     1
 90
       50
176
     1
 62
   256
176
     0
 40
1.0
176
     0
 90
        2
176
     1
  1
strokes_ogs.tif
176
     1
290
     0
176
     1
 40
1.0
176
     1
 40
1.0
176
     1
  0
VISUALSTYLE
  5
42
102
{ACAD_REACTORS
330
2A
102
}
330
2A
100
AcDbVisualStyle
  2
Shaded
 70
    27
177
     3
291
     0
 70
    58
 90
        2
176
     1
 90
        2
176
     1
 90
        1
176
     1
 90
        2
176
     1
 40
0.6
176
     1
 40
30.0
176
     1
 62
     7
420
 16777215
176
     1
 90
        0
176
     1
 90
        4
176
     1
 62
     7
176
     1
 62
   257
176
     1
 90
        1
176
     1
 90
        1
176
     1
 40
1.0
176
     1
 90
        8
176
     1
 62
   257
176
     1
 40
1.0
176
     1
 90
        1
176
     1
 90
        6
176
     1
 90
        2
176
     1
 62
     8
420
  7895160
176
     1
 90
        3
176
     1
 90
        0
176
     1
 90
        0
176
     1
290
     0
176
     1
 90
        5
176
     1
 40
0.0
176
     1
 90
        0
176
     1
290
     0
176
     1
290
     1
176
     1
290
     1
176
     1
290
     0
176
     1
290
     0
176
     1
290
     0
176
     1
290
     0
176
     1
290
     0
176
     1
290
     0
176
     1
 90
       50
176
     1
 40
0.0
176
     1
 40
1.0
176
     1
 90
        0
176
     1
 62
    18
420
        0
176
     1
 90
       50
176
     1
 90
        3
176
     1
 62
     5
420
      255
176
     1
290
     0
176
     1
 90
       50
176
     1
 90
       50
176
     1
 90
       50
176
     1
290
     0
176
     1
 90
       50
176
     1
 62
   256
176
     0
 40
1.0
176
     0
 90
        2
176
     1
  1
strokes_ogs.tif
176
     1
290
     0
176
     1
 40
1.0
176
     1
 40
1.0
176
     1
  0
VISUALSTYLE
  5
41
102
{ACAD_REACTORS
330
2A
102
}
330
2A
100
AcDbVisualStyle
  2
Shaded with edges
 70
    26
177
     3
291
     0
 70
    58
 90
        2
176
     1
 90
        2
176
     1
 90
        1
176
     1
 90
        2
176
     1
 40
0.6
176
     1
 40
30.0
176
     1
 62
     7
420
 16777215
176
     1
 90
        1
176
     1
 90
       10
176
     1
 62
     7
176
     1
 62
   257
176
     1
 90
        2
176
     1
 90
        1
176
     1
 40
1.0
176
     1
 90
        8
176
     1
 62
   257
176
     1
 40
1.0
176
     1
 90
        1
176
     1
 90
        6
176
     1
 90
        2
176
     1
 62
     7
176
     1
 90
        3
176
     1
 90
        0
176
     1
 90
        0
176
     1
290
     0
176
     1
 90
        5
176
     1
 40
0.0
176
     1
 90
        0
176
     1
290
     0
176
     1
290
     1
176
     1
290
     1
176
     1
290
     0
176
     1
290
     0
176
     1
290
     0
176
     1
290
     0
176
     1
290
     0
176
     1
290
     0
176
     1
 90
       50
176
     1
 40
0.0
176
     1
 40
1.0
176
     1
 90
        0
176
     1
 62
    18
420
        0
176
     1
 90
       50
176
     1
 90
        3
176
     1
 62
     5
420
      255
176
     1
290
     0
176
     1
 90
       50
176
     1
 90
       50
176
     1
 90
       50
176
     1
290
     0
176
     1
 90
       50
176
     1
 62
   256
176
     0
 40
1.0
176
     0
 90
        2
176
     1
  1
strokes_ogs.tif
176
     1
290
     0
176
     1
 40
1.0
176
     1
 40
1.0
176
     1
  0
VISUALSTYLE
  5
3E
102
{ACAD_REACTORS
330
2A
102
}
330
2A
100
AcDbVisualStyle
  2
Shades of Gray
 70
    23
177
     3
291
     0
 70
    58
 90
        2
176
     1
 90
        2
176
     1
 90
        3
176
     1
 90
        0
176
     1
 40
0.6
176
     1
 40
30.0
176
     1
 62
     7
420
 16777215
176
     1
 90
        2
176
     1
 90
        2
176
     1
 62
     7
176
     1
 62
     7
176
     1
 90
        1
176
     1
 90
        1
176
     1
 40
40.0
176
     1
 90
        8
176
     1
 62
     7
176
     1
 40
1.0
176
     1
 90
        1
176
     1
 90
        6
176
     1
 90
        2
176
     1
 62
     7
176
     1
 90
        3
176
     1
 90
        0
176
     1
 90
        0
176
     1
290
     0
176
     1
 90
        1
176
     1
 40
0.0
176
     1
 90
        0
176
     1
290
     0
176
     1
290
     1
176
     1
290
     1
176
     1
290
     0
176
     1
290
     0
176
     1
290
     0
176
     1
290
     0
176
     1
290
     0
176
     1
290
     0
176
     1
 90
       50
176
     1
 40
0.0
176
     1
 40
1.0
176
     1
 90
        0
176
     1
 62
    18
420
        0
176
     1
 90
       50
176
     1
 90
        3
176
     1
 62
     5
420
      255
176
     1
290
     0
176
     1
 90
       50
176
     1
 90
       50
176
     1
 90
       50
176
     1
290
     0
176
     1
 90
       50
176
     1
 62
   256
176
     0
 40
1.0
176
     0
 90
        2
176
     1
  1
strokes_ogs.tif
176
     1
290
     0
176
     1
 40
1.0
176
     1
 40
1.0
176
     1
  0
VISUALSTYLE
  5
3F
102
{ACAD_REACTORS
330
2A
102
}
330
2A
100
AcDbVisualStyle
  2
Sketchy
 70
    24
177
     3
291
     0
 70
    58
 90
        1
176
     1
 90
        2
176
     1
 90
        2
176
     1
 90
        0
176
     1
 40
0.6
176
     1
 40
30.0
176
     1
 62
     7
420
 16777215
176
     1
 90
        2
176
     1
 90
        2
176
     1
 62
     7
176
     1
 62
     7
176
     1
 90
        1
176
     1
 90
        1
176
     1
 40
40.0
176
     1
 90
       11
176
     1
 62
     7
176
     1
 40
1.0
176
     1
 90
        1
176
     1
 90
        6
176
     1
 90
        2
176
     1
 62
     7
176
     1
 90
        6
176
     1
 90
        0
176
     1
 90
        0
176
     1
290
     0
176
     1
 90
        1
176
     1
 40
0.0
176
     1
 90
        0
176
     1
290
     0
176
     1
290
     1
176
     1
290
     1
176
     1
290
     0
176
     1
290
     0
176
     1
290
     0
176
     1
290
     0
176
     1
290
     0
176
     1
290
     0
176
     1
 90
       50
176
     1
 40
0.0
176
     1
 40
1.0
176
     1
 90
        0
176
     1
 62
    18
420
        0
176
     1
 90
       50
176
     1
 90
        3
176
     1
 62
     5
420
      255
176
     1
290
     0
176
     1
 90
       50
176
     1
 90
       50
176
     1
 90
       50
176
     1
290
     0
176
     1
 90
       50
176
     1
 62
   256
176
     0
 40
1.0
176
     0
 90
        2
176
     1
  1
strokes_ogs.tif
176
     1
290
     0
176
     1
 40
1.0
176
     1
 40
1.0
176
     1
  0
VISUALSTYLE
  5
37
102
{ACAD_REACTORS
330
2A
102
}
330
2A
100
AcDbVisualStyle
  2
Thicken
 70
    13
177
     3
291
     1
 70
    58
 90
        2
176
     1
 90
        2
176
     1
 90
        0
176
     1
 90
        0
176
     1
 40
0.6
176
     1
 40
30.0
176
     1
 62
     7
420
 16777215
176
     1
 90
        1
176
     1
 90
        4
176
     1
 62
     7
176
     1
 62
   257
176
     1
 90
        1
176
     1
 90
        1
176
     1
 40
1.0
176
     1
 90
       12
176
     1
 62
     7
176
     1
 40
1.0
176
     1
 90
        1
176
     1
 90
        6
176
     1
 90
        2
176
     1
 62
     7
176
     1
 90
        5
176
     1
 90
        0
176
     1
 90
        0
176
     1
290
     0
176
     1
 90
        1
176
     1
 40
0.0
176
     1
 90
        0
176
     1
290
     0
176
     1
290
     1
176
     1
290
     1
176
     1
290
     0
176
     1
290
     0
176
     1
290
     0
176
     1
290
     0
176
     1
290
     0
176
     1
290
     0
176
     1
 90
       50
176
     1
 40
0.0
176
     1
 40
1.0
176
     1
 90
        0
176
     1
 62
    18
420
        0
176
     1
 90
       50
176
     1
 90
        3
176
     1
 62
     5
420
      255
176
     1
290
     0
176
     1
 90
       50
176
     1
 90
       50
176
     1
 90
       50
176
     1
290
     0
176
     1
 90
       50
176
     1
 62
   256
176
     0
 40
1.0
176
     0
 90
        2
176
     1
  1
strokes_ogs.tif
176
     1
290
     0
176
     1
 40
1.0
176
     1
 40
1.0
176
     1
  0
VISUALSTYLE
  5
30
102
{ACAD_REACTORS
330
2A
102
}
330
2A
100
AcDbVisualStyle
  2
Wireframe
 70
     5
177
     3
291
     0
 70
    58
 90
        0
176
     1
 90
        2
176
     1
 90
        0
176
     1
 90
        0
176
     1
 40
0.6
176
     1
 40
30.0
176
     1
 62
     7
420
 16777215
176
     1
 90
        1
176
     1
 90
        4
176
     1
 62
     7
176
     1
 62
   257
176
     1
 90
        1
176
     1
 90
        1
176
     1
 40
1.0
176
     1
 90
        0
176
     1
 62
   257
176
     1
 40
1.0
176
     1
 90
        1
176
     1
 90
        6
176
     1
 90
        2
176
     1
 62
     7
176
     1
 90
        3
176
     1
 90
        0
176
     1
 90
        0
176
     1
290
     0
176
     1
 90
        1
176
     1
 40
0.0
176
     1
 90
        0
176
     1
290
     0
176
     1
290
     1
176
     1
290
     1
176
     1
290
     0
176
     1
290
     0
176
     1
290
     0
176
     1
290
     0
176
     1
290
     0
176
     1
290
     0
176
     1
 90
       50
176
     1
 40
0.0
176
     1
 40
1.0
176
     1
 90
        0
176
     1
 62
    18
420
        0
176
     1
 90
       50
176
     1
 90
        3
176
     1
 62
     5
420
      255
176
     1
290
     0
176
     1
 90
       50
176
     1
 90
       50
176
     1
 90
       50
176
     1
290
     0
176
     1
 90
       50
176
     1
 62
   256
176
     0
 40
1.0
176
     0
 90
        2
176
     1
  1
strokes_ogs.tif
176
     1
290
     0
176
     1
 40
1.0
176
     1
 40
1.0
176
     1
  0
VISUALSTYLE
  5
40
102
{ACAD_REACTORS
330
2A
102
}
330
2A
100
AcDbVisualStyle
  2
X-Ray
 70
    25
177
     3
291
     0
 70
    58
 90
        2
176
     1
 90
        2
176
     1
 90
        1
176
     1
 90
        1
176
     1
 40
0.5
176
     1
 40
30.0
176
     1
 62
     7
420
 16777215
176
     1
 90
        1
176
     1
 90
        0
176
     1
 62
     7
176
     1
 62
   257
176
     1
 90
        1
176
     1
 90
        1
176
     1
 40
1.0
176
     1
 90
        8
176
     1
 62
     7
176
     1
 40
1.0
176
     1
 90
        1
176
     1
 90
        6
176
     1
 90
        2
176
     1
 62
     7
176
     1
 90
        3
176
     1
 90
        0
176
     1
 90
        0
176
     1
290
     0
176
     1
 90
       13
176
     1
 40
0.0
176
     1
 90
        0
176
     1
290
     0
176
     1
290
     1
176
     1
290
     1
176
     1
290
     0
176
     1
290
     0
176
     1
290
     0
176
     1
290
     0
176
     1
290
     0
176
     1
290
     0
176
     1
 90
       50
176
     1
 40
0.0
176
     1
 40
1.0
176
     1
 90
        0
176
     1
 62
    18
420
        0
176
     1
 90
       50
176
     1
 90
        3
176
     1
 62
     5
420
      255
176
     1
290
     0
176
     1
 90
       50
176
     1
 90
       50
176
     1
 90
       50
176
     1
290
     0
176
     1
 90
       50
176
     1
 62
   256
176
     0
 40
1.0
176
     0
 90
        2
176
     1
  1
strokes_ogs.tif
176
     1
290
     0
176
     1
 40
1.0
176
     1
 40
1.0
176
     1
  0
DICTIONARYVAR
  5
220
102
{ACAD_REACTORS
330
21F
102
}
330
21F
100
DictionaryVariables
280
     0
  1
1:1
  0
DICTIONARYVAR
  5
225
102
{ACAD_REACTORS
330
21F
102
}
330
21F
100
DictionaryVariables
280
     0
  1
Standard
  0
DICTIONARYVAR
  5
224
102
{ACAD_REACTORS
330
21F
102
}
330
21F
100
DictionaryVariables
280
     0
  1
Standard
  0
DICTIONARY
  5
221
330
6A
100
AcDbDictionary
280
     1
281
     1
  3
ACAD_ROUNDTRIP_2008_TABLESTYLE_CELLSTYLEMAP
360
222
  0
CELLSTYLEMAP
  5
222
102
{ACAD_REACTORS
330
221
102
}
330
221
100
AcDbCellStyleMap
 90
        3
300
CELLSTYLE
  1
TABLEFORMAT_BEGIN
 90
        5
170
     1
 91
        0
 92
    32768
 62
   257
 93
        1
300
CONTENTFORMAT
  1
CONTENTFORMAT_BEGIN
 90
        0
 91
        0
 92
        4
 93
        0
300

 40
0.0
140
1.0
 94
        5
 62
     0
340
11
144
0.25
309
CONTENTFORMAT_END
171
     1
301
MARGIN
  1
CELLMARGIN_BEGIN
 40
0.06
 40
0.06
 40
0.06
 40
0.06
 40
0.06
 40
0.06
309
CELLMARGIN_END
 94
        6
 95
        1
302
GRIDFORMAT
  1
GRIDFORMAT_BEGIN
 90
        0
 91
        1
 62
     0
 92
       -2
340
14
 93
        0
 40
0.045
309
GRIDFORMAT_END
 95
        2
302
GRIDFORMAT
  1
GRIDFORMAT_BEGIN
 90
        0
 91
        1
 62
     0
 92
       -2
340
14
 93
        0
 40
0.045
309
GRIDFORMAT_END
 95
        4
302
GRIDFORMAT
  1
GRIDFORMAT_BEGIN
 90
        0
 91
        1
 62
     0
 92
       -2
340
14
 93
        0
 40
0.045
309
GRIDFORMAT_END
 95
        8
302
GRIDFORMAT
  1
GRIDFORMAT_BEGIN
 90
        0
 91
        1
 62
     0
 92
       -2
340
14
 93
        0
 40
0.045
309
GRIDFORMAT_END
 95
       16
302
GRIDFORMAT
  1
GRIDFORMAT_BEGIN
 90
        0
 91
        1
 62
     0
 92
       -2
340
14
 93
        0
 40
0.045
309
GRIDFORMAT_END
 95
       32
302
GRIDFORMAT
  1
GRIDFORMAT_BEGIN
 90
        0
 91
        1
 62
     0
 92
       -2
340
14
 93
        0
 40
0.045
309
GRIDFORMAT_END
309
TABLEFORMAT_END
  1
CELLSTYLE_BEGIN
 90
        1
 91
        1
300
_TITLE
309
CELLSTYLE_END
300
CELLSTYLE
  1
TABLEFORMAT_BEGIN
 90
        5
170
     1
 91
        0
 92
        0
 62
   257
 93
        1
300
CONTENTFORMAT
  1
CONTENTFORMAT_BEGIN
 90
        0
 91
        0
 92
        4
 93
        0
300

 40
0.0
140
1.0
 94
        5
 62
     0
340
11
144
0.18
309
CONTENTFORMAT_END
171
     1
301
MARGIN
  1
CELLMARGIN_BEGIN
 40
0.06
 40
0.06
 40
0.06
 40
0.06
 40
0.06
 40
0.06
309
CELLMARGIN_END
 94
        6
 95
        1
302
GRIDFORMAT
  1
GRIDFORMAT_BEGIN
 90
        0
 91
        1
 62
     0
 92
       -2
340
14
 93
        0
 40
0.045
309
GRIDFORMAT_END
 95
        2
302
GRIDFORMAT
  1
GRIDFORMAT_BEGIN
 90
        0
 91
        1
 62
     0
 92
       -2
340
14
 93
        0
 40
0.045
309
GRIDFORMAT_END
 95
        4
302
GRIDFORMAT
  1
GRIDFORMAT_BEGIN
 90
        0
 91
        1
 62
     0
 92
       -2
340
14
 93
        0
 40
0.045
309
GRIDFORMAT_END
 95
        8
302
GRIDFORMAT
  1
GRIDFORMAT_BEGIN
 90
        0
 91
        1
 62
     0
 92
       -2
340
14
 93
        0
 40
0.045
309
GRIDFORMAT_END
 95
       16
302
GRIDFORMAT
  1
GRIDFORMAT_BEGIN
 90
        0
 91
        1
 62
     0
 92
       -2
340
14
 93
        0
 40
0.045
309
GRIDFORMAT_END
 95
       32
302
GRIDFORMAT
  1
GRIDFORMAT_BEGIN
 90
        0
 91
        1
 62
     0
 92
       -2
340
14
 93
        0
 40
0.045
309
GRIDFORMAT_END
309
TABLEFORMAT_END
  1
CELLSTYLE_BEGIN
 90
        2
 91
        1
300
_HEADER
309
CELLSTYLE_END
300
CELLSTYLE
  1
TABLEFORMAT_BEGIN
 90
        5
170
     1
 91
        0
 92
        0
 62
   257
 93
        1
300
CONTENTFORMAT
  1
CONTENTFORMAT_BEGIN
 90
        0
 91
        0
 92
        4
 93
        0
300

 40
0.0
140
1.0
 94
        2
 62
     0
340
11
144
0.18
309
CONTENTFORMAT_END
171
     1
301
MARGIN
  1
CELLMARGIN_BEGIN
 40
0.06
 40
0.06
 40
0.06
 40
0.06
 40
0.06
 40
0.06
309
CELLMARGIN_END
 94
        6
 95
        1
302
GRIDFORMAT
  1
GRIDFORMAT_BEGIN
 90
        0
 91
        1
 62
     0
 92
       -2
340
14
 93
        0
 40
0.045
309
GRIDFORMAT_END
 95
        2
302
GRIDFORMAT
  1
GRIDFORMAT_BEGIN
 90
        0
 91
        1
 62
     0
 92
       -2
340
14
 93
        0
 40
0.045
309
GRIDFORMAT_END
 95
        4
302
GRIDFORMAT
  1
GRIDFORMAT_BEGIN
 90
        0
 91
        1
 62
     0
 92
       -2
340
14
 93
        0
 40
0.045
309
GRIDFORMAT_END
 95
        8
302
GRIDFORMAT
  1
GRIDFORMAT_BEGIN
 90
        0
 91
        1
 62
     0
 92
       -2
340
14
 93
        0
 40
0.045
309
GRIDFORMAT_END
 95
       16
302
GRIDFORMAT
  1
GRIDFORMAT_BEGIN
 90
        0
 91
        1
 62
     0
 92
       -2
340
14
 93
        0
 40
0.045
309
GRIDFORMAT_END
 95
       32
302
GRIDFORMAT
  1
GRIDFORMAT_BEGIN
 90
        0
 91
        1
 62
     0
 92
       -2
340
14
 93
        0
 40
0.045
309
GRIDFORMAT_END
309
TABLEFORMAT_END
  1
CELLSTYLE_BEGIN
 90
        3
 91
        2
300
_DATA
309
CELLSTYLE_END
  0
ENDSEC
  0
EOF