0
SECTION
  2
HEADER
  9
$ACADVER
  1
AC1027
  9
$ACADMAINTVER
 70
     8
  9
$DWGCODEPAGE
  3
ANSI_1252
  9
$REQUIREDVERSIONS
160
                 0
  9
$COMMENTS
  1
File was created by Cadenas
  9
$CUSTOMPROPERTYTAG
  1
NN
  9
$CUSTOMPROPERTY
  1
S-2000 Wide Slot Take-Up Trident Seal
  9
$CUSTOMPROPERTYTAG
  1
NT
  9
$CUSTOMPROPERTY
  1
S-2000 Wide Slot Take-Up Bearing -Inch
  9
$CUSTOMPROPERTYTAG
  1
NB
  9
$CUSTOMPROPERTY
  1
070791
  9
$CUSTOMPROPERTYTAG
  1
NBSYN
  9
$CUSTOMPROPERTY
  1
$PN.
  9
$CUSTOMPROPERTYTAG
  1
LINA
  9
$CUSTOMPROPERTY
  1
070791
  9
$CUSTOMPROPERTYTAG
  1
SS
  9
$CUSTOMPROPERTY
  1
2-11/16
  9
$CUSTOMPROPERTYTAG
  1
PN
  9
$CUSTOMPROPERTY
  1
070791
  9
$CUSTOMPROPERTYTAG
  1
DESCRIPTION
  9
$CUSTOMPROPERTY
  1
WSTU-S2-211RE
  9
$CUSTOMPROPERTYTAG
  1
EF
  9
$CUSTOMPROPERTY
  1
Expansion Type
  9
$CUSTOMPROPERTYTAG
  1
ST
  9
$CUSTOMPROPERTY
  1
Contact Seal
  9
$CUSTOMPROPERTYTAG
  1
A
  9
$CUSTOMPROPERTY
  1
3-19/32
  9
$CUSTOMPROPERTYTAG
  1
B
  9
$CUSTOMPROPERTY
  1
8-7/8
  9
$CUSTOMPROPERTYTAG
  1
C
  9
$CUSTOMPROPERTY
  1
1-13/16
  9
$CUSTOMPROPERTYTAG
  1
D
  9
$CUSTOMPROPERTY
  1
4-1/2
  9
$CUSTOMPROPERTYTAG
  1
E
  9
$CUSTOMPROPERTY
  1
5-3/4
  9
$CUSTOMPROPERTYTAG
  1
F
  9
$CUSTOMPROPERTY
  1
1-5/8
  9
$CUSTOMPROPERTYTAG
  1
G
  9
$CUSTOMPROPERTY
  1
1-1/8
  9
$CUSTOMPROPERTYTAG
  1
H
  9
$CUSTOMPROPERTY
  1
1-1/2
  9
$CUSTOMPROPERTYTAG
  1
J
  9
$CUSTOMPROPERTY
  1
4-7/8
  9
$CUSTOMPROPERTYTAG
  1
K
  9
$CUSTOMPROPERTY
  1
2-3/4
  9
$CUSTOMPROPERTYTAG
  1
L
  9
$CUSTOMPROPERTY
  1
4-45/64
  9
$CUSTOMPROPERTYTAG
  1
M
  9
$CUSTOMPROPERTY
  1
5-15/16
  9
$CUSTOMPROPERTYTAG
  1
N
  9
$CUSTOMPROPERTY
  1
6-11/16
  9
$CUSTOMPROPERTYTAG
  1
R
  9
$CUSTOMPROPERTY
  1
3-3/4
  9
$CUSTOMPROPERTYTAG
  1
S
  9
$CUSTOMPROPERTY
  1
2-13/32
  9
$CUSTOMPROPERTYTAG
  1
T
  9
$CUSTOMPROPERTY
  1
2-11/16
  9
$CUSTOMPROPERTYTAG
  1
X
  9
$CUSTOMPROPERTY
  1
1/4
  9
$CUSTOMPROPERTYTAG
  1
Y
  9
$CUSTOMPROPERTY
  1
0.025
  9
$CUSTOMPROPERTYTAG
  1
Z
  9
$CUSTOMPROPERTY
  1
3-15/32
  9
$CUSTOMPROPERTYTAG
  1
COMPANY
  9
$CUSTOMPROPERTY
  1
baldor
  9
$INSBASE
 10
0.0
 20
0.0
 30
0.0
  9
$EXTMIN
 10
1.000000000000000E+20
 20
1.000000000000000E+20
 30
1.000000000000000E+20
  9
$EXTMAX
 10
-1.000000000000000E+20
 20
-1.000000000000000E+20
 30
-1.000000000000000E+20
  9
$LIMMIN
 10
0.0
 20
0.0
  9
$LIMMAX
 10
12.0
 20
9.0
  9
$ORTHOMODE
 70
     0
  9
$REGENMODE
 70
     1
  9
$FILLMODE
 70
     1
  9
$QTEXTMODE
 70
     0
  9
$MIRRTEXT
 70
     1
  9
$LTSCALE
 40
1.0
  9
$ATTMODE
 70
     1
  9
$TEXTSIZE
 40
0.2
  9
$TRACEWID
 40
0.05
  9
$TEXTSTYLE
  7
Standard
  9
$CLAYER
  8
0
  9
$CELTYPE
  6
ByLayer
  9
$CECOLOR
 62
   256
  9
$CELTSCALE
 40
1.0
  9
$DISPSILH
 70
     0
  9
$DIMSCALE
 40
1.0
  9
$DIMASZ
 40
0.18
  9
$DIMEXO
 40
0.0625
  9
$DIMDLI
 40
0.38
  9
$DIMRND
 40
0.0
  9
$DIMDLE
 40
0.0
  9
$DIMEXE
 40
0.18
  9
$DIMTP
 40
0.0
  9
$DIMTM
 40
0.0
  9
$DIMTXT
 40
0.18
  9
$DIMCEN
 40
0.09
  9
$DIMTSZ
 40
0.0
  9
$DIMTOL
 70
     0
  9
$DIMLIM
 70
     0
  9
$DIMTIH
 70
     1
  9
$DIMTOH
 70
     1
  9
$DIMSE1
 70
     0
  9
$DIMSE2
 70
     0
  9
$DIMTAD
 70
     0
  9
$DIMZIN
 70
     0
  9
$DIMBLK
  1

  9
$DIMASO
 70
     1
  9
$DIMSHO
 70
     1
  9
$DIMPOST
  1

  9
$DIMAPOST
  1

  9
$DIMALT
 70
     0
  9
$DIMALTD
 70
     2
  9
$DIMALTF
 40
25.4
  9
$DIMLFAC
 40
1.0
  9
$DIMTOFL
 70
     0
  9
$DIMTVP
 40
0.0
  9
$DIMTIX
 70
     0
  9
$DIMSOXD
 70
     0
  9
$DIMSAH
 70
     0
  9
$DIMBLK1
  1

  9
$DIMBLK2
  1

  9
$DIMSTYLE
  2
Standard
  9
$DIMCLRD
 70
     0
  9
$DIMCLRE
 70
     0
  9
$DIMCLRT
 70
     0
  9
$DIMTFAC
 40
1.0
  9
$DIMGAP
 40
0.09
  9
$DIMJUST
 70
     0
  9
$DIMSD1
 70
     0
  9
$DIMSD2
 70
     0
  9
$DIMTOLJ
 70
     1
  9
$DIMTZIN
 70
     0
  9
$DIMALTZ
 70
     0
  9
$DIMALTTZ
 70
     0
  9
$DIMUPT
 70
     0
  9
$DIMDEC
 70
     4
  9
$DIMTDEC
 70
     4
  9
$DIMALTU
 70
     2
  9
$DIMALTTD
 70
     2
  9
$DIMTXSTY
  7
Standard
  9
$DIMAUNIT
 70
     0
  9
$DIMADEC
 70
     0
  9
$DIMALTRND
 40
0.0
  9
$DIMAZIN
 70
     0
  9
$DIMDSEP
 70
    46
  9
$DIMATFIT
 70
     3
  9
$DIMFRAC
 70
     0
  9
$DIMLDRBLK
  1

  9
$DIMLUNIT
 70
     2
  9
$DIMLWD
 70
    -2
  9
$DIMLWE
 70
    -2
  9
$DIMTMOVE
 70
     0
  9
$DIMFXL
 40
1.0
  9
$DIMFXLON
 70
     0
  9
$DIMJOGANG
 40
0.7853981633974483
  9
$DIMTFILL
 70
     0
  9
$DIMTFILLCLR
 70
     0
  9
$DIMARCSYM
 70
     0
  9
$DIMLTYPE
  6

  9
$DIMLTEX1
  6

  9
$DIMLTEX2
  6

  9
$DIMTXTDIRECTION
 70
     0
  9
$LUNITS
 70
     2
  9
$LUPREC
 70
     4
  9
$SKETCHINC
 40
0.1
  9
$FILLETRAD
 40
0.5
  9
$AUNITS
 70
     0
  9
$AUPREC
 70
     0
  9
$MENU
  1
.
  9
$ELEVATION
 40
0.0
  9
$PELEVATION
 40
0.0
  9
$THICKNESS
 40
0.0
  9
$LIMCHECK
 70
     0
  9
$CHAMFERA
 40
0.0
  9
$CHAMFERB
 40
0.0
  9
$CHAMFERC
 40
0.0
  9
$CHAMFERD
 40
0.0
  9
$SKPOLY
 70
     0
  9
$TDCREATE
 40
2458168.976300984
  9
$TDUCREATE
 40
2458168.934634317
  9
$TDUPDATE
 40
2458168.976301169
  9
$TDUUPDATE
 40
2458168.934634503
  9
$TDINDWG
 40
0.0000000116
  9
$TDUSRTIMER
 40
0.0000000116
  9
$USRTIMER
 70
     1
  9
$ANGBASE
 50
0.0
  9
$ANGDIR
 70
     0
  9
$PDMODE
 70
     0
  9
$PDSIZE
 40
0.0
  9
$PLINEWID
 40
0.0
  9
$SPLFRAME
 70
     0
  9
$SPLINETYPE
 70
     6
  9
$SPLINESEGS
 70
     8
  9
$HANDSEED
  5
222
  9
$SURFTAB1
 70
     6
  9
$SURFTAB2
 70
     6
  9
$SURFTYPE
 70
     6
  9
$SURFU
 70
     6
  9
$SURFV
 70
     6
  9
$UCSBASE
  2

  9
$UCSNAME
  2

  9
$UCSORG
 10
0.0
 20
0.0
 30
0.0
  9
$UCSXDIR
 10
1.0
 20
0.0
 30
0.0
  9
$UCSYDIR
 10
0.0
 20
1.0
 30
0.0
  9
$UCSORTHOREF
  2

  9
$UCSORTHOVIEW
 70
     0
  9
$UCSORGTOP
 10
0.0
 20
0.0
 30
0.0
  9
$UCSORGBOTTOM
 10
0.0
 20
0.0
 30
0.0
  9
$UCSORGLEFT
 10
0.0
 20
0.0
 30
0.0
  9
$UCSORGRIGHT
 10
0.0
 20
0.0
 30
0.0
  9
$UCSORGFRONT
 10
0.0
 20
0.0
 30
0.0
  9
$UCSORGBACK
 10
0.0
 20
0.0
 30
0.0
  9
$PUCSBASE
  2

  9
$PUCSNAME
  2

  9
$PUCSORG
 10
0.0
 20
0.0
 30
0.0
  9
$PUCSXDIR
 10
1.0
 20
0.0
 30
0.0
  9
$PUCSYDIR
 10
0.0
 20
1.0
 30
0.0
  9
$PUCSORTHOREF
  2

  9
$PUCSORTHOVIEW
 70
     0
  9
$PUCSORGTOP
 10
0.0
 20
0.0
 30
0.0
  9
$PUCSORGBOTTOM
 10
0.0
 20
0.0
 30
0.0
  9
$PUCSORGLEFT
 10
0.0
 20
0.0
 30
0.0
  9
$PUCSORGRIGHT
 10
0.0
 20
0.0
 30
0.0
  9
$PUCSORGFRONT
 10
0.0
 20
0.0
 30
0.0
  9
$PUCSORGBACK
 10
0.0
 20
0.0
 30
0.0
  9
$USERI1
 70
     0
  9
$USERI2
 70
     0
  9
$USERI3
 70
     0
  9
$USERI4
 70
     0
  9
$USERI5
 70
     0
  9
$USERR1
 40
0.0
  9
$USERR2
 40
0.0
  9
$USERR3
 40
0.0
  9
$USERR4
 40
0.0
  9
$USERR5
 40
0.0
  9
$WORLDVIEW
 70
     1
  9
$SHADEDGE
 70
     3
  9
$SHADEDIF
 70
    70
  9
$TILEMODE
 70
     1
  9
$MAXACTVP
 70
    64
  9
$PINSBASE
 10
0.0
 20
0.0
 30
0.0
  9
$PLIMCHECK
 70
     0
  9
$PEXTMIN
 10
1.000000000000000E+20
 20
1.000000000000000E+20
 30
1.000000000000000E+20
  9
$PEXTMAX
 10
-1.000000000000000E+20
 20
-1.000000000000000E+20
 30
-1.000000000000000E+20
  9
$PLIMMIN
 10
0.0
 20
0.0
  9
$PLIMMAX
 10
12.0
 20
9.0
  9
$UNITMODE
 70
     0
  9
$VISRETAIN
 70
     1
  9
$PLINEGEN
 70
     0
  9
$PSLTSCALE
 70
     1
  9
$TREEDEPTH
 70
  3020
  9
$CMLSTYLE
  2
Standard
  9
$CMLJUST
 70
     0
  9
$CMLSCALE
 40
1.0
  9
$PROXYGRAPHICS
 70
     1
  9
$MEASUREMENT
 70
     0
  9
$CELWEIGHT
370
    -1
  9
$ENDCAPS
280
     0
  9
$JOINSTYLE
280
     0
  9
$LWDISPLAY
290
     0
  9
$INSUNITS
 70
     1
  9
$HYPERLINKBASE
  1

  9
$STYLESHEET
  1

  9
$XEDIT
290
     1
  9
$CEPSNTYPE
380
     0
  9
$PSTYLEMODE
290
     1
  9
$FINGERPRINTGUID
  2
{AF953235-7DC9-4543-97C8-6EB2637D800D}
  9
$VERSIONGUID
  2
{FAEB1C32-E019-11D5-929B-00C0DF256EC4}
  9
$EXTNAMES
290
     1
  9
$PSVPSCALE
 40
0.0
  9
$OLESTARTUP
290
     0
  9
$SORTENTS
280
   127
  9
$INDEXCTL
280
     0
  9
$HIDETEXT
280
     1
  9
$XCLIPFRAME
280
     2
  9
$HALOGAP
280
     0
  9
$OBSCOLOR
 70
   257
  9
$OBSLTYPE
280
     0
  9
$INTERSECTIONDISPLAY
280
     0
  9
$INTERSECTIONCOLOR
 70
   257
  9
$DIMASSOC
280
     2
  9
$PROJECTNAME
  1

  9
$CAMERADISPLAY
290
     0
  9
$LENSLENGTH
 40
50.0
  9
$CAMERAHEIGHT
 40
0.0
  9
$STEPSPERSEC
 40
2.0
  9
$STEPSIZE
 40
6.0
  9
$3DDWFPREC
 40
2.0
  9
$PSOLWIDTH
 40
0.25
  9
$PSOLHEIGHT
 40
4.0
  9
$LOFTANG1
 40
1.570796326794897
  9
$LOFTANG2
 40
1.570796326794897
  9
$LOFTMAG1
 40
0.0
  9
$LOFTMAG2
 40
0.0
  9
$LOFTPARAM
 70
     7
  9
$LOFTNORMALS
280
     1
  9
$LATITUDE
 40
37.795
  9
$LONGITUDE
 40
-122.394
  9
$NORTHDIRECTION
 40
0.0
  9
$TIMEZONE
 70
 -8000
  9
$LIGHTGLYPHDISPLAY
280
     1
  9
$TILEMODELIGHTSYNCH
280
     1
  9
$CMATERIAL
347
44
  9
$SOLIDHIST
280
     0
  9
$SHOWHIST
280
     1
  9
$DWFFRAME
280
     2
  9
$DGNFRAME
280
     2
  9
$REALWORLDSCALE
290
     1
  9
$INTERFERECOLOR
 62
   256
  9
$CSHADOW
280
     0
  9
$SHADOWPLANELOCATION
 40
0.0
  0
ENDSEC
  0
SECTION
  2
CLASSES
  0
CLASS
  1
ACDBDICTIONARYWDFLT
  2
AcDbDictionaryWithDefault
  3
ObjectDBX Classes
 90
        0
 91
        4
280
     0
281
     0
  0
CLASS
  1
VISUALSTYLE
  2
AcDbVisualStyle
  3
ObjectDBX Classes
 90
     4095
 91
        4
280
     0
281
     0
  0
CLASS
  1
MATERIAL
  2
AcDbMaterial
  3
ObjectDBX Classes
 90
     1153
 91
        4
280
     0
281
     0
  0
CLASS
  1
SCALE
  2
AcDbScale
  3
ObjectDBX Classes
 90
     1153
 91
        4
280
     0
281
     0
  0
CLASS
  1
TABLESTYLE
  2
AcDbTableStyle
  3
ObjectDBX Classes
 90
     4095
 91
        4
280
     0
281
     0
  0
CLASS
  1
MLEADERSTYLE
  2
AcDbMLeaderStyle
  3
ACDB_MLEADERSTYLE_CLASS
 90
     4095
 91
        4
280
     0
281
     0
  0
CLASS
  1
SUN
  2
AcDbSun
  3
SCENEOE
 90
     1153
 91
        4
280
     0
281
     0
  0
CLASS
  1
DICTIONARYVAR
  2
AcDbDictionaryVar
  3
ObjectDBX Classes
 90
        0
 91
        4
280
     0
281
     0
  0
CLASS
  1
CELLSTYLEMAP
  2
AcDbCellStyleMap
  3
ObjectDBX Classes
 90
     1152
 91
        4
280
     0
281
     0
  0
ENDSEC
  0
SECTION
  2
TABLES
  0
TABLE
  2
VPORT
  5
8
330
0
100
AcDbSymbolTable
 70
     1
  0
VPORT
  5
29
330
8
100
AcDbSymbolTableRecord
100
AcDbViewportTableRecord
  2
*Active
 70
     0
 10
0.0
 20
0.0
 11
1.0
 21
1.0
 12
1.227293366997984
 22
0.0934999999999997
 13
0.0
 23
0.0
 14
0.5
 24
0.5
 15
0.5
 25
0.5
 16
0.0
 26
0.0
 36
1.0
 17
0.0
 27
0.0
 37
0.0
 40
5.099489999999999
 41
1.832890942295036
 42
50.0
 43
0.0
 44
0.0
 50
0.0
 51
0.0
 71
     0
 72
   100
 73
     1
 74
     3
 75
     0
 76
     0
 77
     0
 78
     0
281
     0
 65
     1
110
0.0
120
0.0
130
0.0
111
1.0
121
0.0
131
0.0
112
0.0
122
1.0
132
0.0
 79
     0
146
0.0
348
2F
 60
     3
 61
     5
292
     1
282
     1
141
0.0
142
0.0
 63
   250
361
6D
  0
ENDTAB
  0
TABLE
  2
LTYPE
  5
5
330
0
100
AcDbSymbolTable
 70
     3
  0
LTYPE
  5
14
330
5
100
AcDbSymbolTableRecord
100
AcDbLinetypeTableRecord
  2
ByBlock
 70
     0
  3

 72
    65
 73
     0
 40
0.0
  0
LTYPE
  5
15
330
5
100
AcDbSymbolTableRecord
100
AcDbLinetypeTableRecord
  2
ByLayer
 70
     0
  3

 72
    65
 73
     0
 40
0.0
  0
LTYPE
  5
16
330
5
100
AcDbSymbolTableRecord
100
AcDbLinetypeTableRecord
  2
Continuous
 70
     0
  3
Solid line
 72
    65
 73
     0
 40
0.0
  0
LTYPE
  5
AA
330
5
100
AcDbSymbolTableRecord
100
AcDbLinetypeTableRecord
  2
Dashed
 70
     0
  3

 72
    65
 73
     2
 40
2.0
 49
1.0
 74
     0
 49
-1.0
 74
     0
  0
LTYPE
  5
12C
330
5
100
AcDbSymbolTableRecord
100
AcDbLinetypeTableRecord
  2
Center
 70
     0
  3

 72
    65
 73
     4
 40
1.5
 49
0.45
 74
     0
 49
-0.5
 74
     0
 49
0.05
 74
     0
 49
-0.5
 74
     0
  0
ENDTAB
  0
TABLE
  2
LAYER
  5
2
330
0
100
AcDbSymbolTable
 70
     7
  0
LAYER
  5
10
330
2
100
AcDbSymbolTableRecord
100
AcDbLayerTableRecord
  2
0
 70
     0
 62
     7
  6
Continuous
370
    -3
390
F
347
46
348
0
  0
LAYER
  5
72
330
2
100
AcDbSymbolTableRecord
100
AcDbLayerTableRecord
  2
AM_6
 70
     0
 62
    -2
  6
Continuous
370
    35
390
F
347
46
348
0
  0
LAYER
  5
AB
330
2
100
AcDbSymbolTableRecord
100
AcDbLayerTableRecord
  2
AM_9
 70
     0
 62
     6
  6
Dashed
370
    25
390
F
347
46
348
0
  0
LAYER
  5
C1
330
2
100
AcDbSymbolTableRecord
100
AcDbLayerTableRecord
  2
AM_4
 70
     0
 62
     7
  6
Continuous
370
    50
390
F
347
46
348
0
  0
LAYER
  5
DF
330
2
100
AcDbSymbolTableRecord
100
AcDbLayerTableRecord
  2
AM_5
 70
     0
 62
     3
  6
Continuous
370
    25
390
F
347
46
348
0
  0
LAYER
  5
12D
330
2
100
AcDbSymbolTableRecord
100
AcDbLayerTableRecord
  2
AM_7
 70
     0
 62
     7
  6
Center
370
    25
390
F
347
46
348
0
  0
LAYER
  5
211
330
2
100
AcDbSymbolTableRecord
100
AcDbLayerTableRecord
  2
ConnectionPoints
 70
     0
 62
     7
  6
Continuous
370
    50
390
F
347
46
348
0
  0
ENDTAB
  0
TABLE
  2
STYLE
  5
3
330
0
100
AcDbSymbolTable
 70
     1
  0
STYLE
  5
11
330
3
100
AcDbSymbolTableRecord
100
AcDbTextStyleTableRecord
  2
Standard
 70
     0
 40
0.0
 41
1.0
 50
0.0
 71
     0
 42
0.2
  3
txt
  4

  0
ENDTAB
  0
TABLE
  2
VIEW
  5
6
330
0
100
AcDbSymbolTable
 70
     0
  0
ENDTAB
  0
TABLE
  2
UCS
  5
7
330
0
100
AcDbSymbolTable
 70
     0
  0
ENDTAB
  0
TABLE
  2
APPID
  5
9
330
0
100
AcDbSymbolTable
 70
     1
  0
APPID
  5
12
330
9
100
AcDbSymbolTableRecord
100
AcDbRegAppTableRecord
  2
ACAD
 70
     0
  0
ENDTAB
  0
TABLE
  2
DIMSTYLE
  5
A
330
0
100
AcDbSymbolTable
 70
     1
100
AcDbDimStyleTable
  0
DIMSTYLE
105
27
330
A
100
AcDbSymbolTableRecord
100
AcDbDimStyleTableRecord
  2
Standard
 70
     0
178
     0
340
11
  0
ENDTAB
  0
TABLE
  2
BLOCK_RECORD
  5
1
330
0
100
AcDbSymbolTable
 70
     6
  0
BLOCK_RECORD
  5
1F
330
1
100
AcDbSymbolTableRecord
100
AcDbBlockTableRecord
  2
*Model_Space
340
22
 70
     0
280
     1
281
     0
  0
BLOCK_RECORD
  5
1B
330
1
100
AcDbSymbolTableRecord
100
AcDbBlockTableRecord
  2
*Paper_Space
340
1E
 70
     0
280
     1
281
     0
  0
BLOCK_RECORD
  5
23
330
1
100
AcDbSymbolTableRecord
100
AcDbBlockTableRecord
  2
*Paper_Space0
340
26
 70
     0
280
     1
281
     0
  0
BLOCK_RECORD
  5
6E
330
1
100
AcDbSymbolTableRecord
100
AcDbBlockTableRecord
  2
1_070791_4
340
0
102
{BLKREFS
331
6F
102
}
 70
     0
280
     1
281
     0
  0
BLOCK_RECORD
  5
91
330
1
100
AcDbSymbolTableRecord
100
AcDbBlockTableRecord
  2
2_2_11_16CS2i_0_in_070791_4
340
0
102
{BLKREFS
331
92
102
}
 70
     0
280
     1
281
     0
  0
BLOCK_RECORD
  5
E1
330
1
100
AcDbSymbolTableRecord
100
AcDbBlockTableRecord
  2
3_070009i_0_in_070791_4
340
0
102
{BLKREFS
331
E2
102
}
 70
     0
280
     1
281
     0
  0
BLOCK_RECORD
  5
132
330
1
100
AcDbSymbolTableRecord
100
AcDbBlockTableRecord
  2
4_405016_Inch_0_in_070791_4
340
0
102
{BLKREFS
331
133
102
}
 70
     0
280
     1
281
     0
  0
BLOCK_RECORD
  5
1B8
330
1
100
AcDbSymbolTableRecord
100
AcDbBlockTableRecord
  2
5_070791H_0_in_070791_4
340
0
102
{BLKREFS
331
1B9
102
}
 70
     0
280
     1
281
     0
  0
ENDTAB
  0
ENDSEC
  0
SECTION
  2
BLOCKS
  0
BLOCK
  5
20
330
1F
100
AcDbEntity
  8
0
100
AcDbBlockBegin
  2
*Model_Space
 70
     0
 10
0.0
 20
0.0
 30
0.0
  3
*Model_Space
  1

  0
ENDBLK
  5
21
330
1F
100
AcDbEntity
  8
0
100
AcDbBlockEnd
  0
BLOCK
  5
1C
330
1B
100
AcDbEntity
 67
     1
  8
0
100
AcDbBlockBegin
  2
*Paper_Space
 70
     0
 10
0.0
 20
0.0
 30
0.0
  3
*Paper_Space
  1

  0
ENDBLK
  5
1D
330
1B
100
AcDbEntity
 67
     1
  8
0
100
AcDbBlockEnd
  0
BLOCK
  5
24
330
23
100
AcDbEntity
  8
0
100
AcDbBlockBegin
  2
*Paper_Space0
 70
     0
 10
0.0
 20
0.0
 30
0.0
  3
*Paper_Space0
  1

  0
ENDBLK
  5
25
330
23
100
AcDbEntity
  8
0
100
AcDbBlockEnd
  0
BLOCK
  5
70
330
6E
100
AcDbEntity
  8
0
100
AcDbBlockBegin
  2
1_070791_4
 70
     2
 10
0.0
 20
0.0
 30
0.0
  3
1_070791_4
  1

  0
ATTDEF
  5
73
330
6E
100
AcDbEntity
  8
AM_6
100
AcDbText
 10
10.8090625
 20
1.6171875
 30
0.0
 40
0.5
  1
S-2000 Wide Slot Take-Up Trident Seal
100
AcDbAttributeDefinition
  3

  2
NN
 70
     8
280
     0
  0
ATTDEF
  5
74
330
6E
100
AcDbEntity
  8
AM_6
100
AcDbText
 10
10.8090625
 20
1.1171875
 30
0.0
 40
0.5
  1
S-2000 Wide Slot Take-Up Bearing -Inch
100
AcDbAttributeDefinition
  3

  2
NT
 70
     8
280
     0
  0
ATTDEF
  5
75
330
6E
100
AcDbEntity
  8
AM_6
100
AcDbText
 10
10.8090625
 20
0.6171875
 30
0.0
 40
0.5
  1
070791
100
AcDbAttributeDefinition
  3

  2
NB
 70
     8
280
     0
  0
ATTDEF
  5
76
330
6E
100
AcDbEntity
  8
AM_6
100
AcDbText
 10
10.8090625
 20
0.1171875
 30
0.0
 40
0.5
  1
$PN.
100
AcDbAttributeDefinition
  3

  2
NBSYN
 70
     8
280
     0
  0
ATTDEF
  5
77
330
6E
100
AcDbEntity
  8
AM_6
100
AcDbText
 10
10.8090625
 20
-0.3828125
 30
0.0
 40
0.5
  1
070791
100
AcDbAttributeDefinition
  3

  2
LINA
 70
     8
280
     0
  0
ATTDEF
  5
78
330
6E
100
AcDbEntity
  8
AM_6
100
AcDbText
 10
10.8090625
 20
-0.8828125
 30
0.0
 40
0.5
  1
2-11/16
100
AcDbAttributeDefinition
  3

  2
SS
 70
     8
280
     0
  0
ATTDEF
  5
79
330
6E
100
AcDbEntity
  8
AM_6
100
AcDbText
 10
10.8090625
 20
-1.3828125
 30
0.0
 40
0.5
  1
070791
100
AcDbAttributeDefinition
  3

  2
PN
 70
     8
280
     0
  0
ATTDEF
  5
7A
330
6E
100
AcDbEntity
  8
AM_6
100
AcDbText
 10
10.8090625
 20
-1.8828125
 30
0.0
 40
0.5
  1
WSTU-S2-211RE
100
AcDbAttributeDefinition
  3

  2
DESCRIPTION
 70
     8
280
     0
  0
ATTDEF
  5
7B
330
6E
100
AcDbEntity
  8
AM_6
100
AcDbText
 10
10.8090625
 20
-2.3828125
 30
0.0
 40
0.5
  1
Expansion Type
100
AcDbAttributeDefinition
  3

  2
EF
 70
     8
280
     0
  0
ATTDEF
  5
7C
330
6E
100
AcDbEntity
  8
AM_6
100
AcDbText
 10
10.8090625
 20
-2.8828125
 30
0.0
 40
0.5
  1
Contact Seal
100
AcDbAttributeDefinition
  3

  2
ST
 70
     8
280
     0
  0
ATTDEF
  5
7D
330
6E
100
AcDbEntity
  8
AM_6
100
AcDbText
 10
10.8090625
 20
-3.3828125
 30
0.0
 40
0.5
  1
3-19/32
100
AcDbAttributeDefinition
  3

  2
A
 70
     8
280
     0
  0
ATTDEF
  5
7E
330
6E
100
AcDbEntity
  8
AM_6
100
AcDbText
 10
10.8090625
 20
-3.8828125
 30
0.0
 40
0.5
  1
8-7/8
100
AcDbAttributeDefinition
  3

  2
B
 70
     8
280
     0
  0
ATTDEF
  5
7F
330
6E
100
AcDbEntity
  8
AM_6
100
AcDbText
 10
10.8090625
 20
-4.3828125
 30
0.0
 40
0.5
  1
1-13/16
100
AcDbAttributeDefinition
  3

  2
C
 70
     8
280
     0
  0
ATTDEF
  5
80
330
6E
100
AcDbEntity
  8
AM_6
100
AcDbText
 10
10.8090625
 20
-4.8828125
 30
0.0
 40
0.5
  1
4-1/2
100
AcDbAttributeDefinition
  3

  2
D
 70
     8
280
     0
  0
ATTDEF
  5
81
330
6E
100
AcDbEntity
  8
AM_6
100
AcDbText
 10
10.8090625
 20
-5.3828125
 30
0.0
 40
0.5
  1
5-3/4
100
AcDbAttributeDefinition
  3

  2
E
 70
     8
280
     0
  0
ATTDEF
  5
82
330
6E
100
AcDbEntity
  8
AM_6
100
AcDbText
 10
10.8090625
 20
-5.8828125
 30
0.0
 40
0.5
  1
1-5/8
100
AcDbAttributeDefinition
  3

  2
F
 70
     8
280
     0
  0
ATTDEF
  5
83
330
6E
100
AcDbEntity
  8
AM_6
100
AcDbText
 10
10.8090625
 20
-6.3828125
 30
0.0
 40
0.5
  1
1-1/8
100
AcDbAttributeDefinition
  3

  2
G
 70
     8
280
     0
  0
ATTDEF
  5
84
330
6E
100
AcDbEntity
  8
AM_6
100
AcDbText
 10
10.8090625
 20
-6.8828125
 30
0.0
 40
0.5
  1
1-1/2
100
AcDbAttributeDefinition
  3

  2
H
 70
     8
280
     0
  0
ATTDEF
  5
85
330
6E
100
AcDbEntity
  8
AM_6
100
AcDbText
 10
10.8090625
 20
-7.3828125
 30
0.0
 40
0.5
  1
4-7/8
100
AcDbAttributeDefinition
  3

  2
J
 70
     8
280
     0
  0
ATTDEF
  5
86
330
6E
100
AcDbEntity
  8
AM_6
100
AcDbText
 10
10.8090625
 20
-7.8828125
 30
0.0
 40
0.5
  1
2-3/4
100
AcDbAttributeDefinition
  3

  2
K
 70
     8
280
     0
  0
ATTDEF
  5
87
330
6E
100
AcDbEntity
  8
AM_6
100
AcDbText
 10
10.8090625
 20
-8.3828125
 30
0.0
 40
0.5
  1
4-45/64
100
AcDbAttributeDefinition
  3

  2
L
 70
     8
280
     0
  0
ATTDEF
  5
88
330
6E
100
AcDbEntity
  8
AM_6
100
AcDbText
 10
10.8090625
 20
-8.8828125
 30
0.0
 40
0.5
  1
5-15/16
100
AcDbAttributeDefinition
  3

  2
M
 70
     8
280
     0
  0
ATTDEF
  5
89
330
6E
100
AcDbEntity
  8
AM_6
100
AcDbText
 10
10.8090625
 20
-9.3828125
 30
0.0
 40
0.5
  1
6-11/16
100
AcDbAttributeDefinition
  3

  2
N
 70
     8
280
     0
  0
ATTDEF
  5
8A
330
6E
100
AcDbEntity
  8
AM_6
100
AcDbText
 10
10.8090625
 20
-9.8828125
 30
0.0
 40
0.5
  1
3-3/4
100
AcDbAttributeDefinition
  3

  2
R
 70
     8
280
     0
  0
ATTDEF
  5
8B
330
6E
100
AcDbEntity
  8
AM_6
100
AcDbText
 10
10.8090625
 20
-10.3828125
 30
0.0
 40
0.5
  1
2-13/32
100
AcDbAttributeDefinition
  3

  2
S
 70
     8
280
     0
  0
ATTDEF
  5
8C
330
6E
100
AcDbEntity
  8
AM_6
100
AcDbText
 10
10.8090625
 20
-10.8828125
 30
0.0
 40
0.5
  1
2-11/16
100
AcDbAttributeDefinition
  3

  2
T
 70
     8
280
     0
  0
ATTDEF
  5
8D
330
6E
100
AcDbEntity
  8
AM_6
100
AcDbText
 10
10.8090625
 20
-11.3828125
 30
0.0
 40
0.5
  1
1/4
100
AcDbAttributeDefinition
  3

  2
X
 70
     8
280
     0
  0
ATTDEF
  5
8E
330
6E
100
AcDbEntity
  8
AM_6
100
AcDbText
 10
10.8090625
 20
-11.8828125
 30
0.0
 40
0.5
  1
0.025
100
AcDbAttributeDefinition
  3

  2
Y
 70
     8
280
     0
  0
ATTDEF
  5
8F
330
6E
100
AcDbEntity
  8
AM_6
100
AcDbText
 10
10.8090625
 20
-12.3828125
 30
0.0
 40
0.5
  1
3-15/32
100
AcDbAttributeDefinition
  3

  2
Z
 70
     8
280
     0
  0
ATTDEF
  5
90
330
6E
100
AcDbEntity
  8
AM_6
100
AcDbText
 10
10.8090625
 20
-12.8828125
 30
0.0
 40
0.5
  1
baldor
100
AcDbAttributeDefinition
  3

  2
COMPANY
 70
     8
280
     0
  0
INSERT
  5
92
330
6E
100
AcDbEntity
  8
0
100
AcDbBlockReference
  2
2_2_11_16CS2i_0_in_070791_4
 10
0.0
 20
0.0
 30
0.0
  0
INSERT
  5
E2
330
6E
100
AcDbEntity
  8
0
100
AcDbBlockReference
  2
3_070009i_0_in_070791_4
 10
0.0
 20
0.0
 30
0.0
  0
INSERT
  5
133
330
6E
100
AcDbEntity
  8
0
100
AcDbBlockReference
  2
4_405016_Inch_0_in_070791_4
 10
0.0
 20
0.0
 30
0.0
  0
INSERT
  5
1B9
330
6E
100
AcDbEntity
  8
0
100
AcDbBlockReference
  2
5_070791H_0_in_070791_4
 10
0.0
 20
0.0
 30
0.0
  0
ENDBLK
  5
71
330
6E
100
AcDbEntity
  8
0
100
AcDbBlockEnd
  0
BLOCK
  5
93
330
91
100
AcDbEntity
  8
0
100
AcDbBlockBegin
  2
2_2_11_16CS2i_0_in_070791_4
 70
     2
 10
0.0
 20
0.0
 30
0.0
  3
2_2_11_16CS2i_0_in_070791_4
  1

  0
ATTDEF
  5
95
330
91
100
AcDbEntity
  8
AM_6
100
AcDbText
 10
7.3125
 20
-1.27225
 30
0.0
 40
0.5
  1
S-2000 Collar -Inch
100
AcDbAttributeDefinition
  3

  2
NN
 70
     8
280
     0
  0
ATTDEF
  5
96
330
91
100
AcDbEntity
  8
AM_6
100
AcDbText
 10
7.3125
 20
-1.77225
 30
0.0
 40
0.5
  1
S-2000 Bearings
100
AcDbAttributeDefinition
  3

  2
NT
 70
     8
280
     0
  0
ATTDEF
  5
97
330
91
100
AcDbEntity
  8
AM_6
100
AcDbText
 10
7.3125
 20
-2.27225
 30
0.0
 40
0.5
  1
2-11/16CS2i
100
AcDbAttributeDefinition
  3

  2
NB
 70
     8
280
     0
  0
ATTDEF
  5
98
330
91
100
AcDbEntity
  8
AM_6
100
AcDbText
 10
7.3125
 20
-2.77225
 30
0.0
 40
0.5
  1
$BORE.CS2i
100
AcDbAttributeDefinition
  3

  2
NBSYN
 70
     8
280
     0
  0
ATTDEF
  5
99
330
91
100
AcDbEntity
  8
AM_6
100
AcDbText
 10
7.3125
 20
-3.27225
 30
0.0
 40
0.5
  1
2-11/16CS2i
100
AcDbAttributeDefinition
  3

  2
LINA
 70
     8
280
     0
  0
ATTDEF
  5
9A
330
91
100
AcDbEntity
  8
AM_6
100
AcDbText
 10
7.3125
 20
-3.77225
 30
0.0
 40
0.5
  1
2-11/16
100
AcDbAttributeDefinition
  3

  2
BORE
 70
     8
280
     0
  0
ATTDEF
  5
9B
330
91
100
AcDbEntity
  8
AM_6
100
AcDbText
 10
7.3125
 20
-4.27225
 30
0.0
 40
0.5
  1
2.687500
100
AcDbAttributeDefinition
  3

  2
BORE1
 70
     8
280
     0
  0
ATTDEF
  5
9C
330
91
100
AcDbEntity
  8
AM_6
100
AcDbText
 10
7.3125
 20
-4.77225
 30
0.0
 40
0.5
  1
4-45/64
100
AcDbAttributeDefinition
  3

  2
L1
 70
     8
280
     0
  0
ATTDEF
  5
9D
330
91
100
AcDbEntity
  8
AM_6
100
AcDbText
 10
7.3125
 20
-5.27225
 30
0.0
 40
0.5
  1
4.70313
100
AcDbAttributeDefinition
  3

  2
L
 70
     8
280
     0
  0
ATTDEF
  5
9E
330
91
100
AcDbEntity
  8
AM_6
100
AcDbText
 10
7.3125
 20
-5.77225
 30
0.0
 40
0.5
  1
4.62500
100
AcDbAttributeDefinition
  3

  2
L2
 70
     8
280
     0
  0
ATTDEF
  5
9F
330
91
100
AcDbEntity
  8
AM_6
100
AcDbText
 10
7.3125
 20
-6.27225
 30
0.0
 40
0.5
  1
4.50
100
AcDbAttributeDefinition
  3

  2
A
 70
     8
280
     0
  0
ATTDEF
  5
A0
330
91
100
AcDbEntity
  8
AM_6
100
AcDbText
 10
7.3125
 20
-6.77225
 30
0.0
 40
0.5
  1
1.94
100
AcDbAttributeDefinition
  3

  2
B
 70
     8
280
     0
  0
ATTDEF
  5
A1
330
91
100
AcDbEntity
  8
AM_6
100
AcDbText
 10
7.3125
 20
-7.27225
 30
0.0
 40
0.5
  1
3.47
100
AcDbAttributeDefinition
  3

  2
C
 70
     8
280
     0
  0
ATTDEF
  5
A2
330
91
100
AcDbEntity
  8
AM_6
100
AcDbText
 10
7.3125
 20
-7.77225
 30
0.0
 40
0.5
  1
4.78
100
AcDbAttributeDefinition
  3

  2
D
 70
     8
280
     0
  0
ATTDEF
  5
A3
330
91
100
AcDbEntity
  8
AM_6
100
AcDbText
 10
7.3125
 20
-8.27225
 30
0.0
 40
0.5
  1
0.54
100
AcDbAttributeDefinition
  3

  2
E
 70
     8
280
     0
  0
ATTDEF
  5
A4
330
91
100
AcDbEntity
  8
AM_6
100
AcDbText
 10
7.3125
 20
-8.77225
 30
0.0
 40
0.5
  1
0.442
100
AcDbAttributeDefinition
  3

  2
F
 70
     8
280
     0
  0
ATTDEF
  5
A5
330
91
100
AcDbEntity
  8
AM_6
100
AcDbText
 10
7.3125
 20
-9.27225
 30
0.0
 40
0.5
  1
1/2-13
100
AcDbAttributeDefinition
  3

  2
CS
 70
     8
280
     0
  0
ATTDEF
  5
A6
330
91
100
AcDbEntity
  8
AM_6
100
AcDbText
 10
7.3125
 20
-9.77225
 30
0.0
 40
0.5
  1
0.5000
100
AcDbAttributeDefinition
  3

  2
NDM
 70
     8
280
     0
  0
ATTDEF
  5
A7
330
91
100
AcDbEntity
  8
AM_6
100
AcDbText
 10
7.3125
 20
-10.27225
 30
0.0
 40
0.5
  1
0.4170
100
AcDbAttributeDefinition
  3

  2
KDM
 70
     8
280
     0
  0
ATTDEF
  5
A8
330
91
100
AcDbEntity
  8
AM_6
100
AcDbText
 10
7.3125
 20
-10.77225
 30
0.0
 40
0.5
  1
2
100
AcDbAttributeDefinition
  3

  2
DD
 70
     8
280
     0
  0
ATTDEF
  5
A9
330
91
100
AcDbEntity
  8
AM_6
100
AcDbText
 10
7.3125
 20
-11.27225
 30
0.0
 40
0.5
  1
baldor
100
AcDbAttributeDefinition
  3

  2
COMPANY
 70
     8
280
     0
  0
LINE
  5
AC
330
91
100
AcDbEntity
  8
AM_9
100
AcDbLine
 10
1.621041032257525
 20
-1.529938878520789
 30
0.0
 11
1.613054407223875
 21
-1.519977268251325
 31
0.0
  0
LINE
  5
AD
330
91
100
AcDbEntity
  8
AM_9
100
AcDbLine
 10
1.613170729530419
 20
-1.908377644496106
 30
0.0
 11
1.621041032257525
 21
-1.898561121479212
 31
0.0
  0
LWPOLYLINE
  5
AE
330
91
100
AcDbEntity
  8
AM_9
100
AcDbPolyline
 90
       26
 70
     0
 43
0.0
 10
1.612990574754568
 20
-1.519897651442546
 10
1.612046645345023
 20
-1.518740675361797
 10
1.597857685350579
 20
-1.505654494522096
 10
1.582275798261553
 20
-1.498711797028241
 10
1.565046956142052
 20
-1.49821028843404
 10
1.547173428377314
 20
-1.504420428180735
 10
1.529059042951487
 20
-1.517437605814691
 10
1.511537682000738
 20
-1.536879757231113
 10
1.495645357798665
 20
-1.561891421991176
 10
1.481812561533486
 20
-1.592104894468448
 10
1.471353800244297
 20
-1.624876323758071
 10
1.464056919187701
 20
-1.660687628082112
 10
1.460611199751106
 20
-1.695568106206523
 10
1.460501342178343
 20
-1.731028266969308
 10
1.463559790983704
 20
-1.764256309297699
 10
1.469471304412093
 20
-1.796105005921874
 10
1.478080152316676
 20
-1.826072817727668
 10
1.488875959469233
 20
-1.853118925596462
 10
1.502221246461337
 20
-1.877964244414015
 10
1.516948169503488
 20
-1.898425428933718
 10
1.533630517432526
 20
-1.91499308554285
 10
1.550677039470556
 20
-1.925816887546217
 10
1.568314873597993
 20
-1.93070595032914
 10
1.585225053095025
 20
-1.928988766420177
 10
1.60119238701817
 20
-1.920416359535579
 10
1.612992634762472
 20
-1.908599779511948
  0
LWPOLYLINE
  5
AF
330
91
100
AcDbEntity
  8
AM_9
100
AcDbPolyline
 90
       13
 70
     0
 43
0.0
 10
1.619099608220032
 20
-1.900077864377082
 10
1.627956172008701
 20
-1.883858146632974
 10
1.638294116472995
 20
-1.856775984542453
 10
1.646116998041129
 20
-1.825959367588376
 10
1.651811072303224
 20
-1.791302376945249
 10
1.655093810789354
 20
-1.756556650676083
 10
1.65642742786631
 20
-1.720446659427123
 10
1.655869411456415
 20
-1.686432542507811
 10
1.653592459925616
 20
-1.653213263442653
 10
1.649650426497844
 20
-1.622012826461811
 10
1.644091577252383
 20
-1.593242724445744
 10
1.638505512378884
 20
-1.572417613816587
 10
1.631954042127873
 20
-1.553805668756481
  0
LWPOLYLINE
  5
B0
330
91
100
AcDbEntity
  8
AM_9
100
AcDbPolyline
 90
        3
 70
     0
 43
0.0
 10
1.612992634762472
 20
-1.908599779511948
 10
1.615575161783562
 20
-1.905222840272986
 10
1.619099608220032
 20
-1.900077864377082
  0
ELLIPSE
  5
B1
330
91
100
AcDbEntity
  8
AM_9
100
AcDbEllipse
 10
2.093493951892835
 20
-1.7142500000003
 30
0.0
 11
-3.827327409041633E-17
 21
-0.2083500000003466
 31
0.0
210
0.0
220
0.0
230
1.0
 40
0.4226182617406884
 41
3.626704900063627
 42
3.693898799130357
  0
ELLIPSE
  5
B2
330
91
100
AcDbEntity
  8
AM_9
100
AcDbEllipse
 10
2.093493951892578
 20
-1.714250000000142
 30
0.0
 11
-3.827327409032272E-17
 21
-0.2083499999998371
 31
0.0
210
0.0
220
0.0
230
1.0
 40
0.4226182617403302
 41
-0.552306145539573
 42
-0.4851122464725925
  0
LINE
  5
B3
330
91
100
AcDbEntity
  8
AM_9
100
AcDbLine
 10
1.579981470270782
 20
-1.9226
 30
0.0
 11
2.093493951892763
 21
-1.9226
 31
0.0
  0
LINE
  5
B4
330
91
100
AcDbEntity
  8
AM_9
100
AcDbLine
 10
2.093493951892763
 20
-1.5059
 30
0.0
 11
1.579981470270782
 21
-1.5059
 31
0.0
  0
LWPOLYLINE
  5
B5
330
91
100
AcDbEntity
  8
AM_9
100
AcDbPolyline
 90
       39
 70
     0
 43
0.0
 10
-0.1614669842005706
 20
-1.558710767138974
 10
-0.1841635177382134
 20
-1.582447992660086
 10
-0.2034646077066729
 20
-1.60995439886035
 10
-0.219298322434616
 20
-1.643002577690727
 10
-0.229272331796801
 20
-1.679558884043454
 10
-0.2322858014840351
 20
-1.713698280293218
 10
-0.2292778394375723
 20
-1.748909609339307
 10
-0.2209335884976248
 20
-1.780979276553562
 10
-0.2071343034778676
 20
-1.812081273095761
 10
-0.1885143827045359
 20
-1.840596349179526
 10
-0.165067926385096
 20
-1.866464827786419
 10
-0.1367356484815341
 20
-1.889222569846922
 10
-0.1043519545037595
 20
-1.907708188147679
 10
-0.068066793156531
 20
-1.921353700389165
 10
-0.0290124474895309
 20
-1.929210235219271
 10
0.0112458417610125
 20
-1.930661114352767
 10
0.052322566258815
 20
-1.925317220647533
 10
0.0911718498606547
 20
-1.913439965200798
 10
0.1284866317154295
 20
-1.894590734915685
 10
0.1604137427744523
 20
-1.870734769650648
 10
0.18846498206414
 20
-1.840660334238765
 10
0.2088734306056504
 20
-1.808821293770886
 10
0.2236575397198488
 20
-1.7725964517832
 10
0.2308455463607861
 20
-1.73827622961186
 10
0.2319177534005054
 20
-1.702081398016386
 10
0.2271667767931106
 20
-1.669138599907359
 10
0.2167515968369057
 20
-1.636545213212397
 10
0.2014846923988777
 20
-1.606672082354887
 10
0.1811810434242246
 20
-1.578904236130348
 10
0.1559727047703956
 20
-1.553905096308984
 10
0.1264175880709424
 20
-1.532638550425186
 10
0.09244039881194
 20
-1.515571425731912
 10
0.0551932495490389
 20
-1.503823200158213
 10
0.0156939869056566
 20
-1.498081299756216
 10
-0.0253357208255733
 20
-1.498883464860002
 10
-0.0652749777004011
 20
-1.506362024932891
 10
-0.1044797043361685
 20
-1.520852020644804
 10
-0.134065419177076
 20
-1.537485434007989
 10
-0.1614669842005706
 20
-1.558710767138974
  0
LINE
  5
B6
330
91
100
AcDbEntity
  8
AM_9
100
AcDbLine
 10
1.617799181454415
 20
-1.526448012150227
 30
0.0
 11
1.612990574754568
 21
-1.519897651442546
 31
0.0
  0
LWPOLYLINE
  5
B7
330
91
100
AcDbEntity
  8
AM_9
100
AcDbPolyline
 90
        3
 70
     0
 43
0.0
 10
1.631954042127873
 20
-1.553805668756481
 10
1.622646391369938
 20
-1.534309625999029
 10
1.617799181454415
 20
-1.526448012150227
  0
LINE
  5
B8
330
91
100
AcDbEntity
  8
AM_9
100
AcDbLine
 10
1.735
 20
-2.15625
 30
0.0
 11
1.735
 21
-1.27225
 31
0.0
  0
LINE
  5
B9
330
91
100
AcDbEntity
  8
AM_9
100
AcDbLine
 10
-1.735
 20
-1.27225
 30
0.0
 11
-1.735
 21
-2.15625
 31
0.0
  0
LINE
  5
BA
330
91
100
AcDbEntity
  8
AM_9
100
AcDbLine
 10
-2.202380952380952
 20
-1.27225
 30
0.0
 11
2.202380952380952
 21
-1.27225
 31
0.0
  0
LINE
  5
BB
330
91
100
AcDbEntity
  8
AM_9
100
AcDbLine
 10
2.202380952380952
 20
-1.327200058072009
 30
0.0
 11
2.202380952380952
 21
-1.27225
 31
0.0
  0
LINE
  5
BC
330
91
100
AcDbEntity
  8
AM_9
100
AcDbLine
 10
-2.202380952380952
 20
-1.27225
 30
0.0
 11
-2.202380952380952
 21
-1.327200058072009
 31
0.0
  0
LINE
  5
BD
330
91
100
AcDbEntity
  8
AM_9
100
AcDbLine
 10
-2.202380952380952
 20
-1.327200058072009
 30
0.0
 11
2.202380952380952
 21
-1.327200058072009
 31
0.0
  0
LINE
  5
BE
330
91
100
AcDbEntity
  8
AM_9
100
AcDbLine
 10
-2.202380952380952
 20
-1.327200058072009
 30
0.0
 11
-2.218930894308943
 21
-1.34375
 31
0.0
  0
LINE
  5
BF
330
91
100
AcDbEntity
  8
AM_9
100
AcDbLine
 10
2.218930894308943
 20
-1.34375
 30
0.0
 11
2.202380952380952
 21
-1.327200058072009
 31
0.0
  0
ELLIPSE
  5
C0
330
91
100
AcDbEntity
  8
AM_9
100
AcDbEllipse
 10
1.579981470270782
 20
-1.71425
 30
0.0
 11
-3.827327409035262E-17
 21
-0.2083499999999998
 31
0.0
210
0.0
220
0.0
230
1.0
 40
0.4226182617406982
 41
0.0
 42
6.283185307179586
  0
LWPOLYLINE
  5
C2
330
91
100
AcDbEntity
  8
AM_4
100
AcDbPolyline
 90
        8
 70
     0
 43
0.0
 10
2.052798182551589
 20
-1.529485128176254
 10
2.061758466762218
 20
-1.519632342472556
 10
2.076492966154317
 20
-1.508580798587905
 10
2.090779188608292
 20
-1.50370461899066
 10
2.104791630000644
 20
-1.504503046922179
 10
2.122289546901467
 20
-1.514371818270482
 10
2.131364357022759
 20
-1.52421304221478
 10
2.139690869595018
 20
-1.536878131528712
  0
ELLIPSE
  5
C3
330
91
100
AcDbEntity
  8
AM_4
100
AcDbEllipse
 10
2.093493951892761
 20
-1.714250000000001
 30
0.0
 11
-3.827327409035254E-17
 21
-0.2083499999999994
 31
0.0
210
0.0
220
0.0
230
1.0
 40
0.4226182617406959
 41
5.798073060705828
 42
6.835491452720225
  0
LWPOLYLINE
  5
C4
330
91
100
AcDbEntity
  8
AM_4
100
AcDbPolyline
 90
        3
 70
     0
 43
0.0
 10
2.052802899618605
 20
-1.899020757225642
 10
2.050682805091217
 20
-1.896298728254032
 10
2.047297034190511
 20
-1.891621868471293
  0
ELLIPSE
  5
C5
330
91
100
AcDbEntity
  8
AM_4
100
AcDbEllipse
 10
2.093493951892747
 20
-1.714250000000275
 30
0.0
 11
-3.827327409040308E-17
 21
-0.2083500000002745
 31
0.0
210
0.0
220
0.0
230
1.0
 40
0.4226182617407005
 41
2.589286508049671
 42
3.626704900062796
  0
LINE
  5
C6
330
91
100
AcDbEntity
  8
AM_4
100
AcDbLine
 10
-2.218930894308943
 20
-1.34375
 30
0.0
 11
-2.25609756097561
 21
-1.380916666666667
 31
0.0
  0
LINE
  5
C7
330
91
100
AcDbEntity
  8
AM_4
100
AcDbLine
 10
2.25609756097561
 20
-1.380916666666667
 30
0.0
 11
2.218930894308943
 21
-1.34375
 31
0.0
  0
LINE
  5
C8
330
91
100
AcDbEntity
  8
AM_4
100
AcDbLine
 10
-2.25609756097561
 20
-1.380916666666667
 30
0.0
 11
2.25609756097561
 21
-1.380916666666667
 31
0.0
  0
LINE
  5
C9
330
91
100
AcDbEntity
  8
AM_4
100
AcDbLine
 10
2.25609756097561
 20
-1.46425
 30
0.0
 11
2.25609756097561
 21
-1.380916666666667
 31
0.0
  0
LINE
  5
CA
330
91
100
AcDbEntity
  8
AM_4
100
AcDbLine
 10
-2.25609756097561
 20
-1.380916666666667
 30
0.0
 11
-2.25609756097561
 21
-1.46425
 31
0.0
  0
ARC
  5
CB
330
91
100
AcDbEntity
  8
AM_4
100
AcDbCircle
 10
-0.0000000000000001
 20
-1.714249999999998
 30
0.0
 40
0.2083500000000014
100
AcDbArc
 50
238.3551888613848
 51
301.6448111386151
  0
LWPOLYLINE
  5
CC
330
91
100
AcDbEntity
  8
AM_4
100
AcDbPolyline
 90
       13
 70
     0
 43
0.0
 10
-0.1093112198038347
 20
-1.891621868471293
 10
-0.137542992229782
 20
-1.870720370977226
 10
-0.1618900715252744
 20
-1.845403830449368
 10
-0.1816067383493973
 20
-1.816328279645965
 10
-0.1961991517171535
 20
-1.784361449603252
 10
-0.2051655348035572
 20
-1.7504157383811
 10
-0.2083465837017974
 20
-1.715443130248525
 10
-0.2055871353451224
 20
-1.680561570671275
 10
-0.1970716503271904
 20
-1.646629831874524
 10
-0.1829704211574924
 20
-1.614635863942797
 10
-0.1637578194217304
 20
-1.5854357962869
 10
-0.1386610332564185
 20
-1.558774596145593
 10
-0.1093112198038347
 20
-1.536878131528707
  0
LWPOLYLINE
  5
CD
330
91
100
AcDbEntity
  8
AM_4
100
AcDbPolyline
 90
       13
 70
     0
 43
0.0
 10
0.1093112198038347
 20
-1.536878131528707
 10
0.137542992229782
 20
-1.557779629022775
 10
0.1618900715252744
 20
-1.583096169550632
 10
0.1816067383493973
 20
-1.612171720354036
 10
0.1961991517171535
 20
-1.644138550396748
 10
0.2051655348035572
 20
-1.6780842616189
 10
0.2083465837017974
 20
-1.713056869751475
 10
0.2055871353451224
 20
-1.747938429328725
 10
0.1970716503271904
 20
-1.781870168125476
 10
0.1829704211574924
 20
-1.813864136057203
 10
0.1637578194217304
 20
-1.8430642037131
 10
0.1386610332564185
 20
-1.869725403854407
 10
0.1093112198038347
 20
-1.891621868471293
  0
LWPOLYLINE
  5
CE
330
91
100
AcDbEntity
  8
AM_4
100
AcDbPolyline
 90
        8
 70
     0
 43
0.0
 10
0.1093112198038347
 20
-1.891621868471293
 10
0.0856554834347881
 20
-1.905272951675583
 10
0.0598338020339571
 20
-1.915713339693982
 10
0.0276831442526271
 20
-1.923193388010324
 10
-0.0062905988535634
 20
-1.925082618742108
 10
-0.0382116763667555
 20
-1.92137398810262
 10
-0.0699512313053306
 20
-1.912126440139361
 10
-0.1093112198038348
 20
-1.891621868471293
  0
LWPOLYLINE
  5
CF
330
91
100
AcDbEntity
  8
AM_4
100
AcDbPolyline
 90
       13
 70
     0
 43
0.0
 10
2.139690869595015
 20
-1.536878131528707
 10
2.150253301765782
 20
-1.557779629022775
 10
2.159112393942237
 20
-1.583096169550632
 10
2.166114632456999
 20
-1.612171720354036
 10
2.171197233036197
 20
-1.644138550396748
 10
2.174280255679048
 20
-1.6780842616189
 10
2.175364273788554
 20
-1.713056869751475
 10
2.174424361268534
 20
-1.747938429328725
 10
2.171498483601667
 20
-1.781870168125476
 10
2.166593270470814
 20
-1.813864136057203
 10
2.159782254313468
 20
-1.8430642037131
 10
2.150665011257281
 20
-1.869725403854407
 10
2.139690869595015
 20
-1.891621868471293
  0
LWPOLYLINE
  5
D0
330
91
100
AcDbEntity
  8
AM_4
100
AcDbPolyline
 90
        8
 70
     0
 43
0.0
 10
2.139690869595015
 20
-1.891621868471294
 10
2.131845704072109
 20
-1.903665941176019
 10
2.119325914408193
 20
-1.916551360017709
 10
2.105691109410915
 20
-1.923742496888424
 10
2.09186686260877
 20
-1.924936569585872
 10
2.077742370731517
 20
-1.920572732606286
 10
2.063936777423943
 20
-1.910898837352031
 10
2.052802899618605
 20
-1.899020757225642
  0
LWPOLYLINE
  5
D1
330
91
100
AcDbEntity
  8
AM_4
100
AcDbPolyline
 90
       13
 70
     0
 43
0.0
 10
2.047297034190511
 20
-1.891621868471293
 10
2.033996941184251
 20
-1.870720370977225
 10
2.022276992700059
 20
-1.845403830449368
 10
2.012613984293758
 20
-1.816328279645964
 10
2.005362544128791
 20
-1.784361449603252
 10
2.000866852303487
 20
-1.750415738381099
 10
1.99926213170122
 20
-1.715443130248524
 10
2.000654605716923
 20
-1.680561570671274
 10
2.004926327002371
 20
-1.646629831874524
 10
2.011939987791728
 20
-1.614635863942797
 10
2.02136816433255
 20
-1.5854357962869
 10
2.033463641565287
 20
-1.558774596145593
 10
2.04729703419051
 20
-1.536878131528707
  0
LWPOLYLINE
  5
D2
330
91
100
AcDbEntity
  8
AM_4
100
AcDbPolyline
 90
        3
 70
     0
 43
0.0
 10
2.047297034190541
 20
-1.536878131528627
 10
2.047733406577648
 20
-1.536251865382718
 10
2.052798182551589
 20
-1.529485128176254
  0
LINE
  5
D3
330
91
100
AcDbEntity
  8
AM_4
100
AcDbLine
 10
2.3125
 20
-2.008916666666667
 30
0.0
 11
2.3125
 21
-1.496813963353683
 31
0.0
  0
LINE
  5
D4
330
91
100
AcDbEntity
  8
AM_4
100
AcDbLine
 10
-2.3125
 20
-1.496813963353683
 30
0.0
 11
-2.3125
 21
-2.008916666666667
 31
0.0
  0
LINE
  5
D5
330
91
100
AcDbEntity
  8
AM_4
100
AcDbLine
 10
-2.165166666666666
 20
-2.15625
 30
0.0
 11
2.165166666656222
 21
-2.15625
 31
0.0
  0
LINE
  5
D6
330
91
100
AcDbEntity
  8
AM_4
100
AcDbLine
 10
-2.3125
 20
-2.008916666666667
 30
0.0
 11
2.3125
 21
-2.008916666666667
 31
0.0
  0
ARC
  5
D7
330
91
100
AcDbEntity
  8
AM_4
100
AcDbCircle
 10
2.165166666666666
 20
-2.008916666666666
 30
0.0
 40
0.147333333333334
100
AcDbArc
 50
270.0
 51
0.0000008537736463
  0
ARC
  5
D8
330
91
100
AcDbEntity
  8
AM_4
100
AcDbCircle
 10
-2.165166666666666
 20
-2.008916666666666
 30
0.0
 40
0.147333333333334
100
AcDbArc
 50
179.9999991462263
 51
270.0
  0
LINE
  5
D9
330
91
100
AcDbEntity
  8
AM_4
100
AcDbLine
 10
-2.3125
 20
-1.496813963353683
 30
0.0
 11
2.3125
 21
-1.496813963353683
 31
0.0
  0
LINE
  5
DA
330
91
100
AcDbEntity
  8
AM_4
100
AcDbLine
 10
-2.25609756097561
 20
-1.46425
 30
0.0
 11
2.25609756097561
 21
-1.46425
 31
0.0
  0
LINE
  5
DB
330
91
100
AcDbEntity
  8
AM_4
100
AcDbLine
 10
-2.25609756097561
 20
-1.46425
 30
0.0
 11
-2.3125
 21
-1.496813963353683
 31
0.0
  0
LINE
  5
DC
330
91
100
AcDbEntity
  8
AM_4
100
AcDbLine
 10
2.3125
 20
-1.496813963353683
 30
0.0
 11
2.25609756097561
 21
-1.46425
 31
0.0
  0
ARC
  5
DD
330
91
100
AcDbEntity
  8
AM_4
100
AcDbCircle
 10
0.0
 20
-1.71425
 30
0.0
 40
0.20835
100
AcDbArc
 50
58.35518886138465
 51
121.6448111386154
  0
LWPOLYLINE
  5
DE
330
91
100
AcDbEntity
  8
AM_4
100
AcDbPolyline
 90
        8
 70
     0
 43
0.0
 10
-0.1093112198038347
 20
-1.536878131528707
 10
-0.0856554834347881
 20
-1.523227048324417
 10
-0.0598338020339571
 20
-1.512786660306018
 10
-0.0276831442526271
 20
-1.505306611989676
 10
0.0062905988535634
 20
-1.503417381257892
 10
0.0382116763667555
 20
-1.507126011897381
 10
0.0699512313053306
 20
-1.516373559860639
 10
0.1093112198038347
 20
-1.536878131528707
  0
CIRCLE
  5
E0
330
91
100
AcDbEntity
  8
AM_5
100
AcDbCircle
 10
0.0
 20
-1.71425
 30
0.0
 40
0.25
  0
ENDBLK
  5
94
330
91
100
AcDbEntity
  8
0
100
AcDbBlockEnd
  0
BLOCK
  5
E3
330
E1
100
AcDbEntity
  8
0
100
AcDbBlockBegin
  2
3_070009i_0_in_070791_4
 70
     2
 10
0.0
 20
0.0
 30
0.0
  3
3_070009i_0_in_070791_4
  1

  0
ATTDEF
  5
E5
330
E1
100
AcDbEntity
  8
AM_6
100
AcDbText
 10
7.55905
 20
1.6171875
 30
0.0
 40
0.5
  1
S-2000 Insert -Inch
100
AcDbAttributeDefinition
  3

  2
NN
 70
     8
280
     0
  0
ATTDEF
  5
E6
330
E1
100
AcDbEntity
  8
AM_6
100
AcDbText
 10
7.55905
 20
1.1171875
 30
0.0
 40
0.5
  1
S-2000 Bearings
100
AcDbAttributeDefinition
  3

  2
NT
 70
     8
280
     0
  0
ATTDEF
  5
E7
330
E1
100
AcDbEntity
  8
AM_6
100
AcDbText
 10
7.55905
 20
0.6171875
 30
0.0
 40
0.5
  1
070009i
100
AcDbAttributeDefinition
  3

  2
NB
 70
     8
280
     0
  0
ATTDEF
  5
E8
330
E1
100
AcDbEntity
  8
AM_6
100
AcDbText
 10
7.55905
 20
0.1171875
 30
0.0
 40
0.5
  1
$PN.i
100
AcDbAttributeDefinition
  3

  2
NBSYN
 70
     8
280
     0
  0
ATTDEF
  5
E9
330
E1
100
AcDbEntity
  8
AM_6
100
AcDbText
 10
7.55905
 20
-0.3828125
 30
0.0
 40
0.5
  1
070009i
100
AcDbAttributeDefinition
  3

  2
LINA
 70
     8
280
     0
  0
ATTDEF
  5
EA
330
E1
100
AcDbEntity
  8
AM_6
100
AcDbText
 10
7.55905
 20
-0.8828125
 30
0.0
 40
0.5
  1
2-11/16
100
AcDbAttributeDefinition
  3

  2
SS
 70
     8
280
     0
  0
ATTDEF
  5
EB
330
E1
100
AcDbEntity
  8
AM_6
100
AcDbText
 10
7.55905
 20
-1.3828125
 30
0.0
 40
0.5
  1
3.47
100
AcDbAttributeDefinition
  3

  2
CC
 70
     8
280
     0
  0
ATTDEF
  5
EC
330
E1
100
AcDbEntity
  8
AM_6
100
AcDbText
 10
7.55905
 20
-1.8828125
 30
0.0
 40
0.5
  1
2.687500
100
AcDbAttributeDefinition
  3

  2
SS1
 70
     8
280
     0
  0
ATTDEF
  5
ED
330
E1
100
AcDbEntity
  8
AM_6
100
AcDbText
 10
7.55905
 20
-2.3828125
 30
0.0
 40
0.5
  1
070009
100
AcDbAttributeDefinition
  3

  2
PN
 70
     8
280
     0
  0
ATTDEF
  5
EE
330
E1
100
AcDbEntity
  8
AM_6
100
AcDbText
 10
7.55905
 20
-2.8828125
 30
0.0
 40
0.5
  1
INS-S2-211R
100
AcDbAttributeDefinition
  3

  2
DESCRIPTION
 70
     8
280
     0
  0
ATTDEF
  5
EF
330
E1
100
AcDbEntity
  8
AM_6
100
AcDbText
 10
7.55905
 20
-3.3828125
 30
0.0
 40
0.5
  1
Contact Seal
100
AcDbAttributeDefinition
  3

  2
ST
 70
     8
280
     0
  0
ATTDEF
  5
F0
330
E1
100
AcDbEntity
  8
AM_6
100
AcDbText
 10
7.55905
 20
-3.8828125
 30
0.0
 40
0.5
  1
1
100
AcDbAttributeDefinition
  3

  2
ST1
 70
     8
280
     0
  0
ATTDEF
  5
F1
330
E1
100
AcDbEntity
  8
AM_6
100
AcDbText
 10
7.55905
 20
-4.3828125
 30
0.0
 40
0.5
  1
5.1181
100
AcDbAttributeDefinition
  3

  2
A
 70
     8
280
     0
  0
ATTDEF
  5
F2
330
E1
100
AcDbEntity
  8
AM_6
100
AcDbText
 10
7.55905
 20
-4.8828125
 30
0.0
 40
0.5
  1
1-9/32
100
AcDbAttributeDefinition
  3

  2
B
 70
     8
280
     0
  0
ATTDEF
  5
F3
330
E1
100
AcDbEntity
  8
AM_6
100
AcDbText
 10
7.55905
 20
-5.3828125
 30
0.0
 40
0.5
  1
3-19/32
100
AcDbAttributeDefinition
  3

  2
C
 70
     8
280
     0
  0
ATTDEF
  5
F4
330
E1
100
AcDbEntity
  8
AM_6
100
AcDbText
 10
7.55905
 20
-5.8828125
 30
0.0
 40
0.5
  1
1.219
100
AcDbAttributeDefinition
  3

  2
D
 70
     8
280
     0
  0
ATTDEF
  5
F5
330
E1
100
AcDbEntity
  8
AM_6
100
AcDbText
 10
7.55905
 20
-6.3828125
 30
0.0
 40
0.5
  1
4-5/8
100
AcDbAttributeDefinition
  3

  2
E
 70
     8
280
     0
  0
ATTDEF
  5
F6
330
E1
100
AcDbEntity
  8
AM_6
100
AcDbText
 10
7.55905
 20
-6.8828125
 30
0.0
 40
0.5
  1
0.53125
100
AcDbAttributeDefinition
  3

  2
F
 70
     8
280
     0
  0
ATTDEF
  5
F7
330
E1
100
AcDbEntity
  8
AM_6
100
AcDbText
 10
7.55905
 20
-7.3828125
 30
0.0
 40
0.5
  1
2
100
AcDbAttributeDefinition
  3

  2
DD
 70
     8
280
     0
  0
ATTDEF
  5
F8
330
E1
100
AcDbEntity
  8
AM_6
100
AcDbText
 10
7.55905
 20
-7.8828125
 30
0.0
 40
0.5
  1
baldor
100
AcDbAttributeDefinition
  3

  2
COMPANY
 70
     8
280
     0
  0
LINE
  5
F9
330
E1
100
AcDbEntity
  8
AM_9
100
AcDbLine
 10
1.572444010508588
 20
-1.44425
 30
0.0
 11
1.217684176093993
 21
-1.44425
 31
0.0
  0
LINE
  5
FA
330
E1
100
AcDbEntity
  8
AM_9
100
AcDbLine
 10
1.217776104161781
 20
-1.98425
 30
0.0
 11
1.572444010508588
 21
-1.98425
 31
0.0
  0
LWPOLYLINE
  5
FB
330
E1
100
AcDbEntity
  8
AM_9
100
AcDbPolyline
 90
       21
 70
     0
 43
0.0
 10
1.217859408242401
 20
-1.444250000717643
 10
1.205459178888749
 20
-1.445776049540329
 10
1.185434105572053
 20
-1.454190157299679
 10
1.16513598859479
 20
-1.469633362503912
 10
1.145195350553029
 20
-1.491905901723712
 10
1.126554581749619
 20
-1.520220993148778
 10
1.109781260004536
 20
-1.554529855942295
 10
1.09599730552265
 20
-1.593382433160832
 10
1.085955976765743
 20
-1.635866923198581
 10
1.080182322819152
 20
-1.680650284661996
 10
1.0790753606943
 20
-1.72564979498496
 10
1.082476453429204
 20
-1.77032264347124
 10
1.090174980511606
 20
-1.812963730397675
 10
1.101693062922414
 20
-1.852878434728902
 10
1.116709104266481
 20
-1.889409034542085
 10
1.134312643716759
 20
-1.921094975859194
 10
1.154034389421631
 20
-1.947373584088376
 10
1.174729979955223
 20
-1.96704285629484
 10
1.19542052318393
 20
-1.979364178457005
 10
1.215465128085642
 20
-1.984191494520596
 10
1.217840140480971
 20
-1.984249998757235
  0
LWPOLYLINE
  5
FC
330
E1
100
AcDbEntity
  8
AM_9
100
AcDbPolyline
 90
       11
 70
     0
 43
0.0
 10
1.217840140480971
 20
-1.984249998757235
 10
1.233853768636801
 20
-1.981375158790635
 10
1.250504130368586
 20
-1.971263023636771
 10
1.265021224283822
 20
-1.954112508624092
 10
1.27732919195478
 20
-1.930497575479547
 10
1.287507162348006
 20
-1.900458846455435
 10
1.295435830408868
 20
-1.865224221944328
 10
1.301262039720256
 20
-1.825235833158973
 10
1.305048302339697
 20
-1.782011219750137
 10
1.306604530834144
 20
-1.748414195651458
 10
1.30712062136786
 20
-1.71425
  0
LWPOLYLINE
  5
FD
330
E1
100
AcDbEntity
  8
AM_9
100
AcDbPolyline
 90
       21
 70
     0
 43
0.0
 10
1.572453529034551
 20
-1.984249999060577
 10
1.559662479892031
 20
-1.982611689251915
 10
1.539817919809031
 20
-1.973936191475499
 10
1.519966441553498
 20
-1.958124925706517
 10
1.50074748321753
 20
-1.935435563952598
 10
1.482986326566711
 20
-1.906644707038779
 10
1.467294430758221
 20
-1.872076430692859
 10
1.454541367638515
 20
-1.833031192761772
 10
1.445380906261801
 20
-1.790501049515454
 10
1.440222978201757
 20
-1.745770148649331
 10
1.439395081397956
 20
-1.700588706378366
 10
1.442789501938842
 20
-1.655795868557394
 10
1.450252124359514
 20
-1.612914073453575
 10
1.461355722773937
 20
-1.572853240050793
 10
1.475754396814139
 20
-1.536477649049556
 10
1.49267348387806
 20
-1.505058406601096
 10
1.511588272603896
 20
-1.479329103600343
 10
1.531560071977737
 20
-1.460246897166227
 10
1.551738910215461
 20
-1.448503418495136
 10
1.57150193324043
 20
-1.444259176900261
 10
1.572438301844108
 20
-1.444250000337887
  0
LINE
  5
FE
330
E1
100
AcDbEntity
  8
AM_9
100
AcDbLine
 10
1.667241984133905
 20
-1.697138823420267
 30
0.0
 11
1.667393947872945
 21
-1.71425
 31
0.0
  0
LWPOLYLINE
  5
FF
330
E1
100
AcDbEntity
  8
AM_9
100
AcDbPolyline
 90
       11
 70
     0
 43
0.0
 10
1.572438301844108
 20
-1.444250000337887
 10
1.590010953433221
 20
-1.44767719455302
 10
1.607023832385576
 20
-1.458462070566499
 10
1.62213573521823
 20
-1.476376624235077
 10
1.635173662960729
 20
-1.500819579887676
 10
1.646085416535077
 20
-1.531531807824553
 10
1.654726527031491
 20
-1.567371540818258
 10
1.661119684768608
 20
-1.607656783534719
 10
1.665276950596505
 20
-1.651010450401829
 10
1.666864543379217
 20
-1.682403786116405
 10
1.667241984133905
 20
-1.697138823420267
  0
LWPOLYLINE
  5
100
330
E1
100
AcDbEntity
  8
AM_9
100
AcDbPolyline
 90
       11
 70
     0
 43
0.0
 10
1.30712062136786
 20
-1.71425
 10
1.306226984811982
 20
-1.669440305412586
 10
1.303523396004483
 20
-1.625906338616259
 10
1.298917557277812
 20
-1.584927812216786
 10
1.292301088678174
 20
-1.54753896147909
 10
1.283395613770596
 20
-1.514398412314983
 10
1.272196734558353
 20
-1.486837879958263
 10
1.258505127595397
 20
-1.465546511489591
 10
1.242545810348051
 20
-1.451335094134945
 10
1.224776721304192
 20
-1.444791530533204
 10
1.217859408242401
 20
-1.444250000717643
  0
LINE
  5
101
330
E1
100
AcDbEntity
  8
AM_9
100
AcDbLine
 10
-1.34375
 20
1.4375
 30
0.0
 11
-1.34375
 21
-2.15625
 31
0.0
  0
LINE
  5
102
330
E1
100
AcDbEntity
  8
AM_9
100
AcDbLine
 10
1.34375
 20
-2.15625
 30
0.0
 11
1.34375
 21
1.4375
 31
0.0
  0
LINE
  5
103
330
E1
100
AcDbEntity
  8
AM_9
100
AcDbLine
 10
-1.735
 20
1.34375
 30
0.0
 11
-1.735
 21
1.178
 31
0.0
  0
LINE
  5
104
330
E1
100
AcDbEntity
  8
AM_9
100
AcDbLine
 10
1.735
 20
1.178
 30
0.0
 11
1.735
 21
1.34375
 31
0.0
  0
LWPOLYLINE
  5
105
330
E1
100
AcDbEntity
  8
AM_9
100
AcDbPolyline
 90
       11
 70
     0
 43
0.0
 10
1.667077130144279
 20
-1.738936197714932
 10
1.666328122499217
 20
-1.759266402455499
 10
1.663133944149217
 20
-1.803006420371638
 10
1.657760573318692
 20
-1.844191422842958
 10
1.650183330245489
 20
-1.881747412273244
 10
1.640259410434626
 20
-1.914826240282542
 10
1.628074126110839
 20
-1.942282979761296
 10
1.613588682433794
 20
-1.963357090367962
 10
1.597084458855766
 20
-1.977367799535108
 10
1.578991091281328
 20
-1.983767223934403
 10
1.572453529034551
 20
-1.984249999060577
  0
LINE
  5
106
330
E1
100
AcDbEntity
  8
AM_9
100
AcDbLine
 10
1.667393947872945
 20
-1.71425
 30
0.0
 11
1.667077130144279
 21
-1.738936197714932
 31
0.0
  0
LWPOLYLINE
  5
107
330
E1
100
AcDbEntity
  8
AM_9
100
AcDbPolyline
 90
       39
 70
     0
 43
0.0
 10
0.27
 20
-1.71425
 10
0.2663279453243751
 20
-1.758628210185819
 10
0.2549947015975296
 20
-1.803006420371638
 10
0.2369739392194663
 20
-1.843646105547303
 10
0.2117654761328368
 20
-1.881747412273244
 10
0.1812028386142657
 20
-1.914413761151045
 10
0.1445716436275962
 20
-1.942282979761296
 10
0.1046960596777353
 20
-1.963124938649829
 10
0.0605724654261542
 20
-1.977367799535108
 10
0.0163242365921935
 20
-1.983756065422807
 10
-0.0296985478072313
 20
-1.982611689251915
 10
-0.073208263206951
 20
-1.974135648311371
 10
-0.1158663912083254
 20
-1.958124925706517
 10
-0.1542967907545652
 20
-1.935818274721003
 10
-0.189431456478227
 20
-1.906644707038779
 10
-0.2186749246583895
 20
-1.872620695918303
 10
-0.2424686129091572
 20
-1.833031192761772
 10
-0.2588169924764043
 20
-1.791151003930176
 10
-0.2681538368719047
 20
-1.745770148649331
 10
-0.2696864661733382
 20
-1.701241927009088
 10
-0.2635964994405094
 20
-1.655795868557394
 10
-0.250494815206508
 20
-1.613491141557393
 10
-0.2300151218417308
 20
-1.572853240050793
 10
-0.2036203698298914
 20
-1.536940256922136
 10
-0.1707011342997689
 20
-1.505058406601096
 10
-0.1336196840221797
 20
-1.479631628933681
 10
-0.091555577387812
 20
-1.460246897166227
 10
-0.0482381762769904
 20
-1.44859406020292
 10
-0.0022260821919898
 20
-1.444259176900261
 10
0.0420767147473343
 20
-1.447548762514923
 10
0.0864438265934716
 20
-1.458462070566499
 10
0.1271367328653359
 20
-1.476056273893857
 10
0.1653706617592031
 20
-1.500819579887676
 10
0.1983293434060238
 20
-1.531041180495765
 10
0.2265540073103927
 20
-1.567371540818258
 10
0.2477997381730851
 20
-1.607033910902559
 10
0.2624895414423598
 20
-1.651010450401828
 10
0.2680881166594346
 20
-1.682175684637121
 10
0.27
 20
-1.71425
  0
LINE
  5
108
330
E1
100
AcDbEntity
  8
AM_9
100
AcDbLine
 10
-1.735
 20
-0.7410000000000002
 30
0.0
 11
-1.735
 21
-2.15625
 31
0.0
  0
LINE
  5
109
330
E1
100
AcDbEntity
  8
AM_9
100
AcDbLine
 10
1.735
 20
-2.15625
 30
0.0
 11
1.735
 21
-0.7410000000000002
 31
0.0
  0
LINE
  5
10A
330
E1
100
AcDbEntity
  8
AM_9
100
AcDbLine
 10
-2.04724
 20
1.049874999999999
 30
0.0
 11
-2.04724
 21
0.8591249999999999
 31
0.0
  0
LINE
  5
10B
330
E1
100
AcDbEntity
  8
AM_9
100
AcDbLine
 10
2.04724
 20
0.8591249999999999
 30
0.0
 11
2.04724
 21
1.049874999999999
 31
0.0
  0
LINE
  5
10C
330
E1
100
AcDbEntity
  8
AM_9
100
AcDbLine
 10
1.919115
 20
1.178
 30
0.0
 11
-1.919115
 21
1.178
 31
0.0
  0
ARC
  5
10D
330
E1
100
AcDbEntity
  8
AM_9
100
AcDbCircle
 10
-1.919115
 20
1.049874999999999
 30
0.0
 40
0.128125
100
AcDbArc
 50
90.0
 51
180.0
  0
ARC
  5
10E
330
E1
100
AcDbEntity
  8
AM_9
100
AcDbCircle
 10
1.919115
 20
1.049874999999999
 30
0.0
 40
0.128125
100
AcDbArc
 50
0.0
 51
90.0
  0
LINE
  5
10F
330
E1
100
AcDbEntity
  8
AM_9
100
AcDbLine
 10
2.04724
 20
1.049874999999999
 30
0.0
 11
-2.04724
 21
1.049874999999999
 31
0.0
  0
LINE
  5
110
330
E1
100
AcDbEntity
  8
AM_9
100
AcDbLine
 10
1.919115
 20
-0.7410000000000002
 30
0.0
 11
-1.919115
 21
-0.7410000000000002
 31
0.0
  0
ARC
  5
111
330
E1
100
AcDbEntity
  8
AM_9
100
AcDbCircle
 10
-1.919115
 20
-0.6128749999999993
 30
0.0
 40
0.1281250000000007
100
AcDbArc
 50
180.0
 51
270.0
  0
ARC
  5
112
330
E1
100
AcDbEntity
  8
AM_9
100
AcDbCircle
 10
1.919115
 20
-0.6128749999999993
 30
0.0
 40
0.1281250000000009
100
AcDbArc
 50
270.0
 51
0.0
  0
LINE
  5
113
330
E1
100
AcDbEntity
  8
AM_9
100
AcDbLine
 10
-2.04724
 20
-0.4221250000000002
 30
0.0
 11
-2.04724
 21
-0.6128750000000004
 31
0.0
  0
LINE
  5
114
330
E1
100
AcDbEntity
  8
AM_9
100
AcDbLine
 10
2.04724
 20
-0.6128750000000004
 30
0.0
 11
2.04724
 21
-0.4221250000000002
 31
0.0
  0
LINE
  5
115
330
E1
100
AcDbEntity
  8
AM_9
100
AcDbLine
 10
2.04724
 20
-0.6128750000000004
 30
0.0
 11
-2.04724
 21
-0.6128750000000004
 31
0.0
  0
LINE
  5
116
330
E1
100
AcDbEntity
  8
AM_9
100
AcDbLine
 10
-2.456688
 20
0.2825624999999959
 30
0.0
 11
-2.456688
 21
0.1544375000000034
 31
0.0
  0
LINE
  5
117
330
E1
100
AcDbEntity
  8
AM_9
100
AcDbLine
 10
2.456688
 20
0.1544375000000034
 30
0.0
 11
2.456688
 21
0.2825624999999959
 31
0.0
  0
LINE
  5
118
330
E1
100
AcDbEntity
  8
AM_9
100
AcDbLine
 10
-2.55905
 20
0.0953387717452154
 30
0.0
 11
-2.55905
 21
-0.2940000000000009
 31
0.0
  0
LINE
  5
119
330
E1
100
AcDbEntity
  8
AM_9
100
AcDbLine
 10
2.55905
 20
-0.2940000000000009
 30
0.0
 11
2.55905
 21
0.0953387717452154
 31
0.0
  0
LINE
  5
11A
330
E1
100
AcDbEntity
  8
AM_9
100
AcDbLine
 10
2.430925000000001
 20
0.8591249999999994
 30
0.0
 11
-2.430925000000001
 21
0.8591249999999994
 31
0.0
  0
ARC
  5
11B
330
E1
100
AcDbEntity
  8
AM_9
100
AcDbCircle
 10
-2.430925000000001
 20
0.7310000000000006
 30
0.0
 40
0.1281249999999987
100
AcDbArc
 50
90.0
 51
180.0
  0
ARC
  5
11C
330
E1
100
AcDbEntity
  8
AM_9
100
AcDbCircle
 10
2.430925000000001
 20
0.7310000000000006
 30
0.0
 40
0.1281249999999989
100
AcDbArc
 50
0.0
 51
90.0
  0
LINE
  5
11D
330
E1
100
AcDbEntity
  8
AM_9
100
AcDbLine
 10
2.430925
 20
-0.4221249999999999
 30
0.0
 11
-2.430925
 21
-0.4221249999999999
 31
0.0
  0
ARC
  5
11E
330
E1
100
AcDbEntity
  8
AM_9
100
AcDbCircle
 10
-2.430925000000001
 20
-0.2940000000000011
 30
0.0
 40
0.1281249999999989
100
AcDbArc
 50
180.0
 51
270.0
  0
ARC
  5
11F
330
E1
100
AcDbEntity
  8
AM_9
100
AcDbCircle
 10
2.430925000000001
 20
-0.2940000000000011
 30
0.0
 40
0.1281249999999988
100
AcDbArc
 50
270.0
 51
0.0
  0
LINE
  5
120
330
E1
100
AcDbEntity
  8
AM_9
100
AcDbLine
 10
2.55905
 20
-0.2940000000000009
 30
0.0
 11
-2.55905
 21
-0.2940000000000009
 31
0.0
  0
LINE
  5
121
330
E1
100
AcDbEntity
  8
AM_9
100
AcDbLine
 10
2.456688
 20
0.2825624999999959
 30
0.0
 11
2.55905
 21
0.341661228254784
 31
0.0
  0
LINE
  5
122
330
E1
100
AcDbEntity
  8
AM_9
100
AcDbLine
 10
-2.55905
 20
0.341661228254784
 30
0.0
 11
-2.456688
 21
0.2825624999999959
 31
0.0
  0
LINE
  5
123
330
E1
100
AcDbEntity
  8
AM_9
100
AcDbLine
 10
2.456688
 20
0.2825624999999959
 30
0.0
 11
-2.456688
 21
0.2825624999999959
 31
0.0
  0
LINE
  5
124
330
E1
100
AcDbEntity
  8
AM_9
100
AcDbLine
 10
-2.55905
 20
0.7309999999999998
 30
0.0
 11
-2.55905
 21
0.341661228254784
 31
0.0
  0
LINE
  5
125
330
E1
100
AcDbEntity
  8
AM_9
100
AcDbLine
 10
2.55905
 20
0.341661228254784
 30
0.0
 11
2.55905
 21
0.7309999999999998
 31
0.0
  0
LINE
  5
126
330
E1
100
AcDbEntity
  8
AM_9
100
AcDbLine
 10
2.55905
 20
0.7309999999999998
 30
0.0
 11
-2.55905
 21
0.7309999999999998
 31
0.0
  0
LINE
  5
127
330
E1
100
AcDbEntity
  8
AM_9
100
AcDbLine
 10
2.55905
 20
0.341661228254784
 30
0.0
 11
-2.55905
 21
0.341661228254784
 31
0.0
  0
LINE
  5
128
330
E1
100
AcDbEntity
  8
AM_9
100
AcDbLine
 10
-2.456688
 20
0.1544375000000034
 30
0.0
 11
-2.55905
 21
0.0953387717452154
 31
0.0
  0
LINE
  5
129
330
E1
100
AcDbEntity
  8
AM_9
100
AcDbLine
 10
2.55905
 20
0.0953387717452154
 30
0.0
 11
2.456688
 21
0.1544375000000034
 31
0.0
  0
LINE
  5
12A
330
E1
100
AcDbEntity
  8
AM_9
100
AcDbLine
 10
2.456688
 20
0.1544375000000034
 30
0.0
 11
-2.456688
 21
0.1544375000000034
 31
0.0
  0
LINE
  5
12B
330
E1
100
AcDbEntity
  8
AM_9
100
AcDbLine
 10
2.55905
 20
0.0953387717452154
 30
0.0
 11
-2.55905
 21
0.0953387717452154
 31
0.0
  0
LINE
  5
12E
330
E1
100
AcDbEntity
  8
AM_7
100
AcDbLine
 10
0.0
 20
1.6171875
 30
0.0
 11
0.0
 21
-2.3359375
 31
0.0
  0
LINE
  5
12F
330
E1
100
AcDbEntity
  8
AM_4
100
AcDbLine
 10
-1.735
 20
1.4375
 30
0.0
 11
-1.735
 21
1.34375
 31
0.0
  0
LINE
  5
130
330
E1
100
AcDbEntity
  8
AM_4
100
AcDbLine
 10
1.735
 20
1.34375
 30
0.0
 11
1.735
 21
1.4375
 31
0.0
  0
LINE
  5
131
330
E1
100
AcDbEntity
  8
AM_4
100
AcDbLine
 10
1.735
 20
1.4375
 30
0.0
 11
-1.735
 21
1.4375
 31
0.0
  0
ENDBLK
  5
E4
330
E1
100
AcDbEntity
  8
0
100
AcDbBlockEnd
  0
BLOCK
  5
134
330
132
100
AcDbEntity
  8
0
100
AcDbBlockBegin
  2
4_405016_Inch_0_in_070791_4
 70
     2
 10
0.0
 20
0.0
 30
0.0
  3
4_405016_Inch_0_in_070791_4
  1

  0
ATTDEF
  5
136
330
132
100
AcDbEntity
  8
AM_6
100
AcDbText
 10
2.477342992811643
 20
0.2187500000000001
 30
0.0
 40
0.5
  1
405016 -Inch
100
AcDbAttributeDefinition
  3

  2
NN
 70
     8
280
     0
  0
ATTDEF
  5
137
330
132
100
AcDbEntity
  8
AM_6
100
AcDbText
 10
2.477342992811643
 20
-0.2812499999999999
 30
0.0
 40
0.5
  1
Grease Fitting
100
AcDbAttributeDefinition
  3

  2
NT
 70
     8
280
     0
  0
ATTDEF
  5
138
330
132
100
AcDbEntity
  8
AM_6
100
AcDbText
 10
2.477342992811643
 20
-0.7812499999999999
 30
0.0
 40
0.5
  1
405016-Inch
100
AcDbAttributeDefinition
  3

  2
NB
 70
     8
280
     0
  0
ATTDEF
  5
139
330
132
100
AcDbEntity
  8
AM_6
100
AcDbText
 10
2.477342992811643
 20
-1.28125
 30
0.0
 40
0.5
  1
$MN.-Inch
100
AcDbAttributeDefinition
  3

  2
NBSYN
 70
     8
280
     0
  0
ATTDEF
  5
13A
330
132
100
AcDbEntity
  8
AM_6
100
AcDbText
 10
2.477342992811643
 20
-1.78125
 30
0.0
 40
0.5
  1
405016
100
AcDbAttributeDefinition
  3

  2
LINA
 70
     8
280
     0
  0
ATTDEF
  5
13B
330
132
100
AcDbEntity
  8
AM_6
100
AcDbText
 10
2.477342992811643
 20
-2.28125
 30
0.0
 40
0.5
  1
405016
100
AcDbAttributeDefinition
  3

  2
MN
 70
     8
280
     0
  0
ATTDEF
  5
13C
330
132
100
AcDbEntity
  8
AM_6
100
AcDbText
 10
2.477342992811643
 20
-2.78125
 30
0.0
 40
0.5
  1
7/16 HEX
100
AcDbAttributeDefinition
  3

  2
H
 70
     8
280
     0
  0
ATTDEF
  5
13D
330
132
100
AcDbEntity
  8
AM_6
100
AcDbText
 10
2.477342992811643
 20
-3.28125
 30
0.0
 40
0.5
  1
0.383
100
AcDbAttributeDefinition
  3

  2
NDR
 70
     8
280
     0
  0
ATTDEF
  5
13E
330
132
100
AcDbEntity
  8
AM_6
100
AcDbText
 10
2.477342992811643
 20
-3.78125
 30
0.0
 40
0.5
  1
0.337
100
AcDbAttributeDefinition
  3

  2
KDR
 70
     8
280
     0
  0
ATTDEF
  5
13F
330
132
100
AcDbEntity
  8
AM_6
100
AcDbText
 10
2.477342992811643
 20
-4.28125
 30
0.0
 40
0.5
  1
0.1575
100
AcDbAttributeDefinition
  3

  2
BZE
 70
     8
280
     0
  0
ATTDEF
  5
140
330
132
100
AcDbEntity
  8
AM_6
100
AcDbText
 10
2.477342992811643
 20
-4.78125
 30
0.0
 40
0.5
  1
0.4375
100
AcDbAttributeDefinition
  3

  2
HEX
 70
     8
280
     0
  0
ATTDEF
  5
141
330
132
100
AcDbEntity
  8
AM_6
100
AcDbText
 10
2.477342992811643
 20
-5.28125
 30
0.0
 40
0.5
  1
0.281250
100
AcDbAttributeDefinition
  3

  2
HEX2
 70
     8
280
     0
  0
ATTDEF
  5
142
330
132
100
AcDbEntity
  8
AM_6
100
AcDbText
 10
2.477342992811643
 20
-5.78125
 30
0.0
 40
0.5
  1
baldor
100
AcDbAttributeDefinition
  3

  2
COMPANY
 70
     8
280
     0
  0
LINE
  5
143
330
132
100
AcDbEntity
  8
AM_9
100
AcDbLine
 10
-3.219799825018898
 20
-0.1510741298357571
 30
0.0
 11
-3.231121398242775
 21
-0.1791093260592887
 31
0.0
  0
LINE
  5
144
330
132
100
AcDbEntity
  8
AM_9
100
AcDbLine
 10
-3.068624978980401
 20
-0.2099962668917054
 30
0.0
 11
-3.080312225199946
 21
-0.2389369657326277
 31
0.0
  0
LWPOLYLINE
  5
145
330
132
100
AcDbEntity
  8
AM_9
100
AcDbPolyline
 90
        3
 70
     0
 43
0.0
 10
-2.852471173714995
 20
0.1093749999999999
 10
-2.834611523731072
 20
0.0546874999999999
 10
-2.813044559180071
 20
-0.0000000000000001
  0
LWPOLYLINE
  5
146
330
132
100
AcDbEntity
  8
AM_9
100
AcDbPolyline
 90
        3
 70
     0
 43
0.0
 10
-2.813044559180071
 20
-0.0000000000000001
 10
-2.834522230097694
 20
-0.0544416102741497
 10
-2.852471173714995
 20
-0.109375
  0
LWPOLYLINE
  5
147
330
132
100
AcDbEntity
  8
AM_9
100
AcDbPolyline
 90
        3
 70
     0
 43
0.0
 10
-3.010694130558311
 20
-0.2987675689889718
 10
-3.026581415121407
 20
-0.2912216284034025
 10
-3.041791416819422
 20
-0.2813919000363599
  0
LWPOLYLINE
  5
148
330
132
100
AcDbEntity
  8
AM_9
100
AcDbPolyline
 90
        3
 70
     0
 43
0.0
 10
-2.74214756217886
 20
-0.0000000000000001
 10
-2.752101769608134
 20
0.0544416102741495
 10
-2.765868633336551
 20
0.1093749999999999
  0
LWPOLYLINE
  5
149
330
132
100
AcDbEntity
  8
AM_9
100
AcDbPolyline
 90
        3
 70
     0
 43
0.0
 10
-2.765868633336551
 20
-0.1093750000000001
 10
-2.752154440474167
 20
-0.0546875000000001
 10
-2.74214756217886
 20
-0.0000000000000001
  0
LWPOLYLINE
  5
14A
330
132
100
AcDbEntity
  8
AM_9
100
AcDbPolyline
 90
        3
 70
     0
 43
0.0
 10
-3.023491509280888
 20
-0.2360765106845277
 10
-3.01432652270433
 20
-0.2462091938631852
 10
-2.998638481247332
 20
-0.2689146070947223
  0
LWPOLYLINE
  5
14B
330
132
100
AcDbEntity
  8
AM_9
100
AcDbPolyline
 90
        3
 70
     0
 43
0.0
 10
-2.852471173714995
 20
-0.109375
 10
-2.86618536657738
 20
-0.1640625000000001
 10
-2.876192244872687
 20
-0.2187500000000001
  0
LINE
  5
14C
330
132
100
AcDbEntity
  8
AM_9
100
AcDbLine
 10
-2.813044559180071
 20
-0.0000000000000001
 30
0.0
 11
-2.74214756217886
 21
-0.0000000000000001
 31
0.0
  0
LWPOLYLINE
  5
14D
330
132
100
AcDbEntity
  8
AM_9
100
AcDbPolyline
 90
        3
 70
     0
 43
0.0
 10
-2.876192244872687
 20
0.2187499999999999
 10
-2.866238037443412
 20
0.1643083897258503
 10
-2.852471173714995
 20
0.1093749999999999
  0
LWPOLYLINE
  5
14E
330
132
100
AcDbEntity
  8
AM_9
100
AcDbPolyline
 90
        3
 70
     0
 43
0.0
 10
-2.998638481247332
 20
-0.2689146070947223
 10
-3.011634369096944
 20
-0.2634308483997529
 10
-3.025848269211184
 20
-0.2602304684431306
  0
LWPOLYLINE
  5
14F
330
132
100
AcDbEntity
  8
AM_9
100
AcDbPolyline
 90
        3
 70
     0
 43
0.0
 10
-3.044148176749718
 20
-0.3055458577949631
 10
-3.027766222130739
 20
-0.3030753670497809
 10
-3.010694130558311
 20
-0.2987675689889718
  0
LINE
  5
150
330
132
100
AcDbEntity
  8
AM_9
100
AcDbLine
 10
-2.998638481247332
 20
-0.2689146070947223
 30
0.0
 11
-3.010694130558311
 21
-0.2987675689889718
 31
0.0
  0
ELLIPSE
  5
151
330
132
100
AcDbEntity
  8
AM_9
100
AcDbEllipse
 10
-3.252975773407401
 20
-0.4687500000000002
 30
0.0
 11
-0.09595382955731768
 21
0.03874944547499698
 31
0.0
210
0.0
220
0.0
230
1.0
 40
0.2113091308703566
 41
3.04060964969654
 42
6.384168311072828
  0
LINE
  5
152
330
132
100
AcDbEntity
  8
AM_9
100
AcDbLine
 10
-3.125
 20
-0.4789158979409427
 30
0.0
 11
-3.097724481268791
 21
-0.4540180898723598
 31
0.0
  0
ELLIPSE
  5
153
330
132
100
AcDbEntity
  8
AM_9
100
AcDbEllipse
 10
-3.224982111209918
 20
-0.399430321788976
 30
0.0
 11
-0.1290248947933268
 21
0.05210467522533582
 31
0.0
210
0.0
220
0.0
230
1.0
 40
0.21130913087035
 41
2.538062237715516
 42
5.801105639492173
  0
LWPOLYLINE
  5
154
330
132
100
AcDbEntity
  8
AM_9
100
AcDbPolyline
 90
        7
 70
     0
 43
0.0
 10
-3.09827335176942
 20
-0.4545076905353536
 10
-3.093590098096757
 20
-0.4494218434738947
 10
-3.089557299354377
 20
-0.441897643748323
 10
-3.087760639416797
 20
-0.4332093405917013
 10
-3.088301058502291
 20
-0.425235837166832
 10
-3.090509518041264
 20
-0.418058392105352
 10
-3.092139929916006
 20
-0.4146667435383915
  0
LWPOLYLINE
  5
155
330
132
100
AcDbEntity
  8
AM_9
100
AcDbPolyline
 90
        3
 70
     0
 43
0.0
 10
-3.091884012163102
 20
-0.2987675689889718
 10
-3.078350746662712
 20
-0.3030606061861223
 10
-3.064791462037727
 20
-0.305456396233367
  0
ELLIPSE
  5
156
330
132
100
AcDbEntity
  8
AM_9
100
AcDbEllipse
 10
-3.163306226468585
 20
-0.2467045921760242
 30
0.0
 11
-0.1303939210191683
 21
0.05265753494273094
 31
0.0
210
0.0
220
0.0
230
1.0
 40
0.2113091308703419
 41
-4.330202329224953
 42
-3.764628581859174
  0
LWPOLYLINE
  5
157
330
132
100
AcDbEntity
  8
AM_9
100
AcDbPolyline
 90
        5
 70
     0
 43
0.0
 10
-3.231121398242775
 20
-0.1791093260592887
 10
-3.252983786741401
 20
-0.1842540823997054
 10
-3.273879873671394
 20
-0.1862220679364951
 10
-3.293797493226303
 20
-0.1844124966919382
 10
-3.312311279847566
 20
-0.1791093260592887
  0
LWPOLYLINE
  5
158
330
132
100
AcDbEntity
  8
AM_9
100
AcDbPolyline
 90
        5
 70
     0
 43
0.0
 10
-3.080312225199946
 20
-0.2389369657326277
 10
-3.119153513887375
 20
-0.2295338871417796
 10
-3.157288560599294
 20
-0.2166871171046321
 10
-3.194907354960477
 20
-0.1996402057054678
 10
-3.231121398242775
 20
-0.1791093260592887
  0
LWPOLYLINE
  5
159
330
132
100
AcDbEntity
  8
AM_9
100
AcDbPolyline
 90
        3
 70
     0
 43
0.0
 10
-3.053812947001228
 20
-0.2711532636537957
 10
-3.067548124765801
 20
-0.2561815527589921
 10
-3.080312225199946
 20
-0.2389369657326277
  0
ELLIPSE
  5
15A
330
132
100
AcDbEntity
  8
AM_9
100
AcDbEllipse
 10
-3.163306226468567
 20
-0.2467045921760271
 30
0.0
 11
-0.1303939210191967
 21
0.05265753494274295
 31
0.0
210
0.0
220
0.0
230
1.0
 40
0.2113091308703511
 41
3.806340372002866
 42
6.919181903097234
  0
LWPOLYLINE
  5
15B
330
132
100
AcDbEntity
  8
AM_9
100
AcDbPolyline
 90
        3
 70
     0
 43
0.0
 10
-3.045604669164452
 20
-0.2602304684431209
 10
-3.054853304578346
 20
-0.2616913382589204
 10
-3.079828362852123
 20
-0.2689146070947223
  0
LINE
  5
15C
330
132
100
AcDbEntity
  8
AM_9
100
AcDbLine
 10
-2.796355335830747
 20
0.1970611222394057
 30
0.0
 11
-2.805295247871475
 21
0.2187499999999999
 31
0.0
  0
LWPOLYLINE
  5
15D
330
132
100
AcDbEntity
  8
AM_9
100
AcDbPolyline
 90
        3
 70
     0
 43
0.0
 10
-2.765868633336551
 20
0.1093749999999999
 10
-2.783728283320475
 20
0.1640624999999999
 10
-2.796355335830747
 20
0.1970611222394057
  0
LWPOLYLINE
  5
15E
330
132
100
AcDbEntity
  8
AM_9
100
AcDbPolyline
 90
        3
 70
     0
 43
0.0
 10
-2.796055936625734
 20
-0.1963141768162991
 10
-2.783817576953853
 20
-0.1643083897258505
 10
-2.765868633336551
 20
-0.1093750000000001
  0
LINE
  5
15F
330
132
100
AcDbEntity
  8
AM_9
100
AcDbLine
 10
-2.805295247871475
 20
-0.2187500000000001
 30
0.0
 11
-2.796055936625734
 21
-0.1963141768162991
 31
0.0
  0
LINE
  5
160
330
132
100
AcDbEntity
  8
AM_9
100
AcDbLine
 10
-3.230934625870788
 20
-0.1204089378707287
 30
0.0
 11
-3.2320200708605
 21
-0.1230967854582223
 31
0.0
  0
LINE
  5
161
330
132
100
AcDbEntity
  8
AM_9
100
AcDbLine
 10
-3.043009296266167
 20
-0.2425790968238377
 30
0.0
 11
-3.02314591810021
 21
-0.193392142543456
 31
0.0
  0
ELLIPSE
  5
162
330
132
100
AcDbEntity
  8
AM_9
100
AcDbEllipse
 10
-3.145006318930069
 20
-0.2013892028241758
 30
0.0
 11
-0.1019970226638724
 21
0.04118989399963793
 31
0.0
210
0.0
220
0.0
230
1.0
 40
0.2113091308703402
 41
1.852625796093102
 42
6.283185307179586
  0
LWPOLYLINE
  5
163
330
132
100
AcDbEntity
  8
AM_9
100
AcDbPolyline
 90
        4
 70
     0
 43
0.0
 10
-3.230939355525808
 20
-0.1204206514110939
 10
-3.231078521510337
 20
-0.1208367673933812
 10
-3.23050093755321
 20
-0.1245107513506023
 10
-3.228590856760518
 20
-0.1273661643506044
  0
LWPOLYLINE
  5
164
330
132
100
AcDbEntity
  8
AM_9
100
AcDbPolyline
 90
        5
 70
     0
 43
0.0
 10
-3.023144973898721
 20
-0.1933898041312626
 10
-3.023238310029873
 20
-0.1936098952159724
 10
-3.026453846982511
 20
-0.1971856748420371
 10
-3.032472210225293
 20
-0.1994144431868155
 10
-3.039336180805736
 20
-0.1999999999699529
  0
LWPOLYLINE
  5
165
330
132
100
AcDbEntity
  8
AM_9
100
AcDbPolyline
 90
        3
 70
     0
 43
0.0
 10
-3.132633312018174
 20
-0.1745741884610189
 10
-3.105244236644744
 20
-0.1876759562813858
 10
-3.068624978980401
 20
-0.2099962668917054
  0
LWPOLYLINE
  5
166
330
132
100
AcDbEntity
  8
AM_9
100
AcDbPolyline
 90
        3
 70
     0
 43
0.0
 10
-3.219799825018898
 20
-0.1510741298357571
 10
-3.190595217519375
 20
-0.1564222384464443
 10
-3.16192471857708
 20
-0.1639312493177432
  0
LWPOLYLINE
  5
167
330
132
100
AcDbEntity
  8
AM_9
100
AcDbPolyline
 90
        3
 70
     0
 43
0.0
 10
-3.068624978980401
 20
-0.2099962668917054
 10
-3.051651296646877
 20
-0.2163479371246913
 10
-3.035513039462695
 20
-0.2258378743019629
  0
LWPOLYLINE
  5
168
330
132
100
AcDbEntity
  8
AM_9
100
AcDbPolyline
 90
        4
 70
     0
 43
0.0
 10
-3.256710705363393
 20
-0.141958509815605
 10
-3.252835585917344
 20
-0.1420496512545706
 10
-3.238346670802593
 20
-0.1441228263802215
 10
-3.219799825018898
 20
-0.1510741298357571
  0
ELLIPSE
  5
169
330
132
100
AcDbEntity
  8
AM_9
100
AcDbEllipse
 10
-3.145006318930055
 20
-0.201389202824187
 30
0.0
 11
-0.1303939210191754
 21
0.05265753494273501
 31
0.0
210
0.0
220
0.0
230
1.0
 40
0.2113091308703422
 41
3.806340372002833
 42
4.709481139456916
  0
ELLIPSE
  5
16A
330
132
100
AcDbEntity
  8
AM_9
100
AcDbEllipse
 10
-3.145006318930055
 20
-0.2013892028241883
 30
0.0
 11
-0.1303939210191749
 21
0.05265753494273409
 31
0.0
210
0.0
220
0.0
230
1.0
 40
0.2113091308703496
 41
-1.299055523015259
 42
-0.6725714813802819
  0
LINE
  5
16B
330
132
100
AcDbEntity
  8
AM_9
100
AcDbLine
 10
-3.041791416819422
 20
-0.2813919000363599
 30
0.0
 11
-3.053812947001228
 21
-0.2711532636537957
 31
0.0
  0
ELLIPSE
  5
16C
330
132
100
AcDbEntity
  8
AM_9
100
AcDbEllipse
 10
-3.163306226468588
 20
-0.2467045921760198
 30
0.0
 11
-0.130393921019174
 21
0.05265753494273482
 31
0.0
210
0.0
220
0.0
230
1.0
 40
0.2113091308703503
 41
2.80046924648436
 42
3.607080702195125
  0
LWPOLYLINE
  5
16D
330
132
100
AcDbEntity
  8
AM_9
100
AcDbPolyline
 90
        3
 70
     0
 43
0.0
 10
-3.063904576702987
 20
-0.3055458577949631
 10
-3.054454377816678
 20
-0.3064767622622302
 10
-3.044148176749718
 20
-0.3055458577949631
  0
LWPOLYLINE
  5
16E
330
132
100
AcDbEntity
  8
AM_9
100
AcDbPolyline
 90
       14
 70
     0
 43
0.0
 10
-3.091852909723699
 20
-0.4152092904920884
 10
-3.093579100107501
 20
-0.4116478694894207
 10
-3.096732264383867
 20
-0.4031042747109545
 10
-3.099094436607671
 20
-0.3922044002370179
 10
-3.099825504020692
 20
-0.3795647265086575
 10
-3.09836702870829
 20
-0.3661089615776532
 10
-3.093966583409232
 20
-0.3512767780930037
 10
-3.087217318112775
 20
-0.3381654895117649
 10
-3.078897637445438
 20
-0.3272740245556191
 10
-3.069774046330868
 20
-0.3187260580179344
 10
-3.060680165264063
 20
-0.3125111235395873
 10
-3.052492517347402
 20
-0.3084459524383612
 10
-3.045891998018977
 20
-0.3061166210671184
 10
-3.042305799855483
 20
-0.3052132168255567
  0
ELLIPSE
  5
16F
330
132
100
AcDbEntity
  8
AM_9
100
AcDbEllipse
 10
-3.214307129732572
 20
-0.3729962569746645
 30
0.0
 11
-0.1235034625625944
 21
0.04987493162723564
 31
0.0
210
0.0
220
0.0
230
1.0
 40
0.2113091308703477
 41
2.460441073311038
 42
6.026905262289763
  0
ELLIPSE
  5
170
330
132
100
AcDbEntity
  8
AM_9
100
AcDbEllipse
 10
-3.145006318930057
 20
-0.2013892028241862
 30
0.0
 11
-0.1303939210191869
 21
0.05265753494272108
 31
0.0
210
0.0
220
0.0
230
1.0
 40
0.2113091308703743
 41
1.809400025222363
 42
2.518556725320323
  0
LINE
  5
171
330
132
100
AcDbEntity
  8
AM_9
100
AcDbLine
 10
-3.025848269211184
 20
-0.2602304684431306
 30
0.0
 11
-3.045604669164452
 21
-0.2602304684431209
 31
0.0
  0
ELLIPSE
  5
172
330
132
100
AcDbEntity
  8
AM_9
100
AcDbEllipse
 10
-3.145006318930054
 20
-0.2013892028241893
 30
0.0
 11
-0.130393921019174
 21
0.05265753494273265
 31
0.0
210
0.0
220
0.0
230
1.0
 40
0.2113091308703511
 41
2.800469246484357
 42
3.607080702195122
  0
LINE
  5
173
330
132
100
AcDbEntity
  8
AM_9
100
AcDbLine
 10
-3.035513039462695
 20
-0.2258378743019629
 30
0.0
 11
-3.023491509280888
 21
-0.2360765106845277
 31
0.0
  0
LWPOLYLINE
  5
174
330
132
100
AcDbEntity
  8
AM_9
100
AcDbPolyline
 90
        3
 70
     0
 43
0.0
 10
-3.079828362852123
 20
-0.2689146070947223
 10
-3.107890662820968
 20
-0.251275593729576
 10
-3.124810769457542
 20
-0.2421801776672617
  0
LWPOLYLINE
  5
175
330
132
100
AcDbEntity
  8
AM_9
100
AcDbPolyline
 90
        3
 70
     0
 43
0.0
 10
-3.12500685380451
 20
-0.2909948950526183
 10
-3.124328124343464
 20
-0.2911775952746243
 10
-3.091884012163102
 20
-0.2987675689889718
  0
LINE
  5
176
330
132
100
AcDbEntity
  8
AM_9
100
AcDbLine
 10
-3.079828362852123
 20
-0.2689146070947223
 30
0.0
 11
-3.091884012163102
 21
-0.2987675689889718
 31
0.0
  0
LWPOLYLINE
  5
177
330
132
100
AcDbEntity
  8
AM_9
100
AcDbPolyline
 90
       17
 70
     0
 43
0.0
 10
-3.029821083250797
 20
-0.1790373738501779
 10
-3.03778854832699
 20
-0.1733931390117467
 10
-3.048544621761172
 20
-0.1670729780242511
 10
-3.061187673283615
 20
-0.1606047421316796
 10
-3.076078096429456
 20
-0.1538031670974777
 10
-3.091979973236337
 20
-0.1472336073736393
 10
-3.109340943058056
 20
-0.1407130262602577
 10
-3.126696420188301
 20
-0.1347930597680667
 10
-3.144554131772589
 20
-0.1293028157827817
 10
-3.161383893272663
 20
-0.1247141396218193
 10
-3.177700637173368
 20
-0.1208880884981782
 10
-3.192099688033202
 20
-0.1181545989145989
 10
-3.205032040898949
 20
-0.1164278875396128
 10
-3.21539176905865
 20
-0.1158549073091554
 10
-3.223501943875347
 20
-0.1164156227038168
 10
-3.228678585066188
 20
-0.1180609686233502
 10
-3.230939355525808
 20
-0.1204206514110939
  0
ARC
  5
178
330
132
100
AcDbEntity
  8
AM_9
100
AcDbCircle
 10
-3.074390183434759
 20
0.0000000000000033
 30
0.0
 40
0.1999999999999966
100
AcDbArc
 50
90.0
 51
104.6580148443857
  0
LINE
  5
179
330
132
100
AcDbEntity
  8
AM_9
100
AcDbLine
 10
-3.124995606744705
 20
-0.177147606135212
 30
0.0
 11
-3.1189592836187
 21
-0.1790373738502115
 31
0.0
  0
ELLIPSE
  5
17A
330
132
100
AcDbEntity
  8
AM_9
100
AcDbEllipse
 10
-3.074390183434753
 20
0.0000000000000006
 30
0.0
 11
1.224646799147349E-17
 21
0.1999999999999993
 31
0.0
210
0.0
220
0.0
230
1.0
 40
0.5000000000000046
 41
0.0
 42
0.530654761500615
  0
ELLIPSE
  5
17B
330
132
100
AcDbEntity
  8
AM_9
100
AcDbEllipse
 10
-3.074390183434435
 20
-0.000000000000128
 30
0.0
 11
1.224646799146463E-17
 21
0.1999999999998546
 31
0.0
210
0.0
220
0.0
230
1.0
 40
0.5000000000008437
 41
-3.672247415092743
 42
-3.603538674159259
  0
LWPOLYLINE
  5
17C
330
132
100
AcDbEntity
  8
AM_9
100
AcDbPolyline
 90
        4
 70
     0
 43
0.0
 10
-3.029821083250797
 20
-0.1790373738501784
 10
-3.02486642277873
 20
-0.1842628795203941
 10
-3.022758538311987
 20
-0.1891729979031394
 10
-3.023144973898721
 20
-0.1933898041312626
  0
LINE
  5
17D
330
132
100
AcDbEntity
  8
AM_9
100
AcDbLine
 10
-2.947192702253918
 20
0.1999999999999999
 30
0.0
 11
-3.074390183434758
 21
0.1999999999999999
 31
0.0
  0
LINE
  5
17E
330
132
100
AcDbEntity
  8
AM_9
100
AcDbLine
 10
-3.039483965032644
 20
-0.2000000000000001
 30
0.0
 11
-2.947192702253918
 21
-0.2000000000000001
 31
0.0
  0
LWPOLYLINE
  5
17F
330
132
100
AcDbEntity
  8
AM_9
100
AcDbPolyline
 90
        8
 70
     0
 43
0.0
 10
-3.039336180805736
 20
-0.1999999999699529
 10
-3.04082329804504
 20
-0.1999786710855128
 10
-3.051696898521789
 20
-0.1988321115509053
 10
-3.064095220235771
 20
-0.196164942998426
 10
-3.078518650601763
 20
-0.1920694300574958
 10
-3.094031630462581
 20
-0.1870948030566195
 10
-3.111125034249552
 20
-0.181500594761393
 10
-3.118959283618718
 20
-0.1790373738501784
  0
LINE
  5
180
330
132
100
AcDbEntity
  8
AM_9
100
AcDbLine
 10
-2.792931927204815
 20
0.1999999999999998
 30
0.0
 11
-2.860590161875474
 21
0.1999999999999998
 31
0.0
  0
LINE
  5
181
330
132
100
AcDbEntity
  8
AM_9
100
AcDbLine
 10
-2.860590161875474
 20
-0.2
 30
0.0
 11
-2.792931927204815
 21
-0.2
 31
0.0
  0
LINE
  5
182
330
132
100
AcDbEntity
  8
AM_9
100
AcDbLine
 10
-3.002487616257917
 20
0.2187499999999999
 30
0.0
 11
-2.805295247871475
 21
0.2187499999999999
 31
0.0
  0
LWPOLYLINE
  5
183
330
132
100
AcDbEntity
  8
AM_9
100
AcDbPolyline
 90
        3
 70
     0
 43
0.0
 10
-3.041914230792841
 20
0.1093749999999999
 10
-3.024054580808917
 20
0.1640624999999999
 10
-3.002487616257917
 20
0.2187499999999999
  0
LWPOLYLINE
  5
184
330
132
100
AcDbEntity
  8
AM_9
100
AcDbPolyline
 90
        3
 70
     0
 43
0.0
 10
-3.065635301950532
 20
-0.0000000000000001
 10
-3.055681094521258
 20
0.0544416102741495
 10
-3.041914230792841
 20
0.1093749999999999
  0
LINE
  5
185
330
132
100
AcDbEntity
  8
AM_9
100
AcDbLine
 10
-2.943245473466868
 20
0.1565417928010675
 30
0.0
 11
-2.955311690414397
 21
0.1093749999999999
 31
0.0
  0
LINE
  5
186
330
132
100
AcDbEntity
  8
AM_9
100
AcDbLine
 10
-2.931590619256705
 20
0.2187499999999999
 30
0.0
 11
-2.936580662445639
 21
0.1892532502086748
 31
0.0
  0
LINE
  5
187
330
132
100
AcDbEntity
  8
AM_9
100
AcDbLine
 10
-3.065635301950532
 20
-0.0000000000000001
 30
0.0
 11
-2.994738304949321
 21
-0.0000000000000001
 31
0.0
  0
LWPOLYLINE
  5
188
330
132
100
AcDbEntity
  8
AM_9
100
AcDbPolyline
 90
        3
 70
     0
 43
0.0
 10
-3.041914230792841
 20
-0.109375
 10
-3.055628423655225
 20
-0.0546875
 10
-3.065635301950532
 20
-0.0000000000000001
  0
LWPOLYLINE
  5
189
330
132
100
AcDbEntity
  8
AM_9
100
AcDbPolyline
 90
        3
 70
     0
 43
0.0
 10
-3.002487616257917
 20
-0.2187500000000001
 10
-3.023965287175539
 20
-0.1643083897258505
 10
-3.041914230792841
 20
-0.109375
  0
LINE
  5
18A
330
132
100
AcDbEntity
  8
AM_9
100
AcDbLine
 10
-3.002487616257917
 20
-0.2187500000000001
 30
0.0
 11
-2.805295247871475
 21
-0.2187500000000001
 31
0.0
  0
LINE
  5
18B
330
132
100
AcDbEntity
  8
AM_9
100
AcDbLine
 10
-2.935845168593702
 20
-0.193286529305455
 30
0.0
 11
-2.931590619256705
 21
-0.2187500000000001
 31
0.0
  0
LINE
  5
18C
330
132
100
AcDbEntity
  8
AM_9
100
AcDbLine
 10
-2.955311690414397
 20
-0.1093750000000001
 30
0.0
 11
-2.942305477227157
 21
-0.1607911847130054
 31
0.0
  0
LWPOLYLINE
  5
18D
330
132
100
AcDbEntity
  8
AM_9
100
AcDbPolyline
 90
        3
 70
     0
 43
0.0
 10
-2.955311690414397
 20
0.1093749999999999
 10
-2.97317134039832
 20
0.0546874999999999
 10
-2.994738304949321
 20
-0.0000000000000001
  0
LWPOLYLINE
  5
18E
330
132
100
AcDbEntity
  8
AM_9
100
AcDbPolyline
 90
        3
 70
     0
 43
0.0
 10
-2.994738304949321
 20
-0.0000000000000001
 10
-2.973260634031698
 20
-0.0544416102741497
 10
-2.955311690414397
 20
-0.1093750000000001
  0
LINE
  5
18F
330
132
100
AcDbEntity
  8
AM_9
100
AcDbLine
 10
-2.622387309582412
 20
0.1853871066562611
 30
0.0
 11
-2.791204199266481
 21
0.1914800577488988
 31
0.0
  0
LINE
  5
190
330
132
100
AcDbEntity
  8
AM_9
100
AcDbLine
 10
-2.791204199266481
 20
-0.191480057748899
 30
0.0
 11
-2.622387309582412
 21
-0.1853871066562613
 31
0.0
  0
LINE
  5
191
330
132
100
AcDbEntity
  8
AM_9
100
AcDbLine
 10
-2.556820572300262
 20
0.1319978794387896
 30
0.0
 11
-2.570534699359331
 21
0.1513925839218323
 31
0.0
  0
LINE
  5
192
330
132
100
AcDbEntity
  8
AM_9
100
AcDbLine
 10
-2.570534699359331
 20
-0.1513925839218325
 30
0.0
 11
-2.556820572300262
 21
-0.1319978794387898
 31
0.0
  0
ELLIPSE
  5
193
330
132
100
AcDbEntity
  8
AM_9
100
AcDbEllipse
 10
-2.947192702253918
 20
-0.0000000000000007
 30
0.0
 11
1.339457436567414E-17
 21
0.2187499999999994
 31
0.0
210
0.0
220
0.0
230
1.0
 40
0.4999999999999974
 41
0.0
 42
6.283185307179586
  0
ELLIPSE
  5
194
330
132
100
AcDbEntity
  8
AM_9
100
AcDbEllipse
 10
-2.947192702253919
 20
0.0
 30
0.0
 11
1.224646799147355E-17
 21
0.2000000000000002
 31
0.0
210
0.0
220
0.0
230
1.0
 40
0.5000000000000021
 41
0.0
 42
6.283185307179586
  0
ELLIPSE
  5
195
330
132
100
AcDbEntity
  8
AM_9
100
AcDbEllipse
 10
-2.860590161875474
 20
0.0
 30
0.0
 11
1.339457436567418E-17
 21
0.2187500000000001
 31
0.0
210
0.0
220
0.0
230
1.0
 40
0.4999999999999997
 41
0.0
 42
6.283185307179586
  0
ELLIPSE
  5
196
330
132
100
AcDbEntity
  8
AM_9
100
AcDbEllipse
 10
-2.860590161875475
 20
0.0
 30
0.0
 11
1.224646799147355E-17
 21
0.2000000000000002
 31
0.0
210
0.0
220
0.0
230
1.0
 40
0.5000000000000022
 41
0.0
 42
6.283185307179586
  0
ELLIPSE
  5
197
330
132
100
AcDbEntity
  8
AM_9
100
AcDbEllipse
 10
-2.792931927204806
 20
-0.000000000000003
 30
0.0
 11
1.224646799147371E-17
 21
0.2000000000000029
 31
0.0
210
0.0
220
0.0
230
1.0
 40
0.499999999999991
 41
0.0
 42
6.283185307179586
  0
ELLIPSE
  5
198
330
132
100
AcDbEntity
  8
AM_9
100
AcDbEllipse
 10
-2.792931927204815
 20
0.0000000000000003
 30
0.0
 11
1.172668097677222E-17
 21
0.1915112338502299
 31
0.0
210
0.0
220
0.0
230
1.0
 40
0.5000000000000004
 41
0.0
 42
6.283185307179586
  0
ELLIPSE
  5
199
330
132
100
AcDbEntity
  8
AM_9
100
AcDbEllipse
 10
-2.62406006071557
 20
0.0000000000000005
 30
0.0
 11
1.135353457964647E-17
 21
0.1854172907249868
 31
0.0
210
0.0
220
0.0
230
1.0
 40
0.4999999999999896
 41
0.0
 42
6.283185307179586
  0
ELLIPSE
  5
19A
330
132
100
AcDbEntity
  8
AM_9
100
AcDbEllipse
 10
-2.603488870126969
 20
0.0
 30
0.0
 11
9.899048221688865E-18
 21
0.1616637258772238
 31
0.0
210
0.0
220
0.0
230
1.0
 40
0.4999999999999978
 41
0.0
 42
6.283185307179586
  0
LINE
  5
19B
330
132
100
AcDbEntity
  8
AM_4
100
AcDbLine
 10
-3.158336231536055
 20
-0.5093460834378319
 30
0.0
 11
-3.125
 21
-0.4789158979409427
 31
0.0
  0
LINE
  5
19C
330
132
100
AcDbEntity
  8
AM_4
100
AcDbLine
 10
-3.354459648568667
 20
-0.3503396289636352
 30
0.0
 11
-3.349266226277936
 21
-0.4322420068738781
 31
0.0
  0
ELLIPSE
  5
19D
330
132
100
AcDbEntity
  8
AM_4
100
AcDbEllipse
 10
-3.252975773407402
 20
-0.4687500000000001
 30
0.0
 11
-0.09595382955731811
 21
0.03874944547499725
 31
0.0
210
0.0
220
0.0
230
1.0
 40
0.2113091308703426
 41
0.100983003893254
 42
3.040609649696542
  0
LINE
  5
19E
330
132
100
AcDbEntity
  8
AM_4
100
AcDbLine
 10
-3.300989706623689
 20
-0.1510741298357571
 30
0.0
 11
-3.312311279847566
 21
-0.1791093260592887
 31
0.0
  0
LWPOLYLINE
  5
19F
330
132
100
AcDbEntity
  8
AM_4
100
AcDbPolyline
 90
        7
 70
     0
 43
0.0
 10
-3.330506192978125
 20
-0.317944513618044
 10
-3.336124034602272
 20
-0.3201034841623112
 10
-3.342960915625434
 20
-0.3243681695235458
 10
-3.348709129400567
 20
-0.3303819840317106
 10
-3.352713610155858
 20
-0.337923516445523
 10
-3.354475766004033
 20
-0.3466064236290677
 10
-3.354376009116498
 20
-0.3513869178912822
  0
ELLIPSE
  5
1A0
330
132
100
AcDbEntity
  8
AM_4
100
AcDbEllipse
 10
-3.224982111209918
 20
-0.399430321788976
 30
0.0
 11
-0.1290248947933272
 21
0.05210467522533585
 31
0.0
210
0.0
220
0.0
230
1.0
 40
0.2113091308703501
 41
0.109222187859892
 42
2.538062237715511
  0
ELLIPSE
  5
1A1
330
132
100
AcDbEntity
  8
AM_4
100
AcDbEllipse
 10
-3.163306226468584
 20
-0.246704592176
 30
0.0
 11
-0.130393921019186
 21
0.052657534942743
 31
0.0
210
0.0
220
0.0
230
1.0
 40
0.2113091308704742
 41
-4.571240037569932
 42
-4.330202329224942
  0
LWPOLYLINE
  5
1A2
330
132
100
AcDbEntity
  8
AM_4
100
AcDbPolyline
 90
        4
 70
     0
 43
0.0
 10
-3.312311279847566
 20
-0.1791093260592886
 10
-3.297434161804491
 20
-0.1988355121406939
 10
-3.281004889561816
 20
-0.2156330920108725
 10
-3.275507870950473
 20
-0.2201680623457972
  0
LWPOLYLINE
  5
1A3
330
132
100
AcDbEntity
  8
AM_4
100
AcDbPolyline
 90
        3
 70
     0
 43
0.0
 10
-3.275507870950473
 20
-0.2201680623457972
 10
-3.262567349351845
 20
-0.2290462109660021
 10
-3.242691988409529
 20
-0.2389369657326276
  0
LINE
  5
1A4
330
132
100
AcDbEntity
  8
AM_4
100
AcDbLine
 10
-3.2320200708605
 20
-0.1230967854582223
 30
0.0
 11
-3.247003341593942
 21
-0.1601993088245385
 31
0.0
  0
ELLIPSE
  5
1A5
330
132
100
AcDbEntity
  8
AM_4
100
AcDbEllipse
 10
-3.145006318930055
 20
-0.2013892028241882
 30
0.0
 11
-0.1019970226638871
 21
0.04118989399964965
 31
0.0
210
0.0
220
0.0
230
1.0
 40
0.2113091308703483
 41
0.0
 42
1.852625796093057
  0
LWPOLYLINE
  5
1A6
330
132
100
AcDbEntity
  8
AM_4
100
AcDbPolyline
 90
        4
 70
     0
 43
0.0
 10
-3.300989706623689
 20
-0.1510741298357571
 10
-3.28437386463616
 20
-0.1458778226760521
 10
-3.268319251981028
 20
-0.1427138007556463
 10
-3.256710705363393
 20
-0.141958509815605
  0
LWPOLYLINE
  5
1A7
330
132
100
AcDbEntity
  8
AM_4
100
AcDbPolyline
 90
        6
 70
     0
 43
0.0
 10
-3.231004742189983
 20
-0.2099962668917054
 10
-3.241313878547313
 20
-0.1943573015029059
 10
-3.252657705381523
 20
-0.1805491420332304
 10
-3.26537167995833
 20
-0.1688997677199809
 10
-3.279267606148021
 20
-0.1598729403210871
 10
-3.300989706623689
 20
-0.1510741298357571
  0
LINE
  5
1A8
330
132
100
AcDbEntity
  8
AM_4
100
AcDbLine
 10
-3.255380851820564
 20
-0.1419585097669024
 30
0.0
 11
-3.256819328468717
 21
-0.1419585097669024
 31
0.0
  0
ELLIPSE
  5
1A9
330
132
100
AcDbEntity
  8
AM_4
100
AcDbEllipse
 10
-3.145006318930072
 20
-0.2013892028241671
 30
0.0
 11
-0.1303939210191505
 21
0.05265753494271553
 31
0.0
210
0.0
220
0.0
230
1.0
 40
0.2113091308703082
 41
5.610613825799282
 42
7.79587090698171
  0
ELLIPSE
  5
1AA
330
132
100
AcDbEntity
  8
AM_4
100
AcDbEllipse
 10
-3.163306226468588
 20
-0.2467045921760204
 30
0.0
 11
-0.1303939210191758
 21
0.05265753494273397
 31
0.0
210
0.0
220
0.0
230
1.0
 40
0.2113091308703499
 41
0.635996595917689
 42
1.512685599801939
  0
LWPOLYLINE
  5
1AB
330
132
100
AcDbEntity
  8
AM_4
100
AcDbPolyline
 90
       14
 70
     0
 43
0.0
 10
-3.290937248907212
 20
-0.2048796695800407
 10
-3.29028530919713
 20
-0.2058786005878799
 10
-3.287266940175891
 20
-0.2112674967955625
 10
-3.284038465256942
 20
-0.2190206290881135
 10
-3.281326882411097
 20
-0.2292067339875808
 10
-3.279994602370959
 20
-0.241384835255127
 10
-3.280715342242432
 20
-0.2546807453753578
 10
-3.283789403768247
 20
-0.2681837024642295
 10
-3.28968999841944
 20
-0.2820323603147869
 10
-3.297481028469892
 20
-0.2938281690057617
 10
-3.306381070575315
 20
-0.3033074997672837
 10
-3.315592303585557
 20
-0.3104343410313359
 10
-3.324237217266022
 20
-0.3153121411118142
 10
-3.331319293713817
 20
-0.3181971931197307
  0
ELLIPSE
  5
1AC
330
132
100
AcDbEntity
  8
AM_4
100
AcDbEllipse
 10
-3.214307129732573
 20
-0.3729962569746642
 30
0.0
 11
-0.1235034625625957
 21
0.04987493162723555
 31
0.0
210
0.0
220
0.0
230
1.0
 40
0.2113091308703504
 41
6.042459887058902
 42
8.743626380490621
  0
ELLIPSE
  5
1AD
330
132
100
AcDbEntity
  8
AM_4
100
AcDbEllipse
 10
-3.145006318930041
 20
-0.2013892028240563
 30
0.0
 11
-0.130393921019345
 21
0.0526575349428233
 31
0.0
210
0.0
220
0.0
230
1.0
 40
0.2113091308709594
 41
-4.571240037569849
 42
-4.473785281957242
  0
LINE
  5
1AE
330
132
100
AcDbEntity
  8
AM_4
100
AcDbLine
 10
-3.124810769457542
 20
-0.2421801776672617
 30
0.0
 11
-3.137678767658953
 21
-0.2360765106845275
 31
0.0
  0
LINE
  5
1AF
330
132
100
AcDbEntity
  8
AM_4
100
AcDbLine
 10
-3.137678767658953
 20
-0.2360765106845275
 30
0.0
 11
-3.163687576684938
 21
-0.2258378743019627
 31
0.0
  0
LWPOLYLINE
  5
1B0
330
132
100
AcDbEntity
  8
AM_4
100
AcDbPolyline
 90
        3
 70
     0
 43
0.0
 10
-3.163687576684938
 20
-0.2258378743019627
 10
-3.186677611377178
 20
-0.2189176876709015
 10
-3.231004742189983
 20
-0.2099962668917054
  0
LINE
  5
1B1
330
132
100
AcDbEntity
  8
AM_4
100
AcDbLine
 10
-3.231004742189983
 20
-0.2099962668917054
 30
0.0
 11
-3.242691988409528
 21
-0.2389369657326277
 31
0.0
  0
LWPOLYLINE
  5
1B2
330
132
100
AcDbEntity
  8
AM_4
100
AcDbPolyline
 90
        3
 70
     0
 43
0.0
 10
-3.242691988409528
 20
-0.2389369657326277
 10
-3.213012167175726
 20
-0.2560939713202353
 10
-3.18198748422347
 20
-0.2711532636537957
  0
LINE
  5
1B3
330
132
100
AcDbEntity
  8
AM_4
100
AcDbLine
 10
-3.18198748422347
 20
-0.2711532636537957
 30
0.0
 11
-3.155978675197488
 21
-0.2813919000363599
 31
0.0
  0
LINE
  5
1B4
330
132
100
AcDbEntity
  8
AM_4
100
AcDbLine
 10
-3.155978675197488
 20
-0.2813919000363599
 30
0.0
 11
-3.12500685380451
 21
-0.2909948950526183
 31
0.0
  0
ARC
  5
1B5
330
132
100
AcDbEntity
  8
AM_4
100
AcDbCircle
 10
-3.074390183434761
 20
0.000000000000001
 30
0.0
 40
0.1999999999999981
100
AcDbArc
 50
104.6580148443849
 51
219.6420137676301
  0
LWPOLYLINE
  5
1B6
330
132
100
AcDbEntity
  8
AM_4
100
AcDbPolyline
 90
       10
 70
     0
 43
0.0
 10
-3.228590856760518
 20
-0.1273661643506044
 10
-3.226929233744086
 20
-0.1291842652280563
 10
-3.220651686476423
 20
-0.134472979061152
 10
-3.211494087413702
 20
-0.140518627090196
 10
-3.200197898251691
 20
-0.1468270783017121
 10
-3.186456747110941
 20
-0.1535654953592165
 10
-3.171395257371459
 20
-0.1601799433259583
 10
-3.154601834551799
 20
-0.1668493358980661
 10
-3.137202498397804
 20
-0.1731116383367606
 10
-3.124995606744705
 20
-0.177147606135212
  0
ELLIPSE
  5
1B7
330
132
100
AcDbEntity
  8
AM_4
100
AcDbEllipse
 10
-3.074390183434757
 20
-0.0000000000000001
 30
0.0
 11
1.224646799147352E-17
 21
0.1999999999999998
 31
0.0
210
0.0
220
0.0
230
1.0
 40
0.5000000000000031
 41
0.5306547615005801
 42
2.610937892089213
  0
ENDBLK
  5
135
330
132
100
AcDbEntity
  8
0
100
AcDbBlockEnd
  0
BLOCK
  5
1BA
330
1B8
100
AcDbEntity
  8
0
100
AcDbBlockBegin
  2
5_070791H_0_in_070791_4
 70
     2
 10
0.0
 20
0.0
 30
0.0
  3
5_070791H_0_in_070791_4
  1

  0
ATTDEF
  5
1BC
330
1B8
100
AcDbEntity
  8
AM_6
100
AcDbText
 10
10.8090625
 20
1.580882352941176
 30
0.0
 40
0.5
  1
WSTU-S2 -(Contact Seal)-Housing
100
AcDbAttributeDefinition
  3

  2
NN
 70
     8
280
     0
  0
ATTDEF
  5
1BD
330
1B8
100
AcDbEntity
  8
AM_6
100
AcDbText
 10
10.8090625
 20
1.080882352941176
 30
0.0
 40
0.5
  1
S-2000 Wide Slot Take-Up Bearing -Inch
100
AcDbAttributeDefinition
  3

  2
NT
 70
     8
280
     0
  0
ATTDEF
  5
1BE
330
1B8
100
AcDbEntity
  8
AM_6
100
AcDbText
 10
10.8090625
 20
0.5808823529411764
 30
0.0
 40
0.5
  1
070791H
100
AcDbAttributeDefinition
  3

  2
NB
 70
     8
280
     0
  0
ATTDEF
  5
1BF
330
1B8
100
AcDbEntity
  8
AM_6
100
AcDbText
 10
10.8090625
 20
0.0808823529411764
 30
0.0
 40
0.5
  1
$PN.H
100
AcDbAttributeDefinition
  3

  2
NBSYN
 70
     8
280
     0
  0
ATTDEF
  5
1C0
330
1B8
100
AcDbEntity
  8
AM_6
100
AcDbText
 10
10.8090625
 20
-0.4191176470588236
 30
0.0
 40
0.5
  1
070791
100
AcDbAttributeDefinition
  3

  2
LINA
 70
     8
280
     0
  0
ATTDEF
  5
1C1
330
1B8
100
AcDbEntity
  8
AM_6
100
AcDbText
 10
10.8090625
 20
-0.9191176470588236
 30
0.0
 40
0.5
  1
2-11/16
100
AcDbAttributeDefinition
  3

  2
SS
 70
     8
280
     0
  0
ATTDEF
  5
1C2
330
1B8
100
AcDbEntity
  8
AM_6
100
AcDbText
 10
10.8090625
 20
-1.419117647058824
 30
0.0
 40
0.5
  1
070791
100
AcDbAttributeDefinition
  3

  2
PN
 70
     8
280
     0
  0
ATTDEF
  5
1C3
330
1B8
100
AcDbEntity
  8
AM_6
100
AcDbText
 10
10.8090625
 20
-1.919117647058824
 30
0.0
 40
0.5
  1
WSTU-S2-211RE
100
AcDbAttributeDefinition
  3

  2
DESCRIPTION
 70
     8
280
     0
  0
ATTDEF
  5
1C4
330
1B8
100
AcDbEntity
  8
AM_6
100
AcDbText
 10
10.8090625
 20
-2.419117647058823
 30
0.0
 40
0.5
  1
Expansion Type
100
AcDbAttributeDefinition
  3

  2
EF
 70
     8
280
     0
  0
ATTDEF
  5
1C5
330
1B8
100
AcDbEntity
  8
AM_6
100
AcDbText
 10
10.8090625
 20
-2.919117647058823
 30
0.0
 40
0.5
  1
3-19/32
100
AcDbAttributeDefinition
  3

  2
A
 70
     8
280
     0
  0
ATTDEF
  5
1C6
330
1B8
100
AcDbEntity
  8
AM_6
100
AcDbText
 10
10.8090625
 20
-3.419117647058823
 30
0.0
 40
0.5
  1
8-7/8
100
AcDbAttributeDefinition
  3

  2
B
 70
     8
280
     0
  0
ATTDEF
  5
1C7
330
1B8
100
AcDbEntity
  8
AM_6
100
AcDbText
 10
10.8090625
 20
-3.919117647058823
 30
0.0
 40
0.5
  1
1-13/16
100
AcDbAttributeDefinition
  3

  2
C
 70
     8
280
     0
  0
ATTDEF
  5
1C8
330
1B8
100
AcDbEntity
  8
AM_6
100
AcDbText
 10
10.8090625
 20
-4.419117647058823
 30
0.0
 40
0.5
  1
5-3/4
100
AcDbAttributeDefinition
  3

  2
E
 70
     8
280
     0
  0
ATTDEF
  5
1C9
330
1B8
100
AcDbEntity
  8
AM_6
100
AcDbText
 10
10.8090625
 20
-4.919117647058823
 30
0.0
 40
0.5
  1
1-5/8
100
AcDbAttributeDefinition
  3

  2
F
 70
     8
280
     0
  0
ATTDEF
  5
1CA
330
1B8
100
AcDbEntity
  8
AM_6
100
AcDbText
 10
10.8090625
 20
-5.419117647058823
 30
0.0
 40
0.5
  1
1-1/8
100
AcDbAttributeDefinition
  3

  2
G
 70
     8
280
     0
  0
ATTDEF
  5
1CB
330
1B8
100
AcDbEntity
  8
AM_6
100
AcDbText
 10
10.8090625
 20
-5.919117647058823
 30
0.0
 40
0.5
  1
1-1/2
100
AcDbAttributeDefinition
  3

  2
H
 70
     8
280
     0
  0
ATTDEF
  5
1CC
330
1B8
100
AcDbEntity
  8
AM_6
100
AcDbText
 10
10.8090625
 20
-6.419117647058823
 30
0.0
 40
0.5
  1
4-7/8
100
AcDbAttributeDefinition
  3

  2
J
 70
     8
280
     0
  0
ATTDEF
  5
1CD
330
1B8
100
AcDbEntity
  8
AM_6
100
AcDbText
 10
10.8090625
 20
-6.919117647058823
 30
0.0
 40
0.5
  1
2-3/4
100
AcDbAttributeDefinition
  3

  2
K
 70
     8
280
     0
  0
ATTDEF
  5
1CE
330
1B8
100
AcDbEntity
  8
AM_6
100
AcDbText
 10
10.8090625
 20
-7.419117647058823
 30
0.0
 40
0.5
  1
2.750000
100
AcDbAttributeDefinition
  3

  2
K1
 70
     8
280
     0
  0
ATTDEF
  5
1CF
330
1B8
100
AcDbEntity
  8
AM_6
100
AcDbText
 10
10.8090625
 20
-7.919117647058823
 30
0.0
 40
0.5
  1
4-45/64
100
AcDbAttributeDefinition
  3

  2
L
 70
     8
280
     0
  0
ATTDEF
  5
1D0
330
1B8
100
AcDbEntity
  8
AM_6
100
AcDbText
 10
10.8090625
 20
-8.419117647058822
 30
0.0
 40
0.5
  1
5-15/16
100
AcDbAttributeDefinition
  3

  2
M
 70
     8
280
     0
  0
ATTDEF
  5
1D1
330
1B8
100
AcDbEntity
  8
AM_6
100
AcDbText
 10
10.8090625
 20
-8.919117647058822
 30
0.0
 40
0.5
  1
6-11/16
100
AcDbAttributeDefinition
  3

  2
N
 70
     8
280
     0
  0
ATTDEF
  5
1D2
330
1B8
100
AcDbEntity
  8
AM_6
100
AcDbText
 10
10.8090625
 20
-9.419117647058822
 30
0.0
 40
0.5
  1
3-3/4
100
AcDbAttributeDefinition
  3

  2
R
 70
     8
280
     0
  0
ATTDEF
  5
1D3
330
1B8
100
AcDbEntity
  8
AM_6
100
AcDbText
 10
10.8090625
 20
-9.919117647058822
 30
0.0
 40
0.5
  1
2-13/32
100
AcDbAttributeDefinition
  3

  2
S
 70
     8
280
     0
  0
ATTDEF
  5
1D4
330
1B8
100
AcDbEntity
  8
AM_6
100
AcDbText
 10
10.8090625
 20
-10.41911764705882
 30
0.0
 40
0.5
  1
2-11/16
100
AcDbAttributeDefinition
  3

  2
T
 70
     8
280
     0
  0
ATTDEF
  5
1D5
330
1B8
100
AcDbEntity
  8
AM_6
100
AcDbText
 10
10.8090625
 20
-10.91911764705882
 30
0.0
 40
0.5
  1
2.687500
100
AcDbAttributeDefinition
  3

  2
T1
 70
     8
280
     0
  0
ATTDEF
  5
1D6
330
1B8
100
AcDbEntity
  8
AM_6
100
AcDbText
 10
10.8090625
 20
-11.41911764705882
 30
0.0
 40
0.5
  1
1/4
100
AcDbAttributeDefinition
  3

  2
X
 70
     8
280
     0
  0
ATTDEF
  5
1D7
330
1B8
100
AcDbEntity
  8
AM_6
100
AcDbText
 10
10.8090625
 20
-11.91911764705882
 30
0.0
 40
0.5
  1
0.025
100
AcDbAttributeDefinition
  3

  2
Y
 70
     8
280
     0
  0
ATTDEF
  5
1D8
330
1B8
100
AcDbEntity
  8
AM_6
100
AcDbText
 10
10.8090625
 20
-12.41911764705882
 30
0.0
 40
0.5
  1
3-15/32
100
AcDbAttributeDefinition
  3

  2
Z
 70
     8
280
     0
  0
ATTDEF
  5
1D9
330
1B8
100
AcDbEntity
  8
AM_6
100
AcDbText
 10
10.8090625
 20
-12.91911764705882
 30
0.0
 40
0.5
  1
baldor
100
AcDbAttributeDefinition
  3

  2
COMPANY
 70
     8
280
     0
  0
ELLIPSE
  5
1DA
330
1B8
100
AcDbEntity
  8
AM_9
100
AcDbEllipse
 10
-2.792931927204815
 20
-0.0000000000000001
 30
0.0
 11
2.449293598294707E-17
 21
0.4
 31
0.0
210
0.0
220
0.0
230
1.0
 40
0.5000000000000004
 41
0.0
 42
6.283185307179586
  0
LINE
  5
1DB
330
1B8
100
AcDbEntity
  8
AM_9
100
AcDbLine
 10
-2.708510115492824
 20
-0.4999881108353481
 30
0.0
 11
-2.70625985544
 21
-0.4999999879134653
 31
0.0
  0
LWPOLYLINE
  5
1DC
330
1B8
100
AcDbEntity
  8
AM_9
100
AcDbPolyline
 90
       22
 70
     0
 43
0.0
 10
-3.006329386826371
 20
-0.0000000000000001
 10
-3.006119574022999
 20
-0.0194294015180403
 10
-3.004599771088885
 20
-0.0556986926717789
 10
-3.001612102613077
 20
-0.0917039958877943
 10
-2.99715859993838
 20
-0.1272784937232955
 10
-2.991239685027816
 20
-0.1622654481190523
 10
-2.983852886135186
 20
-0.1965123778854221
 10
-2.974990971032248
 20
-0.2298710722482798
 10
-2.964639824424049
 20
-0.2621963643343462
 10
-2.952776582473616
 20
-0.2933428474699618
 10
-2.939369211406062
 20
-0.3231583933243433
 10
-2.924379926775228
 20
-0.3514732399281441
 10
-2.907776498043737
 20
-0.3780844337337261
 10
-2.889578395177567
 20
-0.4027118039517961
 10
-2.869889821385325
 20
-0.4250197032569695
 10
-2.848898555358274
 20
-0.4446857962522032
 10
-2.826870350026575
 20
-0.4614497287210172
 10
-2.804095048380685
 20
-0.4751674966324938
 10
-2.780836522422409
 20
-0.4858121538035325
 10
-2.757316681634601
 20
-0.4934338686479718
 10
-2.733724295276339
 20
-0.4981182765424303
 10
-2.718865436103218
 20
-0.4996068773008086
  0
LWPOLYLINE
  5
1DD
330
1B8
100
AcDbEntity
  8
AM_9
100
AcDbPolyline
 90
       23
 70
     0
 43
0.0
 10
-2.708262478367458
 20
0.4999906577563645
 10
-2.724360088146912
 20
0.4991862006756546
 10
-2.747253600608432
 20
0.4957853984902537
 10
-2.769625408144263
 20
0.4898240748838168
 10
-2.791411896371457
 20
0.4813713705689051
 10
-2.812574386106128
 20
0.4704607176563256
 10
-2.833087786084062
 20
0.45708664637862
 10
-2.852922600168116
 20
0.4412125865245698
 10
-2.872023195182294
 20
0.4227953007355352
 10
-2.890290160501545
 20
0.4018261026436896
 10
-2.907578920138127
 20
0.3783754908138514
 10
-2.923722420379696
 20
0.3526143064538202
 10
-2.938568463563974
 20
0.3247925421932618
 10
-2.951999754948772
 20
0.2952098517640218
 10
-2.963954367846656
 20
0.2641467950243093
 10
-2.974418569211186
 20
0.2318192110251857
 10
-2.983393039096629
 20
0.1984162786041292
 10
-2.990883069218071
 20
0.164110673550584
 10
-2.996893896222892
 20
0.1290670079696702
 10
-3.001429218817989
 20
0.093447189320719
 10
-3.004491244175525
 20
0.0574131876238166
 10
-3.006081265199362
 20
0.0211280194952395
 10
-3.006329386826371
 20
-0.0000000000000001
  0
LINE
  5
1DE
330
1B8
100
AcDbEntity
  8
AM_9
100
AcDbLine
 10
-2.706421718410135
 20
0.4999999786871956
 30
0.0
 11
-2.708262478367458
 21
0.4999906577563645
 31
0.0
  0
LINE
  5
1DF
330
1B8
100
AcDbEntity
  8
AM_9
100
AcDbLine
 10
4.625
 20
-0.8125
 30
0.0
 11
5.75
 21
-0.8125
 31
0.0
  0
LINE
  5
1E0
330
1B8
100
AcDbEntity
  8
AM_9
100
AcDbLine
 10
5.75
 20
0.8125
 30
0.0
 11
4.625
 21
0.8125
 31
0.0
  0
LINE
  5
1E1
330
1B8
100
AcDbEntity
  8
AM_9
100
AcDbLine
 10
4.574999999999999
 20
-1.075
 30
0.0
 11
4.574999999999999
 21
1.075
 31
0.0
  0
LINE
  5
1E2
330
1B8
100
AcDbEntity
  8
AM_9
100
AcDbLine
 10
4.625
 20
-1.075
 30
0.0
 11
4.625
 21
1.075
 31
0.0
  0
LINE
  5
1E3
330
1B8
100
AcDbEntity
  8
AM_9
100
AcDbLine
 10
3.175000000000002
 20
-1.075
 30
0.0
 11
3.175000000000002
 21
1.075
 31
0.0
  0
LINE
  5
1E4
330
1B8
100
AcDbEntity
  8
AM_9
100
AcDbLine
 10
3.125
 20
-1.075
 30
0.0
 11
3.125
 21
1.075
 31
0.0
  0
LWPOLYLINE
  5
1E5
330
1B8
100
AcDbEntity
  8
AM_9
100
AcDbPolyline
 90
       29
 70
     0
 43
0.0
 10
-2.706329386826371
 20
0.4999999999999998
 10
-2.6780656988214
 20
0.4968532241101261
 10
-2.649235213102582
 20
0.4875352397030439
 10
-2.620428443905876
 20
0.4722295616725615
 10
-2.5919943120375
 20
0.4510184279340685
 10
-2.564286720807762
 20
0.4241853485690728
 10
-2.537929519447332
 20
0.3922322396641872
 10
-2.513124801118082
 20
0.3550814586202279
 10
-2.490433972934214
 20
0.3133705211149101
 10
-2.470419182208668
 20
0.2678642135489621
 10
-2.453366122967043
 20
0.2186421241698628
 10
-2.439640953256407
 20
0.1664548123620345
 10
-2.429619239323771
 20
0.1122899460109897
 10
-2.423590712634025
 20
0.0571228611945064
 10
-2.421496449710898
 20
0.0010473003698772
 10
-2.42339576777085
 20
-0.0548625934383788
 10
-2.429250171056191
 20
-0.1095395302370378
 10
-2.438881237694783
 20
-0.1630141502376942
 10
-2.452028119931598
 20
-0.2142971332801708
 10
-2.468598288014071
 20
-0.2630960272580464
 10
-2.488208887052789
 20
-0.3087738388014508
 10
-2.510365791587851
 20
-0.3505048091453399
 10
-2.535048112813768
 20
-0.3882587737950595
 10
-2.561616094513945
 20
-0.4212458429422096
 10
-2.589440536105117
 20
-0.4488468084535541
 10
-2.618164792085325
 20
-0.4707295049122839
 10
-2.647392111904877
 20
-0.4867326098390797
 10
-2.676484916002398
 20
-0.4965384655000466
 10
-2.706329386826371
 20
-0.4999999999999999
  0
LWPOLYLINE
  5
1E6
330
1B8
100
AcDbEntity
  8
AM_9
100
AcDbPolyline
 90
       29
 70
     0
 43
0.0
 10
-2.706329386826371
 20
-0.4999999999999999
 10
-2.733044343066787
 20
-0.4970390183931881
 10
-2.758640855902944
 20
-0.4882304638572172
 10
-2.783318873250835
 20
-0.4732610516539428
 10
-2.806400149937649
 20
-0.452455455710419
 10
-2.827558963690955
 20
-0.4262071967894983
 10
-2.846836603814351
 20
-0.3944134152039497
 10
-2.864044987581865
 20
-0.357634388311214
 10
-2.879012497535552
 20
-0.3165432136489039
 10
-2.891828633723828
 20
-0.2710086597006613
 10
-2.902387918041593
 20
-0.2218738792489897
 10
-2.910616275208018
 20
-0.1700567594384189
 10
-2.916500592324867
 20
-0.1162281607827935
 10
-2.920120551796288
 20
-0.0607305397565034
 10
-2.921456078203511
 20
-0.0046289222617227
 10
-2.920519667400149
 20
0.0508895640490043
 10
-2.917352823913871
 20
0.1059401214582108
 10
-2.911972584228387
 20
0.1594887190541218
 10
-2.90434832432105
 20
0.2109595845618641
 10
-2.8944703283997
 20
0.2599663537607035
 10
-2.882404044109851
 20
0.3056211314570547
 10
-2.867931472807092
 20
0.3479077522374159
 10
-2.851189797823858
 20
0.3859703410575981
 10
-2.832342054600029
 20
0.4191083272851959
 10
-2.811255856180317
 20
0.4470897899022633
 10
-2.788141403213475
 20
0.4695038804559741
 10
-2.763329242038781
 20
0.4859129299782985
 10
-2.735514183683338
 20
0.4964516022384142
 10
-2.706329386826371
 20
0.4999999999999998
  0
LINE
  5
1E7
330
1B8
100
AcDbEntity
  8
AM_9
100
AcDbLine
 10
2.55905
 20
-0.9282051399198723
 30
0.0
 11
2.55905
 21
1.34375
 31
0.0
  0
LINE
  5
1E8
330
1B8
100
AcDbEntity
  8
AM_9
100
AcDbLine
 10
-2.55905
 20
1.34375
 30
0.0
 11
-2.55905
 21
-0.9282051399198723
 31
0.0
  0
LINE
  5
1E9
330
1B8
100
AcDbEntity
  8
AM_9
100
AcDbLine
 10
-2.55905
 20
-0.9282051399198723
 30
0.0
 11
2.55905
 21
-0.9282051399198723
 31
0.0
  0
LINE
  5
1EA
330
1B8
100
AcDbEntity
  8
AM_9
100
AcDbLine
 10
-2.55905
 20
-0.9282051399198723
 30
0.0
 11
-2.670394909677375
 21
-1.34375
 31
0.0
  0
LINE
  5
1EB
330
1B8
100
AcDbEntity
  8
AM_9
100
AcDbLine
 10
2.670394909677375
 20
-1.34375
 30
0.0
 11
2.55905
 21
-0.9282051399198723
 31
0.0
  0
ELLIPSE
  5
1EC
330
1B8
100
AcDbEntity
  8
AM_9
100
AcDbEllipse
 10
-2.706329386826371
 20
-0.0000000000000002
 30
0.0
 11
-9.184850993605146E-17
 21
-0.4999999999999999
 31
0.0
210
0.0
220
0.0
230
1.0
 40
0.5000000000000001
 41
0.0
 42
6.283185307179586
  0
LINE
  5
1ED
330
1B8
100
AcDbEntity
  8
AM_7
100
AcDbLine
 10
5.8090625
 20
0.0
 30
0.0
 11
4.5096875
 21
0.0
 31
0.0
  0
LINE
  5
1EE
330
1B8
100
AcDbEntity
  8
AM_4
100
AcDbLine
 10
5.7
 20
1.580882352941176
 30
0.0
 11
4.675000000000001
 21
1.580882352941176
 31
0.0
  0
LINE
  5
1EF
330
1B8
100
AcDbEntity
  8
AM_4
100
AcDbLine
 10
4.675000000000001
 20
-1.580882352941176
 30
0.0
 11
5.7
 21
-1.580882352941176
 31
0.0
  0
ARC
  5
1F0
330
1B8
100
AcDbEntity
  8
AM_4
100
AcDbCircle
 10
5.699999999999998
 20
1.530882352941175
 30
0.0
 40
0.0500000000000016
100
AcDbArc
 50
0.0
 51
90.0
  0
LINE
  5
1F1
330
1B8
100
AcDbEntity
  8
AM_4
100
AcDbLine
 10
5.75
 20
1.530882352941175
 30
0.0
 11
5.75
 21
-1.530882352941175
 31
0.0
  0
LINE
  5
1F2
330
1B8
100
AcDbEntity
  8
AM_4
100
AcDbLine
 10
5.7
 20
1.580882352941176
 30
0.0
 11
5.7
 21
-1.580882352941176
 31
0.0
  0
ARC
  5
1F3
330
1B8
100
AcDbEntity
  8
AM_4
100
AcDbCircle
 10
5.699999999999998
 20
-1.530882352941175
 30
0.0
 40
0.0500000000000014
100
AcDbArc
 50
270.0
 51
0.0
  0
LINE
  5
1F4
330
1B8
100
AcDbEntity
  8
AM_4
100
AcDbLine
 10
4.625
 20
1.530882352941176
 30
0.0
 11
4.625
 21
1.075
 31
0.0
  0
ARC
  5
1F5
330
1B8
100
AcDbEntity
  8
AM_4
100
AcDbCircle
 10
4.674999999999999
 20
1.530882352941177
 30
0.0
 40
0.0499999999999996
100
AcDbArc
 50
90.0
 51
180.0
  0
LINE
  5
1F6
330
1B8
100
AcDbEntity
  8
AM_4
100
AcDbLine
 10
4.675000000000001
 20
1.580882352941176
 30
0.0
 11
4.675000000000001
 21
1.075
 31
0.0
  0
LINE
  5
1F7
330
1B8
100
AcDbEntity
  8
AM_4
100
AcDbLine
 10
4.625
 20
-1.075
 30
0.0
 11
4.625
 21
-1.530882352941176
 31
0.0
  0
LINE
  5
1F8
330
1B8
100
AcDbEntity
  8
AM_4
100
AcDbLine
 10
4.675000000000001
 20
-1.075
 30
0.0
 11
4.675000000000001
 21
-1.580882352941176
 31
0.0
  0
ARC
  5
1F9
330
1B8
100
AcDbEntity
  8
AM_4
100
AcDbCircle
 10
4.674999999999999
 20
-1.530882352941177
 30
0.0
 40
0.0499999999999989
100
AcDbArc
 50
180.0
 51
270.0
  0
LINE
  5
1FA
330
1B8
100
AcDbEntity
  8
AM_4
100
AcDbLine
 10
3.125
 20
1.075
 30
0.0
 11
3.125
 21
1.29375
 31
0.0
  0
LINE
  5
1FB
330
1B8
100
AcDbEntity
  8
AM_4
100
AcDbLine
 10
3.125
 20
-1.29375
 30
0.0
 11
3.125
 21
-1.075
 31
0.0
  0
LINE
  5
1FC
330
1B8
100
AcDbEntity
  8
AM_4
100
AcDbLine
 10
-3.125
 20
1.29375
 30
0.0
 11
-3.125
 21
-1.29375
 31
0.0
  0
LINE
  5
1FD
330
1B8
100
AcDbEntity
  8
AM_4
100
AcDbLine
 10
-3.075
 20
-1.34375
 30
0.0
 11
3.075
 21
-1.34375
 31
0.0
  0
ARC
  5
1FE
330
1B8
100
AcDbEntity
  8
AM_4
100
AcDbCircle
 10
-3.075000000000001
 20
-1.293750000000001
 30
0.0
 40
0.0499999999999994
100
AcDbArc
 50
180.0
 51
270.0
  0
LINE
  5
1FF
330
1B8
100
AcDbEntity
  8
AM_4
100
AcDbLine
 10
-3.125
 20
-1.29375
 30
0.0
 11
-2.25
 21
-1.29375
 31
0.0
  0
LINE
  5
200
330
1B8
100
AcDbEntity
  8
AM_4
100
AcDbLine
 10
2.25
 20
1.29375
 30
0.0
 11
3.125
 21
1.29375
 31
0.0
  0
ARC
  5
201
330
1B8
100
AcDbEntity
  8
AM_4
100
AcDbCircle
 10
3.075
 20
1.29375
 30
0.0
 40
0.0500000000000003
100
AcDbArc
 50
0.0
 51
90.0
  0
LINE
  5
202
330
1B8
100
AcDbEntity
  8
AM_4
100
AcDbLine
 10
-3.075
 20
1.34375
 30
0.0
 11
3.075
 21
1.34375
 31
0.0
  0
ARC
  5
203
330
1B8
100
AcDbEntity
  8
AM_4
100
AcDbCircle
 10
-3.075000000000001
 20
1.29375
 30
0.0
 40
0.0499999999999998
100
AcDbArc
 50
90.0
 51
180.0
  0
LINE
  5
204
330
1B8
100
AcDbEntity
  8
AM_4
100
AcDbLine
 10
-3.125
 20
1.29375
 30
0.0
 11
-2.25
 21
1.29375
 31
0.0
  0
LINE
  5
205
330
1B8
100
AcDbEntity
  8
AM_4
100
AcDbLine
 10
2.25
 20
-1.29375
 30
0.0
 11
3.125
 21
-1.29375
 31
0.0
  0
ARC
  5
206
330
1B8
100
AcDbEntity
  8
AM_4
100
AcDbCircle
 10
3.075000000000001
 20
-1.293750000000001
 30
0.0
 40
0.0499999999999994
100
AcDbArc
 50
270.0
 51
0.0
  0
LINE
  5
207
330
1B8
100
AcDbEntity
  8
AM_4
100
AcDbLine
 10
5.75
 20
1.075
 30
0.0
 11
2.25
 21
1.075
 31
0.0
  0
LINE
  5
208
330
1B8
100
AcDbEntity
  8
AM_4
100
AcDbLine
 10
5.75
 20
-1.075
 30
0.0
 11
2.25
 21
-1.075
 31
0.0
  0
LINE
  5
209
330
1B8
100
AcDbEntity
  8
AM_4
100
AcDbLine
 10
2.25
 20
-1.34375
 30
0.0
 11
2.25
 21
1.34375
 31
0.0
  0
LINE
  5
20A
330
1B8
100
AcDbEntity
  8
AM_4
100
AcDbLine
 10
-2.25
 20
0.9062500000000001
 30
0.0
 11
2.25
 21
0.9062500000000001
 31
0.0
  0
LINE
  5
20B
330
1B8
100
AcDbEntity
  8
AM_4
100
AcDbLine
 10
2.2
 20
0.9062500000000001
 30
0.0
 11
2.2
 21
1.34375
 31
0.0
  0
LINE
  5
20C
330
1B8
100
AcDbEntity
  8
AM_4
100
AcDbLine
 10
-2.25
 20
-1.34375
 30
0.0
 11
-2.25
 21
1.34375
 31
0.0
  0
LINE
  5
20D
330
1B8
100
AcDbEntity
  8
AM_4
100
AcDbLine
 10
-2.2
 20
0.9062500000000001
 30
0.0
 11
-2.2
 21
1.34375
 31
0.0
  0
LINE
  5
20E
330
1B8
100
AcDbEntity
  8
AM_4
100
AcDbLine
 10
2.25
 20
-0.9062499999999998
 30
0.0
 11
-2.25
 21
-0.9062499999999998
 31
0.0
  0
LINE
  5
20F
330
1B8
100
AcDbEntity
  8
AM_4
100
AcDbLine
 10
2.2
 20
-1.34375
 30
0.0
 11
2.2
 21
-0.9062499999999998
 31
0.0
  0
LINE
  5
210
330
1B8
100
AcDbEntity
  8
AM_4
100
AcDbLine
 10
-2.2
 20
-1.34375
 30
0.0
 11
-2.2
 21
-0.9062499999999998
 31
0.0
  0
ENDBLK
  5
1BB
330
1B8
100
AcDbEntity
  8
0
100
AcDbBlockEnd
  0
ENDSEC
  0
SECTION
  2
ENTITIES
  0
INSERT
  5
6F
330
1F
100
AcDbEntity
  8
0
100
AcDbBlockReference
  2
1_070791_4
 10
0.0
 20
0.0
 30
0.0
  0
POINT
  5
212
330
1F
100
AcDbEntity
  8
ConnectionPoints
100
AcDbPoint
 10
0.0
 20
-2.15625
 30
0.0000000000000001
  0
POINT
  5
213
330
1F
100
AcDbEntity
  8
ConnectionPoints
100
AcDbPoint
 10
0.0
 20
2.593249999999999
 30
-0.0000000000000002
  0
POINT
  5
214
330
1F
100
AcDbEntity
  8
ConnectionPoints
100
AcDbPoint
 10
0.0
 20
-2.15625
 30
0.0000000000000001
  0
POINT
  5
215
330
1F
100
AcDbEntity
  8
ConnectionPoints
100
AcDbPoint
 10
-2.792931927204815
 20
-0.0000000000000001
 30
-1.6125
  0
POINT
  5
216
330
1F
100
AcDbEntity
  8
ConnectionPoints
100
AcDbPoint
 10
-2.792931927204815
 20
-0.0000000000000001
 30
-1.6125
  0
POINT
  5
217
330
1F
100
AcDbEntity
  8
ConnectionPoints
100
AcDbPoint
 10
0.0
 20
-2.15625
 30
0.0000000000000001
  0
POINT
  5
218
330
1F
100
AcDbEntity
  8
ConnectionPoints
100
AcDbPoint
 10
0.0
 20
-2.40625
 30
0.0000000000000001
  0
ENDSEC
  0
SECTION
  2
OBJECTS
  0
DICTIONARY
  5
C
330
0
100
AcDbDictionary
281
     1
  3
ACAD_DETAILVIEWSTYLE
350
220
  3
ACAD_GROUP
350
D
  3
ACAD_LAYOUT
350
1A
  3
ACAD_MATERIAL
350
43
  3
ACAD_MLEADERSTYLE
350
6B
  3
ACAD_MLINESTYLE
350
17
  3
ACAD_PLOTSETTINGS
350
19
  3
ACAD_PLOTSTYLENAME
350
E
  3
ACAD_SCALELIST
350
47
  3
ACAD_SECTIONVIEWSTYLE
350
221
  3
ACAD_TABLESTYLE
350
69
  3
ACAD_VISUALSTYLE
350
2A
  3
ACDB_RECOMPOSE_DATA
350
21D
  3
AcDbVariableDictionary
350
219
  0
SUN
  5
6D
330
29
100
AcDbSun
 90
        1
290
     0
 63
     7
421
 16777215
 40
1.0
291
     1
 91
  2455826
 92
 54000000
292
     0
 70
     2
 71
   256
280
     1
  0
DICTIONARY
  5
220
102
{ACAD_REACTORS
330
C
102
}
330
C
100
AcDbDictionary
281
     1
  0
DICTIONARY
  5
D
102
{ACAD_REACTORS
330
C
102
}
330
C
100
AcDbDictionary
281
     1
  0
DICTIONARY
  5
1A
102
{ACAD_REACTORS
330
C
102
}
330
C
100
AcDbDictionary
281
     1
  3
Layout1
350
1E
  3
Layout2
350
26
  3
Model
350
22
  0
DICTIONARY
  5
43
102
{ACAD_REACTORS
330
C
102
}
330
C
100
AcDbDictionary
281
     1
  3
ByBlock
350
45
  3
ByLayer
350
44
  3
Global
350
46
  0
DICTIONARY
  5
6B
102
{ACAD_REACTORS
330
C
102
}
330
C
100
AcDbDictionary
281
     1
  3
Standard
350
6C
  0
DICTIONARY
  5
17
102
{ACAD_REACTORS
330
C
102
}
330
C
100
AcDbDictionary
281
     1
  3
Standard
350
18
  0
DICTIONARY
  5
19
102
{ACAD_REACTORS
330
C
102
}
330
C
100
AcDbDictionary
281
     1
  0
ACDBDICTIONARYWDFLT
  5
E
102
{ACAD_REACTORS
330
C
102
}
330
C
100
AcDbDictionary
281
     1
  3
Normal
350
F
100
AcDbDictionaryWithDefault
340
F
  0
DICTIONARY
  5
47
102
{ACAD_REACTORS
330
C
102
}
330
C
100
AcDbDictionary
281
     1
  3
A0
350
48
  3
A1
350
49
  3
A2
350
4A
  3
A3
350
4B
  3
A4
350
4C
  3
A5
350
4D
  3
A6
350
4E
  3
A7
350
4F
  3
A8
350
50
  3
A9
350
51
  3
B0
350
52
  3
B1
350
53
  3
B2
350
54
  3
B3
350
55
  3
B4
350
56
  3
B5
350
57
  3
B6
350
58
  3
B7
350
59
  3
B8
350
5A
  3
B9
350
5B
  3
C0
350
5C
  3
C1
350
5D
  3
C2
350
5E
  3
C3
350
5F
  3
C4
350
60
  3
C5
350
61
  3
C6
350
62
  3
C7
350
63
  3
C8
350
64
  3
C9
350
65
  3
D0
350
66
  3
D1
350
67
  3
D2
350
68
  0
DICTIONARY
  5
221
102
{ACAD_REACTORS
330
C
102
}
330
C
100
AcDbDictionary
281
     1
  0
DICTIONARY
  5
69
102
{ACAD_REACTORS
330
C
102
}
330
C
100
AcDbDictionary
281
     1
  3
Standard
350
6A
  0
DICTIONARY
  5
2A
102
{ACAD_REACTORS
330
C
102
}
330
C
100
AcDbDictionary
281
     1
  3
2dWireframe
350
2F
  3
Basic
350
32
  3
Brighten
350
36
  3
ColorChange
350
3A
  3
Conceptual
350
34
  3
Dim
350
35
  3
EdgeColorOff
350
3D
  3
Facepattern
350
39
  3
Flat
350
2B
  3
FlatWithEdges
350
2C
  3
Gouraud
350
2D
  3
GouraudWithEdges
350
2E
  3
Hidden
350
31
  3
JitterOff
350
3B
  3
Linepattern
350
38
  3
OverhangOff
350
3C
  3
Realistic
350
33
  3
Shaded
350
42
  3
Shaded with edges
350
41
  3
Shades of Gray
350
3E
  3
Sketchy
350
3F
  3
Thicken
350
37
  3
Wireframe
350
30
  3
X-Ray
350
40
  0
XRECORD
  5
21D
102
{ACAD_REACTORS
330
C
102
}
330
C
100
AcDbXrecord
280
     1
 90
        1
330
6A
  0
DICTIONARY
  5
219
102
{ACAD_REACTORS
330
C
102
}
330
C
100
AcDbDictionary
281
     1
  3
CANNOSCALE
350
21A
  3
CMLEADERSTYLE
350
21F
  3
CTABLESTYLE
350
21E
  0
LAYOUT
  5
1E
102
{ACAD_REACTORS
330
1A
102
}
330
1A
100
AcDbPlotSettings
  1

  2
none_device
  4

  6

 40
0.0
 41
0.0
 42
0.0
 43
0.0
 44
0.0
 45
0.0
 46
0.0
 47
0.0
 48
0.0
 49
0.0
140
0.0
141
0.0
142
1.0
143
1.0
 70
   688
 72
     0
 73
     0
 74
     5
  7

 75
    16
 76
     0
 77
     2
 78
   300
147
1.0
148
0.0
149
0.0
100
AcDbLayout
  1
Layout1
 70
     1
 71
     1
 10
0.0
 20
0.0
 11
12.0
 21
9.0
 12
0.0
 22
0.0
 32
0.0
 14
1.000000000000000E+20
 24
1.000000000000000E+20
 34
1.000000000000000E+20
 15
-1.000000000000000E+20
 25
-1.000000000000000E+20
 35
-1.000000000000000E+20
146
0.0
 13
0.0
 23
0.0
 33
0.0
 16
1.0
 26
0.0
 36
0.0
 17
0.0
 27
1.0
 37
0.0
 76
     0
330
1B
  0
LAYOUT
  5
26
102
{ACAD_REACTORS
330
1A
102
}
330
1A
100
AcDbPlotSettings
  1

  2
none_device
  4

  6

 40
0.0
 41
0.0
 42
0.0
 43
0.0
 44
0.0
 45
0.0
 46
0.0
 47
0.0
 48
0.0
 49
0.0
140
0.0
141
0.0
142
1.0
143
1.0
 70
   688
 72
     0
 73
     0
 74
     5
  7

 75
    16
 76
     0
 77
     2
 78
   300
147
1.0
148
0.0
149
0.0
100
AcDbLayout
  1
Layout2
 70
     1
 71
     2
 10
0.0
 20
0.0
 11
0.0
 21
0.0
 12
0.0
 22
0.0
 32
0.0
 14
0.0
 24
0.0
 34
0.0
 15
0.0
 25
0.0
 35
0.0
146
0.0
 13
0.0
 23
0.0
 33
0.0
 16
1.0
 26
0.0
 36
0.0
 17
0.0
 27
1.0
 37
0.0
 76
     0
330
23
  0
LAYOUT
  5
22
102
{ACAD_REACTORS
330
1A
102
}
330
1A
100
AcDbPlotSettings
  1

  2
none_device
  4
Letter_(8.50_x_11.00_Inches)
  6

 40
6.35
 41
6.35
 42
6.35000508
 43
6.35000508
 44
215.9
 45
279.4
 46
0.0
 47
0.0
 48
0.0
 49
0.0
140
0.0
141
0.0
142
1.0
143
1.0
 70
  1712
 72
     0
 73
     0
 74
     0
  7

 75
     0
 76
     0
 77
     2
 78
   300
147
1.0
148
0.0
149
0.0
100
AcDbLayout
  1
Model
 70
     1
 71
     0
 10
0.0
 20
0.0
 11
12.0
 21
9.0
 12
0.0
 22
0.0
 32
0.0
 14
1.000000000000000E+20
 24
1.000000000000000E+20
 34
1.000000000000000E+20
 15
-1.000000000000000E+20
 25
-1.000000000000000E+20
 35
-1.000000000000000E+20
146
0.0
 13
0.0
 23
0.0
 33
0.0
 16
1.0
 26
0.0
 36
0.0
 17
0.0
 27
1.0
 37
0.0
 76
     0
330
1F
331
29
  0
MATERIAL
  5
45
102
{ACAD_REACTORS
330
43
102
}
330
43
100
AcDbMaterial
  1
ByBlock
 72
     1
 94
      127
  0
MATERIAL
  5
44
102
{ACAD_REACTORS
330
43
102
}
330
43
100
AcDbMaterial
  1
ByLayer
 72
     1
 94
      127
  0
MATERIAL
  5
46
102
{ACAD_REACTORS
330
43
102
}
330
43
100
AcDbMaterial
  1
Global
 72
     1
 94
      127
  0
MLEADERSTYLE
  5
6C
102
{ACAD_REACTORS
330
6B
102
}
330
6B
100
AcDbMLeaderStyle
179
     2
170
     2
171
     1
172
     0
 90
        2
 40
0.0
 41
0.0
173
     1
 91
-1056964608
340
14
 92
       -2
290
     1
 42
0.09
291
     1
 43
0.36
  3
Standard
341
0
 44
0.18
300

342
11
174
     1
178
     6
175
     1
176
     0
 93
-1056964608
 45
0.18
292
     0
297
     0
 46
0.18
343
0
 94
-1056964608
 47
1.0
 49
1.0
140
1.0
293
     1
141
0.0
294
     1
177
     0
142
1.0
295
     0
296
     0
143
0.125
271
     0
272
     9
273
     9
298
     0
  0
MLINESTYLE
  5
18
102
{ACAD_REACTORS
330
17
102
}
330
17
100
AcDbMlineStyle
  2
Standard
 70
     0
  3

 62
   256
 51
90.0
 52
90.0
 71
     2
 49
0.5
 62
   256
  6
BYLAYER
 49
-0.5
 62
   256
  6
BYLAYER
  0
ACDBPLACEHOLDER
  5
F
102
{ACAD_REACTORS
330
E
102
}
330
E
  0
SCALE
  5
48
102
{ACAD_REACTORS
330
47
102
}
330
47
100
AcDbScale
 70
     0
300
1:1
140
1.0
141
1.0
290
     1
  0
SCALE
  5
49
102
{ACAD_REACTORS
330
47
102
}
330
47
100
AcDbScale
 70
     0
300
1:2
140
1.0
141
2.0
290
     0
  0
SCALE
  5
4A
102
{ACAD_REACTORS
330
47
102
}
330
47
100
AcDbScale
 70
     0
300
1:4
140
1.0
141
4.0
290
     0
  0
SCALE
  5
4B
102
{ACAD_REACTORS
330
47
102
}
330
47
100
AcDbScale
 70
     0
300
1:5
140
1.0
141
5.0
290
     0
  0
SCALE
  5
4C
102
{ACAD_REACTORS
330
47
102
}
330
47
100
AcDbScale
 70
     0
300
1:8
140
1.0
141
8.0
290
     0
  0
SCALE
  5
4D
102
{ACAD_REACTORS
330
47
102
}
330
47
100
AcDbScale
 70
     0
300
1:10
140
1.0
141
10.0
290
     0
  0
SCALE
  5
4E
102
{ACAD_REACTORS
330
47
102
}
330
47
100
AcDbScale
 70
     0
300
1:16
140
1.0
141
16.0
290
     0
  0
SCALE
  5
4F
102
{ACAD_REACTORS
330
47
102
}
330
47
100
AcDbScale
 70
     0
300
1:20
140
1.0
141
20.0
290
     0
  0
SCALE
  5
50
102
{ACAD_REACTORS
330
47
102
}
330
47
100
AcDbScale
 70
     0
300
1:30
140
1.0
141
30.0
290
     0
  0
SCALE
  5
51
102
{ACAD_REACTORS
330
47
102
}
330
47
100
AcDbScale
 70
     0
300
1:40
140
1.0
141
40.0
290
     0
  0
SCALE
  5
52
102
{ACAD_REACTORS
330
47
102
}
330
47
100
AcDbScale
 70
     0
300
1:50
140
1.0
141
50.0
290
     0
  0
SCALE
  5
53
102
{ACAD_REACTORS
330
47
102
}
330
47
100
AcDbScale
 70
     0
300
1:100
140
1.0
141
100.0
290
     0
  0
SCALE
  5
54
102
{ACAD_REACTORS
330
47
102
}
330
47
100
AcDbScale
 70
     0
300
2:1
140
2.0
141
1.0
290
     0
  0
SCALE
  5
55
102
{ACAD_REACTORS
330
47
102
}
330
47
100
AcDbScale
 70
     0
300
4:1
140
4.0
141
1.0
290
     0
  0
SCALE
  5
56
102
{ACAD_REACTORS
330
47
102
}
330
47
100
AcDbScale
 70
     0
300
8:1
140
8.0
141
1.0
290
     0
  0
SCALE
  5
57
102
{ACAD_REACTORS
330
47
102
}
330
47
100
AcDbScale
 70
     0
300
10:1
140
10.0
141
1.0
290
     0
  0
SCALE
  5
58
102
{ACAD_REACTORS
330
47
102
}
330
47
100
AcDbScale
 70
     0
300
100:1
140
100.0
141
1.0
290
     0
  0
SCALE
  5
59
102
{ACAD_REACTORS
330
47
102
}
330
47
100
AcDbScale
 70
     0
300
1/128" = 1'-0"
140
0.0078125
141
12.0
290
     0
  0
SCALE
  5
5A
102
{ACAD_REACTORS
330
47
102
}
330
47
100
AcDbScale
 70
     0
300
1/64" = 1'-0"
140
0.015625
141
12.0
290
     0
  0
SCALE
  5
5B
102
{ACAD_REACTORS
330
47
102
}
330
47
100
AcDbScale
 70
     0
300
1/32" = 1'-0"
140
0.03125
141
12.0
290
     0
  0
SCALE
  5
5C
102
{ACAD_REACTORS
330
47
102
}
330
47
100
AcDbScale
 70
     0
300
1/16" = 1'-0"
140
0.0625
141
12.0
290
     0
  0
SCALE
  5
5D
102
{ACAD_REACTORS
330
47
102
}
330
47
100
AcDbScale
 70
     0
300
3/32" = 1'-0"
140
0.09375
141
12.0
290
     0
  0
SCALE
  5
5E
102
{ACAD_REACTORS
330
47
102
}
330
47
100
AcDbScale
 70
     0
300
1/8" = 1'-0"
140
0.125
141
12.0
290
     0
  0
SCALE
  5
5F
102
{ACAD_REACTORS
330
47
102
}
330
47
100
AcDbScale
 70
     0
300
3/16" = 1'-0"
140
0.1875
141
12.0
290
     0
  0
SCALE
  5
60
102
{ACAD_REACTORS
330
47
102
}
330
47
100
AcDbScale
 70
     0
300
1/4" = 1'-0"
140
0.25
141
12.0
290
     0
  0
SCALE
  5
61
102
{ACAD_REACTORS
330
47
102
}
330
47
100
AcDbScale
 70
     0
300
3/8" = 1'-0"
140
0.375
141
12.0
290
     0
  0
SCALE
  5
62
102
{ACAD_REACTORS
330
47
102
}
330
47
100
AcDbScale
 70
     0
300
1/2" = 1'-0"
140
0.5
141
12.0
290
     0
  0
SCALE
  5
63
102
{ACAD_REACTORS
330
47
102
}
330
47
100
AcDbScale
 70
     0
300
3/4" = 1'-0"
140
0.75
141
12.0
290
     0
  0
SCALE
  5
64
102
{ACAD_REACTORS
330
47
102
}
330
47
100
AcDbScale
 70
     0
300
1" = 1'-0"
140
1.0
141
12.0
290
     0
  0
SCALE
  5
65
102
{ACAD_REACTORS
330
47
102
}
330
47
100
AcDbScale
 70
     0
300
1-1/2" = 1'-0"
140
1.5
141
12.0
290
     0
  0
SCALE
  5
66
102
{ACAD_REACTORS
330
47
102
}
330
47
100
AcDbScale
 70
     0
300
3" = 1'-0"
140
3.0
141
12.0
290
     0
  0
SCALE
  5
67
102
{ACAD_REACTORS
330
47
102
}
330
47
100
AcDbScale
 70
     0
300
6" = 1'-0"
140
6.0
141
12.0
290
     0
  0
SCALE
  5
68
102
{ACAD_REACTORS
330
47
102
}
330
47
100
AcDbScale
 70
     0
300
1'-0" = 1'-0"
140
12.0
141
12.0
290
     0
  0
TABLESTYLE
  5
6A
102
{ACAD_REACTORS
330
69
102
}
102
{ACAD_XDICTIONARY
360
21B
102
}
330
69
100
AcDbTableStyle
  3
Standard
 70
     0
 71
     0
 40
0.06
 41
0.06
280
     0
281
     0
  7
Standard
140
0.18
170
     2
 62
     0
 63
   257
283
     0
 90
        4
 91
        0
  1

274
    -2
284
     1
 64
     0
275
    -2
285
     1
 65
     0
276
    -2
286
     1
 66
     0
277
    -2
287
     1
 67
     0
278
    -2
288
     1
 68
     0
279
    -2
289
     1
 69
     0
  7
Standard
140
0.25
170
     5
 62
     0
 63
   257
283
     0
 90
        4
 91
        0
  1

274
    -2
284
     1
 64
     0
275
    -2
285
     1
 65
     0
276
    -2
286
     1
 66
     0
277
    -2
287
     1
 67
     0
278
    -2
288
     1
 68
     0
279
    -2
289
     1
 69
     0
  7
Standard
140
0.18
170
     5
 62
     0
 63
   257
283
     0
 90
        4
 91
        0
  1

274
    -2
284
     1
 64
     0
275
    -2
285
     1
 65
     0
276
    -2
286
     1
 66
     0
277
    -2
287
     1
 67
     0
278
    -2
288
     1
 68
     0
279
    -2
289
     1
 69
     0
  0
VISUALSTYLE
  5
2F
102
{ACAD_REACTORS
330
2A
102
}
330
2A
100
AcDbVisualStyle
  2
2dWireframe
 70
     4
177
     3
291
     0
 70
    58
 90
        0
176
     1
 90
        2
176
     1
 90
        0
176
     1
 90
        0
176
     1
 40
0.6
176
     1
 40
30.0
176
     1
 62
     7
420
 16777215
176
     1
 90
        1
176
     1
 90
        4
176
     1
 62
     7
176
     1
 62
   257
176
     1
 90
        1
176
     1
 90
        1
176
     1
 40
1.0
176
     1
 90
        0
176
     1
 62
   257
176
     1
 40
1.0
176
     1
 90
        1
176
     1
 90
        6
176
     1
 90
        2
176
     1
 62
     7
176
     1
 90
        5
176
     1
 90
        0
176
     1
 90
        0
176
     1
290
     0
176
     1
 90
        1
176
     1
 40
0.0
176
     1
 90
        0
176
     1
290
     1
176
     1
290
     1
176
     1
290
     0
176
     1
290
     0
176
     1
290
     0
176
     1
290
     0
176
     1
290
     0
176
     1
290
     0
176
     1
290
     0
176
     1
 90
       50
176
     1
 40
0.0
176
     1
 40
1.0
176
     1
 90
        0
176
     1
 62
    18
420
        0
176
     1
 90
       50
176
     1
 90
        3
176
     1
 62
     5
420
      255
176
     1
290
     0
176
     1
 90
       50
176
     1
 90
       50
176
     1
 90
       50
176
     1
290
     0
176
     1
 90
       50
176
     1
 62
   256
176
     0
 40
1.0
176
     0
 90
        2
176
     1
  1
strokes_ogs.tif
176
     1
290
     0
176
     1
 40
1.0
176
     1
 40
1.0
176
     1
  0
VISUALSTYLE
  5
32
102
{ACAD_REACTORS
330
2A
102
}
330
2A
100
AcDbVisualStyle
  2
Basic
 70
     7
177
     3
291
     1
 70
    58
 90
        1
176
     1
 90
        0
176
     1
 90
        1
176
     1
 90
        0
176
     1
 40
0.6
176
     1
 40
30.0
176
     1
 62
     7
420
 16777215
176
     1
 90
        0
176
     1
 90
        4
176
     1
 62
     7
176
     1
 62
   257
176
     1
 90
        1
176
     1
 90
        1
176
     1
 40
1.0
176
     1
 90
        8
176
     1
 62
     7
176
     1
 40
1.0
176
     1
 90
        1
176
     1
 90
        6
176
     1
 90
        2
176
     1
 62
     7
176
     1
 90
        5
176
     1
 90
        0
176
     1
 90
        0
176
     1
290
     0
176
     1
 90
        1
176
     1
 40
0.0
176
     1
 90
        0
176
     1
290
     0
176
     1
290
     1
176
     1
290
     1
176
     1
290
     0
176
     1
290
     0
176
     1
290
     0
176
     1
290
     0
176
     1
290
     0
176
     1
290
     0
176
     1
 90
       50
176
     1
 40
0.0
176
     1
 40
1.0
176
     1
 90
        0
176
     1
 62
    18
420
        0
176
     1
 90
       50
176
     1
 90
        3
176
     1
 62
     5
420
      255
176
     1
290
     0
176
     1
 90
       50
176
     1
 90
       50
176
     1
 90
       50
176
     1
290
     0
176
     1
 90
       50
176
     1
 62
   256
176
     0
 40
1.0
176
     0
 90
        2
176
     1
  1
strokes_ogs.tif
176
     1
290
     0
176
     1
 40
1.0
176
     1
 40
1.0
176
     1
  0
VISUALSTYLE
  5
36
102
{ACAD_REACTORS
330
2A
102
}
330
2A
100
AcDbVisualStyle
  2
Brighten
 70
    12
177
     3
291
     1
 70
    58
 90
        2
176
     1
 90
        2
176
     1
 90
        0
176
     1
 90
        0
176
     1
 40
0.6
176
     1
 40
30.0
176
     1
 62
     7
420
 16777215
176
     1
 90
        1
176
     1
 90
        4
176
     1
 62
     7
176
     1
 62
   257
176
     1
 90
        1
176
     1
 90
        1
176
     1
 40
1.0
176
     1
 90
        8
176
     1
 62
     7
176
     1
 40
1.0
176
     1
 90
        1
176
     1
 90
        6
176
     1
 90
        2
176
     1
 62
     7
176
     1
 90
        5
176
     1
 90
        0
176
     1
 90
        0
176
     1
290
     0
176
     1
 90
        1
176
     1
 40
50.0
176
     1
 90
        0
176
     1
290
     0
176
     1
290
     1
176
     1
290
     1
176
     1
290
     0
176
     1
290
     0
176
     1
290
     0
176
     1
290
     0
176
     1
290
     0
176
     1
290
     0
176
     1
 90
       50
176
     1
 40
0.0
176
     1
 40
1.0
176
     1
 90
        0
176
     1
 62
    18
420
        0
176
     1
 90
       50
176
     1
 90
        3
176
     1
 62
     5
420
      255
176
     1
290
     0
176
     1
 90
       50
176
     1
 90
       50
176
     1
 90
       50
176
     1
290
     0
176
     1
 90
       50
176
     1
 62
   256
176
     0
 40
1.0
176
     0
 90
        2
176
     1
  1
strokes_ogs.tif
176
     1
290
     0
176
     1
 40
1.0
176
     1
 40
1.0
176
     1
  0
VISUALSTYLE
  5
3A
102
{ACAD_REACTORS
330
2A
102
}
330
2A
100
AcDbVisualStyle
  2
ColorChange
 70
    16
177
     3
291
     1
 70
    58
 90
        2
176
     1
 90
        2
176
     1
 90
        3
176
     1
 90
        0
176
     1
 40
0.6
176
     1
 40
30.0
176
     1
 62
     8
420
  8421504
176
     1
 90
        1
176
     1
 90
        4
176
     1
 62
     7
176
     1
 62
   257
176
     1
 90
        1
176
     1
 90
        1
176
     1
 40
1.0
176
     1
 90
        8
176
     1
 62
     8
420
  8421504
176
     1
 40
1.0
176
     1
 90
        1
176
     1
 90
        6
176
     1
 90
        2
176
     1
 62
     7
176
     1
 90
        5
176
     1
 90
        0
176
     1
 90
        0
176
     1
290
     0
176
     1
 90
        1
176
     1
 40
0.0
176
     1
 90
        0
176
     1
290
     0
176
     1
290
     1
176
     1
290
     1
176
     1
290
     0
176
     1
290
     0
176
     1
290
     0
176
     1
290
     0
176
     1
290
     0
176
     1
290
     0
176
     1
 90
       50
176
     1
 40
0.0
176
     1
 40
1.0
176
     1
 90
        0
176
     1
 62
    18
420
        0
176
     1
 90
       50
176
     1
 90
        3
176
     1
 62
     5
420
      255
176
     1
290
     0
176
     1
 90
       50
176
     1
 90
       50
176
     1
 90
       50
176
     1
290
     0
176
     1
 90
       50
176
     1
 62
   256
176
     0
 40
1.0
176
     0
 90
        2
176
     1
  1
strokes_ogs.tif
176
     1
290
     0
176
     1
 40
1.0
176
     1
 40
1.0
176
     1
  0
VISUALSTYLE
  5
34
102
{ACAD_REACTORS
330
2A
102
}
330
2A
100
AcDbVisualStyle
  2
Conceptual
 70
     9
177
     3
291
     0
 70
    58
 90
        3
176
     1
 90
        2
176
     1
 90
        0
176
     1
 90
        0
176
     1
 40
0.6
176
     1
 40
30.0
176
     1
 62
     7
420
 16777215
176
     1
 90
        2
176
     1
 90
        2
176
     1
 62
     7
176
     1
 62
   257
176
     1
 90
        1
176
     1
 90
        1
176
     1
 40
179.0
176
     1
 90
        8
176
     1
 62
     7
176
     1
 40
1.0
176
     1
 90
        1
176
     1
 90
        6
176
     1
 90
        2
176
     1
 62
     7
176
     1
 90
        3
176
     1
 90
        0
176
     1
 90
        0
176
     1
290
     0
176
     1
 90
        1
176
     1
 40
0.0
176
     1
 90
        0
176
     1
290
     0
176
     1
290
     1
176
     1
290
     1
176
     1
290
     0
176
     1
290
     0
176
     1
290
     0
176
     1
290
     0
176
     1
290
     0
176
     1
290
     0
176
     1
 90
       50
176
     1
 40
0.0
176
     1
 40
1.0
176
     1
 90
        0
176
     1
 62
    18
420
        0
176
     1
 90
       50
176
     1
 90
        3
176
     1
 62
     5
420
      255
176
     1
290
     0
176
     1
 90
       50
176
     1
 90
       50
176
     1
 90
       50
176
     1
290
     0
176
     1
 90
       50
176
     1
 62
   256
176
     0
 40
1.0
176
     0
 90
        2
176
     1
  1
strokes_ogs.tif
176
     1
290
     0
176
     1
 40
1.0
176
     1
 40
1.0
176
     1
  0
VISUALSTYLE
  5
35
102
{ACAD_REACTORS
330
2A
102
}
330
2A
100
AcDbVisualStyle
  2
Dim
 70
    11
177
     3
291
     1
 70
    58
 90
        2
176
     1
 90
        2
176
     1
 90
        0
176
     1
 90
        0
176
     1
 40
0.6
176
     1
 40
30.0
176
     1
 62
     7
420
 16777215
176
     1
 90
        1
176
     1
 90
        4
176
     1
 62
     7
176
     1
 62
   257
176
     1
 90
        1
176
     1
 90
        1
176
     1
 40
1.0
176
     1
 90
        8
176
     1
 62
     7
176
     1
 40
1.0
176
     1
 90
        1
176
     1
 90
        6
176
     1
 90
        2
176
     1
 62
     7
176
     1
 90
        5
176
     1
 90
        0
176
     1
 90
        0
176
     1
290
     0
176
     1
 90
        1
176
     1
 40
-50.0
176
     1
 90
        0
176
     1
290
     0
176
     1
290
     1
176
     1
290
     1
176
     1
290
     0
176
     1
290
     0
176
     1
290
     0
176
     1
290
     0
176
     1
290
     0
176
     1
290
     0
176
     1
 90
       50
176
     1
 40
0.0
176
     1
 40
1.0
176
     1
 90
        0
176
     1
 62
    18
420
        0
176
     1
 90
       50
176
     1
 90
        3
176
     1
 62
     5
420
      255
176
     1
290
     0
176
     1
 90
       50
176
     1
 90
       50
176
     1
 90
       50
176
     1
290
     0
176
     1
 90
       50
176
     1
 62
   256
176
     0
 40
1.0
176
     0
 90
        2
176
     1
  1
strokes_ogs.tif
176
     1
290
     0
176
     1
 40
1.0
176
     1
 40
1.0
176
     1
  0
VISUALSTYLE
  5
3D
102
{ACAD_REACTORS
330
2A
102
}
330
2A
100
AcDbVisualStyle
  2
EdgeColorOff
 70
    22
177
     3
291
     1
 70
    58
 90
        2
176
     0
 90
        2
176
     0
 90
        0
176
     0
 90
        0
176
     0
 40
0.6
176
     0
 40
30.0
176
     0
 62
     7
420
 16777215
176
     0
 90
        1
176
     0
 90
        4
176
     0
 62
     7
176
     0
 62
   257
176
     0
 90
        1
176
     0
 90
        1
176
     0
 40
1.0
176
     0
 90
        8
176
     2
 62
     7
176
     0
 40
1.0
176
     0
 90
        1
176
     0
 90
        6
176
     0
 90
        2
176
     0
 62
     7
176
     0
 90
        5
176
     0
 90
        0
176
     0
 90
        0
176
     0
290
     0
176
     0
 90
        1
176
     0
 40
0.0
176
     0
 90
        0
176
     0
290
     0
176
     0
290
     1
176
     0
290
     1
176
     0
290
     0
176
     0
290
     0
176
     0
290
     0
176
     0
290
     0
176
     0
290
     0
176
     0
290
     0
176
     0
 90
       50
176
     0
 40
0.0
176
     0
 40
1.0
176
     0
 90
        0
176
     0
 62
    18
420
        0
176
     0
 90
       50
176
     0
 90
        3
176
     0
 62
     5
420
      255
176
     0
290
     0
176
     0
 90
       50
176
     0
 90
       50
176
     0
 90
       50
176
     0
290
     0
176
     0
 90
       50
176
     0
 62
   256
176
     0
 40
1.0
176
     0
 90
        2
176
     0
  1
strokes_ogs.tif
176
     0
290
     0
176
     0
 40
1.0
176
     0
 40
1.0
176
     0
  0
VISUALSTYLE
  5
39
102
{ACAD_REACTORS
330
2A
102
}
330
2A
100
AcDbVisualStyle
  2
Facepattern
 70
    15
177
     3
291
     1
 70
    58
 90
        2
176
     1
 90
        2
176
     1
 90
        0
176
     1
 90
        0
176
     1
 40
0.6
176
     1
 40
30.0
176
     1
 62
     7
420
 16777215
176
     1
 90
        1
176
     1
 90
        4
176
     1
 62
     7
176
     1
 62
   257
176
     1
 90
        1
176
     1
 90
        1
176
     1
 40
1.0
176
     1
 90
        8
176
     1
 62
     7
176
     1
 40
1.0
176
     1
 90
        1
176
     1
 90
        6
176
     1
 90
        2
176
     1
 62
     7
176
     1
 90
        5
176
     1
 90
        0
176
     1
 90
        0
176
     1
290
     0
176
     1
 90
        1
176
     1
 40
0.0
176
     1
 90
        0
176
     1
290
     0
176
     1
290
     1
176
     1
290
     1
176
     1
290
     0
176
     1
290
     0
176
     1
290
     0
176
     1
290
     0
176
     1
290
     0
176
     1
290
     0
176
     1
 90
       50
176
     1
 40
0.0
176
     1
 40
1.0
176
     1
 90
        0
176
     1
 62
    18
420
        0
176
     1
 90
       50
176
     1
 90
        3
176
     1
 62
     5
420
      255
176
     1
290
     0
176
     1
 90
       50
176
     1
 90
       50
176
     1
 90
       50
176
     1
290
     0
176
     1
 90
       50
176
     1
 62
   256
176
     0
 40
1.0
176
     0
 90
        2
176
     1
  1
strokes_ogs.tif
176
     1
290
     0
176
     1
 40
1.0
176
     1
 40
1.0
176
     1
  0
VISUALSTYLE
  5
2B
102
{ACAD_REACTORS
330
2A
102
}
330
2A
100
AcDbVisualStyle
  2
Flat
 70
     0
177
     3
291
     1
 70
    58
 90
        2
176
     1
 90
        1
176
     1
 90
        1
176
     1
 90
        2
176
     1
 40
0.6
176
     1
 40
30.0
176
     1
 62
     7
420
 16777215
176
     1
 90
        0
176
     1
 90
        0
176
     1
 62
     7
176
     1
 62
   257
176
     1
 90
        1
176
     1
 90
        1
176
     1
 40
1.0
176
     1
 90
        8
176
     1
 62
     7
176
     1
 40
1.0
176
     1
 90
        1
176
     1
 90
        6
176
     1
 90
        2
176
     1
 62
     7
176
     1
 90
        5
176
     1
 90
        0
176
     1
 90
        0
176
     1
290
     0
176
     1
 90
       13
176
     1
 40
0.0
176
     1
 90
        0
176
     1
290
     0
176
     1
290
     1
176
     1
290
     1
176
     1
290
     0
176
     1
290
     0
176
     1
290
     0
176
     1
290
     0
176
     1
290
     0
176
     1
290
     0
176
     1
 90
       50
176
     1
 40
0.0
176
     1
 40
1.0
176
     1
 90
        0
176
     1
 62
    18
420
        0
176
     1
 90
       50
176
     1
 90
        3
176
     1
 62
     5
420
      255
176
     1
290
     0
176
     1
 90
       50
176
     1
 90
       50
176
     1
 90
       50
176
     1
290
     0
176
     1
 90
       50
176
     1
 62
   256
176
     0
 40
1.0
176
     0
 90
        2
176
     1
  1
strokes_ogs.tif
176
     1
290
     0
176
     1
 40
1.0
176
     1
 40
1.0
176
     1
  0
VISUALSTYLE
  5
2C
102
{ACAD_REACTORS
330
2A
102
}
330
2A
100
AcDbVisualStyle
  2
FlatWithEdges
 70
     1
177
     3
291
     1
 70
    58
 90
        2
176
     1
 90
        1
176
     1
 90
        1
176
     1
 90
        2
176
     1
 40
0.6
176
     1
 40
30.0
176
     1
 62
     7
420
 16777215
176
     1
 90
        1
176
     1
 90
        0
176
     1
 62
     7
176
     1
 62
   257
176
     1
 90
        1
176
     1
 90
        1
176
     1
 40
1.0
176
     1
 90
        0
176
     1
 62
   257
176
     1
 40
1.0
176
     1
 90
        1
176
     1
 90
        6
176
     1
 90
        2
176
     1
 62
     7
176
     1
 90
        5
176
     1
 90
        0
176
     1
 90
        0
176
     1
290
     0
176
     1
 90
       13
176
     1
 40
0.0
176
     1
 90
        0
176
     1
290
     0
176
     1
290
     1
176
     1
290
     1
176
     1
290
     0
176
     1
290
     0
176
     1
290
     0
176
     1
290
     0
176
     1
290
     0
176
     1
290
     0
176
     1
 90
       50
176
     1
 40
0.0
176
     1
 40
1.0
176
     1
 90
        0
176
     1
 62
    18
420
        0
176
     1
 90
       50
176
     1
 90
        3
176
     1
 62
     5
420
      255
176
     1
290
     0
176
     1
 90
       50
176
     1
 90
       50
176
     1
 90
       50
176
     1
290
     0
176
     1
 90
       50
176
     1
 62
   256
176
     0
 40
1.0
176
     0
 90
        2
176
     1
  1
strokes_ogs.tif
176
     1
290
     0
176
     1
 40
1.0
176
     1
 40
1.0
176
     1
  0
VISUALSTYLE
  5
2D
102
{ACAD_REACTORS
330
2A
102
}
330
2A
100
AcDbVisualStyle
  2
Gouraud
 70
     2
177
     3
291
     1
 70
    58
 90
        2
176
     1
 90
        2
176
     1
 90
        1
176
     1
 90
        2
176
     1
 40
0.6
176
     1
 40
30.0
176
     1
 62
     7
420
 16777215
176
     1
 90
        0
176
     1
 90
        0
176
     1
 62
     7
176
     1
 62
   257
176
     1
 90
        1
176
     1
 90
        1
176
     1
 40
1.0
176
     1
 90
        0
176
     1
 62
     7
176
     1
 40
1.0
176
     1
 90
        1
176
     1
 90
        6
176
     1
 90
        2
176
     1
 62
     7
176
     1
 90
        5
176
     1
 90
        0
176
     1
 90
        0
176
     1
290
     0
176
     1
 90
       13
176
     1
 40
0.0
176
     1
 90
        0
176
     1
290
     0
176
     1
290
     1
176
     1
290
     1
176
     1
290
     0
176
     1
290
     0
176
     1
290
     0
176
     1
290
     0
176
     1
290
     0
176
     1
290
     0
176
     1
 90
       50
176
     1
 40
0.0
176
     1
 40
1.0
176
     1
 90
        0
176
     1
 62
    18
420
        0
176
     1
 90
       50
176
     1
 90
        3
176
     1
 62
     5
420
      255
176
     1
290
     0
176
     1
 90
       50
176
     1
 90
       50
176
     1
 90
       50
176
     1
290
     0
176
     1
 90
       50
176
     1
 62
   256
176
     0
 40
1.0
176
     0
 90
        2
176
     1
  1
strokes_ogs.tif
176
     1
290
     0
176
     1
 40
1.0
176
     1
 40
1.0
176
     1
  0
VISUALSTYLE
  5
2E
102
{ACAD_REACTORS
330
2A
102
}
330
2A
100
AcDbVisualStyle
  2
GouraudWithEdges
 70
     3
177
     3
291
     1
 70
    58
 90
        2
176
     1
 90
        2
176
     1
 90
        1
176
     1
 90
        2
176
     1
 40
0.6
176
     1
 40
30.0
176
     1
 62
     7
420
 16777215
176
     1
 90
        1
176
     1
 90
        0
176
     1
 62
     7
176
     1
 62
   257
176
     1
 90
        1
176
     1
 90
        1
176
     1
 40
1.0
176
     1
 90
        0
176
     1
 62
   257
176
     1
 40
1.0
176
     1
 90
        1
176
     1
 90
        6
176
     1
 90
        2
176
     1
 62
     7
176
     1
 90
        5
176
     1
 90
        0
176
     1
 90
        0
176
     1
290
     0
176
     1
 90
       13
176
     1
 40
0.0
176
     1
 90
        0
176
     1
290
     0
176
     1
290
     1
176
     1
290
     1
176
     1
290
     0
176
     1
290
     0
176
     1
290
     0
176
     1
290
     0
176
     1
290
     0
176
     1
290
     0
176
     1
 90
       50
176
     1
 40
0.0
176
     1
 40
1.0
176
     1
 90
        0
176
     1
 62
    18
420
        0
176
     1
 90
       50
176
     1
 90
        3
176
     1
 62
     5
420
      255
176
     1
290
     0
176
     1
 90
       50
176
     1
 90
       50
176
     1
 90
       50
176
     1
290
     0
176
     1
 90
       50
176
     1
 62
   256
176
     0
 40
1.0
176
     0
 90
        2
176
     1
  1
strokes_ogs.tif
176
     1
290
     0
176
     1
 40
1.0
176
     1
 40
1.0
176
     1
  0
VISUALSTYLE
  5
31
102
{ACAD_REACTORS
330
2A
102
}
330
2A
100
AcDbVisualStyle
  2
Hidden
 70
     6
177
     3
291
     0
 70
    58
 90
        1
176
     1
 90
        2
176
     1
 90
        2
176
     1
 90
        0
176
     1
 40
0.6
176
     1
 40
30.0
176
     1
 62
     7
420
 16777215
176
     1
 90
        2
176
     1
 90
        2
176
     1
 62
     7
176
     1
 62
   257
176
     1
 90
        2
176
     1
 90
        1
176
     1
 40
40.0
176
     1
 90
        0
176
     1
 62
   257
176
     1
 40
1.0
176
     1
 90
        1
176
     1
 90
        6
176
     1
 90
        2
176
     1
 62
     7
176
     1
 90
        3
176
     1
 90
        0
176
     1
 90
        0
176
     1
290
     0
176
     1
 90
        1
176
     1
 40
0.0
176
     1
 90
        0
176
     1
290
     0
176
     1
290
     1
176
     1
290
     1
176
     1
290
     0
176
     1
290
     0
176
     1
290
     0
176
     1
290
     0
176
     1
290
     0
176
     1
290
     0
176
     1
 90
       50
176
     1
 40
0.0
176
     1
 40
1.0
176
     1
 90
        0
176
     1
 62
    18
420
        0
176
     1
 90
       50
176
     1
 90
        3
176
     1
 62
     5
420
      255
176
     1
290
     0
176
     1
 90
       50
176
     1
 90
       50
176
     1
 90
       50
176
     1
290
     0
176
     1
 90
       50
176
     1
 62
   256
176
     0
 40
1.0
176
     0
 90
        2
176
     1
  1
strokes_ogs.tif
176
     1
290
     0
176
     1
 40
1.0
176
     1
 40
1.0
176
     1
  0
VISUALSTYLE
  5
3B
102
{ACAD_REACTORS
330
2A
102
}
330
2A
100
AcDbVisualStyle
  2
JitterOff
 70
    20
177
     3
291
     1
 70
    58
 90
        2
176
     0
 90
        2
176
     0
 90
        0
176
     0
 90
        0
176
     0
 40
0.6
176
     0
 40
30.0
176
     0
 62
     7
420
 16777215
176
     0
 90
        1
176
     0
 90
        4
176
     0
 62
     7
176
     0
 62
   257
176
     0
 90
        1
176
     0
 90
        1
176
     0
 40
1.0
176
     0
 90
       10
176
     2
 62
     7
176
     0
 40
1.0
176
     0
 90
        1
176
     0
 90
        6
176
     0
 90
        2
176
     0
 62
     7
176
     0
 90
        5
176
     0
 90
        0
176
     0
 90
        0
176
     0
290
     0
176
     0
 90
        1
176
     0
 40
0.0
176
     0
 90
        0
176
     0
290
     0
176
     0
290
     1
176
     0
290
     1
176
     0
290
     0
176
     0
290
     0
176
     0
290
     0
176
     0
290
     0
176
     0
290
     0
176
     0
290
     0
176
     0
 90
       50
176
     0
 40
0.0
176
     0
 40
1.0
176
     0
 90
        0
176
     0
 62
    18
420
        0
176
     0
 90
       50
176
     0
 90
        3
176
     0
 62
     5
420
      255
176
     0
290
     0
176
     0
 90
       50
176
     0
 90
       50
176
     0
 90
       50
176
     0
290
     0
176
     0
 90
       50
176
     0
 62
   256
176
     0
 40
1.0
176
     0
 90
        2
176
     0
  1
strokes_ogs.tif
176
     0
290
     0
176
     0
 40
1.0
176
     0
 40
1.0
176
     0
  0
VISUALSTYLE
  5
38
102
{ACAD_REACTORS
330
2A
102
}
330
2A
100
AcDbVisualStyle
  2
Linepattern
 70
    14
177
     3
291
     1
 70
    58
 90
        2
176
     1
 90
        2
176
     1
 90
        0
176
     1
 90
        0
176
     1
 40
0.6
176
     1
 40
30.0
176
     1
 62
     7
420
 16777215
176
     1
 90
        1
176
     1
 90
        4
176
     1
 62
     7
176
     1
 62
   257
176
     1
 90
        7
176
     1
 90
        7
176
     1
 40
1.0
176
     1
 90
        8
176
     1
 62
     7
176
     1
 40
1.0
176
     1
 90
        1
176
     1
 90
        6
176
     1
 90
        2
176
     1
 62
     7
176
     1
 90
        5
176
     1
 90
        0
176
     1
 90
        0
176
     1
290
     0
176
     1
 90
        1
176
     1
 40
0.0
176
     1
 90
        0
176
     1
290
     0
176
     1
290
     1
176
     1
290
     1
176
     1
290
     0
176
     1
290
     0
176
     1
290
     0
176
     1
290
     0
176
     1
290
     0
176
     1
290
     0
176
     1
 90
       50
176
     1
 40
0.0
176
     1
 40
1.0
176
     1
 90
        0
176
     1
 62
    18
420
        0
176
     1
 90
       50
176
     1
 90
        3
176
     1
 62
     5
420
      255
176
     1
290
     0
176
     1
 90
       50
176
     1
 90
       50
176
     1
 90
       50
176
     1
290
     0
176
     1
 90
       50
176
     1
 62
   256
176
     0
 40
1.0
176
     0
 90
        2
176
     1
  1
strokes_ogs.tif
176
     1
290
     0
176
     1
 40
1.0
176
     1
 40
1.0
176
     1
  0
VISUALSTYLE
  5
3C
102
{ACAD_REACTORS
330
2A
102
}
330
2A
100
AcDbVisualStyle
  2
OverhangOff
 70
    21
177
     3
291
     1
 70
    58
 90
        2
176
     0
 90
        2
176
     0
 90
        0
176
     0
 90
        0
176
     0
 40
0.6
176
     0
 40
30.0
176
     0
 62
     7
420
 16777215
176
     0
 90
        1
176
     0
 90
        4
176
     0
 62
     7
176
     0
 62
   257
176
     0
 90
        1
176
     0
 90
        1
176
     0
 40
1.0
176
     0
 90
        9
176
     2
 62
     7
176
     0
 40
1.0
176
     0
 90
        1
176
     0
 90
        6
176
     0
 90
        2
176
     0
 62
     7
176
     0
 90
        5
176
     0
 90
        0
176
     0
 90
        0
176
     0
290
     0
176
     0
 90
        1
176
     0
 40
0.0
176
     0
 90
        0
176
     0
290
     0
176
     0
290
     1
176
     0
290
     1
176
     0
290
     0
176
     0
290
     0
176
     0
290
     0
176
     0
290
     0
176
     0
290
     0
176
     0
290
     0
176
     0
 90
       50
176
     0
 40
0.0
176
     0
 40
1.0
176
     0
 90
        0
176
     0
 62
    18
420
        0
176
     0
 90
       50
176
     0
 90
        3
176
     0
 62
     5
420
      255
176
     0
290
     0
176
     0
 90
       50
176
     0
 90
       50
176
     0
 90
       50
176
     0
290
     0
176
     0
 90
       50
176
     0
 62
   256
176
     0
 40
1.0
176
     0
 90
        2
176
     0
  1
strokes_ogs.tif
176
     0
290
     0
176
     0
 40
1.0
176
     0
 40
1.0
176
     0
  0
VISUALSTYLE
  5
33
102
{ACAD_REACTORS
330
2A
102
}
330
2A
100
AcDbVisualStyle
  2
Realistic
 70
     8
177
     3
291
     0
 70
    58
 90
        2
176
     1
 90
        3
176
     1
 90
        0
176
     1
 90
        2
176
     1
 40
0.6
176
     1
 40
30.0
176
     1
 62
     7
420
 16777215
176
     1
 90
        0
176
     1
 90
        0
176
     1
 62
     7
176
     1
 62
   257
176
     1
 90
        1
176
     1
 90
        1
176
     1
 40
1.0
176
     1
 90
        8
176
     1
 62
   257
176
     1
 40
1.0
176
     1
 90
        1
176
     1
 90
        6
176
     1
 90
        2
176
     1
 62
     7
176
     1
 90
        3
176
     1
 90
        0
176
     1
 90
        0
176
     1
290
     0
176
     1
 90
       13
176
     1
 40
0.0
176
     1
 90
        0
176
     1
290
     0
176
     1
290
     1
176
     1
290
     1
176
     1
290
     0
176
     1
290
     0
176
     1
290
     0
176
     1
290
     0
176
     1
290
     0
176
     1
290
     0
176
     1
 90
       50
176
     1
 40
0.0
176
     1
 40
1.0
176
     1
 90
        0
176
     1
 62
    18
420
        0
176
     1
 90
       50
176
     1
 90
        3
176
     1
 62
     5
420
      255
176
     1
290
     0
176
     1
 90
       50
176
     1
 90
       50
176
     1
 90
       50
176
     1
290
     0
176
     1
 90
       50
176
     1
 62
   256
176
     0
 40
1.0
176
     0
 90
        2
176
     1
  1
strokes_ogs.tif
176
     1
290
     0
176
     1
 40
1.0
176
     1
 40
1.0
176
     1
  0
VISUALSTYLE
  5
42
102
{ACAD_REACTORS
330
2A
102
}
330
2A
100
AcDbVisualStyle
  2
Shaded
 70
    27
177
     3
291
     0
 70
    58
 90
        2
176
     1
 90
        2
176
     1
 90
        1
176
     1
 90
        2
176
     1
 40
0.6
176
     1
 40
30.0
176
     1
 62
     7
420
 16777215
176
     1
 90
        0
176
     1
 90
        4
176
     1
 62
     7
176
     1
 62
   257
176
     1
 90
        1
176
     1
 90
        1
176
     1
 40
1.0
176
     1
 90
        8
176
     1
 62
   257
176
     1
 40
1.0
176
     1
 90
        1
176
     1
 90
        6
176
     1
 90
        2
176
     1
 62
     8
420
  7895160
176
     1
 90
        3
176
     1
 90
        0
176
     1
 90
        0
176
     1
290
     0
176
     1
 90
        5
176
     1
 40
0.0
176
     1
 90
        0
176
     1
290
     0
176
     1
290
     1
176
     1
290
     1
176
     1
290
     0
176
     1
290
     0
176
     1
290
     0
176
     1
290
     0
176
     1
290
     0
176
     1
290
     0
176
     1
 90
       50
176
     1
 40
0.0
176
     1
 40
1.0
176
     1
 90
        0
176
     1
 62
    18
420
        0
176
     1
 90
       50
176
     1
 90
        3
176
     1
 62
     5
420
      255
176
     1
290
     0
176
     1
 90
       50
176
     1
 90
       50
176
     1
 90
       50
176
     1
290
     0
176
     1
 90
       50
176
     1
 62
   256
176
     0
 40
1.0
176
     0
 90
        2
176
     1
  1
strokes_ogs.tif
176
     1
290
     0
176
     1
 40
1.0
176
     1
 40
1.0
176
     1
  0
VISUALSTYLE
  5
41
102
{ACAD_REACTORS
330
2A
102
}
330
2A
100
AcDbVisualStyle
  2
Shaded with edges
 70
    26
177
     3
291
     0
 70
    58
 90
        2
176
     1
 90
        2
176
     1
 90
        1
176
     1
 90
        2
176
     1
 40
0.6
176
     1
 40
30.0
176
     1
 62
     7
420
 16777215
176
     1
 90
        1
176
     1
 90
       10
176
     1
 62
     7
176
     1
 62
   257
176
     1
 90
        2
176
     1
 90
        1
176
     1
 40
1.0
176
     1
 90
        8
176
     1
 62
   257
176
     1
 40
1.0
176
     1
 90
        1
176
     1
 90
        6
176
     1
 90
        2
176
     1
 62
     7
176
     1
 90
        3
176
     1
 90
        0
176
     1
 90
        0
176
     1
290
     0
176
     1
 90
        5
176
     1
 40
0.0
176
     1
 90
        0
176
     1
290
     0
176
     1
290
     1
176
     1
290
     1
176
     1
290
     0
176
     1
290
     0
176
     1
290
     0
176
     1
290
     0
176
     1
290
     0
176
     1
290
     0
176
     1
 90
       50
176
     1
 40
0.0
176
     1
 40
1.0
176
     1
 90
        0
176
     1
 62
    18
420
        0
176
     1
 90
       50
176
     1
 90
        3
176
     1
 62
     5
420
      255
176
     1
290
     0
176
     1
 90
       50
176
     1
 90
       50
176
     1
 90
       50
176
     1
290
     0
176
     1
 90
       50
176
     1
 62
   256
176
     0
 40
1.0
176
     0
 90
        2
176
     1
  1
strokes_ogs.tif
176
     1
290
     0
176
     1
 40
1.0
176
     1
 40
1.0
176
     1
  0
VISUALSTYLE
  5
3E
102
{ACAD_REACTORS
330
2A
102
}
330
2A
100
AcDbVisualStyle
  2
Shades of Gray
 70
    23
177
     3
291
     0
 70
    58
 90
        2
176
     1
 90
        2
176
     1
 90
        3
176
     1
 90
        0
176
     1
 40
0.6
176
     1
 40
30.0
176
     1
 62
     7
420
 16777215
176
     1
 90
        2
176
     1
 90
        2
176
     1
 62
     7
176
     1
 62
     7
176
     1
 90
        1
176
     1
 90
        1
176
     1
 40
40.0
176
     1
 90
        8
176
     1
 62
     7
176
     1
 40
1.0
176
     1
 90
        1
176
     1
 90
        6
176
     1
 90
        2
176
     1
 62
     7
176
     1
 90
        3
176
     1
 90
        0
176
     1
 90
        0
176
     1
290
     0
176
     1
 90
        1
176
     1
 40
0.0
176
     1
 90
        0
176
     1
290
     0
176
     1
290
     1
176
     1
290
     1
176
     1
290
     0
176
     1
290
     0
176
     1
290
     0
176
     1
290
     0
176
     1
290
     0
176
     1
290
     0
176
     1
 90
       50
176
     1
 40
0.0
176
     1
 40
1.0
176
     1
 90
        0
176
     1
 62
    18
420
        0
176
     1
 90
       50
176
     1
 90
        3
176
     1
 62
     5
420
      255
176
     1
290
     0
176
     1
 90
       50
176
     1
 90
       50
176
     1
 90
       50
176
     1
290
     0
176
     1
 90
       50
176
     1
 62
   256
176
     0
 40
1.0
176
     0
 90
        2
176
     1
  1
strokes_ogs.tif
176
     1
290
     0
176
     1
 40
1.0
176
     1
 40
1.0
176
     1
  0
VISUALSTYLE
  5
3F
102
{ACAD_REACTORS
330
2A
102
}
330
2A
100
AcDbVisualStyle
  2
Sketchy
 70
    24
177
     3
291
     0
 70
    58
 90
        1
176
     1
 90
        2
176
     1
 90
        2
176
     1
 90
        0
176
     1
 40
0.6
176
     1
 40
30.0
176
     1
 62
     7
420
 16777215
176
     1
 90
        2
176
     1
 90
        2
176
     1
 62
     7
176
     1
 62
     7
176
     1
 90
        1
176
     1
 90
        1
176
     1
 40
40.0
176
     1
 90
       11
176
     1
 62
     7
176
     1
 40
1.0
176
     1
 90
        1
176
     1
 90
        6
176
     1
 90
        2
176
     1
 62
     7
176
     1
 90
        6
176
     1
 90
        0
176
     1
 90
        0
176
     1
290
     0
176
     1
 90
        1
176
     1
 40
0.0
176
     1
 90
        0
176
     1
290
     0
176
     1
290
     1
176
     1
290
     1
176
     1
290
     0
176
     1
290
     0
176
     1
290
     0
176
     1
290
     0
176
     1
290
     0
176
     1
290
     0
176
     1
 90
       50
176
     1
 40
0.0
176
     1
 40
1.0
176
     1
 90
        0
176
     1
 62
    18
420
        0
176
     1
 90
       50
176
     1
 90
        3
176
     1
 62
     5
420
      255
176
     1
290
     0
176
     1
 90
       50
176
     1
 90
       50
176
     1
 90
       50
176
     1
290
     0
176
     1
 90
       50
176
     1
 62
   256
176
     0
 40
1.0
176
     0
 90
        2
176
     1
  1
strokes_ogs.tif
176
     1
290
     0
176
     1
 40
1.0
176
     1
 40
1.0
176
     1
  0
VISUALSTYLE
  5
37
102
{ACAD_REACTORS
330
2A
102
}
330
2A
100
AcDbVisualStyle
  2
Thicken
 70
    13
177
     3
291
     1
 70
    58
 90
        2
176
     1
 90
        2
176
     1
 90
        0
176
     1
 90
        0
176
     1
 40
0.6
176
     1
 40
30.0
176
     1
 62
     7
420
 16777215
176
     1
 90
        1
176
     1
 90
        4
176
     1
 62
     7
176
     1
 62
   257
176
     1
 90
        1
176
     1
 90
        1
176
     1
 40
1.0
176
     1
 90
       12
176
     1
 62
     7
176
     1
 40
1.0
176
     1
 90
        1
176
     1
 90
        6
176
     1
 90
        2
176
     1
 62
     7
176
     1
 90
        5
176
     1
 90
        0
176
     1
 90
        0
176
     1
290
     0
176
     1
 90
        1
176
     1
 40
0.0
176
     1
 90
        0
176
     1
290
     0
176
     1
290
     1
176
     1
290
     1
176
     1
290
     0
176
     1
290
     0
176
     1
290
     0
176
     1
290
     0
176
     1
290
     0
176
     1
290
     0
176
     1
 90
       50
176
     1
 40
0.0
176
     1
 40
1.0
176
     1
 90
        0
176
     1
 62
    18
420
        0
176
     1
 90
       50
176
     1
 90
        3
176
     1
 62
     5
420
      255
176
     1
290
     0
176
     1
 90
       50
176
     1
 90
       50
176
     1
 90
       50
176
     1
290
     0
176
     1
 90
       50
176
     1
 62
   256
176
     0
 40
1.0
176
     0
 90
        2
176
     1
  1
strokes_ogs.tif
176
     1
290
     0
176
     1
 40
1.0
176
     1
 40
1.0
176
     1
  0
VISUALSTYLE
  5
30
102
{ACAD_REACTORS
330
2A
102
}
330
2A
100
AcDbVisualStyle
  2
Wireframe
 70
     5
177
     3
291
     0
 70
    58
 90
        0
176
     1
 90
        2
176
     1
 90
        0
176
     1
 90
        0
176
     1
 40
0.6
176
     1
 40
30.0
176
     1
 62
     7
420
 16777215
176
     1
 90
        1
176
     1
 90
        4
176
     1
 62
     7
176
     1
 62
   257
176
     1
 90
        1
176
     1
 90
        1
176
     1
 40
1.0
176
     1
 90
        0
176
     1
 62
   257
176
     1
 40
1.0
176
     1
 90
        1
176
     1
 90
        6
176
     1
 90
        2
176
     1
 62
     7
176
     1
 90
        3
176
     1
 90
        0
176
     1
 90
        0
176
     1
290
     0
176
     1
 90
        1
176
     1
 40
0.0
176
     1
 90
        0
176
     1
290
     0
176
     1
290
     1
176
     1
290
     1
176
     1
290
     0
176
     1
290
     0
176
     1
290
     0
176
     1
290
     0
176
     1
290
     0
176
     1
290
     0
176
     1
 90
       50
176
     1
 40
0.0
176
     1
 40
1.0
176
     1
 90
        0
176
     1
 62
    18
420
        0
176
     1
 90
       50
176
     1
 90
        3
176
     1
 62
     5
420
      255
176
     1
290
     0
176
     1
 90
       50
176
     1
 90
       50
176
     1
 90
       50
176
     1
290
     0
176
     1
 90
       50
176
     1
 62
   256
176
     0
 40
1.0
176
     0
 90
        2
176
     1
  1
strokes_ogs.tif
176
     1
290
     0
176
     1
 40
1.0
176
     1
 40
1.0
176
     1
  0
VISUALSTYLE
  5
40
102
{ACAD_REACTORS
330
2A
102
}
330
2A
100
AcDbVisualStyle
  2
X-Ray
 70
    25
177
     3
291
     0
 70
    58
 90
        2
176
     1
 90
        2
176
     1
 90
        1
176
     1
 90
        1
176
     1
 40
0.5
176
     1
 40
30.0
176
     1
 62
     7
420
 16777215
176
     1
 90
        1
176
     1
 90
        0
176
     1
 62
     7
176
     1
 62
   257
176
     1
 90
        1
176
     1
 90
        1
176
     1
 40
1.0
176
     1
 90
        8
176
     1
 62
     7
176
     1
 40
1.0
176
     1
 90
        1
176
     1
 90
        6
176
     1
 90
        2
176
     1
 62
     7
176
     1
 90
        3
176
     1
 90
        0
176
     1
 90
        0
176
     1
290
     0
176
     1
 90
       13
176
     1
 40
0.0
176
     1
 90
        0
176
     1
290
     0
176
     1
290
     1
176
     1
290
     1
176
     1
290
     0
176
     1
290
     0
176
     1
290
     0
176
     1
290
     0
176
     1
290
     0
176
     1
290
     0
176
     1
 90
       50
176
     1
 40
0.0
176
     1
 40
1.0
176
     1
 90
        0
176
     1
 62
    18
420
        0
176
     1
 90
       50
176
     1
 90
        3
176
     1
 62
     5
420
      255
176
     1
290
     0
176
     1
 90
       50
176
     1
 90
       50
176
     1
 90
       50
176
     1
290
     0
176
     1
 90
       50
176
     1
 62
   256
176
     0
 40
1.0
176
     0
 90
        2
176
     1
  1
strokes_ogs.tif
176
     1
290
     0
176
     1
 40
1.0
176
     1
 40
1.0
176
     1
  0
DICTIONARYVAR
  5
21A
102
{ACAD_REACTORS
330
219
102
}
330
219
100
DictionaryVariables
280
     0
  1
1:1
  0
DICTIONARYVAR
  5
21F
102
{ACAD_REACTORS
330
219
102
}
330
219
100
DictionaryVariables
280
     0
  1
Standard
  0
DICTIONARYVAR
  5
21E
102
{ACAD_REACTORS
330
219
102
}
330
219
100
DictionaryVariables
280
     0
  1
Standard
  0
DICTIONARY
  5
21B
330
6A
100
AcDbDictionary
280
     1
281
     1
  3
ACAD_ROUNDTRIP_2008_TABLESTYLE_CELLSTYLEMAP
360
21C
  0
CELLSTYLEMAP
  5
21C
102
{ACAD_REACTORS
330
21B
102
}
330
21B
100
AcDbCellStyleMap
 90
        3
300
CELLSTYLE
  1
TABLEFORMAT_BEGIN
 90
        5
170
     1
 91
        0
 92
    32768
 62
   257
 93
        1
300
CONTENTFORMAT
  1
CONTENTFORMAT_BEGIN
 90
        0
 91
        0
 92
        4
 93
        0
300

 40
0.0
140
1.0
 94
        5
 62
     0
340
11
144
0.25
309
CONTENTFORMAT_END
171
     1
301
MARGIN
  1
CELLMARGIN_BEGIN
 40
0.06
 40
0.06
 40
0.06
 40
0.06
 40
0.06
 40
0.06
309
CELLMARGIN_END
 94
        6
 95
        1
302
GRIDFORMAT
  1
GRIDFORMAT_BEGIN
 90
        0
 91
        1
 62
     0
 92
       -2
340
14
 93
        0
 40
0.045
309
GRIDFORMAT_END
 95
        2
302
GRIDFORMAT
  1
GRIDFORMAT_BEGIN
 90
        0
 91
        1
 62
     0
 92
       -2
340
14
 93
        0
 40
0.045
309
GRIDFORMAT_END
 95
        4
302
GRIDFORMAT
  1
GRIDFORMAT_BEGIN
 90
        0
 91
        1
 62
     0
 92
       -2
340
14
 93
        0
 40
0.045
309
GRIDFORMAT_END
 95
        8
302
GRIDFORMAT
  1
GRIDFORMAT_BEGIN
 90
        0
 91
        1
 62
     0
 92
       -2
340
14
 93
        0
 40
0.045
309
GRIDFORMAT_END
 95
       16
302
GRIDFORMAT
  1
GRIDFORMAT_BEGIN
 90
        0
 91
        1
 62
     0
 92
       -2
340
14
 93
        0
 40
0.045
309
GRIDFORMAT_END
 95
       32
302
GRIDFORMAT
  1
GRIDFORMAT_BEGIN
 90
        0
 91
        1
 62
     0
 92
       -2
340
14
 93
        0
 40
0.045
309
GRIDFORMAT_END
309
TABLEFORMAT_END
  1
CELLSTYLE_BEGIN
 90
        1
 91
        1
300
_TITLE
309
CELLSTYLE_END
300
CELLSTYLE
  1
TABLEFORMAT_BEGIN
 90
        5
170
     1
 91
        0
 92
        0
 62
   257
 93
        1
300
CONTENTFORMAT
  1
CONTENTFORMAT_BEGIN
 90
        0
 91
        0
 92
        4
 93
        0
300

 40
0.0
140
1.0
 94
        5
 62
     0
340
11
144
0.18
309
CONTENTFORMAT_END
171
     1
301
MARGIN
  1
CELLMARGIN_BEGIN
 40
0.06
 40
0.06
 40
0.06
 40
0.06
 40
0.06
 40
0.06
309
CELLMARGIN_END
 94
        6
 95
        1
302
GRIDFORMAT
  1
GRIDFORMAT_BEGIN
 90
        0
 91
        1
 62
     0
 92
       -2
340
14
 93
        0
 40
0.045
309
GRIDFORMAT_END
 95
        2
302
GRIDFORMAT
  1
GRIDFORMAT_BEGIN
 90
        0
 91
        1
 62
     0
 92
       -2
340
14
 93
        0
 40
0.045
309
GRIDFORMAT_END
 95
        4
302
GRIDFORMAT
  1
GRIDFORMAT_BEGIN
 90
        0
 91
        1
 62
     0
 92
       -2
340
14
 93
        0
 40
0.045
309
GRIDFORMAT_END
 95
        8
302
GRIDFORMAT
  1
GRIDFORMAT_BEGIN
 90
        0
 91
        1
 62
     0
 92
       -2
340
14
 93
        0
 40
0.045
309
GRIDFORMAT_END
 95
       16
302
GRIDFORMAT
  1
GRIDFORMAT_BEGIN
 90
        0
 91
        1
 62
     0
 92
       -2
340
14
 93
        0
 40
0.045
309
GRIDFORMAT_END
 95
       32
302
GRIDFORMAT
  1
GRIDFORMAT_BEGIN
 90
        0
 91
        1
 62
     0
 92
       -2
340
14
 93
        0
 40
0.045
309
GRIDFORMAT_END
309
TABLEFORMAT_END
  1
CELLSTYLE_BEGIN
 90
        2
 91
        1
300
_HEADER
309
CELLSTYLE_END
300
CELLSTYLE
  1
TABLEFORMAT_BEGIN
 90
        5
170
     1
 91
        0
 92
        0
 62
   257
 93
        1
300
CONTENTFORMAT
  1
CONTENTFORMAT_BEGIN
 90
        0
 91
        0
 92
        4
 93
        0
300

 40
0.0
140
1.0
 94
        2
 62
     0
340
11
144
0.18
309
CONTENTFORMAT_END
171
     1
301
MARGIN
  1
CELLMARGIN_BEGIN
 40
0.06
 40
0.06
 40
0.06
 40
0.06
 40
0.06
 40
0.06
309
CELLMARGIN_END
 94
        6
 95
        1
302
GRIDFORMAT
  1
GRIDFORMAT_BEGIN
 90
        0
 91
        1
 62
     0
 92
       -2
340
14
 93
        0
 40
0.045
309
GRIDFORMAT_END
 95
        2
302
GRIDFORMAT
  1
GRIDFORMAT_BEGIN
 90
        0
 91
        1
 62
     0
 92
       -2
340
14
 93
        0
 40
0.045
309
GRIDFORMAT_END
 95
        4
302
GRIDFORMAT
  1
GRIDFORMAT_BEGIN
 90
        0
 91
        1
 62
     0
 92
       -2
340
14
 93
        0
 40
0.045
309
GRIDFORMAT_END
 95
        8
302
GRIDFORMAT
  1
GRIDFORMAT_BEGIN
 90
        0
 91
        1
 62
     0
 92
       -2
340
14
 93
        0
 40
0.045
309
GRIDFORMAT_END
 95
       16
302
GRIDFORMAT
  1
GRIDFORMAT_BEGIN
 90
        0
 91
        1
 62
     0
 92
       -2
340
14
 93
        0
 40
0.045
309
GRIDFORMAT_END
 95
       32
302
GRIDFORMAT
  1
GRIDFORMAT_BEGIN
 90
        0
 91
        1
 62
     0
 92
       -2
340
14
 93
        0
 40
0.045
309
GRIDFORMAT_END
309
TABLEFORMAT_END
  1
CELLSTYLE_BEGIN
 90
        3
 91
        2
300
_DATA
309
CELLSTYLE_END
  0
ENDSEC
  0
EOF