0
SECTION
  2
HEADER
  9
$ACADVER
  1
AC1027
  9
$ACADMAINTVER
 70
     8
  9
$DWGCODEPAGE
  3
ANSI_1252
  9
$REQUIREDVERSIONS
160
                 0
  9
$COMMENTS
  1
File was created by Cadenas
  9
$CUSTOMPROPERTYTAG
  1
NN
  9
$CUSTOMPROPERTY
  1
S-2000 Wide Slot Take-Up Trident Seal
  9
$CUSTOMPROPERTYTAG
  1
NT
  9
$CUSTOMPROPERTY
  1
S-2000 Wide Slot Take-Up Bearing -Inch
  9
$CUSTOMPROPERTYTAG
  1
NB
  9
$CUSTOMPROPERTY
  1
070786
  9
$CUSTOMPROPERTYTAG
  1
NBSYN
  9
$CUSTOMPROPERTY
  1
$PN.
  9
$CUSTOMPROPERTYTAG
  1
LINA
  9
$CUSTOMPROPERTY
  1
070786
  9
$CUSTOMPROPERTYTAG
  1
SS
  9
$CUSTOMPROPERTY
  1
2
  9
$CUSTOMPROPERTYTAG
  1
PN
  9
$CUSTOMPROPERTY
  1
070786
  9
$CUSTOMPROPERTYTAG
  1
DESCRIPTION
  9
$CUSTOMPROPERTY
  1
WSTU-S2-200RE
  9
$CUSTOMPROPERTYTAG
  1
EF
  9
$CUSTOMPROPERTY
  1
Expansion Type
  9
$CUSTOMPROPERTYTAG
  1
ST
  9
$CUSTOMPROPERTY
  1
Contact Seal
  9
$CUSTOMPROPERTYTAG
  1
A
  9
$CUSTOMPROPERTY
  1
2-27/32
  9
$CUSTOMPROPERTYTAG
  1
B
  9
$CUSTOMPROPERTY
  1
6-3/16
  9
$CUSTOMPROPERTYTAG
  1
C
  9
$CUSTOMPROPERTY
  1
11/16
  9
$CUSTOMPROPERTYTAG
  1
D
  9
$CUSTOMPROPERTY
  1
3-5/8
  9
$CUSTOMPROPERTYTAG
  1
E
  9
$CUSTOMPROPERTY
  1
3-15/16
  9
$CUSTOMPROPERTYTAG
  1
F
  9
$CUSTOMPROPERTY
  1
1-1/8
  9
$CUSTOMPROPERTYTAG
  1
G
  9
$CUSTOMPROPERTY
  1
15/16
  9
$CUSTOMPROPERTYTAG
  1
H
  9
$CUSTOMPROPERTY
  1
3/4
  9
$CUSTOMPROPERTYTAG
  1
J
  9
$CUSTOMPROPERTY
  1
3-5/16
  9
$CUSTOMPROPERTYTAG
  1
K
  9
$CUSTOMPROPERTY
  1
1-15/16
  9
$CUSTOMPROPERTYTAG
  1
L
  9
$CUSTOMPROPERTY
  1
3-7/16
  9
$CUSTOMPROPERTYTAG
  1
M
  9
$CUSTOMPROPERTY
  1
4
  9
$CUSTOMPROPERTYTAG
  1
N
  9
$CUSTOMPROPERTY
  1
4-3/4
  9
$CUSTOMPROPERTYTAG
  1
R
  9
$CUSTOMPROPERTY
  1
2-15/16
  9
$CUSTOMPROPERTYTAG
  1
S
  9
$CUSTOMPROPERTY
  1
1-15/16
  9
$CUSTOMPROPERTYTAG
  1
T
  9
$CUSTOMPROPERTY
  1
2
  9
$CUSTOMPROPERTYTAG
  1
X
  9
$CUSTOMPROPERTY
  1
1/4
  9
$CUSTOMPROPERTYTAG
  1
Y
  9
$CUSTOMPROPERTY
  1
0.020
  9
$CUSTOMPROPERTYTAG
  1
Z
  9
$CUSTOMPROPERTY
  1
2-19/64
  9
$CUSTOMPROPERTYTAG
  1
COMPANY
  9
$CUSTOMPROPERTY
  1
baldor
  9
$INSBASE
 10
0.0
 20
0.0
 30
0.0
  9
$EXTMIN
 10
1.000000000000000E+20
 20
1.000000000000000E+20
 30
1.000000000000000E+20
  9
$EXTMAX
 10
-1.000000000000000E+20
 20
-1.000000000000000E+20
 30
-1.000000000000000E+20
  9
$LIMMIN
 10
0.0
 20
0.0
  9
$LIMMAX
 10
12.0
 20
9.0
  9
$ORTHOMODE
 70
     0
  9
$REGENMODE
 70
     1
  9
$FILLMODE
 70
     1
  9
$QTEXTMODE
 70
     0
  9
$MIRRTEXT
 70
     1
  9
$LTSCALE
 40
1.0
  9
$ATTMODE
 70
     1
  9
$TEXTSIZE
 40
0.2
  9
$TRACEWID
 40
0.05
  9
$TEXTSTYLE
  7
Standard
  9
$CLAYER
  8
0
  9
$CELTYPE
  6
ByLayer
  9
$CECOLOR
 62
   256
  9
$CELTSCALE
 40
1.0
  9
$DISPSILH
 70
     0
  9
$DIMSCALE
 40
1.0
  9
$DIMASZ
 40
0.18
  9
$DIMEXO
 40
0.0625
  9
$DIMDLI
 40
0.38
  9
$DIMRND
 40
0.0
  9
$DIMDLE
 40
0.0
  9
$DIMEXE
 40
0.18
  9
$DIMTP
 40
0.0
  9
$DIMTM
 40
0.0
  9
$DIMTXT
 40
0.18
  9
$DIMCEN
 40
0.09
  9
$DIMTSZ
 40
0.0
  9
$DIMTOL
 70
     0
  9
$DIMLIM
 70
     0
  9
$DIMTIH
 70
     1
  9
$DIMTOH
 70
     1
  9
$DIMSE1
 70
     0
  9
$DIMSE2
 70
     0
  9
$DIMTAD
 70
     0
  9
$DIMZIN
 70
     0
  9
$DIMBLK
  1

  9
$DIMASO
 70
     1
  9
$DIMSHO
 70
     1
  9
$DIMPOST
  1

  9
$DIMAPOST
  1

  9
$DIMALT
 70
     0
  9
$DIMALTD
 70
     2
  9
$DIMALTF
 40
25.4
  9
$DIMLFAC
 40
1.0
  9
$DIMTOFL
 70
     0
  9
$DIMTVP
 40
0.0
  9
$DIMTIX
 70
     0
  9
$DIMSOXD
 70
     0
  9
$DIMSAH
 70
     0
  9
$DIMBLK1
  1

  9
$DIMBLK2
  1

  9
$DIMSTYLE
  2
Standard
  9
$DIMCLRD
 70
     0
  9
$DIMCLRE
 70
     0
  9
$DIMCLRT
 70
     0
  9
$DIMTFAC
 40
1.0
  9
$DIMGAP
 40
0.09
  9
$DIMJUST
 70
     0
  9
$DIMSD1
 70
     0
  9
$DIMSD2
 70
     0
  9
$DIMTOLJ
 70
     1
  9
$DIMTZIN
 70
     0
  9
$DIMALTZ
 70
     0
  9
$DIMALTTZ
 70
     0
  9
$DIMUPT
 70
     0
  9
$DIMDEC
 70
     4
  9
$DIMTDEC
 70
     4
  9
$DIMALTU
 70
     2
  9
$DIMALTTD
 70
     2
  9
$DIMTXSTY
  7
Standard
  9
$DIMAUNIT
 70
     0
  9
$DIMADEC
 70
     0
  9
$DIMALTRND
 40
0.0
  9
$DIMAZIN
 70
     0
  9
$DIMDSEP
 70
    46
  9
$DIMATFIT
 70
     3
  9
$DIMFRAC
 70
     0
  9
$DIMLDRBLK
  1

  9
$DIMLUNIT
 70
     2
  9
$DIMLWD
 70
    -2
  9
$DIMLWE
 70
    -2
  9
$DIMTMOVE
 70
     0
  9
$DIMFXL
 40
1.0
  9
$DIMFXLON
 70
     0
  9
$DIMJOGANG
 40
0.7853981633974483
  9
$DIMTFILL
 70
     0
  9
$DIMTFILLCLR
 70
     0
  9
$DIMARCSYM
 70
     0
  9
$DIMLTYPE
  6

  9
$DIMLTEX1
  6

  9
$DIMLTEX2
  6

  9
$DIMTXTDIRECTION
 70
     0
  9
$LUNITS
 70
     2
  9
$LUPREC
 70
     4
  9
$SKETCHINC
 40
0.1
  9
$FILLETRAD
 40
0.5
  9
$AUNITS
 70
     0
  9
$AUPREC
 70
     0
  9
$MENU
  1
.
  9
$ELEVATION
 40
0.0
  9
$PELEVATION
 40
0.0
  9
$THICKNESS
 40
0.0
  9
$LIMCHECK
 70
     0
  9
$CHAMFERA
 40
0.0
  9
$CHAMFERB
 40
0.0
  9
$CHAMFERC
 40
0.0
  9
$CHAMFERD
 40
0.0
  9
$SKPOLY
 70
     0
  9
$TDCREATE
 40
2458168.98391434
  9
$TDUCREATE
 40
2458168.942247673
  9
$TDUPDATE
 40
2458168.983914514
  9
$TDUUPDATE
 40
2458168.942247847
  9
$TDINDWG
 40
0.0000000116
  9
$TDUSRTIMER
 40
0.0000000116
  9
$USRTIMER
 70
     1
  9
$ANGBASE
 50
0.0
  9
$ANGDIR
 70
     0
  9
$PDMODE
 70
     0
  9
$PDSIZE
 40
0.0
  9
$PLINEWID
 40
0.0
  9
$SPLFRAME
 70
     0
  9
$SPLINETYPE
 70
     6
  9
$SPLINESEGS
 70
     8
  9
$HANDSEED
  5
21F
  9
$SURFTAB1
 70
     6
  9
$SURFTAB2
 70
     6
  9
$SURFTYPE
 70
     6
  9
$SURFU
 70
     6
  9
$SURFV
 70
     6
  9
$UCSBASE
  2

  9
$UCSNAME
  2

  9
$UCSORG
 10
0.0
 20
0.0
 30
0.0
  9
$UCSXDIR
 10
1.0
 20
0.0
 30
0.0
  9
$UCSYDIR
 10
0.0
 20
1.0
 30
0.0
  9
$UCSORTHOREF
  2

  9
$UCSORTHOVIEW
 70
     0
  9
$UCSORGTOP
 10
0.0
 20
0.0
 30
0.0
  9
$UCSORGBOTTOM
 10
0.0
 20
0.0
 30
0.0
  9
$UCSORGLEFT
 10
0.0
 20
0.0
 30
0.0
  9
$UCSORGRIGHT
 10
0.0
 20
0.0
 30
0.0
  9
$UCSORGFRONT
 10
0.0
 20
0.0
 30
0.0
  9
$UCSORGBACK
 10
0.0
 20
0.0
 30
0.0
  9
$PUCSBASE
  2

  9
$PUCSNAME
  2

  9
$PUCSORG
 10
0.0
 20
0.0
 30
0.0
  9
$PUCSXDIR
 10
1.0
 20
0.0
 30
0.0
  9
$PUCSYDIR
 10
0.0
 20
1.0
 30
0.0
  9
$PUCSORTHOREF
  2

  9
$PUCSORTHOVIEW
 70
     0
  9
$PUCSORGTOP
 10
0.0
 20
0.0
 30
0.0
  9
$PUCSORGBOTTOM
 10
0.0
 20
0.0
 30
0.0
  9
$PUCSORGLEFT
 10
0.0
 20
0.0
 30
0.0
  9
$PUCSORGRIGHT
 10
0.0
 20
0.0
 30
0.0
  9
$PUCSORGFRONT
 10
0.0
 20
0.0
 30
0.0
  9
$PUCSORGBACK
 10
0.0
 20
0.0
 30
0.0
  9
$USERI1
 70
     0
  9
$USERI2
 70
     0
  9
$USERI3
 70
     0
  9
$USERI4
 70
     0
  9
$USERI5
 70
     0
  9
$USERR1
 40
0.0
  9
$USERR2
 40
0.0
  9
$USERR3
 40
0.0
  9
$USERR4
 40
0.0
  9
$USERR5
 40
0.0
  9
$WORLDVIEW
 70
     1
  9
$SHADEDGE
 70
     3
  9
$SHADEDIF
 70
    70
  9
$TILEMODE
 70
     1
  9
$MAXACTVP
 70
    64
  9
$PINSBASE
 10
0.0
 20
0.0
 30
0.0
  9
$PLIMCHECK
 70
     0
  9
$PEXTMIN
 10
1.000000000000000E+20
 20
1.000000000000000E+20
 30
1.000000000000000E+20
  9
$PEXTMAX
 10
-1.000000000000000E+20
 20
-1.000000000000000E+20
 30
-1.000000000000000E+20
  9
$PLIMMIN
 10
0.0
 20
0.0
  9
$PLIMMAX
 10
12.0
 20
9.0
  9
$UNITMODE
 70
     0
  9
$VISRETAIN
 70
     1
  9
$PLINEGEN
 70
     0
  9
$PSLTSCALE
 70
     1
  9
$TREEDEPTH
 70
  3020
  9
$CMLSTYLE
  2
Standard
  9
$CMLJUST
 70
     0
  9
$CMLSCALE
 40
1.0
  9
$PROXYGRAPHICS
 70
     1
  9
$MEASUREMENT
 70
     0
  9
$CELWEIGHT
370
    -1
  9
$ENDCAPS
280
     0
  9
$JOINSTYLE
280
     0
  9
$LWDISPLAY
290
     0
  9
$INSUNITS
 70
     1
  9
$HYPERLINKBASE
  1

  9
$STYLESHEET
  1

  9
$XEDIT
290
     1
  9
$CEPSNTYPE
380
     0
  9
$PSTYLEMODE
290
     1
  9
$FINGERPRINTGUID
  2
{30E49518-BEE9-41B3-8DDC-7D8003CDC6DF}
  9
$VERSIONGUID
  2
{FAEB1C32-E019-11D5-929B-00C0DF256EC4}
  9
$EXTNAMES
290
     1
  9
$PSVPSCALE
 40
0.0
  9
$OLESTARTUP
290
     0
  9
$SORTENTS
280
   127
  9
$INDEXCTL
280
     0
  9
$HIDETEXT
280
     1
  9
$XCLIPFRAME
280
     2
  9
$HALOGAP
280
     0
  9
$OBSCOLOR
 70
   257
  9
$OBSLTYPE
280
     0
  9
$INTERSECTIONDISPLAY
280
     0
  9
$INTERSECTIONCOLOR
 70
   257
  9
$DIMASSOC
280
     2
  9
$PROJECTNAME
  1

  9
$CAMERADISPLAY
290
     0
  9
$LENSLENGTH
 40
50.0
  9
$CAMERAHEIGHT
 40
0.0
  9
$STEPSPERSEC
 40
2.0
  9
$STEPSIZE
 40
6.0
  9
$3DDWFPREC
 40
2.0
  9
$PSOLWIDTH
 40
0.25
  9
$PSOLHEIGHT
 40
4.0
  9
$LOFTANG1
 40
1.570796326794897
  9
$LOFTANG2
 40
1.570796326794897
  9
$LOFTMAG1
 40
0.0
  9
$LOFTMAG2
 40
0.0
  9
$LOFTPARAM
 70
     7
  9
$LOFTNORMALS
280
     1
  9
$LATITUDE
 40
37.795
  9
$LONGITUDE
 40
-122.394
  9
$NORTHDIRECTION
 40
0.0
  9
$TIMEZONE
 70
 -8000
  9
$LIGHTGLYPHDISPLAY
280
     1
  9
$TILEMODELIGHTSYNCH
280
     1
  9
$CMATERIAL
347
44
  9
$SOLIDHIST
280
     0
  9
$SHOWHIST
280
     1
  9
$DWFFRAME
280
     2
  9
$DGNFRAME
280
     2
  9
$REALWORLDSCALE
290
     1
  9
$INTERFERECOLOR
 62
   256
  9
$CSHADOW
280
     0
  9
$SHADOWPLANELOCATION
 40
0.0
  0
ENDSEC
  0
SECTION
  2
CLASSES
  0
CLASS
  1
ACDBDICTIONARYWDFLT
  2
AcDbDictionaryWithDefault
  3
ObjectDBX Classes
 90
        0
 91
        4
280
     0
281
     0
  0
CLASS
  1
VISUALSTYLE
  2
AcDbVisualStyle
  3
ObjectDBX Classes
 90
     4095
 91
        4
280
     0
281
     0
  0
CLASS
  1
MATERIAL
  2
AcDbMaterial
  3
ObjectDBX Classes
 90
     1153
 91
        4
280
     0
281
     0
  0
CLASS
  1
SCALE
  2
AcDbScale
  3
ObjectDBX Classes
 90
     1153
 91
        4
280
     0
281
     0
  0
CLASS
  1
TABLESTYLE
  2
AcDbTableStyle
  3
ObjectDBX Classes
 90
     4095
 91
        4
280
     0
281
     0
  0
CLASS
  1
MLEADERSTYLE
  2
AcDbMLeaderStyle
  3
ACDB_MLEADERSTYLE_CLASS
 90
     4095
 91
        4
280
     0
281
     0
  0
CLASS
  1
SUN
  2
AcDbSun
  3
SCENEOE
 90
     1153
 91
        4
280
     0
281
     0
  0
CLASS
  1
DICTIONARYVAR
  2
AcDbDictionaryVar
  3
ObjectDBX Classes
 90
        0
 91
        4
280
     0
281
     0
  0
CLASS
  1
CELLSTYLEMAP
  2
AcDbCellStyleMap
  3
ObjectDBX Classes
 90
     1152
 91
        4
280
     0
281
     0
  0
ENDSEC
  0
SECTION
  2
TABLES
  0
TABLE
  2
VPORT
  5
8
330
0
100
AcDbSymbolTable
 70
     1
  0
VPORT
  5
29
330
8
100
AcDbSymbolTableRecord
100
AcDbViewportTableRecord
  2
*Active
 70
     0
 10
0.0
 20
0.0
 11
1.0
 21
1.0
 12
0.6949838461155657
 22
0.0542499999999997
 13
0.0
 23
0.0
 14
0.5
 24
0.5
 15
0.5
 25
0.5
 16
0.0
 26
0.0
 36
1.0
 17
0.0
 27
0.0
 37
0.0
 40
4.06317
 41
1.652684776645882
 42
50.0
 43
0.0
 44
0.0
 50
0.0
 51
0.0
 71
     0
 72
   100
 73
     1
 74
     3
 75
     0
 76
     0
 77
     0
 78
     0
281
     0
 65
     1
110
0.0
120
0.0
130
0.0
111
1.0
121
0.0
131
0.0
112
0.0
122
1.0
132
0.0
 79
     0
146
0.0
348
2F
 60
     3
 61
     5
292
     1
282
     1
141
0.0
142
0.0
 63
   250
361
6D
  0
ENDTAB
  0
TABLE
  2
LTYPE
  5
5
330
0
100
AcDbSymbolTable
 70
     3
  0
LTYPE
  5
14
330
5
100
AcDbSymbolTableRecord
100
AcDbLinetypeTableRecord
  2
ByBlock
 70
     0
  3

 72
    65
 73
     0
 40
0.0
  0
LTYPE
  5
15
330
5
100
AcDbSymbolTableRecord
100
AcDbLinetypeTableRecord
  2
ByLayer
 70
     0
  3

 72
    65
 73
     0
 40
0.0
  0
LTYPE
  5
16
330
5
100
AcDbSymbolTableRecord
100
AcDbLinetypeTableRecord
  2
Continuous
 70
     0
  3
Solid line
 72
    65
 73
     0
 40
0.0
  0
LTYPE
  5
AA
330
5
100
AcDbSymbolTableRecord
100
AcDbLinetypeTableRecord
  2
Dashed
 70
     0
  3

 72
    65
 73
     2
 40
2.0
 49
1.0
 74
     0
 49
-1.0
 74
     0
  0
LTYPE
  5
BE
330
5
100
AcDbSymbolTableRecord
100
AcDbLinetypeTableRecord
  2
Center
 70
     0
  3

 72
    65
 73
     4
 40
1.5
 49
0.45
 74
     0
 49
-0.5
 74
     0
 49
0.05
 74
     0
 49
-0.5
 74
     0
  0
ENDTAB
  0
TABLE
  2
LAYER
  5
2
330
0
100
AcDbSymbolTable
 70
     7
  0
LAYER
  5
10
330
2
100
AcDbSymbolTableRecord
100
AcDbLayerTableRecord
  2
0
 70
     0
 62
     7
  6
Continuous
370
    -3
390
F
347
46
348
0
  0
LAYER
  5
72
330
2
100
AcDbSymbolTableRecord
100
AcDbLayerTableRecord
  2
AM_6
 70
     0
 62
    -2
  6
Continuous
370
    35
390
F
347
46
348
0
  0
LAYER
  5
AB
330
2
100
AcDbSymbolTableRecord
100
AcDbLayerTableRecord
  2
AM_9
 70
     0
 62
     6
  6
Dashed
370
    25
390
F
347
46
348
0
  0
LAYER
  5
BF
330
2
100
AcDbSymbolTableRecord
100
AcDbLayerTableRecord
  2
AM_7
 70
     0
 62
     7
  6
Center
370
    25
390
F
347
46
348
0
  0
LAYER
  5
C1
330
2
100
AcDbSymbolTableRecord
100
AcDbLayerTableRecord
  2
AM_4
 70
     0
 62
     7
  6
Continuous
370
    50
390
F
347
46
348
0
  0
LAYER
  5
D6
330
2
100
AcDbSymbolTableRecord
100
AcDbLayerTableRecord
  2
AM_5
 70
     0
 62
     3
  6
Continuous
370
    25
390
F
347
46
348
0
  0
LAYER
  5
20E
330
2
100
AcDbSymbolTableRecord
100
AcDbLayerTableRecord
  2
ConnectionPoints
 70
     0
 62
     7
  6
Continuous
370
    50
390
F
347
46
348
0
  0
ENDTAB
  0
TABLE
  2
STYLE
  5
3
330
0
100
AcDbSymbolTable
 70
     1
  0
STYLE
  5
11
330
3
100
AcDbSymbolTableRecord
100
AcDbTextStyleTableRecord
  2
Standard
 70
     0
 40
0.0
 41
1.0
 50
0.0
 71
     0
 42
0.2
  3
txt
  4

  0
ENDTAB
  0
TABLE
  2
VIEW
  5
6
330
0
100
AcDbSymbolTable
 70
     0
  0
ENDTAB
  0
TABLE
  2
UCS
  5
7
330
0
100
AcDbSymbolTable
 70
     0
  0
ENDTAB
  0
TABLE
  2
APPID
  5
9
330
0
100
AcDbSymbolTable
 70
     1
  0
APPID
  5
12
330
9
100
AcDbSymbolTableRecord
100
AcDbRegAppTableRecord
  2
ACAD
 70
     0
  0
ENDTAB
  0
TABLE
  2
DIMSTYLE
  5
A
330
0
100
AcDbSymbolTable
 70
     1
100
AcDbDimStyleTable
  0
DIMSTYLE
105
27
330
A
100
AcDbSymbolTableRecord
100
AcDbDimStyleTableRecord
  2
Standard
 70
     0
178
     0
340
11
  0
ENDTAB
  0
TABLE
  2
BLOCK_RECORD
  5
1
330
0
100
AcDbSymbolTable
 70
     6
  0
BLOCK_RECORD
  5
1F
330
1
100
AcDbSymbolTableRecord
100
AcDbBlockTableRecord
  2
*Model_Space
340
22
 70
     0
280
     1
281
     0
  0
BLOCK_RECORD
  5
1B
330
1
100
AcDbSymbolTableRecord
100
AcDbBlockTableRecord
  2
*Paper_Space
340
1E
 70
     0
280
     1
281
     0
  0
BLOCK_RECORD
  5
23
330
1
100
AcDbSymbolTableRecord
100
AcDbBlockTableRecord
  2
*Paper_Space0
340
26
 70
     0
280
     1
281
     0
  0
BLOCK_RECORD
  5
6E
330
1
100
AcDbSymbolTableRecord
100
AcDbBlockTableRecord
  2
1_070786_4
340
0
102
{BLKREFS
331
6F
102
}
 70
     0
280
     1
281
     0
  0
BLOCK_RECORD
  5
91
330
1
100
AcDbSymbolTableRecord
100
AcDbBlockTableRecord
  2
2_2CS2i_0_in_070786_4
340
0
102
{BLKREFS
331
92
102
}
 70
     0
280
     1
281
     0
  0
BLOCK_RECORD
  5
D8
330
1
100
AcDbSymbolTableRecord
100
AcDbBlockTableRecord
  2
3_070006i_0_in_070786_4
340
0
102
{BLKREFS
331
D9
102
}
 70
     0
280
     1
281
     0
  0
BLOCK_RECORD
  5
12F
330
1
100
AcDbSymbolTableRecord
100
AcDbBlockTableRecord
  2
4_405016_Inch_0_in_070786_4
340
0
102
{BLKREFS
331
130
102
}
 70
     0
280
     1
281
     0
  0
BLOCK_RECORD
  5
1B6
330
1
100
AcDbSymbolTableRecord
100
AcDbBlockTableRecord
  2
5_070786H_0_in_070786_4
340
0
102
{BLKREFS
331
1B7
102
}
 70
     0
280
     1
281
     0
  0
ENDTAB
  0
ENDSEC
  0
SECTION
  2
BLOCKS
  0
BLOCK
  5
20
330
1F
100
AcDbEntity
  8
0
100
AcDbBlockBegin
  2
*Model_Space
 70
     0
 10
0.0
 20
0.0
 30
0.0
  3
*Model_Space
  1

  0
ENDBLK
  5
21
330
1F
100
AcDbEntity
  8
0
100
AcDbBlockEnd
  0
BLOCK
  5
1C
330
1B
100
AcDbEntity
 67
     1
  8
0
100
AcDbBlockBegin
  2
*Paper_Space
 70
     0
 10
0.0
 20
0.0
 30
0.0
  3
*Paper_Space
  1

  0
ENDBLK
  5
1D
330
1B
100
AcDbEntity
 67
     1
  8
0
100
AcDbBlockEnd
  0
BLOCK
  5
24
330
23
100
AcDbEntity
  8
0
100
AcDbBlockBegin
  2
*Paper_Space0
 70
     0
 10
0.0
 20
0.0
 30
0.0
  3
*Paper_Space0
  1

  0
ENDBLK
  5
25
330
23
100
AcDbEntity
  8
0
100
AcDbBlockEnd
  0
BLOCK
  5
70
330
6E
100
AcDbEntity
  8
0
100
AcDbBlockBegin
  2
1_070786_4
 70
     2
 10
0.0
 20
0.0
 30
0.0
  3
1_070786_4
  1

  0
ATTDEF
  5
73
330
6E
100
AcDbEntity
  8
AM_6
100
AcDbText
 10
8.98671875
 20
1.2984375
 30
0.0
 40
0.5
  1
S-2000 Wide Slot Take-Up Trident Seal
100
AcDbAttributeDefinition
  3

  2
NN
 70
     8
280
     0
  0
ATTDEF
  5
74
330
6E
100
AcDbEntity
  8
AM_6
100
AcDbText
 10
8.98671875
 20
0.7984374999999999
 30
0.0
 40
0.5
  1
S-2000 Wide Slot Take-Up Bearing -Inch
100
AcDbAttributeDefinition
  3

  2
NT
 70
     8
280
     0
  0
ATTDEF
  5
75
330
6E
100
AcDbEntity
  8
AM_6
100
AcDbText
 10
8.98671875
 20
0.2984374999999999
 30
0.0
 40
0.5
  1
070786
100
AcDbAttributeDefinition
  3

  2
NB
 70
     8
280
     0
  0
ATTDEF
  5
76
330
6E
100
AcDbEntity
  8
AM_6
100
AcDbText
 10
8.98671875
 20
-0.2015625000000001
 30
0.0
 40
0.5
  1
$PN.
100
AcDbAttributeDefinition
  3

  2
NBSYN
 70
     8
280
     0
  0
ATTDEF
  5
77
330
6E
100
AcDbEntity
  8
AM_6
100
AcDbText
 10
8.98671875
 20
-0.7015625000000001
 30
0.0
 40
0.5
  1
070786
100
AcDbAttributeDefinition
  3

  2
LINA
 70
     8
280
     0
  0
ATTDEF
  5
78
330
6E
100
AcDbEntity
  8
AM_6
100
AcDbText
 10
8.98671875
 20
-1.2015625
 30
0.0
 40
0.5
  1
2
100
AcDbAttributeDefinition
  3

  2
SS
 70
     8
280
     0
  0
ATTDEF
  5
79
330
6E
100
AcDbEntity
  8
AM_6
100
AcDbText
 10
8.98671875
 20
-1.7015625
 30
0.0
 40
0.5
  1
070786
100
AcDbAttributeDefinition
  3

  2
PN
 70
     8
280
     0
  0
ATTDEF
  5
7A
330
6E
100
AcDbEntity
  8
AM_6
100
AcDbText
 10
8.98671875
 20
-2.2015625
 30
0.0
 40
0.5
  1
WSTU-S2-200RE
100
AcDbAttributeDefinition
  3

  2
DESCRIPTION
 70
     8
280
     0
  0
ATTDEF
  5
7B
330
6E
100
AcDbEntity
  8
AM_6
100
AcDbText
 10
8.98671875
 20
-2.7015625
 30
0.0
 40
0.5
  1
Expansion Type
100
AcDbAttributeDefinition
  3

  2
EF
 70
     8
280
     0
  0
ATTDEF
  5
7C
330
6E
100
AcDbEntity
  8
AM_6
100
AcDbText
 10
8.98671875
 20
-3.2015625
 30
0.0
 40
0.5
  1
Contact Seal
100
AcDbAttributeDefinition
  3

  2
ST
 70
     8
280
     0
  0
ATTDEF
  5
7D
330
6E
100
AcDbEntity
  8
AM_6
100
AcDbText
 10
8.98671875
 20
-3.7015625
 30
0.0
 40
0.5
  1
2-27/32
100
AcDbAttributeDefinition
  3

  2
A
 70
     8
280
     0
  0
ATTDEF
  5
7E
330
6E
100
AcDbEntity
  8
AM_6
100
AcDbText
 10
8.98671875
 20
-4.2015625
 30
0.0
 40
0.5
  1
6-3/16
100
AcDbAttributeDefinition
  3

  2
B
 70
     8
280
     0
  0
ATTDEF
  5
7F
330
6E
100
AcDbEntity
  8
AM_6
100
AcDbText
 10
8.98671875
 20
-4.7015625
 30
0.0
 40
0.5
  1
11/16
100
AcDbAttributeDefinition
  3

  2
C
 70
     8
280
     0
  0
ATTDEF
  5
80
330
6E
100
AcDbEntity
  8
AM_6
100
AcDbText
 10
8.98671875
 20
-5.2015625
 30
0.0
 40
0.5
  1
3-5/8
100
AcDbAttributeDefinition
  3

  2
D
 70
     8
280
     0
  0
ATTDEF
  5
81
330
6E
100
AcDbEntity
  8
AM_6
100
AcDbText
 10
8.98671875
 20
-5.7015625
 30
0.0
 40
0.5
  1
3-15/16
100
AcDbAttributeDefinition
  3

  2
E
 70
     8
280
     0
  0
ATTDEF
  5
82
330
6E
100
AcDbEntity
  8
AM_6
100
AcDbText
 10
8.98671875
 20
-6.2015625
 30
0.0
 40
0.5
  1
1-1/8
100
AcDbAttributeDefinition
  3

  2
F
 70
     8
280
     0
  0
ATTDEF
  5
83
330
6E
100
AcDbEntity
  8
AM_6
100
AcDbText
 10
8.98671875
 20
-6.7015625
 30
0.0
 40
0.5
  1
15/16
100
AcDbAttributeDefinition
  3

  2
G
 70
     8
280
     0
  0
ATTDEF
  5
84
330
6E
100
AcDbEntity
  8
AM_6
100
AcDbText
 10
8.98671875
 20
-7.2015625
 30
0.0
 40
0.5
  1
3/4
100
AcDbAttributeDefinition
  3

  2
H
 70
     8
280
     0
  0
ATTDEF
  5
85
330
6E
100
AcDbEntity
  8
AM_6
100
AcDbText
 10
8.98671875
 20
-7.7015625
 30
0.0
 40
0.5
  1
3-5/16
100
AcDbAttributeDefinition
  3

  2
J
 70
     8
280
     0
  0
ATTDEF
  5
86
330
6E
100
AcDbEntity
  8
AM_6
100
AcDbText
 10
8.98671875
 20
-8.2015625
 30
0.0
 40
0.5
  1
1-15/16
100
AcDbAttributeDefinition
  3

  2
K
 70
     8
280
     0
  0
ATTDEF
  5
87
330
6E
100
AcDbEntity
  8
AM_6
100
AcDbText
 10
8.98671875
 20
-8.7015625
 30
0.0
 40
0.5
  1
3-7/16
100
AcDbAttributeDefinition
  3

  2
L
 70
     8
280
     0
  0
ATTDEF
  5
88
330
6E
100
AcDbEntity
  8
AM_6
100
AcDbText
 10
8.98671875
 20
-9.2015625
 30
0.0
 40
0.5
  1
4
100
AcDbAttributeDefinition
  3

  2
M
 70
     8
280
     0
  0
ATTDEF
  5
89
330
6E
100
AcDbEntity
  8
AM_6
100
AcDbText
 10
8.98671875
 20
-9.7015625
 30
0.0
 40
0.5
  1
4-3/4
100
AcDbAttributeDefinition
  3

  2
N
 70
     8
280
     0
  0
ATTDEF
  5
8A
330
6E
100
AcDbEntity
  8
AM_6
100
AcDbText
 10
8.98671875
 20
-10.2015625
 30
0.0
 40
0.5
  1
2-15/16
100
AcDbAttributeDefinition
  3

  2
R
 70
     8
280
     0
  0
ATTDEF
  5
8B
330
6E
100
AcDbEntity
  8
AM_6
100
AcDbText
 10
8.98671875
 20
-10.7015625
 30
0.0
 40
0.5
  1
1-15/16
100
AcDbAttributeDefinition
  3

  2
S
 70
     8
280
     0
  0
ATTDEF
  5
8C
330
6E
100
AcDbEntity
  8
AM_6
100
AcDbText
 10
8.98671875
 20
-11.2015625
 30
0.0
 40
0.5
  1
2
100
AcDbAttributeDefinition
  3

  2
T
 70
     8
280
     0
  0
ATTDEF
  5
8D
330
6E
100
AcDbEntity
  8
AM_6
100
AcDbText
 10
8.98671875
 20
-11.7015625
 30
0.0
 40
0.5
  1
1/4
100
AcDbAttributeDefinition
  3

  2
X
 70
     8
280
     0
  0
ATTDEF
  5
8E
330
6E
100
AcDbEntity
  8
AM_6
100
AcDbText
 10
8.98671875
 20
-12.2015625
 30
0.0
 40
0.5
  1
0.020
100
AcDbAttributeDefinition
  3

  2
Y
 70
     8
280
     0
  0
ATTDEF
  5
8F
330
6E
100
AcDbEntity
  8
AM_6
100
AcDbText
 10
8.98671875
 20
-12.7015625
 30
0.0
 40
0.5
  1
2-19/64
100
AcDbAttributeDefinition
  3

  2
Z
 70
     8
280
     0
  0
ATTDEF
  5
90
330
6E
100
AcDbEntity
  8
AM_6
100
AcDbText
 10
8.98671875
 20
-13.2015625
 30
0.0
 40
0.5
  1
baldor
100
AcDbAttributeDefinition
  3

  2
COMPANY
 70
     8
280
     0
  0
INSERT
  5
92
330
6E
100
AcDbEntity
  8
0
100
AcDbBlockReference
  2
2_2CS2i_0_in_070786_4
 10
0.0
 20
0.0
 30
0.0
  0
INSERT
  5
D9
330
6E
100
AcDbEntity
  8
0
100
AcDbBlockReference
  2
3_070006i_0_in_070786_4
 10
0.0
 20
0.0
 30
0.0
  0
INSERT
  5
130
330
6E
100
AcDbEntity
  8
0
100
AcDbBlockReference
  2
4_405016_Inch_0_in_070786_4
 10
0.0
 20
0.0
 30
0.0
  0
INSERT
  5
1B7
330
6E
100
AcDbEntity
  8
0
100
AcDbBlockReference
  2
5_070786H_0_in_070786_4
 10
0.0
 20
0.0
 30
0.0
  0
ENDBLK
  5
71
330
6E
100
AcDbEntity
  8
0
100
AcDbBlockEnd
  0
BLOCK
  5
93
330
91
100
AcDbEntity
  8
0
100
AcDbBlockBegin
  2
2_2CS2i_0_in_070786_4
 70
     2
 10
0.0
 20
0.0
 30
0.0
  3
2_2CS2i_0_in_070786_4
  1

  0
ATTDEF
  5
95
330
91
100
AcDbEntity
  8
AM_6
100
AcDbText
 10
6.71875
 20
-1.0535
 30
0.0
 40
0.5
  1
S-2000 Collar -Inch
100
AcDbAttributeDefinition
  3

  2
NN
 70
     8
280
     0
  0
ATTDEF
  5
96
330
91
100
AcDbEntity
  8
AM_6
100
AcDbText
 10
6.71875
 20
-1.5535
 30
0.0
 40
0.5
  1
S-2000 Bearings
100
AcDbAttributeDefinition
  3

  2
NT
 70
     8
280
     0
  0
ATTDEF
  5
97
330
91
100
AcDbEntity
  8
AM_6
100
AcDbText
 10
6.71875
 20
-2.0535
 30
0.0
 40
0.5
  1
2CS2i
100
AcDbAttributeDefinition
  3

  2
NB
 70
     8
280
     0
  0
ATTDEF
  5
98
330
91
100
AcDbEntity
  8
AM_6
100
AcDbText
 10
6.71875
 20
-2.5535
 30
0.0
 40
0.5
  1
$BORE.CS2i
100
AcDbAttributeDefinition
  3

  2
NBSYN
 70
     8
280
     0
  0
ATTDEF
  5
99
330
91
100
AcDbEntity
  8
AM_6
100
AcDbText
 10
6.71875
 20
-3.0535
 30
0.0
 40
0.5
  1
2CS2i
100
AcDbAttributeDefinition
  3

  2
LINA
 70
     8
280
     0
  0
ATTDEF
  5
9A
330
91
100
AcDbEntity
  8
AM_6
100
AcDbText
 10
6.71875
 20
-3.5535
 30
0.0
 40
0.5
  1
2
100
AcDbAttributeDefinition
  3

  2
BORE
 70
     8
280
     0
  0
ATTDEF
  5
9B
330
91
100
AcDbEntity
  8
AM_6
100
AcDbText
 10
6.71875
 20
-4.0535
 30
0.0
 40
0.5
  1
2.000000
100
AcDbAttributeDefinition
  3

  2
BORE1
 70
     8
280
     0
  0
ATTDEF
  5
9C
330
91
100
AcDbEntity
  8
AM_6
100
AcDbText
 10
6.71875
 20
-4.5535
 30
0.0
 40
0.5
  1
3-7/16
100
AcDbAttributeDefinition
  3

  2
L1
 70
     8
280
     0
  0
ATTDEF
  5
9D
330
91
100
AcDbEntity
  8
AM_6
100
AcDbText
 10
6.71875
 20
-5.0535
 30
0.0
 40
0.5
  1
3.43750
100
AcDbAttributeDefinition
  3

  2
L
 70
     8
280
     0
  0
ATTDEF
  5
9E
330
91
100
AcDbEntity
  8
AM_6
100
AcDbText
 10
6.71875
 20
-5.5535
 30
0.0
 40
0.5
  1
3.34375
100
AcDbAttributeDefinition
  3

  2
L2
 70
     8
280
     0
  0
ATTDEF
  5
9F
330
91
100
AcDbEntity
  8
AM_6
100
AcDbText
 10
6.71875
 20
-6.0535
 30
0.0
 40
0.5
  1
3.50
100
AcDbAttributeDefinition
  3

  2
A
 70
     8
280
     0
  0
ATTDEF
  5
A0
330
91
100
AcDbEntity
  8
AM_6
100
AcDbText
 10
6.71875
 20
-6.5535
 30
0.0
 40
0.5
  1
1.62
100
AcDbAttributeDefinition
  3

  2
B
 70
     8
280
     0
  0
ATTDEF
  5
A1
330
91
100
AcDbEntity
  8
AM_6
100
AcDbText
 10
6.71875
 20
-7.0535
 30
0.0
 40
0.5
  1
2.31
100
AcDbAttributeDefinition
  3

  2
C
 70
     8
280
     0
  0
ATTDEF
  5
A2
330
91
100
AcDbEntity
  8
AM_6
100
AcDbText
 10
6.71875
 20
-7.5535
 30
0.0
 40
0.5
  1
3.50
100
AcDbAttributeDefinition
  3

  2
D
 70
     8
280
     0
  0
ATTDEF
  5
A3
330
91
100
AcDbEntity
  8
AM_6
100
AcDbText
 10
6.71875
 20
-8.0535
 30
0.0
 40
0.5
  1
0.41
100
AcDbAttributeDefinition
  3

  2
E
 70
     8
280
     0
  0
ATTDEF
  5
A4
330
91
100
AcDbEntity
  8
AM_6
100
AcDbText
 10
6.71875
 20
-8.5535
 30
0.0
 40
0.5
  1
0.317
100
AcDbAttributeDefinition
  3

  2
F
 70
     8
280
     0
  0
ATTDEF
  5
A5
330
91
100
AcDbEntity
  8
AM_6
100
AcDbText
 10
6.71875
 20
-9.0535
 30
0.0
 40
0.5
  1
3/8-16
100
AcDbAttributeDefinition
  3

  2
CS
 70
     8
280
     0
  0
ATTDEF
  5
A6
330
91
100
AcDbEntity
  8
AM_6
100
AcDbText
 10
6.71875
 20
-9.5535
 30
0.0
 40
0.5
  1
0.3750
100
AcDbAttributeDefinition
  3

  2
NDM
 70
     8
280
     0
  0
ATTDEF
  5
A7
330
91
100
AcDbEntity
  8
AM_6
100
AcDbText
 10
6.71875
 20
-10.0535
 30
0.0
 40
0.5
  1
0.3070
100
AcDbAttributeDefinition
  3

  2
KDM
 70
     8
280
     0
  0
ATTDEF
  5
A8
330
91
100
AcDbEntity
  8
AM_6
100
AcDbText
 10
6.71875
 20
-10.5535
 30
0.0
 40
0.5
  1
1
100
AcDbAttributeDefinition
  3

  2
DD
 70
     8
280
     0
  0
ATTDEF
  5
A9
330
91
100
AcDbEntity
  8
AM_6
100
AcDbText
 10
6.71875
 20
-11.0535
 30
0.0
 40
0.5
  1
baldor
100
AcDbAttributeDefinition
  3

  2
COMPANY
 70
     8
280
     0
  0
LINE
  5
AC
330
91
100
AcDbEntity
  8
AM_9
100
AcDbLine
 10
1.08508614371301
 20
-1.234577735467823
 30
0.0
 11
1.076997333078978
 21
-1.224488670469748
 31
0.0
  0
LINE
  5
AD
330
91
100
AcDbEntity
  8
AM_9
100
AcDbLine
 10
1.077118752485536
 20
-1.516359884733209
 30
0.0
 11
1.08508614371301
 21
-1.506422264532177
 31
0.0
  0
LWPOLYLINE
  5
AE
330
91
100
AcDbEntity
  8
AM_9
100
AcDbPolyline
 90
       26
 70
     0
 43
0.0
 10
1.076987422341317
 20
-1.224476308963633
 10
1.076852235758493
 20
-1.224308271443683
 10
1.066278981138374
 20
-1.214301432537048
 10
1.054569711275849
 20
-1.208931658753938
 10
1.041481947595278
 20
-1.208422827735138
 10
1.0278006900604
 20
-1.21300684088404
 10
1.013830421402534
 20
-1.222764255474738
 10
1.000232460804837
 20
-1.237416029846859
 10
0.987830224755597
 20
-1.256328571350549
 10
0.9769926350917173
 20
-1.279240925088392
 10
0.9688299740288342
 20
-1.304009356111882
 10
0.9631497418277855
 20
-1.331115795223777
 10
0.9605386608941846
 20
-1.357171165229202
 10
0.9605148356925725
 20
-1.383647638067584
 10
0.962909491879545
 20
-1.408197315440199
 10
0.9674605839073526
 20
-1.431712472618771
 10
0.9740576435160456
 20
-1.45390029802289
 10
0.9822865829736409
 20
-1.473937085965839
 10
0.9925219865207319
 20
-1.492564809653995
 10
1.003775738539055
 20
-1.507945301954541
 10
1.016601818437457
 20
-1.520580868890707
 10
1.029653900797198
 20
-1.528904421512373
 10
1.043155529328197
 20
-1.532792849706192
 10
1.056026013204927
 20
-1.531676650013289
 10
1.068107647222918
 20
-1.525358942332216
 10
1.076985474286909
 20
-1.51652612059274
  0
LWPOLYLINE
  5
AF
330
91
100
AcDbEntity
  8
AM_9
100
AcDbPolyline
 90
        7
 70
     0
 43
0.0
 10
1.108937853387737
 20
-1.3705
 10
1.108513499617112
 20
-1.349521520915244
 10
1.106903610330475
 20
-1.324919242035971
 10
1.104130104245032
 20
-1.301855322039372
 10
1.100216007379131
 20
-1.280578384257335
 10
1.096179993962825
 20
-1.264836269731259
 10
1.091418091293067
 20
-1.250770700757612
  0
LWPOLYLINE
  5
B0
330
91
100
AcDbEntity
  8
AM_9
100
AcDbPolyline
 90
        8
 70
     0
 43
0.0
 10
1.080772590339913
 20
-1.5113292952069
 10
1.088143681974203
 20
-1.497932303738319
 10
1.095791412491812
 20
-1.477472829888135
 10
1.101517109163569
 20
-1.454178283758052
 10
1.105650976577941
 20
-1.427911069580451
 10
1.107986640313107
 20
-1.401836514347769
 10
1.108920889922899
 20
-1.374724615848441
 10
1.108937853387737
 20
-1.3705
  0
LWPOLYLINE
  5
B1
330
91
100
AcDbEntity
  8
AM_9
100
AcDbPolyline
 90
        3
 70
     0
 43
0.0
 10
1.076985474286909
 20
-1.51652612059274
 10
1.07891168616397
 20
-1.514004583658788
 10
1.080772590339913
 20
-1.5113292952069
  0
LINE
  5
B2
330
91
100
AcDbEntity
  8
AM_9
100
AcDbLine
 10
1.054806317942603
 20
-1.52415
 30
0.0
 11
1.515191975249613
 21
-1.52415
 31
0.0
  0
LINE
  5
B3
330
91
100
AcDbEntity
  8
AM_9
100
AcDbLine
 10
1.527037990378052
 20
-1.21685
 30
0.0
 11
1.054806317942603
 21
-1.21685
 31
0.0
  0
ELLIPSE
  5
B4
330
91
100
AcDbEntity
  8
AM_9
100
AcDbEllipse
 10
1.527037990378054
 20
-1.370500000000009
 30
0.0
 11
-2.822504710335043E-17
 21
-0.1536500000000098
 31
0.0
210
0.0
220
0.0
230
1.0
 40
0.4226182617406981
 41
3.45181803902245
 42
4.71238898038469
  0
LINE
  5
B5
330
91
100
AcDbEntity
  8
AM_9
100
AcDbLine
 10
1.518989257133123
 20
-1.206849191975398
 30
0.0
 11
1.496758164607646
 21
-1.23457773546782
 31
0.0
  0
LWPOLYLINE
  5
B6
330
91
100
AcDbEntity
  8
AM_9
100
AcDbPolyline
 90
       39
 70
     0
 43
0.0
 10
-0.1218661424184465
 20
-1.253488104473679
 10
-0.1391103719975643
 20
-1.271213367160157
 10
-0.1538241570126183
 20
-1.291796829177464
 10
-0.1659591348966734
 20
-1.316623368754636
 10
-0.173643560517859
 20
-1.344176700585799
 10
-0.1759834116462795
 20
-1.369597550752589
 10
-0.1738155228219684
 20
-1.395844761521261
 10
-0.1677103660053227
 20
-1.41956765495865
 10
-0.1575987202424182
 20
-1.442586348440226
 10
-0.1438821518135295
 20
-1.463822772457578
 10
-0.1266166456928774
 20
-1.483129049811224
 10
-0.105504820089655
 20
-1.500375588346393
 10
-0.0813558454577697
 20
-1.514472487909666
 10
-0.0539914003972061
 20
-1.525106359131617
 10
-0.0244872070150616
 20
-1.53140701089962
 10
0.0061185726449097
 20
-1.532900986662971
 10
0.0374137059144485
 20
-1.52925712012805
 10
0.0671175628243077
 20
-1.520631994249787
 10
0.0957253333484078
 20
-1.506698885410673
 10
0.1203013277651083
 20
-1.488885052348584
 10
0.1419776755493766
 20
-1.466271329989636
 10
0.1577445699724264
 20
-1.442315148278001
 10
0.1692317451698796
 20
-1.414923654001466
 10
0.1747996578234413
 20
-1.389263695572541
 10
0.1757512957912935
 20
-1.362141036554752
 10
0.1723446896408934
 20
-1.337739733160896
 10
0.1647554934992659
 20
-1.313578803751199
 10
0.1535827526292065
 20
-1.291397546785491
 10
0.1387143058527731
 20
-1.270742928870743
 10
0.1200516691142442
 20
-1.251898942507808
 10
0.0981529894304415
 20
-1.235787017588642
 10
0.0726576953317616
 20
-1.222595250353041
 10
0.044658099968931
 20
-1.213358838042087
 10
0.0147106004738815
 20
-1.208573151141624
 10
-0.0164706900634701
 20
-1.208718821511385
 10
-0.0469582668698165
 20
-1.213935477134437
 10
-0.0769691017304316
 20
-1.224475947194301
 10
-0.1002663144367957
 20
-1.237124464030879
 10
-0.1218661424184465
 20
-1.253488104473679
  0
LINE
  5
B7
330
91
100
AcDbEntity
  8
AM_9
100
AcDbLine
 10
1.082449871458721
 20
-1.232300577831902
 30
0.0
 11
1.076987422341317
 21
-1.224476308963633
 31
0.0
  0
LWPOLYLINE
  5
B8
330
91
100
AcDbEntity
  8
AM_9
100
AcDbPolyline
 90
        3
 70
     0
 43
0.0
 10
1.091418091293067
 20
-1.250770700757612
 10
1.084631795879397
 20
-1.236073278082185
 10
1.082449871458721
 20
-1.232300577831902
  0
LINE
  5
B9
330
91
100
AcDbEntity
  8
AM_9
100
AcDbLine
 10
1.155
 20
-1.6875
 30
0.0
 11
1.155
 21
-1.0535
 31
0.0
  0
LINE
  5
BA
330
91
100
AcDbEntity
  8
AM_9
100
AcDbLine
 10
-1.155
 20
-1.0535
 30
0.0
 11
-1.155
 21
-1.6875
 31
0.0
  0
LINE
  5
BB
330
91
100
AcDbEntity
  8
AM_9
100
AcDbLine
 10
0.15365
 20
-1.3705
 30
0.0
 11
-0.15365
 21
-1.3705
 31
0.0
  0
LINE
  5
BC
330
91
100
AcDbEntity
  8
AM_9
100
AcDbLine
 10
1.573756133159429
 20
-1.3705
 30
0.0
 11
1.473993545755674
 21
-1.3705
 31
0.0
  0
ELLIPSE
  5
BD
330
91
100
AcDbEntity
  8
AM_9
100
AcDbEllipse
 10
1.054806317942603
 20
-1.3705
 30
0.0
 11
-2.822504710334855E-17
 21
-0.1536499999999996
 31
0.0
210
0.0
220
0.0
230
1.0
 40
0.4226182617407001
 41
0.0
 42
6.283185307179586
  0
LINE
  5
C0
330
91
100
AcDbEntity
  8
AM_7
100
AcDbLine
 10
-0.1613324999999999
 20
-1.3705
 30
0.0
 11
0.1613324999999999
 21
-1.3705
 31
0.0
  0
LWPOLYLINE
  5
C2
330
91
100
AcDbEntity
  8
AM_4
100
AcDbPolyline
 90
       11
 70
     0
 43
0.0
 10
1.515239356550272
 20
-1.52414999933858
 10
1.507763524485459
 20
-1.5231525561079
 10
1.496667547102831
 20
-1.518066316752001
 10
1.485781387980508
 20
-1.50885769827306
 10
1.475458036057593
 20
-1.495711551078412
 10
1.466073414835014
 20
-1.479062016143881
 10
1.457965860580665
 20
-1.459252309063228
 10
1.451470006097114
 20
-1.436934647229059
 10
1.446877023847643
 20
-1.412703436775501
 10
1.444350174859911
 20
-1.38727282237596
 10
1.443885541326512
 20
-1.3705
  0
ELLIPSE
  5
C3
330
91
100
AcDbEntity
  8
AM_4
100
AcDbEllipse
 10
1.527037990378039
 20
-1.370499999999999
 30
0.0
 11
-2.822504710334851E-17
 21
-0.1536499999999994
 31
0.0
210
0.0
220
0.0
230
1.0
 40
0.4226182617406876
 41
1.570796326794897
 42
3.451818039022271
  0
LWPOLYLINE
  5
C4
330
91
100
AcDbEntity
  8
AM_4
100
AcDbPolyline
 90
       14
 70
     0
 43
0.0
 10
1.519214587403795
 20
-1.206568142204743
 10
1.524082392913208
 20
-1.200924811512154
 10
1.537457204063934
 20
-1.189530813820807
 10
1.549962202317716
 20
-1.183976048069603
 10
1.562639184269448
 20
-1.183407654116658
 10
1.573981224267625
 20
-1.187661980617995
 10
1.58478731941901
 20
-1.196711959468604
 10
1.594302752563509
 20
-1.209851993982014
 10
1.602820377984683
 20
-1.227299729506366
 10
1.61006030727036
 20
-1.248513923217217
 10
1.615985871747971
 20
-1.273342373331685
 10
1.620454305709338
 20
-1.301225531611538
 10
1.623369631490096
 20
-1.331685709632391
 10
1.624643131723091
 20
-1.3705
  0
LINE
  5
C5
330
91
100
AcDbEntity
  8
AM_4
100
AcDbLine
 10
-1.566208333333333
 20
-1.6875
 30
0.0
 11
1.566208333330167
 21
-1.6875
 31
0.0
  0
ARC
  5
C6
330
91
100
AcDbEntity
  8
AM_4
100
AcDbCircle
 10
1.566208333333333
 20
-1.581833333333333
 30
0.0
 40
0.105666666666667
100
AcDbArc
 50
270.0
 51
0.0000008537736463
  0
ARC
  5
C7
330
91
100
AcDbEntity
  8
AM_4
100
AcDbCircle
 10
-1.566208333333333
 20
-1.581833333333333
 30
0.0
 40
0.105666666666667
100
AcDbArc
 50
179.9999991462263
 51
270.0
  0
LWPOLYLINE
  5
C8
330
91
100
AcDbEntity
  8
AM_4
100
AcDbPolyline
 90
       20
 70
     0
 43
0.0
 10
0.15365
 20
-1.3705
 10
0.1515412694445523
 20
-1.395868605699438
 10
0.1450312307038234
 20
-1.421237211398877
 10
0.1346708348373996
 20
-1.444473567875274
 10
0.1201655527325503
 20
-1.466252610598775
 10
0.1026765235323728
 20
-1.484805966665376
 10
0.0817333511065433
 20
-1.500607577861147
 10
0.0590450685483378
 20
-1.512352043975834
 10
0.0339867986220785
 20
-1.520343985596427
 10
0.0087460581217331
 20
-1.523900876683711
 10
-0.0174791193635276
 20
-1.5231525561079
 10
-0.0424028756734224
 20
-1.518183169774434
 10
-0.0668241709906001
 20
-1.50885769827306
 10
-0.0887358475497578
 20
-1.49593632591728
 10
-0.1087318313594313
 20
-1.479062016143881
 10
-0.1252034677818453
 20
-1.459564101384342
 10
-0.1385451556264255
 20
-1.436934647229059
 10
-0.1476357031138611
 20
-1.413067847797086
 10
-0.1527317744594899
 20
-1.38727282237596
 10
-0.15365
 20
-1.3705
  0
LINE
  5
C9
330
91
100
AcDbEntity
  8
AM_4
100
AcDbLine
 10
-1.671875
 20
-1.581833333333333
 30
0.0
 11
1.671875
 21
-1.581833333333333
 31
0.0
  0
LWPOLYLINE
  5
CA
330
91
100
AcDbEntity
  8
AM_4
100
AcDbPolyline
 90
       11
 70
     0
 43
0.0
 10
1.573756133159429
 20
-1.3705
 10
1.573015071878
 20
-1.396232005179207
 10
1.570814229013893
 20
-1.421237211398877
 10
1.567157603925145
 20
-1.444788552679179
 10
1.562098591303606
 20
-1.466252610598775
 10
1.555660497643052
 20
-1.485041329003416
 10
1.547963579992137
 20
-1.500607577861147
 10
1.539102244394075
 20
-1.512480991528923
 10
1.529283655734509
 20
-1.520343985596427
 10
1.518750153668723
 20
-1.523906032941591
 10
1.515239356550272
 20
-1.52414999933858
  0
LINE
  5
CB
330
91
100
AcDbEntity
  8
AM_4
100
AcDbLine
 10
1.671875
 20
-1.581833333333333
 30
0.0
 11
1.671875
 21
-1.3705
 31
0.0
  0
LINE
  5
CC
330
91
100
AcDbEntity
  8
AM_4
100
AcDbLine
 10
-1.671875
 20
-1.3705
 30
0.0
 11
-1.671875
 21
-1.581833333333333
 31
0.0
  0
LINE
  5
CD
330
91
100
AcDbEntity
  8
AM_4
100
AcDbLine
 10
-0.15365
 20
-1.3705
 30
0.0
 11
-1.71875
 21
-1.3705
 31
0.0
  0
ARC
  5
CE
330
91
100
AcDbEntity
  8
AM_4
100
AcDbCircle
 10
0.0
 20
-1.3705
 30
0.0
 40
0.15365
100
AcDbArc
 50
0.0000008537736463
 51
180.0
  0
LINE
  5
CF
330
91
100
AcDbEntity
  8
AM_4
100
AcDbLine
 10
1.473993545755674
 20
-1.3705
 30
0.0
 11
0.15365
 21
-1.3705
 31
0.0
  0
LINE
  5
D0
330
91
100
AcDbEntity
  8
AM_4
100
AcDbLine
 10
1.573756133159429
 20
-1.3705
 30
0.0
 11
1.71875
 21
-1.3705
 31
0.0
  0
LWPOLYLINE
  5
D1
330
91
100
AcDbEntity
  8
AM_4
100
AcDbPolyline
 90
       20
 70
     0
 43
0.0
 10
-0.1782336444086849
 20
-1.3705
 10
-0.1768404770250377
 20
-1.347127529797446
 10
-0.172594104448499
 20
-1.323755059594891
 10
-0.1622643682690862
 20
-1.292997135914977
 10
-0.1463833419380951
 20
-1.263610789565219
 10
-0.1266290430121704
 20
-1.238623123540388
 10
-0.1020456390273909
 20
-1.216827849004654
 10
-0.0759816788828216
 20
-1.200924811512154
 10
-0.0465835641519924
 20
-1.189530813820807
 10
-0.0181428954258231
 20
-1.183976048069603
 10
0.011733938982014
 20
-1.183407654116658
 10
0.0394569760159933
 20
-1.187661980617995
 10
0.0668434714206103
 20
-1.196711959468603
 10
0.0918356627371703
 20
-1.209851993982014
 10
0.1149820182676184
 20
-1.227299729506366
 10
0.1352928976098358
 20
-1.248513923217217
 10
0.1523940596023233
 20
-1.273342373331685
 10
0.1655979895872318
 20
-1.301225531611538
 10
0.1743647230742378
 20
-1.33168570963239
 10
0.1782336444086846
 20
-1.3705
  0
LWPOLYLINE
  5
D2
330
91
100
AcDbEntity
  8
AM_4
100
AcDbPolyline
 90
        8
 70
     0
 43
0.0
 10
1.473993545755674
 20
-1.3705
 10
1.474727029096502
 20
-1.346956540255968
 10
1.476901296848806
 20
-1.323755059594891
 10
1.482183170539372
 20
-1.292997135914977
 10
1.490192371020866
 20
-1.263610789565219
 10
1.499967354236372
 20
-1.238623123540388
 10
1.511842231730635
 20
-1.216827849004654
 10
1.519214587403795
 20
-1.206568142204743
  0
LINE
  5
D3
330
91
100
AcDbEntity
  8
AM_4
100
AcDbLine
 10
-1.71875
 20
-1.0535
 30
0.0
 11
1.71875
 21
-1.0535
 31
0.0
  0
LINE
  5
D4
330
91
100
AcDbEntity
  8
AM_4
100
AcDbLine
 10
1.71875
 20
-1.3705
 30
0.0
 11
1.71875
 21
-1.0535
 31
0.0
  0
LINE
  5
D5
330
91
100
AcDbEntity
  8
AM_4
100
AcDbLine
 10
-1.71875
 20
-1.0535
 30
0.0
 11
-1.71875
 21
-1.3705
 31
0.0
  0
CIRCLE
  5
D7
330
91
100
AcDbEntity
  8
AM_5
100
AcDbCircle
 10
-0.0000000000000001
 20
-1.3705
 30
0.0
 40
0.1874999999999999
  0
ENDBLK
  5
94
330
91
100
AcDbEntity
  8
0
100
AcDbBlockEnd
  0
BLOCK
  5
DA
330
D8
100
AcDbEntity
  8
0
100
AcDbBlockBegin
  2
3_070006i_0_in_070786_4
 70
     2
 10
0.0
 20
0.0
 30
0.0
  3
3_070006i_0_in_070786_4
  1

  0
ATTDEF
  5
DC
330
D8
100
AcDbEntity
  8
AM_6
100
AcDbText
 10
6.77165
 20
1.2984375
 30
0.0
 40
0.5
  1
S-2000 Insert -Inch
100
AcDbAttributeDefinition
  3

  2
NN
 70
     8
280
     0
  0
ATTDEF
  5
DD
330
D8
100
AcDbEntity
  8
AM_6
100
AcDbText
 10
6.77165
 20
0.7984374999999999
 30
0.0
 40
0.5
  1
S-2000 Bearings
100
AcDbAttributeDefinition
  3

  2
NT
 70
     8
280
     0
  0
ATTDEF
  5
DE
330
D8
100
AcDbEntity
  8
AM_6
100
AcDbText
 10
6.77165
 20
0.2984374999999999
 30
0.0
 40
0.5
  1
070006i
100
AcDbAttributeDefinition
  3

  2
NB
 70
     8
280
     0
  0
ATTDEF
  5
DF
330
D8
100
AcDbEntity
  8
AM_6
100
AcDbText
 10
6.77165
 20
-0.2015625000000001
 30
0.0
 40
0.5
  1
$PN.i
100
AcDbAttributeDefinition
  3

  2
NBSYN
 70
     8
280
     0
  0
ATTDEF
  5
E0
330
D8
100
AcDbEntity
  8
AM_6
100
AcDbText
 10
6.77165
 20
-0.7015625000000001
 30
0.0
 40
0.5
  1
070006i
100
AcDbAttributeDefinition
  3

  2
LINA
 70
     8
280
     0
  0
ATTDEF
  5
E1
330
D8
100
AcDbEntity
  8
AM_6
100
AcDbText
 10
6.77165
 20
-1.2015625
 30
0.0
 40
0.5
  1
2
100
AcDbAttributeDefinition
  3

  2
SS
 70
     8
280
     0
  0
ATTDEF
  5
E2
330
D8
100
AcDbEntity
  8
AM_6
100
AcDbText
 10
6.77165
 20
-1.7015625
 30
0.0
 40
0.5
  1
2.31
100
AcDbAttributeDefinition
  3

  2
CC
 70
     8
280
     0
  0
ATTDEF
  5
E3
330
D8
100
AcDbEntity
  8
AM_6
100
AcDbText
 10
6.77165
 20
-2.2015625
 30
0.0
 40
0.5
  1
2.000000
100
AcDbAttributeDefinition
  3

  2
SS1
 70
     8
280
     0
  0
ATTDEF
  5
E4
330
D8
100
AcDbEntity
  8
AM_6
100
AcDbText
 10
6.77165
 20
-2.7015625
 30
0.0
 40
0.5
  1
070006
100
AcDbAttributeDefinition
  3

  2
PN
 70
     8
280
     0
  0
ATTDEF
  5
E5
330
D8
100
AcDbEntity
  8
AM_6
100
AcDbText
 10
6.77165
 20
-3.2015625
 30
0.0
 40
0.5
  1
INS-S2-200R
100
AcDbAttributeDefinition
  3

  2
DESCRIPTION
 70
     8
280
     0
  0
ATTDEF
  5
E6
330
D8
100
AcDbEntity
  8
AM_6
100
AcDbText
 10
6.77165
 20
-3.7015625
 30
0.0
 40
0.5
  1
Contact Seal
100
AcDbAttributeDefinition
  3

  2
ST
 70
     8
280
     0
  0
ATTDEF
  5
E7
330
D8
100
AcDbEntity
  8
AM_6
100
AcDbText
 10
6.77165
 20
-4.2015625
 30
0.0
 40
0.5
  1
1
100
AcDbAttributeDefinition
  3

  2
ST1
 70
     8
280
     0
  0
ATTDEF
  5
E8
330
D8
100
AcDbEntity
  8
AM_6
100
AcDbText
 10
6.77165
 20
-4.7015625
 30
0.0
 40
0.5
  1
3.5433
100
AcDbAttributeDefinition
  3

  2
A
 70
     8
280
     0
  0
ATTDEF
  5
E9
330
D8
100
AcDbEntity
  8
AM_6
100
AcDbText
 10
6.77165
 20
-5.2015625
 30
0.0
 40
0.5
  1
61/64
100
AcDbAttributeDefinition
  3

  2
B
 70
     8
280
     0
  0
ATTDEF
  5
EA
330
D8
100
AcDbEntity
  8
AM_6
100
AcDbText
 10
6.77165
 20
-5.7015625
 30
0.0
 40
0.5
  1
2-27/32
100
AcDbAttributeDefinition
  3

  2
C
 70
     8
280
     0
  0
ATTDEF
  5
EB
330
D8
100
AcDbEntity
  8
AM_6
100
AcDbText
 10
6.77165
 20
-6.2015625
 30
0.0
 40
0.5
  1
0.977
100
AcDbAttributeDefinition
  3

  2
D
 70
     8
280
     0
  0
ATTDEF
  5
EC
330
D8
100
AcDbEntity
  8
AM_6
100
AcDbText
 10
6.77165
 20
-6.7015625
 30
0.0
 40
0.5
  1
3-11/32
100
AcDbAttributeDefinition
  3

  2
E
 70
     8
280
     0
  0
ATTDEF
  5
ED
330
D8
100
AcDbEntity
  8
AM_6
100
AcDbText
 10
6.77165
 20
-7.2015625
 30
0.0
 40
0.5
  1
0.53125
100
AcDbAttributeDefinition
  3

  2
F
 70
     8
280
     0
  0
ATTDEF
  5
EE
330
D8
100
AcDbEntity
  8
AM_6
100
AcDbText
 10
6.77165
 20
-7.7015625
 30
0.0
 40
0.5
  1
1
100
AcDbAttributeDefinition
  3

  2
DD
 70
     8
280
     0
  0
ATTDEF
  5
EF
330
D8
100
AcDbEntity
  8
AM_6
100
AcDbText
 10
6.77165
 20
-8.2015625
 30
0.0
 40
0.5
  1
baldor
100
AcDbAttributeDefinition
  3

  2
COMPANY
 70
     8
280
     0
  0
LINE
  5
F0
330
D8
100
AcDbEntity
  8
AM_9
100
AcDbLine
 10
1.046785494027331
 20
-1.1655
 30
0.0
 11
0.906178221660684
 21
-1.1655
 31
0.0
  0
LINE
  5
F1
330
D8
100
AcDbEntity
  8
AM_9
100
AcDbLine
 10
0.9062466860935546
 20
-1.5755
 30
0.0
 11
1.046785494027331
 21
-1.5755
 31
0.0
  0
LWPOLYLINE
  5
F2
330
D8
100
AcDbEntity
  8
AM_9
100
AcDbPolyline
 90
       21
 70
     0
 43
0.0
 10
0.9063140065485755
 20
-1.165500000528258
 10
0.8969301504047628
 20
-1.166650161941116
 10
0.8817157754029037
 20
-1.173018660592632
 10
0.8662760315492313
 20
-1.184715962022485
 10
0.8510884305388179
 20
-1.201594448914185
 10
0.8368762994675917
 20
-1.223056113061309
 10
0.8240656538175006
 20
-1.24908480377235
 10
0.8135271807593438
 20
-1.278568316156538
 10
0.8058393704696409
 20
-1.310821720220751
 10
0.8014099300972712
 20
-1.344828299168185
 10
0.800547305560433
 20
-1.378981065290765
 10
0.8031269379961339
 20
-1.412890609368116
 10
0.8089845393627937
 20
-1.445247119315967
 10
0.8177540324758535
 20
-1.475540800011407
 10
0.8291939089667477
 20
-1.503287843964381
 10
0.8426034758536937
 20
-1.527365257303498
 10
0.8576323840517827
 20
-1.547359810253069
 10
0.8733961606546183
 20
-1.562339287254995
 10
0.8891427874043513
 20
-1.571739445524966
 10
0.9043840476555319
 20
-1.57544994397566
 10
0.9062992284920279
 20
-1.575499998999768
  0
LWPOLYLINE
  5
F3
330
D8
100
AcDbEntity
  8
AM_9
100
AcDbPolyline
 90
        6
 70
     0
 43
0.0
 10
0.9645765099285565
 20
-1.487171713267323
 10
0.9648923741830504
 20
-1.485444248219814
 10
0.9692775051933961
 20
-1.455106578002177
 10
0.972126416725536
 20
-1.422298784148368
 10
0.9733055721770503
 20
-1.39661953880751
 10
0.9736963415389313
 20
-1.3705
  0
LWPOLYLINE
  5
F4
330
D8
100
AcDbEntity
  8
AM_9
100
AcDbPolyline
 90
        7
 70
     0
 43
0.0
 10
0.9062992284920279
 20
-1.575499998999768
 10
0.9183398095507092
 20
-1.573357763211015
 10
0.9309596956682323
 20
-1.565731369249134
 10
0.9419435911744443
 20
-1.552768271809792
 10
0.9512408757607727
 20
-1.534902110309404
 10
0.9589202100761257
 20
-1.512148046698552
 10
0.9645765099285565
 20
-1.487171713267323
  0
LWPOLYLINE
  5
F5
330
D8
100
AcDbEntity
  8
AM_9
100
AcDbPolyline
 90
       12
 70
     0
 43
0.0
 10
0.9435286779417971
 20
-1.3705
 10
0.9436760816826895
 20
-1.360904582061244
 10
0.9462636383494187
 20
-1.326937555419073
 10
0.9520253790500312
 20
-1.294460575943977
 10
0.9606178153233743
 20
-1.264092745364521
 10
0.9717845859103307
 20
-1.236418559939227
 10
0.9848882345298691
 20
-1.212469404785717
 10
0.9995452976131667
 20
-1.192745335435469
 10
1.014971602783868
 20
-1.178055624917102
 10
1.030474736511694
 20
-1.168941907098632
 10
1.045575929214714
 20
-1.165519874684364
 10
1.046778995239891
 20
-1.165500000576729
  0
LWPOLYLINE
  5
F6
330
D8
100
AcDbEntity
  8
AM_9
100
AcDbPolyline
 90
       11
 70
     0
 43
0.0
 10
1.046792319612884
 20
-1.575499999363772
 10
1.037212380740092
 20
-1.574294998115517
 10
1.022073626267102
 20
-1.567798212665202
 10
1.006831899331695
 20
-1.555920443226721
 10
0.9919710612922391
 20
-1.53883651427101
 10
0.9781609653212457
 20
-1.517139899355452
 10
0.9658545939737122
 20
-1.490981352391879
 10
0.9558004459324833
 20
-1.461400303144283
 10
0.9485317704945354
 20
-1.42912500327932
 10
0.944399170130095
 20
-1.395145425831918
 10
0.9435286779417971
 20
-1.3705
  0
LWPOLYLINE
  5
F7
330
D8
100
AcDbEntity
  8
AM_9
100
AcDbPolyline
 90
        4
 70
     0
 43
0.0
 10
1.11460436713105
 20
-1.312522849686142
 10
1.115210699933459
 20
-1.320935264890733
 10
1.116404845571593
 20
-1.345526989680055
 10
1.116802165255484
 20
-1.3705
  0
LWPOLYLINE
  5
F8
330
D8
100
AcDbEntity
  8
AM_9
100
AcDbPolyline
 90
        9
 70
     0
 43
0.0
 10
1.046778995239891
 20
-1.165500000576729
 10
1.05957968897145
 20
-1.167907761293979
 10
1.072357626657006
 20
-1.175863953789169
 10
1.083608099732247
 20
-1.189202571434621
 10
1.093234560244893
 20
-1.207476360126783
 10
1.101246283655223
 20
-1.230566196985514
 10
1.107543787395097
 20
-1.257573889191244
 10
1.112189287714433
 20
-1.288060959345697
 10
1.11460436713105
 20
-1.312522849686142
  0
LWPOLYLINE
  5
F9
330
D8
100
AcDbEntity
  8
AM_9
100
AcDbPolyline
 90
        8
 70
     0
 43
0.0
 10
0.9646434713120429
 20
-1.254190751394256
 10
0.9626093336276506
 20
-1.243984367114789
 10
0.9559182312626052
 20
-1.218817408240864
 10
0.9474837886512549
 20
-1.197883840115097
 10
0.9371433101591392
 20
-1.181701194872995
 10
0.9250637692869256
 20
-1.170895353760841
 10
0.9115954900908542
 20
-1.165915869700951
 10
0.9063140065485755
 20
-1.165500000528258
  0
LWPOLYLINE
  5
FA
330
D8
100
AcDbEntity
  8
AM_9
100
AcDbPolyline
 90
        5
 70
     0
 43
0.0
 10
0.9736963415389313
 20
-1.3705
 10
0.9730297064245785
 20
-1.336493912576419
 10
0.9710107888305127
 20
-1.303456388462615
 10
0.9675666547698376
 20
-1.272359147874855
 10
0.9646434713120429
 20
-1.254190751394256
  0
LINE
  5
FB
330
D8
100
AcDbEntity
  8
AM_9
100
AcDbLine
 10
-1.0
 20
1.15625
 30
0.0
 11
-1.0
 21
-1.6875
 31
0.0
  0
LINE
  5
FC
330
D8
100
AcDbEntity
  8
AM_9
100
AcDbLine
 10
1.0
 20
-1.6875
 30
0.0
 11
1.0
 21
1.15625
 31
0.0
  0
LINE
  5
FD
330
D8
100
AcDbEntity
  8
AM_9
100
AcDbLine
 10
-1.155
 20
1.0
 30
0.0
 11
-1.155
 21
0.8807500000000006
 31
0.0
  0
LINE
  5
FE
330
D8
100
AcDbEntity
  8
AM_9
100
AcDbLine
 10
1.155
 20
0.8807500000000006
 30
0.0
 11
1.155
 21
1.0
 31
0.0
  0
LWPOLYLINE
  5
FF
330
D8
100
AcDbEntity
  8
AM_9
100
AcDbPolyline
 90
       10
 70
     0
 43
0.0
 10
1.114491281951094
 20
-1.429898848470137
 10
1.113809380737061
 20
-1.437748002252064
 10
1.110009442682595
 20
-1.468947523479572
 10
1.104606423986586
 20
-1.497405193923415
 10
1.097442290854296
 20
-1.522541955311809
 10
1.088549139716656
 20
-1.543424449120014
 10
1.077839767615082
 20
-1.559499307750009
 10
1.065507167045844
 20
-1.570205549264893
 10
1.051886068210213
 20
-1.575113652474625
 10
1.046792319612884
 20
-1.575499999363772
  0
LWPOLYLINE
  5
100
330
D8
100
AcDbEntity
  8
AM_9
100
AcDbPolyline
 90
        3
 70
     0
 43
0.0
 10
1.116802165255484
 20
-1.3705
 10
1.116055710871377
 20
-1.40460843538501
 10
1.114491281951094
 20
-1.429898848470137
  0
LWPOLYLINE
  5
101
330
D8
100
AcDbEntity
  8
AM_9
100
AcDbPolyline
 90
       21
 70
     0
 43
0.0
 10
-0.205
 20
-1.3705
 10
-0.2047980003563592
 20
-1.361401700706359
 10
-0.2003180306965243
 20
-1.326937555419073
 10
-0.190549195096018
 20
-1.29489573921888
 10
-0.1752212777060494
 20
-1.264092745364521
 10
-0.1553738176201076
 20
-1.236769013320945
 10
-0.1305807450438983
 20
-1.212469404785717
 10
-0.1025237405266754
 20
-1.192978500940255
 10
-0.0706410822323172
 20
-1.178055624917102
 10
-0.0377943961290886
 20
-1.169014060983806
 10
-0.0028545096927904
 20
-1.165519874684364
 10
0.0307098913801233
 20
-1.167813289603336
 10
0.0643568917476232
 20
-1.175863953789169
 10
0.095236302073934
 20
-1.188964750620486
 10
0.1242911615622268
 20
-1.207476360126783
 10
0.1494672277504475
 20
-1.230198368403657
 10
0.1710926459483536
 20
-1.257573889191244
 10
0.1874844207229779
 20
-1.287586840693594
 10
0.1989179153157107
 20
-1.320935264890733
 10
0.2034495371294953
 20
-1.345334828794658
 10
0.205
 20
-1.3705
  0
LWPOLYLINE
  5
102
330
D8
100
AcDbEntity
  8
AM_9
100
AcDbPolyline
 90
       20
 70
     0
 43
0.0
 10
0.205
 20
-1.3705
 10
0.2022237042195512
 20
-1.404124001126032
 10
0.1936561545448695
 20
-1.437748002252064
 10
0.180038543542081
 20
-1.46853633428095
 10
0.1609971172265529
 20
-1.497405193923415
 10
0.1378522813137548
 20
-1.522229194740476
 10
0.1101005671944507
 20
-1.543424449120014
 10
0.0798223260686158
 20
-1.559321069430812
 10
0.0462892384124773
 20
-1.570205549264893
 10
0.0127289676164412
 20
-1.575104431485292
 10
-0.0221945656208091
 20
-1.574294998115517
 10
-0.0551308921996137
 20
-1.567947675917633
 10
-0.0874314544863926
 20
-1.555920443226721
 10
-0.1165818286953598
 20
-1.539122884621411
 10
-0.143254109599072
 20
-1.517139899355452
 10
-0.165559226669151
 20
-1.49139310346216
 10
-0.1837447547231688
 20
-1.461400303144283
 10
-0.1962895823481186
 20
-1.429621906782522
 10
-0.2035131518736895
 20
-1.395145425831918
 10
-0.205
 20
-1.3705
  0
LINE
  5
103
330
D8
100
AcDbEntity
  8
AM_9
100
AcDbLine
 10
-1.155
 20
-1.0535
 30
0.0
 11
-1.155
 21
-1.6875
 31
0.0
  0
LINE
  5
104
330
D8
100
AcDbEntity
  8
AM_9
100
AcDbLine
 10
-1.155
 20
-0.5222500000000001
 30
0.0
 11
-1.155
 21
-0.9999999999999999
 31
0.0
  0
LINE
  5
105
330
D8
100
AcDbEntity
  8
AM_9
100
AcDbLine
 10
1.155
 20
-0.9999999999999999
 30
0.0
 11
1.155
 21
-0.5222500000000001
 31
0.0
  0
LINE
  5
106
330
D8
100
AcDbEntity
  8
AM_9
100
AcDbLine
 10
1.155
 20
-1.6875
 30
0.0
 11
1.155
 21
-1.0535
 31
0.0
  0
LINE
  5
107
330
D8
100
AcDbEntity
  8
AM_9
100
AcDbLine
 10
1.3220075
 20
0.8807500000000006
 30
0.0
 11
-1.3220075
 21
0.8807500000000006
 31
0.0
  0
ARC
  5
108
330
D8
100
AcDbEntity
  8
AM_9
100
AcDbCircle
 10
-1.3220075
 20
0.7854375000000009
 30
0.0
 40
0.0953124999999997
100
AcDbArc
 50
90.0
 51
180.0
  0
ARC
  5
109
330
D8
100
AcDbEntity
  8
AM_9
100
AcDbCircle
 10
1.3220075
 20
0.7854375000000009
 30
0.0
 40
0.0953124999999995
100
AcDbArc
 50
0.0000008537736463
 51
90.0
  0
LINE
  5
10A
330
D8
100
AcDbEntity
  8
AM_9
100
AcDbLine
 10
-1.41732
 20
0.7854375000000001
 30
0.0
 11
-1.41732
 21
0.6558125
 31
0.0
  0
LINE
  5
10B
330
D8
100
AcDbEntity
  8
AM_9
100
AcDbLine
 10
1.41732
 20
0.6558125
 30
0.0
 11
1.41732
 21
0.7854375000000001
 31
0.0
  0
LINE
  5
10C
330
D8
100
AcDbEntity
  8
AM_9
100
AcDbLine
 10
1.41732
 20
0.7854375000000001
 30
0.0
 11
-1.41732
 21
0.7854375000000001
 31
0.0
  0
LINE
  5
10D
330
D8
100
AcDbEntity
  8
AM_9
100
AcDbLine
 10
1.3220075
 20
-0.5222500000000001
 30
0.0
 11
-1.3220075
 21
-0.5222500000000001
 31
0.0
  0
ARC
  5
10E
330
D8
100
AcDbEntity
  8
AM_9
100
AcDbCircle
 10
-1.3220075
 20
-0.4269375000000006
 30
0.0
 40
0.0953124999999997
100
AcDbArc
 50
180.0
 51
270.0
  0
ARC
  5
10F
330
D8
100
AcDbEntity
  8
AM_9
100
AcDbCircle
 10
1.3220075
 20
-0.4269375000000006
 30
0.0
 40
0.0953124999999995
100
AcDbArc
 50
270.0
 51
0.0
  0
LINE
  5
110
330
D8
100
AcDbEntity
  8
AM_9
100
AcDbLine
 10
-1.41732
 20
-0.2973124999999997
 30
0.0
 11
-1.41732
 21
-0.4269375000000004
 31
0.0
  0
LINE
  5
111
330
D8
100
AcDbEntity
  8
AM_9
100
AcDbLine
 10
1.41732
 20
-0.4269375000000004
 30
0.0
 11
1.41732
 21
-0.2973124999999997
 31
0.0
  0
LINE
  5
112
330
D8
100
AcDbEntity
  8
AM_9
100
AcDbLine
 10
1.41732
 20
-0.4269375000000004
 30
0.0
 11
-1.41732
 21
-0.4269375000000004
 31
0.0
  0
LINE
  5
113
330
D8
100
AcDbEntity
  8
AM_9
100
AcDbLine
 10
-1.700784
 20
0.2269062500000009
 30
0.0
 11
-1.700784
 21
0.1315937499999996
 31
0.0
  0
LINE
  5
114
330
D8
100
AcDbEntity
  8
AM_9
100
AcDbLine
 10
1.700784
 20
0.1315937499999996
 30
0.0
 11
1.700784
 21
0.2269062500000009
 31
0.0
  0
LINE
  5
115
330
D8
100
AcDbEntity
  8
AM_9
100
AcDbLine
 10
1.6763375
 20
-0.2973124999999997
 30
0.0
 11
-1.6763375
 21
-0.2973124999999997
 31
0.0
  0
ARC
  5
116
330
D8
100
AcDbEntity
  8
AM_9
100
AcDbCircle
 10
-1.6763375
 20
-0.2019999999999995
 30
0.0
 40
0.0953125000000004
100
AcDbArc
 50
179.9999991462263
 51
270.0
  0
ARC
  5
117
330
D8
100
AcDbEntity
  8
AM_9
100
AcDbCircle
 10
1.6763375
 20
-0.2019999999999995
 30
0.0
 40
0.0953125000000003
100
AcDbArc
 50
270.0
 51
0.0000008537736463
  0
LINE
  5
118
330
D8
100
AcDbEntity
  8
AM_9
100
AcDbLine
 10
-1.77165
 20
0.5605000000000001
 30
0.0
 11
-1.77165
 21
0.2678207541763928
 31
0.0
  0
LINE
  5
119
330
D8
100
AcDbEntity
  8
AM_9
100
AcDbLine
 10
1.77165
 20
0.2678207541763928
 30
0.0
 11
1.77165
 21
0.5605000000000001
 31
0.0
  0
LINE
  5
11A
330
D8
100
AcDbEntity
  8
AM_9
100
AcDbLine
 10
-1.700784
 20
0.1315937499999996
 30
0.0
 11
-1.77165
 21
0.0906792458236075
 31
0.0
  0
LINE
  5
11B
330
D8
100
AcDbEntity
  8
AM_9
100
AcDbLine
 10
1.77165
 20
0.0906792458236075
 30
0.0
 11
1.700784
 21
0.1315937499999996
 31
0.0
  0
LINE
  5
11C
330
D8
100
AcDbEntity
  8
AM_9
100
AcDbLine
 10
1.700784
 20
0.1315937499999996
 30
0.0
 11
-1.700784
 21
0.1315937499999996
 31
0.0
  0
LINE
  5
11D
330
D8
100
AcDbEntity
  8
AM_9
100
AcDbLine
 10
-1.77165
 20
0.0906792458236075
 30
0.0
 11
-1.77165
 21
-0.2020000000000001
 31
0.0
  0
LINE
  5
11E
330
D8
100
AcDbEntity
  8
AM_9
100
AcDbLine
 10
1.77165
 20
-0.2020000000000001
 30
0.0
 11
1.77165
 21
0.0906792458236075
 31
0.0
  0
LINE
  5
11F
330
D8
100
AcDbEntity
  8
AM_9
100
AcDbLine
 10
1.77165
 20
0.0906792458236075
 30
0.0
 11
-1.77165
 21
0.0906792458236075
 31
0.0
  0
LINE
  5
120
330
D8
100
AcDbEntity
  8
AM_9
100
AcDbLine
 10
1.77165
 20
-0.2020000000000001
 30
0.0
 11
-1.77165
 21
-0.2020000000000001
 31
0.0
  0
LINE
  5
121
330
D8
100
AcDbEntity
  8
AM_9
100
AcDbLine
 10
1.676337499999999
 20
0.6558125
 30
0.0
 11
-1.676337499999999
 21
0.6558125
 31
0.0
  0
ARC
  5
122
330
D8
100
AcDbEntity
  8
AM_9
100
AcDbCircle
 10
-1.676337499999999
 20
0.5604999999999993
 30
0.0
 40
0.0953125000000007
100
AcDbArc
 50
90.0
 51
180.0
  0
ARC
  5
123
330
D8
100
AcDbEntity
  8
AM_9
100
AcDbCircle
 10
1.676337499999999
 20
0.5604999999999993
 30
0.0
 40
0.0953125000000006
100
AcDbArc
 50
0.0
 51
90.0
  0
LINE
  5
124
330
D8
100
AcDbEntity
  8
AM_9
100
AcDbLine
 10
1.77165
 20
0.5605000000000001
 30
0.0
 11
-1.77165
 21
0.5605000000000001
 31
0.0
  0
LINE
  5
125
330
D8
100
AcDbEntity
  8
AM_9
100
AcDbLine
 10
1.700784
 20
0.2269062500000009
 30
0.0
 11
1.77165
 21
0.2678207541763928
 31
0.0
  0
LINE
  5
126
330
D8
100
AcDbEntity
  8
AM_9
100
AcDbLine
 10
-1.77165
 20
0.2678207541763928
 30
0.0
 11
-1.700784
 21
0.2269062500000009
 31
0.0
  0
LINE
  5
127
330
D8
100
AcDbEntity
  8
AM_9
100
AcDbLine
 10
1.77165
 20
0.2678207541763928
 30
0.0
 11
-1.77165
 21
0.2678207541763928
 31
0.0
  0
LINE
  5
128
330
D8
100
AcDbEntity
  8
AM_9
100
AcDbLine
 10
1.700784
 20
0.2269062500000009
 30
0.0
 11
-1.700784
 21
0.2269062500000009
 31
0.0
  0
LINE
  5
129
330
D8
100
AcDbEntity
  8
AM_7
100
AcDbLine
 10
0.0
 20
1.2984375
 30
0.0
 11
0.0
 21
-1.8296875
 31
0.0
  0
LINE
  5
12A
330
D8
100
AcDbEntity
  8
AM_4
100
AcDbLine
 10
-1.155
 20
1.15625
 30
0.0
 11
-1.155
 21
1.0
 31
0.0
  0
LINE
  5
12B
330
D8
100
AcDbEntity
  8
AM_4
100
AcDbLine
 10
1.155
 20
1.0
 30
0.0
 11
1.155
 21
1.15625
 31
0.0
  0
LINE
  5
12C
330
D8
100
AcDbEntity
  8
AM_4
100
AcDbLine
 10
1.155
 20
1.15625
 30
0.0
 11
-1.155
 21
1.15625
 31
0.0
  0
LINE
  5
12D
330
D8
100
AcDbEntity
  8
AM_4
100
AcDbLine
 10
-1.155
 20
-0.9999999999999999
 30
0.0
 11
-1.155
 21
-1.0535
 31
0.0
  0
LINE
  5
12E
330
D8
100
AcDbEntity
  8
AM_4
100
AcDbLine
 10
1.155
 20
-1.0535
 30
0.0
 11
1.155
 21
-0.9999999999999999
 31
0.0
  0
ENDBLK
  5
DB
330
D8
100
AcDbEntity
  8
0
100
AcDbBlockEnd
  0
BLOCK
  5
131
330
12F
100
AcDbEntity
  8
0
100
AcDbBlockBegin
  2
4_405016_Inch_0_in_070786_4
 70
     2
 10
0.0
 20
0.0
 30
0.0
  3
4_405016_Inch_0_in_070786_4
  1

  0
ATTDEF
  5
133
330
12F
100
AcDbEntity
  8
AM_6
100
AcDbText
 10
3.235115221123027
 20
0.21875
 30
0.0
 40
0.5
  1
405016 -Inch
100
AcDbAttributeDefinition
  3

  2
NN
 70
     8
280
     0
  0
ATTDEF
  5
134
330
12F
100
AcDbEntity
  8
AM_6
100
AcDbText
 10
3.235115221123027
 20
-0.28125
 30
0.0
 40
0.5
  1
Grease Fitting
100
AcDbAttributeDefinition
  3

  2
NT
 70
     8
280
     0
  0
ATTDEF
  5
135
330
12F
100
AcDbEntity
  8
AM_6
100
AcDbText
 10
3.235115221123027
 20
-0.78125
 30
0.0
 40
0.5
  1
405016-Inch
100
AcDbAttributeDefinition
  3

  2
NB
 70
     8
280
     0
  0
ATTDEF
  5
136
330
12F
100
AcDbEntity
  8
AM_6
100
AcDbText
 10
3.235115221123027
 20
-1.28125
 30
0.0
 40
0.5
  1
$MN.-Inch
100
AcDbAttributeDefinition
  3

  2
NBSYN
 70
     8
280
     0
  0
ATTDEF
  5
137
330
12F
100
AcDbEntity
  8
AM_6
100
AcDbText
 10
3.235115221123027
 20
-1.78125
 30
0.0
 40
0.5
  1
405016
100
AcDbAttributeDefinition
  3

  2
LINA
 70
     8
280
     0
  0
ATTDEF
  5
138
330
12F
100
AcDbEntity
  8
AM_6
100
AcDbText
 10
3.235115221123027
 20
-2.28125
 30
0.0
 40
0.5
  1
405016
100
AcDbAttributeDefinition
  3

  2
MN
 70
     8
280
     0
  0
ATTDEF
  5
139
330
12F
100
AcDbEntity
  8
AM_6
100
AcDbText
 10
3.235115221123027
 20
-2.78125
 30
0.0
 40
0.5
  1
7/16 HEX
100
AcDbAttributeDefinition
  3

  2
H
 70
     8
280
     0
  0
ATTDEF
  5
13A
330
12F
100
AcDbEntity
  8
AM_6
100
AcDbText
 10
3.235115221123027
 20
-3.28125
 30
0.0
 40
0.5
  1
0.383
100
AcDbAttributeDefinition
  3

  2
NDR
 70
     8
280
     0
  0
ATTDEF
  5
13B
330
12F
100
AcDbEntity
  8
AM_6
100
AcDbText
 10
3.235115221123027
 20
-3.78125
 30
0.0
 40
0.5
  1
0.337
100
AcDbAttributeDefinition
  3

  2
KDR
 70
     8
280
     0
  0
ATTDEF
  5
13C
330
12F
100
AcDbEntity
  8
AM_6
100
AcDbText
 10
3.235115221123027
 20
-4.28125
 30
0.0
 40
0.5
  1
0.1575
100
AcDbAttributeDefinition
  3

  2
BZE
 70
     8
280
     0
  0
ATTDEF
  5
13D
330
12F
100
AcDbEntity
  8
AM_6
100
AcDbText
 10
3.235115221123027
 20
-4.78125
 30
0.0
 40
0.5
  1
0.4375
100
AcDbAttributeDefinition
  3

  2
HEX
 70
     8
280
     0
  0
ATTDEF
  5
13E
330
12F
100
AcDbEntity
  8
AM_6
100
AcDbText
 10
3.235115221123027
 20
-5.28125
 30
0.0
 40
0.5
  1
0.281250
100
AcDbAttributeDefinition
  3

  2
HEX2
 70
     8
280
     0
  0
ATTDEF
  5
13F
330
12F
100
AcDbEntity
  8
AM_6
100
AcDbText
 10
3.235115221123027
 20
-5.78125
 30
0.0
 40
0.5
  1
baldor
100
AcDbAttributeDefinition
  3

  2
COMPANY
 70
     8
280
     0
  0
LINE
  5
140
330
12F
100
AcDbEntity
  8
AM_9
100
AcDbLine
 10
-2.462027596707514
 20
-0.151074129835757
 30
0.0
 11
-2.473349169931391
 21
-0.1791093260592887
 31
0.0
  0
LINE
  5
141
330
12F
100
AcDbEntity
  8
AM_9
100
AcDbLine
 10
-2.310852750669017
 20
-0.2099962668917053
 30
0.0
 11
-2.322539996888561
 21
-0.2389369657326276
 31
0.0
  0
LWPOLYLINE
  5
142
330
12F
100
AcDbEntity
  8
AM_9
100
AcDbPolyline
 90
        3
 70
     0
 43
0.0
 10
-2.055272330868687
 20
-0.0000000000000001
 10
-2.07675000178631
 20
-0.0544416102741497
 10
-2.094698945403611
 20
-0.109375
  0
LWPOLYLINE
  5
143
330
12F
100
AcDbEntity
  8
AM_9
100
AcDbPolyline
 90
        3
 70
     0
 43
0.0
 10
-2.094698945403611
 20
0.1093749999999999
 10
-2.076839295419688
 20
0.0546874999999999
 10
-2.055272330868687
 20
-0.0000000000000001
  0
LWPOLYLINE
  5
144
330
12F
100
AcDbEntity
  8
AM_9
100
AcDbPolyline
 90
        3
 70
     0
 43
0.0
 10
-2.252921902246927
 20
-0.2987675689889718
 10
-2.268809186810023
 20
-0.2912216284034024
 10
-2.284019188508037
 20
-0.2813919000363599
  0
LWPOLYLINE
  5
145
330
12F
100
AcDbEntity
  8
AM_9
100
AcDbPolyline
 90
        3
 70
     0
 43
0.0
 10
-2.008096405025167
 20
-0.1093750000000001
 10
-1.994382212162783
 20
-0.0546875000000001
 10
-1.984375333867476
 20
-0.0000000000000001
  0
LWPOLYLINE
  5
146
330
12F
100
AcDbEntity
  8
AM_9
100
AcDbPolyline
 90
        3
 70
     0
 43
0.0
 10
-1.984375333867476
 20
-0.0000000000000001
 10
-1.99432954129675
 20
0.0544416102741495
 10
-2.008096405025167
 20
0.1093749999999999
  0
LINE
  5
147
330
12F
100
AcDbEntity
  8
AM_9
100
AcDbLine
 10
-2.249746303135709
 20
-0.2552079744505806
 30
0.0
 11
-2.240866252935948
 21
-0.2689146070947222
 31
0.0
  0
LWPOLYLINE
  5
148
330
12F
100
AcDbEntity
  8
AM_9
100
AcDbPolyline
 90
        3
 70
     0
 43
0.0
 10
-2.118420016561303
 20
0.2187499999999999
 10
-2.108465809132028
 20
0.1643083897258503
 10
-2.094698945403611
 20
0.1093749999999999
  0
LINE
  5
149
330
12F
100
AcDbEntity
  8
AM_9
100
AcDbLine
 10
-2.055272330868687
 20
-0.0000000000000001
 30
0.0
 11
-1.984375333867476
 21
-0.0000000000000001
 31
0.0
  0
LWPOLYLINE
  5
14A
330
12F
100
AcDbEntity
  8
AM_9
100
AcDbPolyline
 90
        3
 70
     0
 43
0.0
 10
-2.094698945403611
 20
-0.109375
 10
-2.108413138265995
 20
-0.1640625
 10
-2.118420016561303
 20
-0.2187500000000001
  0
LINE
  5
14B
330
12F
100
AcDbEntity
  8
AM_9
100
AcDbLine
 10
-2.240866252935948
 20
-0.2689146070947222
 30
0.0
 11
-2.249892392067961
 21
-0.2648476196673993
 31
0.0
  0
LINE
  5
14C
330
12F
100
AcDbEntity
  8
AM_9
100
AcDbLine
 10
-2.240866252935948
 20
-0.2689146070947222
 30
0.0
 11
-2.25
 21
-0.2915321697013715
 31
0.0
  0
ELLIPSE
  5
14D
330
12F
100
AcDbEntity
  8
AM_9
100
AcDbEllipse
 10
-2.495203545096017
 20
-0.4687499999999999
 30
0.0
 11
-0.0959538295573177
 21
0.03874944547499738
 31
0.0
210
0.0
220
0.0
230
1.0
 40
0.2113091308703463
 41
3.040609649696543
 42
6.384168311072848
  0
ELLIPSE
  5
14E
330
12F
100
AcDbEntity
  8
AM_9
100
AcDbEllipse
 10
-2.467209882898534
 20
-0.3994303217889761
 30
0.0
 11
-0.1290248947933264
 21
0.05210467522533569
 31
0.0
210
0.0
220
0.0
230
1.0
 40
0.2113091308703514
 41
3.034919964503695
 42
5.80110563949218
  0
LWPOLYLINE
  5
14F
330
12F
100
AcDbEntity
  8
AM_9
100
AcDbPolyline
 90
        5
 70
     0
 43
0.0
 10
-2.473349169931391
 20
-0.1791093260592887
 10
-2.495211558430017
 20
-0.1842540823997054
 10
-2.51610764536001
 20
-0.1862220679364951
 10
-2.536025264914919
 20
-0.1844124966919381
 10
-2.554539051536182
 20
-0.1791093260592887
  0
LWPOLYLINE
  5
150
330
12F
100
AcDbEntity
  8
AM_9
100
AcDbPolyline
 90
        5
 70
     0
 43
0.0
 10
-2.322539996888561
 20
-0.2389369657326276
 10
-2.361381285575991
 20
-0.2295338871417796
 10
-2.399516332287909
 20
-0.216687117104632
 10
-2.437135126649093
 20
-0.1996402057054678
 10
-2.473349169931391
 20
-0.1791093260592887
  0
LWPOLYLINE
  5
151
330
12F
100
AcDbEntity
  8
AM_9
100
AcDbPolyline
 90
        3
 70
     0
 43
0.0
 10
-2.296040718689844
 20
-0.2711532636537956
 10
-2.309775896454417
 20
-0.2561815527589921
 10
-2.322539996888561
 20
-0.2389369657326276
  0
ELLIPSE
  5
152
330
12F
100
AcDbEntity
  8
AM_9
100
AcDbEllipse
 10
-2.405533998157215
 20
-0.2467045921760197
 30
0.0
 11
-0.1303939210191625
 21
0.05265753494273124
 31
0.0
210
0.0
220
0.0
230
1.0
 40
0.2113091308703419
 41
3.806340372002929
 42
6.919181903097291
  0
LINE
  5
153
330
12F
100
AcDbEntity
  8
AM_9
100
AcDbLine
 10
-2.039783501553406
 20
0.2000413016192557
 30
0.0
 11
-2.047523019560091
 21
0.2187499999999999
 31
0.0
  0
LWPOLYLINE
  5
154
330
12F
100
AcDbEntity
  8
AM_9
100
AcDbPolyline
 90
        3
 70
     0
 43
0.0
 10
-2.008096405025167
 20
0.1093749999999999
 10
-2.02595605500909
 20
0.1640624999999999
 10
-2.039783501553406
 20
0.2000413016192557
  0
LWPOLYLINE
  5
155
330
12F
100
AcDbEntity
  8
AM_9
100
AcDbPolyline
 90
        3
 70
     0
 43
0.0
 10
-2.03978337947144
 20
-0.2000409996967265
 10
-2.026045348642469
 20
-0.1643083897258505
 10
-2.008096405025167
 20
-0.1093750000000001
  0
LINE
  5
156
330
12F
100
AcDbEntity
  8
AM_9
100
AcDbLine
 10
-2.047523019560091
 20
-0.2187500000000001
 30
0.0
 11
-2.03978337947144
 21
-0.2000409996967265
 31
0.0
  0
LINE
  5
157
330
12F
100
AcDbEntity
  8
AM_9
100
AcDbLine
 10
-2.473162397559404
 20
-0.1204089378707286
 30
0.0
 11
-2.474247842549116
 21
-0.1230967854582223
 31
0.0
  0
LINE
  5
158
330
12F
100
AcDbEntity
  8
AM_9
100
AcDbLine
 10
-2.268042169133529
 20
-0.2
 30
0.0
 11
-2.265373689788825
 21
-0.193392142543456
 31
0.0
  0
ELLIPSE
  5
159
330
12F
100
AcDbEntity
  8
AM_9
100
AcDbEllipse
 10
-2.387234090618668
 20
-0.2013892028241914
 30
0.0
 11
-0.1019970226638906
 21
0.04118989399965287
 31
0.0
210
0.0
220
0.0
230
1.0
 40
0.2113091308703512
 41
3.141592653589793
 42
6.283185307179586
  0
LWPOLYLINE
  5
15A
330
12F
100
AcDbEntity
  8
AM_9
100
AcDbPolyline
 90
        4
 70
     0
 43
0.0
 10
-2.473167127214424
 20
-0.1204206514110938
 10
-2.473306293198953
 20
-0.1208367673933812
 10
-2.472728709241826
 20
-0.1245107513506023
 10
-2.470824900877539
 20
-0.1273585915737899
  0
LWPOLYLINE
  5
15B
330
12F
100
AcDbEntity
  8
AM_9
100
AcDbPolyline
 90
        5
 70
     0
 43
0.0
 10
-2.265372745587337
 20
-0.1933898041312626
 10
-2.265466081718488
 20
-0.1936098952159724
 10
-2.268681618671127
 20
-0.1971856748420371
 10
-2.274699981913909
 20
-0.1994144431868155
 10
-2.281563952494352
 20
-0.1999999999699529
  0
LWPOLYLINE
  5
15C
330
12F
100
AcDbEntity
  8
AM_9
100
AcDbPolyline
 90
        3
 70
     0
 43
0.0
 10
-2.37486108370679
 20
-0.1745741884610189
 10
-2.34747200833336
 20
-0.1876759562813858
 10
-2.310852750669017
 20
-0.2099962668917053
  0
LWPOLYLINE
  5
15D
330
12F
100
AcDbEntity
  8
AM_9
100
AcDbPolyline
 90
        3
 70
     0
 43
0.0
 10
-2.462027596707514
 20
-0.151074129835757
 10
-2.43282298920799
 20
-0.1564222384464442
 10
-2.404152490265695
 20
-0.1639312493177434
  0
LWPOLYLINE
  5
15E
330
12F
100
AcDbEntity
  8
AM_9
100
AcDbPolyline
 90
        3
 70
     0
 43
0.0
 10
-2.310852750669017
 20
-0.2099962668917053
 10
-2.293879068335494
 20
-0.2163479371246913
 10
-2.277740811151311
 20
-0.2258378743019629
  0
LWPOLYLINE
  5
15F
330
12F
100
AcDbEntity
  8
AM_9
100
AcDbPolyline
 90
        4
 70
     0
 43
0.0
 10
-2.498938477052009
 20
-0.141958509815605
 10
-2.49506335760596
 20
-0.1420496512545706
 10
-2.480574442491209
 20
-0.1441228263802214
 10
-2.462027596707514
 20
-0.151074129835757
  0
ELLIPSE
  5
160
330
12F
100
AcDbEntity
  8
AM_9
100
AcDbEllipse
 10
-2.387234090618671
 20
-0.2013892028241885
 30
0.0
 11
-0.1303939210191749
 21
0.05265753494273362
 31
0.0
210
0.0
220
0.0
230
1.0
 40
0.2113091308703514
 41
3.806340372002829
 42
4.691041391291122
  0
ELLIPSE
  5
161
330
12F
100
AcDbEntity
  8
AM_9
100
AcDbEllipse
 10
-2.387234090618672
 20
-0.2013892028241866
 30
0.0
 11
-0.1303939210191727
 21
0.05265753494273258
 31
0.0
210
0.0
220
0.0
230
1.0
 40
0.2113091308703454
 41
-1.275384891873598
 42
-0.6725714813802819
  0
ELLIPSE
  5
162
330
12F
100
AcDbEntity
  8
AM_9
100
AcDbEllipse
 10
-2.456534901421189
 20
-0.3729962569746643
 30
0.0
 11
-0.1235034625625953
 21
0.04987493162723557
 31
0.0
210
0.0
220
0.0
230
1.0
 40
0.2113091308703491
 41
3.395795238527736
 42
5.80110563949218
  0
LINE
  5
163
330
12F
100
AcDbEntity
  8
AM_9
100
AcDbLine
 10
-2.284019188508037
 20
-0.2813919000363599
 30
0.0
 11
-2.296040718689844
 21
-0.2711532636537956
 31
0.0
  0
ELLIPSE
  5
164
330
12F
100
AcDbEntity
  8
AM_9
100
AcDbEllipse
 10
-2.405533998157206
 20
-0.2467045921760196
 30
0.0
 11
-0.1303939210191762
 21
0.05265753494273488
 31
0.0
210
0.0
220
0.0
230
1.0
 40
0.2113091308703502
 41
2.80046924648437
 42
3.607080702195122
  0
ELLIPSE
  5
165
330
12F
100
AcDbEntity
  8
AM_9
100
AcDbEllipse
 10
-2.405533998167761
 20
-0.2467045921643893
 30
0.0
 11
-0.1303939210339098
 21
0.05265753495294288
 31
0.0
210
0.0
220
0.0
230
1.0
 40
0.211309130889799
 41
-3.777589249500615
 42
-3.764628581853939
  0
LWPOLYLINE
  5
166
330
12F
100
AcDbEntity
  8
AM_9
100
AcDbPolyline
 90
       17
 70
     0
 43
0.0
 10
-2.272048854939413
 20
-0.1790373738501778
 10
-2.280016320015606
 20
-0.1733931390117467
 10
-2.290772393449787
 20
-0.1670729780242511
 10
-2.303415444972231
 20
-0.1606047421316795
 10
-2.318305868118072
 20
-0.1538031670974777
 10
-2.334207744924953
 20
-0.1472336073736393
 10
-2.351568714746672
 20
-0.1407130262602576
 10
-2.368924191876916
 20
-0.1347930597680667
 10
-2.386781903461205
 20
-0.1293028157827817
 10
-2.403611664961279
 20
-0.1247141396218192
 10
-2.419928408861984
 20
-0.1208880884981781
 10
-2.434327459721818
 20
-0.1181545989145989
 10
-2.447259812587565
 20
-0.1164278875396128
 10
-2.457619540747265
 20
-0.1158549073091554
 10
-2.465729715563963
 20
-0.1164156227038168
 10
-2.470906356754804
 20
-0.1180609686233502
 10
-2.473167127214424
 20
-0.1204206514110938
  0
LWPOLYLINE
  5
167
330
12F
100
AcDbEntity
  8
AM_9
100
AcDbPolyline
 90
        4
 70
     0
 43
0.0
 10
-2.272048854939413
 20
-0.1790373738501783
 10
-2.267094194467346
 20
-0.1842628795203941
 10
-2.264986310000602
 20
-0.1891729979031393
 10
-2.265372745587337
 20
-0.1933898041312626
  0
LINE
  5
168
330
12F
100
AcDbEntity
  8
AM_9
100
AcDbLine
 10
-2.189420473942534
 20
0.1999999999999999
 30
0.0
 11
-2.252109775792591
 21
0.1999999999999999
 31
0.0
  0
LINE
  5
169
330
12F
100
AcDbEntity
  8
AM_9
100
AcDbLine
 10
-2.252112419879967
 20
-0.2
 30
0.0
 11
-2.189420473942534
 21
-0.2
 31
0.0
  0
LINE
  5
16A
330
12F
100
AcDbEntity
  8
AM_9
100
AcDbLine
 10
-2.035159698893431
 20
0.1999999999999999
 30
0.0
 11
-2.10281793356409
 21
0.1999999999999999
 31
0.0
  0
LINE
  5
16B
330
12F
100
AcDbEntity
  8
AM_9
100
AcDbLine
 10
-2.10281793356409
 20
-0.2
 30
0.0
 11
-2.035159698893431
 21
-0.2
 31
0.0
  0
LINE
  5
16C
330
12F
100
AcDbEntity
  8
AM_9
100
AcDbLine
 10
-2.244715387946533
 20
0.2187499999999999
 30
0.0
 11
-2.047523019560091
 21
0.2187499999999999
 31
0.0
  0
LINE
  5
16D
330
12F
100
AcDbEntity
  8
AM_9
100
AcDbLine
 10
-2.250279584962129
 20
0.2053848659184845
 30
0.0
 11
-2.244715387946533
 21
0.2187499999999999
 31
0.0
  0
LWPOLYLINE
  5
16E
330
12F
100
AcDbEntity
  8
AM_9
100
AcDbPolyline
 90
        3
 70
     0
 43
0.0
 10
-2.197539462103013
 20
0.1093749999999999
 10
-2.215399112086936
 20
0.0546874999999999
 10
-2.236966076637937
 20
-0.0000000000000001
  0
LINE
  5
16F
330
12F
100
AcDbEntity
  8
AM_9
100
AcDbLine
 10
-2.185094469908011
 20
0.1582415372732233
 30
0.0
 11
-2.197539462103013
 21
0.1093749999999999
 31
0.0
  0
LINE
  5
170
330
12F
100
AcDbEntity
  8
AM_9
100
AcDbLine
 10
-2.173818390945322
 20
0.2187499999999999
 30
0.0
 11
-2.177656674915919
 21
0.1956132437585489
 31
0.0
  0
LINE
  5
171
330
12F
100
AcDbEntity
  8
AM_9
100
AcDbLine
 10
-2.25
 20
-0.0000000000000001
 30
0.0
 11
-2.236966076637937
 21
-0.0000000000000001
 31
0.0
  0
LINE
  5
172
330
12F
100
AcDbEntity
  8
AM_9
100
AcDbLine
 10
-2.244715387946533
 20
-0.2187500000000001
 30
0.0
 11
-2.250277717510961
 21
-0.2053894228280123
 31
0.0
  0
LINE
  5
173
330
12F
100
AcDbEntity
  8
AM_9
100
AcDbLine
 10
-2.244715387946533
 20
-0.2187500000000001
 30
0.0
 11
-2.047523019560091
 21
-0.2187500000000001
 31
0.0
  0
LINE
  5
174
330
12F
100
AcDbEntity
  8
AM_9
100
AcDbLine
 10
-2.17786759918861
 20
-0.1944302226668612
 30
0.0
 11
-2.173818390945322
 21
-0.2187500000000001
 31
0.0
  0
LINE
  5
175
330
12F
100
AcDbEntity
  8
AM_9
100
AcDbLine
 10
-2.197539462103013
 20
-0.109375
 30
0.0
 11
-2.185787173677495
 21
-0.1551455762413132
 31
0.0
  0
LWPOLYLINE
  5
176
330
12F
100
AcDbEntity
  8
AM_9
100
AcDbPolyline
 90
        3
 70
     0
 43
0.0
 10
-2.236966076637937
 20
-0.0000000000000001
 10
-2.215488405720314
 20
-0.0544416102741496
 10
-2.197539462103013
 20
-0.109375
  0
LINE
  5
177
330
12F
100
AcDbEntity
  8
AM_9
100
AcDbLine
 10
-1.864615081271028
 20
0.1853871066562612
 30
0.0
 11
-2.033431970955097
 21
0.1914800577488989
 31
0.0
  0
LINE
  5
178
330
12F
100
AcDbEntity
  8
AM_9
100
AcDbLine
 10
-2.033431970955097
 20
-0.191480057748899
 30
0.0
 11
-1.864615081271028
 21
-0.1853871066562613
 31
0.0
  0
LINE
  5
179
330
12F
100
AcDbEntity
  8
AM_9
100
AcDbLine
 10
-1.799048343988878
 20
0.1319978794387896
 30
0.0
 11
-1.8125
 21
0.151021393806096
 31
0.0
  0
LINE
  5
17A
330
12F
100
AcDbEntity
  8
AM_9
100
AcDbLine
 10
-1.8125
 20
-0.1510213938060961
 30
0.0
 11
-1.799048343988878
 21
-0.1319978794387897
 31
0.0
  0
ELLIPSE
  5
17B
330
12F
100
AcDbEntity
  8
AM_9
100
AcDbEllipse
 10
-2.189420473942534
 20
-0.0000000000000003
 30
0.0
 11
1.339457436567419E-17
 21
0.2187500000000003
 31
0.0
210
0.0
220
0.0
230
1.0
 40
0.4999999999999993
 41
0.0
 42
6.283185307179586
  0
ELLIPSE
  5
17C
330
12F
100
AcDbEntity
  8
AM_9
100
AcDbEllipse
 10
-2.189420473942534
 20
0.0000000000000003
 30
0.0
 11
1.224646799147355E-17
 21
0.2000000000000004
 31
0.0
210
0.0
220
0.0
230
1.0
 40
0.4999999999999996
 41
0.0
 42
6.283185307179586
  0
ELLIPSE
  5
17D
330
12F
100
AcDbEntity
  8
AM_9
100
AcDbEllipse
 10
-2.10281793356409
 20
-0.0000000000000004
 30
0.0
 11
1.339457436567416E-17
 21
0.2187499999999997
 31
0.0
210
0.0
220
0.0
230
1.0
 40
0.4999999999999998
 41
0.0
 42
6.283185307179586
  0
ELLIPSE
  5
17E
330
12F
100
AcDbEntity
  8
AM_9
100
AcDbEllipse
 10
-2.10281793356409
 20
-0.0000000000000001
 30
0.0
 11
1.224646799147352E-17
 21
0.1999999999999998
 31
0.0
210
0.0
220
0.0
230
1.0
 40
0.4999999999999987
 41
0.0
 42
6.283185307179586
  0
ELLIPSE
  5
17F
330
12F
100
AcDbEntity
  8
AM_9
100
AcDbEllipse
 10
-2.03515969889343
 20
0.0000000000000006
 30
0.0
 11
1.224646799147347E-17
 21
0.199999999999999
 31
0.0
210
0.0
220
0.0
230
1.0
 40
0.4999999999999997
 41
0.0
 42
6.283185307179586
  0
ELLIPSE
  5
180
330
12F
100
AcDbEntity
  8
AM_9
100
AcDbEllipse
 10
-2.03515969889343
 20
-0.0000000000000005
 30
0.0
 11
1.172668097677216E-17
 21
0.191511233850229
 31
0.0
210
0.0
220
0.0
230
1.0
 40
0.4999999999999992
 41
0.0
 42
6.283185307179586
  0
ELLIPSE
  5
181
330
12F
100
AcDbEntity
  8
AM_9
100
AcDbEllipse
 10
-1.866287832404187
 20
-0.0000000000000002
 30
0.0
 11
1.135353457964638E-17
 21
0.1854172907249854
 31
0.0
210
0.0
220
0.0
230
1.0
 40
0.4999999999999993
 41
0.0
 42
6.283185307179586
  0
ELLIPSE
  5
182
330
12F
100
AcDbEntity
  8
AM_9
100
AcDbEllipse
 10
-1.845716641815584
 20
0.0000000000000001
 30
0.0
 11
9.899048221688794E-18
 21
0.1616637258772227
 31
0.0
210
0.0
220
0.0
230
1.0
 40
0.5
 41
0.0
 42
6.283185307179586
  0
LWPOLYLINE
  5
183
330
12F
100
AcDbEntity
  8
AM_4
100
AcDbPolyline
 90
        3
 70
     0
 43
0.0
 10
-2.265719280969503
 20
-0.2360765106845277
 10
-2.256554294392946
 20
-0.2462091938631851
 10
-2.249746303135709
 20
-0.2552079744505806
  0
LWPOLYLINE
  5
184
330
12F
100
AcDbEntity
  8
AM_4
100
AcDbPolyline
 90
        3
 70
     0
 43
0.0
 10
-2.249892392067961
 20
-0.2648476196673993
 10
-2.253862140785559
 20
-0.2634308483997528
 10
-2.2680760408998
 20
-0.2602304684431305
  0
LWPOLYLINE
  5
185
330
12F
100
AcDbEntity
  8
AM_4
100
AcDbPolyline
 90
        3
 70
     0
 43
0.0
 10
-2.286375948438334
 20
-0.3055458577949631
 10
-2.269993993819356
 20
-0.3030753670497808
 10
-2.252921902246927
 20
-0.2987675689889718
  0
LINE
  5
186
330
12F
100
AcDbEntity
  8
AM_4
100
AcDbLine
 10
-2.25
 20
-0.2915321697013715
 30
0.0
 11
-2.252921902246927
 21
-0.2987675689889718
 31
0.0
  0
LINE
  5
187
330
12F
100
AcDbEntity
  8
AM_4
100
AcDbLine
 10
-2.400564003224671
 20
-0.5093460834378319
 30
0.0
 11
-2.339952252957408
 21
-0.4540180898723598
 31
0.0
  0
LINE
  5
188
330
12F
100
AcDbEntity
  8
AM_4
100
AcDbLine
 10
-2.596687420257282
 20
-0.3503396289636352
 30
0.0
 11
-2.591493997966552
 21
-0.4322420068738781
 31
0.0
  0
ELLIPSE
  5
189
330
12F
100
AcDbEntity
  8
AM_4
100
AcDbEllipse
 10
-2.495203545096017
 20
-0.4687500000000001
 30
0.0
 11
-0.0959538295573177
 21
0.03874944547499708
 31
0.0
210
0.0
220
0.0
230
1.0
 40
0.2113091308703565
 41
0.1009830038932407
 42
3.040609649696542
  0
LINE
  5
18A
330
12F
100
AcDbEntity
  8
AM_4
100
AcDbLine
 10
-2.543217478312305
 20
-0.151074129835757
 30
0.0
 11
-2.554539051536182
 21
-0.1791093260592887
 31
0.0
  0
LWPOLYLINE
  5
18B
330
12F
100
AcDbEntity
  8
AM_4
100
AcDbPolyline
 90
        8
 70
     0
 43
0.0
 10
-2.573442229219604
 20
-0.3181657213721458
 10
-2.576480583037722
 20
-0.3192752081956243
 10
-2.582772732720484
 20
-0.3226007023551567
 10
-2.588308225449147
 20
-0.3272321457684368
 10
-2.5927329543774
 20
-0.3331541444706019
 10
-2.595811600040556
 20
-0.3407621865155392
 10
-2.59675105776887
 20
-0.3482545166606728
 10
-2.596642622336953
 20
-0.3509528965880034
  0
LWPOLYLINE
  5
18C
330
12F
100
AcDbEntity
  8
AM_4
100
AcDbPolyline
 90
        8
 70
     0
 43
0.0
 10
-2.340498545494023
 20
-0.4545054431532782
 10
-2.339142546845721
 20
-0.4532526030255885
 10
-2.334524283128575
 20
-0.4475108581857357
 10
-2.331142080185012
 20
-0.4399330521550009
 10
-2.329951148613535
 20
-0.4323913172267542
 10
-2.330500537657199
 20
-0.4253840703805883
 10
-2.332372266332092
 20
-0.4189499557209032
 10
-2.334609949104387
 20
-0.4142225400649309
  0
ELLIPSE
  5
18D
330
12F
100
AcDbEntity
  8
AM_4
100
AcDbEllipse
 10
-2.467209882898534
 20
-0.399430321788976
 30
0.0
 11
-0.1290248947933268
 21
0.05210467522533575
 31
0.0
210
0.0
220
0.0
230
1.0
 40
0.2113091308703541
 41
0.1056724228845187
 42
3.034919964503696
  0
LWPOLYLINE
  5
18E
330
12F
100
AcDbEntity
  8
AM_4
100
AcDbPolyline
 90
        3
 70
     0
 43
0.0
 10
-2.334111783851718
 20
-0.2987675689889718
 10
-2.320578518351328
 20
-0.3030606061861223
 10
-2.307019233726343
 20
-0.305456396233367
  0
ELLIPSE
  5
18F
330
12F
100
AcDbEntity
  8
AM_4
100
AcDbEllipse
 10
-2.405533998157206
 20
-0.2467045921760189
 30
0.0
 11
-0.1303939210191789
 21
0.05265753494273556
 31
0.0
210
0.0
220
0.0
230
1.0
 40
0.2113091308703514
 41
1.711945269609645
 42
2.5055960576721
  0
LWPOLYLINE
  5
190
330
12F
100
AcDbEntity
  8
AM_4
100
AcDbPolyline
 90
        4
 70
     0
 43
0.0
 10
-2.554539051536182
 20
-0.1791093260592887
 10
-2.539661933493106
 20
-0.1988355121406939
 10
-2.523232661250431
 20
-0.2156330920108724
 10
-2.517735642639089
 20
-0.2201680623457971
  0
LWPOLYLINE
  5
191
330
12F
100
AcDbEntity
  8
AM_4
100
AcDbPolyline
 90
        3
 70
     0
 43
0.0
 10
-2.517735642639089
 20
-0.2201680623457971
 10
-2.504795121040461
 20
-0.2290462109660021
 10
-2.484919760098145
 20
-0.2389369657326275
  0
LWPOLYLINE
  5
192
330
12F
100
AcDbEntity
  8
AM_4
100
AcDbPolyline
 90
        3
 70
     0
 43
0.0
 10
-2.287832440853068
 20
-0.2602304684431209
 10
-2.297081076266962
 20
-0.2616913382589203
 10
-2.322056134540739
 20
-0.2689146070947222
  0
LINE
  5
193
330
12F
100
AcDbEntity
  8
AM_4
100
AcDbLine
 10
-2.474247842549116
 20
-0.1230967854582223
 30
0.0
 11
-2.489231113282558
 21
-0.1601993088245384
 31
0.0
  0
LINE
  5
194
330
12F
100
AcDbEntity
  8
AM_4
100
AcDbLine
 10
-2.285237067954783
 20
-0.2425790968238377
 30
0.0
 11
-2.268042169133529
 21
-0.2
 31
0.0
  0
ELLIPSE
  5
195
330
12F
100
AcDbEntity
  8
AM_4
100
AcDbEllipse
 10
-2.38723409061867
 20
-0.201389202824188
 30
0.0
 11
-0.1019970226638876
 21
0.04118989399964953
 31
0.0
210
0.0
220
0.0
230
1.0
 40
0.2113091308703504
 41
0.0
 42
3.141592653589793
  0
LWPOLYLINE
  5
196
330
12F
100
AcDbEntity
  8
AM_4
100
AcDbPolyline
 90
        4
 70
     0
 43
0.0
 10
-2.543217478312305
 20
-0.151074129835757
 10
-2.526601636324776
 20
-0.145877822676052
 10
-2.510547023669643
 20
-0.1427138007556462
 10
-2.498938477052009
 20
-0.141958509815605
  0
LWPOLYLINE
  5
197
330
12F
100
AcDbEntity
  8
AM_4
100
AcDbPolyline
 90
        6
 70
     0
 43
0.0
 10
-2.473232513878599
 20
-0.2099962668917053
 10
-2.483541650235928
 20
-0.1943573015029059
 10
-2.494885477070139
 20
-0.1805491420332303
 10
-2.507599451646946
 20
-0.1688997677199809
 10
-2.521495377836637
 20
-0.1598729403210871
 10
-2.543217478312305
 20
-0.151074129835757
  0
LINE
  5
198
330
12F
100
AcDbEntity
  8
AM_4
100
AcDbLine
 10
-2.497608623509179
 20
-0.1419585097669023
 30
0.0
 11
-2.499047100157333
 21
-0.1419585097669023
 31
0.0
  0
ELLIPSE
  5
199
330
12F
100
AcDbEntity
  8
AM_4
100
AcDbEllipse
 10
-2.387234090618651
 20
-0.2013892028242051
 30
0.0
 11
-0.1303939210192011
 21
0.05265753494274877
 31
0.0
210
0.0
220
0.0
230
1.0
 40
0.2113091308703706
 41
5.610613825799325
 42
7.795870906981325
  0
ELLIPSE
  5
19A
330
12F
100
AcDbEntity
  8
AM_4
100
AcDbEllipse
 10
-2.405533998157205
 20
-0.2467045921760216
 30
0.0
 11
-0.1303939210191732
 21
0.05265753494273378
 31
0.0
210
0.0
220
0.0
230
1.0
 40
0.2113091308703451
 41
0.6359965959176757
 42
1.512685599801939
  0
LINE
  5
19B
330
12F
100
AcDbEntity
  8
AM_4
100
AcDbLine
 10
-2.306132348391603
 20
-0.3055458577949631
 30
0.0
 11
-2.286375948438334
 21
-0.3055458577949631
 31
0.0
  0
LWPOLYLINE
  5
19C
330
12F
100
AcDbEntity
  8
AM_4
100
AcDbPolyline
 90
       16
 70
     0
 43
0.0
 10
-2.334270762613813
 20
-0.4148438889233875
 10
-2.334662775549574
 20
-0.414070740841998
 10
-2.337509059925654
 20
-0.4074677194708718
 10
-2.340057456872105
 20
-0.398971871490158
 10
-2.341722748122239
 20
-0.3888006649856969
 10
-2.341978265677849
 20
-0.3774873707254678
 10
-2.340508007174282
 20
-0.365670126573365
 10
-2.336773755343361
 20
-0.352751448541635
 10
-2.331183268592652
 20
-0.3410259393563859
 10
-2.324220433163583
 20
-0.3308866948919947
 10
-2.316386523234951
 20
-0.3224930551317509
 10
-2.30823263491407
 20
-0.3159105903828257
 10
-2.300377548411966
 20
-0.3111112349599208
 10
-2.29342006198663
 20
-0.3079210310152674
 10
-2.287774388995152
 20
-0.3060180422346997
 10
-2.284380649452473
 20
-0.3051808695184794
  0
LWPOLYLINE
  5
19D
330
12F
100
AcDbEntity
  8
AM_4
100
AcDbPolyline
 90
       16
 70
     0
 43
0.0
 10
-2.533118046559019
 20
-0.204949884602582
 10
-2.531611403598622
 20
-0.207349932081058
 10
-2.528861161507071
 20
-0.2125892854683165
 10
-2.526040274525303
 20
-0.2196845301380393
 10
-2.523663227098445
 20
-0.2286503234660226
 10
-2.522319808227982
 20
-0.2391774587734421
 10
-2.522490867081449
 20
-0.2506817560198388
 10
-2.524432236302533
 20
-0.2625314969148603
 10
-2.528631743962748
 20
-0.2752144215842832
 10
-2.534582513501385
 20
-0.2865947473259451
 10
-2.541791970481368
 20
-0.2963402930027601
 10
-2.5497515010481
 20
-0.3043186348365126
 10
-2.55789296350874
 20
-0.3104822107246077
 10
-2.565589712747475
 20
-0.3148882302771241
 10
-2.572271682792513
 20
-0.3177485531965663
 10
-2.573938995717868
 20
-0.3183287865786021
  0
ELLIPSE
  5
19E
330
12F
100
AcDbEntity
  8
AM_4
100
AcDbEllipse
 10
-2.456534901421189
 20
-0.3729962569746642
 30
0.0
 11
-0.1235034625625957
 21
0.04987493162723568
 31
0.0
210
0.0
220
0.0
230
1.0
 40
0.2113091308703473
 41
6.039020506822193
 42
9.665694935122144
  0
ELLIPSE
  5
19F
330
12F
100
AcDbEntity
  8
AM_4
100
AcDbEllipse
 10
-2.387234090618672
 20
-0.2013892028241877
 30
0.0
 11
-0.1303939210191825
 21
0.0526575349427209
 31
0.0
210
0.0
220
0.0
230
1.0
 40
0.2113091308703621
 41
1.711945269609619
 42
2.518556725320344
  0
LINE
  5
1A0
330
12F
100
AcDbEntity
  8
AM_4
100
AcDbLine
 10
-2.2680760408998
 20
-0.2602304684431305
 30
0.0
 11
-2.287832440853068
 21
-0.2602304684431209
 31
0.0
  0
ELLIPSE
  5
1A1
330
12F
100
AcDbEntity
  8
AM_4
100
AcDbEllipse
 10
-2.38723409061867
 20
-0.2013892028241887
 30
0.0
 11
-0.130393921019174
 21
0.05265753494273332
 31
0.0
210
0.0
220
0.0
230
1.0
 40
0.2113091308703505
 41
2.800469246484359
 42
3.607080702195122
  0
LINE
  5
1A2
330
12F
100
AcDbEntity
  8
AM_4
100
AcDbLine
 10
-2.277740811151311
 20
-0.2258378743019629
 30
0.0
 11
-2.265719280969503
 21
-0.2360765106845277
 31
0.0
  0
LWPOLYLINE
  5
1A3
330
12F
100
AcDbEntity
  8
AM_4
100
AcDbPolyline
 90
        3
 70
     0
 43
0.0
 10
-2.322056134540739
 20
-0.2689146070947222
 10
-2.350118434509584
 20
-0.251275593729576
 10
-2.37990653934757
 20
-0.2360765106845275
  0
LINE
  5
1A4
330
12F
100
AcDbEntity
  8
AM_4
100
AcDbLine
 10
-2.37990653934757
 20
-0.2360765106845275
 30
0.0
 11
-2.405915348373554
 21
-0.2258378743019627
 31
0.0
  0
LWPOLYLINE
  5
1A5
330
12F
100
AcDbEntity
  8
AM_4
100
AcDbPolyline
 90
        3
 70
     0
 43
0.0
 10
-2.405915348373554
 20
-0.2258378743019627
 10
-2.428905383065794
 20
-0.2189176876709014
 10
-2.473232513878599
 20
-0.2099962668917053
  0
LINE
  5
1A6
330
12F
100
AcDbEntity
  8
AM_4
100
AcDbLine
 10
-2.473232513878599
 20
-0.2099962668917053
 30
0.0
 11
-2.484919760098144
 21
-0.2389369657326276
 31
0.0
  0
LWPOLYLINE
  5
1A7
330
12F
100
AcDbEntity
  8
AM_4
100
AcDbPolyline
 90
        3
 70
     0
 43
0.0
 10
-2.484919760098144
 20
-0.2389369657326276
 10
-2.455239938864342
 20
-0.2560939713202353
 10
-2.424215255912086
 20
-0.2711532636537956
  0
LINE
  5
1A8
330
12F
100
AcDbEntity
  8
AM_4
100
AcDbLine
 10
-2.424215255912086
 20
-0.2711532636537956
 30
0.0
 11
-2.398206446886104
 21
-0.2813919000363599
 31
0.0
  0
LWPOLYLINE
  5
1A9
330
12F
100
AcDbEntity
  8
AM_4
100
AcDbPolyline
 90
        3
 70
     0
 43
0.0
 10
-2.398206446886104
 20
-0.2813919000363599
 10
-2.366555896032079
 20
-0.2911775952746243
 10
-2.334111783851718
 20
-0.2987675689889718
  0
LINE
  5
1AA
330
12F
100
AcDbEntity
  8
AM_4
100
AcDbLine
 10
-2.322056134540739
 20
-0.2689146070947222
 30
0.0
 11
-2.334111783851718
 21
-0.2987675689889718
 31
0.0
  0
ARC
  5
1AB
330
12F
100
AcDbEntity
  8
AM_4
100
AcDbCircle
 10
-2.316617955123374
 20
0.0000000000000004
 30
0.0
 40
0.1999999999999996
100
AcDbArc
 50
90.0
 51
219.6364360024546
  0
LWPOLYLINE
  5
1AC
330
12F
100
AcDbEntity
  8
AM_4
100
AcDbPolyline
 90
       10
 70
     0
 43
0.0
 10
-2.470824900877539
 20
-0.1273585915737899
 10
-2.469157005432702
 20
-0.1291842652280562
 10
-2.462879458165039
 20
-0.1344729790611519
 10
-2.453721859102318
 20
-0.1405186270901959
 10
-2.442425669940306
 20
-0.1468270783017121
 10
-2.428684518799557
 20
-0.1535654953592165
 10
-2.413623029060075
 20
-0.1601799433259583
 10
-2.396829606240415
 20
-0.1668493358980661
 10
-2.37943027008642
 20
-0.1731116383367606
 10
-2.361187055307316
 20
-0.1790373738502114
  0
ELLIPSE
  5
1AD
330
12F
100
AcDbEntity
  8
AM_4
100
AcDbEllipse
 10
-2.316617955123374
 20
0.0
 30
0.0
 11
1.224646799147352E-17
 21
0.1999999999999998
 31
0.0
210
0.0
220
0.0
230
1.0
 40
0.5000000000000009
 41
0.0
 42
2.67964663302283
  0
LINE
  5
1AE
330
12F
100
AcDbEntity
  8
AM_4
100
AcDbLine
 10
-2.252109775792591
 20
0.1999999999999999
 30
0.0
 11
-2.316617955123374
 21
0.1999999999999999
 31
0.0
  0
LINE
  5
1AF
330
12F
100
AcDbEntity
  8
AM_4
100
AcDbLine
 10
-2.28171173672126
 20
-0.2
 30
0.0
 11
-2.252112419879967
 21
-0.2
 31
0.0
  0
LWPOLYLINE
  5
1B0
330
12F
100
AcDbEntity
  8
AM_4
100
AcDbPolyline
 90
        8
 70
     0
 43
0.0
 10
-2.281563952494352
 20
-0.1999999999699529
 10
-2.283051069733656
 20
-0.1999786710855128
 10
-2.293924670210405
 20
-0.1988321115509053
 10
-2.306322991924387
 20
-0.1961649429984259
 10
-2.320746422290379
 20
-0.1920694300574958
 10
-2.336259402151197
 20
-0.1870948030566195
 10
-2.353352805938167
 20
-0.181500594761393
 10
-2.361187055307334
 20
-0.1790373738501783
  0
LWPOLYLINE
  5
1B1
330
12F
100
AcDbEntity
  8
AM_4
100
AcDbPolyline
 90
        3
 70
     0
 43
0.0
 10
-2.284142002481457
 20
0.1093749999999999
 10
-2.266282352497533
 20
0.1640624999999999
 10
-2.250279584962129
 20
0.2053848659184845
  0
LWPOLYLINE
  5
1B2
330
12F
100
AcDbEntity
  8
AM_4
100
AcDbPolyline
 90
        3
 70
     0
 43
0.0
 10
-2.307863073639148
 20
-0.0000000000000001
 10
-2.297908866209874
 20
0.0544416102741495
 10
-2.284142002481457
 20
0.1093749999999999
  0
LINE
  5
1B3
330
12F
100
AcDbEntity
  8
AM_4
100
AcDbLine
 10
-2.307863073639148
 20
-0.0000000000000001
 30
0.0
 11
-2.25
 21
-0.0000000000000001
 31
0.0
  0
LWPOLYLINE
  5
1B4
330
12F
100
AcDbEntity
  8
AM_4
100
AcDbPolyline
 90
        3
 70
     0
 43
0.0
 10
-2.284142002481457
 20
-0.109375
 10
-2.297856195343841
 20
-0.0546875
 10
-2.307863073639148
 20
-0.0000000000000001
  0
LWPOLYLINE
  5
1B5
330
12F
100
AcDbEntity
  8
AM_4
100
AcDbPolyline
 90
        3
 70
     0
 43
0.0
 10
-2.250277717510961
 20
-0.2053894228280123
 10
-2.266193058864156
 20
-0.1643083897258504
 10
-2.284142002481457
 20
-0.109375
  0
ENDBLK
  5
132
330
12F
100
AcDbEntity
  8
0
100
AcDbBlockEnd
  0
BLOCK
  5
1B8
330
1B6
100
AcDbEntity
  8
0
100
AcDbBlockBegin
  2
5_070786H_0_in_070786_4
 70
     2
 10
0.0
 20
0.0
 30
0.0
  3
5_070786H_0_in_070786_4
  1

  0
ATTDEF
  5
1BA
330
1B6
100
AcDbEntity
  8
AM_6
100
AcDbText
 10
8.98671875
 20
1.176470588235294
 30
0.0
 40
0.5
  1
WSTU-S2 -(Contact Seal)-Housing
100
AcDbAttributeDefinition
  3

  2
NN
 70
     8
280
     0
  0
ATTDEF
  5
1BB
330
1B6
100
AcDbEntity
  8
AM_6
100
AcDbText
 10
8.98671875
 20
0.6764705882352944
 30
0.0
 40
0.5
  1
S-2000 Wide Slot Take-Up Bearing -Inch
100
AcDbAttributeDefinition
  3

  2
NT
 70
     8
280
     0
  0
ATTDEF
  5
1BC
330
1B6
100
AcDbEntity
  8
AM_6
100
AcDbText
 10
8.98671875
 20
0.1764705882352944
 30
0.0
 40
0.5
  1
070786H
100
AcDbAttributeDefinition
  3

  2
NB
 70
     8
280
     0
  0
ATTDEF
  5
1BD
330
1B6
100
AcDbEntity
  8
AM_6
100
AcDbText
 10
8.98671875
 20
-0.3235294117647056
 30
0.0
 40
0.5
  1
$PN.H
100
AcDbAttributeDefinition
  3

  2
NBSYN
 70
     8
280
     0
  0
ATTDEF
  5
1BE
330
1B6
100
AcDbEntity
  8
AM_6
100
AcDbText
 10
8.98671875
 20
-0.8235294117647056
 30
0.0
 40
0.5
  1
070786
100
AcDbAttributeDefinition
  3

  2
LINA
 70
     8
280
     0
  0
ATTDEF
  5
1BF
330
1B6
100
AcDbEntity
  8
AM_6
100
AcDbText
 10
8.98671875
 20
-1.323529411764706
 30
0.0
 40
0.5
  1
2
100
AcDbAttributeDefinition
  3

  2
SS
 70
     8
280
     0
  0
ATTDEF
  5
1C0
330
1B6
100
AcDbEntity
  8
AM_6
100
AcDbText
 10
8.98671875
 20
-1.823529411764706
 30
0.0
 40
0.5
  1
070786
100
AcDbAttributeDefinition
  3

  2
PN
 70
     8
280
     0
  0
ATTDEF
  5
1C1
330
1B6
100
AcDbEntity
  8
AM_6
100
AcDbText
 10
8.98671875
 20
-2.323529411764706
 30
0.0
 40
0.5
  1
WSTU-S2-200RE
100
AcDbAttributeDefinition
  3

  2
DESCRIPTION
 70
     8
280
     0
  0
ATTDEF
  5
1C2
330
1B6
100
AcDbEntity
  8
AM_6
100
AcDbText
 10
8.98671875
 20
-2.823529411764706
 30
0.0
 40
0.5
  1
Expansion Type
100
AcDbAttributeDefinition
  3

  2
EF
 70
     8
280
     0
  0
ATTDEF
  5
1C3
330
1B6
100
AcDbEntity
  8
AM_6
100
AcDbText
 10
8.98671875
 20
-3.323529411764706
 30
0.0
 40
0.5
  1
2-27/32
100
AcDbAttributeDefinition
  3

  2
A
 70
     8
280
     0
  0
ATTDEF
  5
1C4
330
1B6
100
AcDbEntity
  8
AM_6
100
AcDbText
 10
8.98671875
 20
-3.823529411764706
 30
0.0
 40
0.5
  1
6-3/16
100
AcDbAttributeDefinition
  3

  2
B
 70
     8
280
     0
  0
ATTDEF
  5
1C5
330
1B6
100
AcDbEntity
  8
AM_6
100
AcDbText
 10
8.98671875
 20
-4.323529411764706
 30
0.0
 40
0.5
  1
11/16
100
AcDbAttributeDefinition
  3

  2
C
 70
     8
280
     0
  0
ATTDEF
  5
1C6
330
1B6
100
AcDbEntity
  8
AM_6
100
AcDbText
 10
8.98671875
 20
-4.823529411764706
 30
0.0
 40
0.5
  1
3-15/16
100
AcDbAttributeDefinition
  3

  2
E
 70
     8
280
     0
  0
ATTDEF
  5
1C7
330
1B6
100
AcDbEntity
  8
AM_6
100
AcDbText
 10
8.98671875
 20
-5.323529411764706
 30
0.0
 40
0.5
  1
1-1/8
100
AcDbAttributeDefinition
  3

  2
F
 70
     8
280
     0
  0
ATTDEF
  5
1C8
330
1B6
100
AcDbEntity
  8
AM_6
100
AcDbText
 10
8.98671875
 20
-5.823529411764706
 30
0.0
 40
0.5
  1
15/16
100
AcDbAttributeDefinition
  3

  2
G
 70
     8
280
     0
  0
ATTDEF
  5
1C9
330
1B6
100
AcDbEntity
  8
AM_6
100
AcDbText
 10
8.98671875
 20
-6.323529411764706
 30
0.0
 40
0.5
  1
3/4
100
AcDbAttributeDefinition
  3

  2
H
 70
     8
280
     0
  0
ATTDEF
  5
1CA
330
1B6
100
AcDbEntity
  8
AM_6
100
AcDbText
 10
8.98671875
 20
-6.823529411764706
 30
0.0
 40
0.5
  1
3-5/16
100
AcDbAttributeDefinition
  3

  2
J
 70
     8
280
     0
  0
ATTDEF
  5
1CB
330
1B6
100
AcDbEntity
  8
AM_6
100
AcDbText
 10
8.98671875
 20
-7.323529411764706
 30
0.0
 40
0.5
  1
1-15/16
100
AcDbAttributeDefinition
  3

  2
K
 70
     8
280
     0
  0
ATTDEF
  5
1CC
330
1B6
100
AcDbEntity
  8
AM_6
100
AcDbText
 10
8.98671875
 20
-7.823529411764706
 30
0.0
 40
0.5
  1
1.937500
100
AcDbAttributeDefinition
  3

  2
K1
 70
     8
280
     0
  0
ATTDEF
  5
1CD
330
1B6
100
AcDbEntity
  8
AM_6
100
AcDbText
 10
8.98671875
 20
-8.323529411764707
 30
0.0
 40
0.5
  1
3-7/16
100
AcDbAttributeDefinition
  3

  2
L
 70
     8
280
     0
  0
ATTDEF
  5
1CE
330
1B6
100
AcDbEntity
  8
AM_6
100
AcDbText
 10
8.98671875
 20
-8.823529411764707
 30
0.0
 40
0.5
  1
4
100
AcDbAttributeDefinition
  3

  2
M
 70
     8
280
     0
  0
ATTDEF
  5
1CF
330
1B6
100
AcDbEntity
  8
AM_6
100
AcDbText
 10
8.98671875
 20
-9.323529411764707
 30
0.0
 40
0.5
  1
4-3/4
100
AcDbAttributeDefinition
  3

  2
N
 70
     8
280
     0
  0
ATTDEF
  5
1D0
330
1B6
100
AcDbEntity
  8
AM_6
100
AcDbText
 10
8.98671875
 20
-9.823529411764707
 30
0.0
 40
0.5
  1
2-15/16
100
AcDbAttributeDefinition
  3

  2
R
 70
     8
280
     0
  0
ATTDEF
  5
1D1
330
1B6
100
AcDbEntity
  8
AM_6
100
AcDbText
 10
8.98671875
 20
-10.32352941176471
 30
0.0
 40
0.5
  1
1-15/16
100
AcDbAttributeDefinition
  3

  2
S
 70
     8
280
     0
  0
ATTDEF
  5
1D2
330
1B6
100
AcDbEntity
  8
AM_6
100
AcDbText
 10
8.98671875
 20
-10.82352941176471
 30
0.0
 40
0.5
  1
2
100
AcDbAttributeDefinition
  3

  2
T
 70
     8
280
     0
  0
ATTDEF
  5
1D3
330
1B6
100
AcDbEntity
  8
AM_6
100
AcDbText
 10
8.98671875
 20
-11.32352941176471
 30
0.0
 40
0.5
  1
2.000000
100
AcDbAttributeDefinition
  3

  2
T1
 70
     8
280
     0
  0
ATTDEF
  5
1D4
330
1B6
100
AcDbEntity
  8
AM_6
100
AcDbText
 10
8.98671875
 20
-11.82352941176471
 30
0.0
 40
0.5
  1
1/4
100
AcDbAttributeDefinition
  3

  2
X
 70
     8
280
     0
  0
ATTDEF
  5
1D5
330
1B6
100
AcDbEntity
  8
AM_6
100
AcDbText
 10
8.98671875
 20
-12.32352941176471
 30
0.0
 40
0.5
  1
0.020
100
AcDbAttributeDefinition
  3

  2
Y
 70
     8
280
     0
  0
ATTDEF
  5
1D6
330
1B6
100
AcDbEntity
  8
AM_6
100
AcDbText
 10
8.98671875
 20
-12.82352941176471
 30
0.0
 40
0.5
  1
2-19/64
100
AcDbAttributeDefinition
  3

  2
Z
 70
     8
280
     0
  0
ATTDEF
  5
1D7
330
1B6
100
AcDbEntity
  8
AM_6
100
AcDbText
 10
8.98671875
 20
-13.32352941176471
 30
0.0
 40
0.5
  1
baldor
100
AcDbAttributeDefinition
  3

  2
COMPANY
 70
     8
280
     0
  0
ELLIPSE
  5
1D8
330
1B6
100
AcDbEntity
  8
AM_9
100
AcDbEllipse
 10
-2.035159698893431
 20
-0.0000000000000001
 30
0.0
 11
2.449293598294707E-17
 21
0.4
 31
0.0
210
0.0
220
0.0
230
1.0
 40
0.4999999999999999
 41
0.0
 42
6.283185307179586
  0
ELLIPSE
  5
1D9
330
1B6
100
AcDbEntity
  8
AM_9
100
AcDbEllipse
 10
-1.948557158514988
 20
-0.0000000000000015
 30
0.0
 11
-9.184850993605173E-17
 21
-0.5000000000000013
 31
0.0
210
0.0
220
0.0
230
1.0
 40
0.5000000000000018
 41
2.566123269756321
 42
6.858654691013063
  0
LINE
  5
1DA
330
1B6
100
AcDbEntity
  8
AM_9
100
AcDbLine
 10
-1.950756417423699
 20
-0.4999879079221681
 30
0.0
 11
-1.948513462462859
 21
-0.4999999952266376
 31
0.0
  0
LWPOLYLINE
  5
1DB
330
1B6
100
AcDbEntity
  8
AM_9
100
AcDbPolyline
 90
       25
 70
     0
 43
0.0
 10
-2.248557158514987
 20
0.0
 10
-2.248396295601083
 20
-0.0170134760486028
 10
-2.247231384484214
 20
-0.0487847388927371
 10
-2.244941254986447
 20
-0.0803786827518617
 10
-2.241527206838887
 20
-0.1116828280254089
 10
-2.236989816402276
 20
-0.14259092449672
 10
-2.231328388577925
 20
-0.1729990032774548
 10
-2.224540122986884
 20
-0.2028055607787524
 10
-2.216619122785926
 20
-0.2319113136029909
 10
-2.207555367523228
 20
-0.2602182685373641
 10
-2.19733392100434
 20
-0.2876277454819479
 10
-2.185934917108361
 20
-0.3140368851283252
 10
-2.173335305248139
 20
-0.3393331694668638
 10
-2.159513896999312
 20
-0.3633868458728906
 10
-2.144462718878416
 20
-0.3860407734833168
 10
-2.128230292444547
 20
-0.4070733714121884
 10
-2.110900046421647
 20
-0.4262695049003517
 10
-2.092609057155613
 20
-0.4434216095945008
 10
-2.073533220838886
 20
-0.4583659400733365
 10
-2.053858354762916
 20
-0.4710074870032353
 10
-2.033755265086233
 20
-0.4813192138409343
 10
-2.013370809112725
 20
-0.4893219402817924
 10
-1.992831884973629
 20
-0.4950614745089438
 10
-1.972252728633999
 20
-0.4985932125131102
 10
-1.956030039307302
 20
-0.4998603596685984
  0
LWPOLYLINE
  5
1DC
330
1B6
100
AcDbEntity
  8
AM_9
100
AcDbPolyline
 90
       26
 70
     0
 43
0.0
 10
-1.95011289375056
 20
0.499993949162485
 10
-1.964981335279812
 20
0.4993249044689598
 10
-1.985080069881552
 20
0.4966476991570168
 10
-2.004819708032711
 20
0.4919868841635063
 10
-2.024148135273348
 20
0.485386761750396
 10
-2.043028601976267
 20
0.4768734877888372
 10
-2.061435366341497
 20
0.4664520809949438
 10
-2.079345901587625
 20
0.4541074350284179
 10
-2.096730244624411
 20
0.439812000173309
 10
-2.113539601978281
 20
0.4235419397968946
 10
-2.129698439055198
 20
0.4053002625760273
 10
-2.145105481128232
 20
0.3851395152807757
 10
-2.15964641978348
 20
0.3631720617173579
 10
-2.173213919677233
 20
0.339560015063701
 10
-2.185724622815179
 20
0.3144898971367178
 10
-2.197114027837853
 20
0.2881748479641503
 10
-2.207362801251736
 20
0.2607742635272213
 10
-2.216466575210447
 20
0.2324266294954387
 10
-2.224427620700888
 20
0.2032558636613924
 10
-2.231250237267821
 20
0.1733767682930439
 10
-2.236938477757745
 20
0.1428993977935011
 10
-2.241495343304503
 20
0.1119319741654177
 10
-2.244922750753743
 20
0.0805825605375798
 10
-2.247221824879782
 20
0.0489598285364552
 10
-2.248393259725304
 20
0.0171732154472497
 10
-2.248557158514987
 20
0.0
  0
LINE
  5
1DD
330
1B6
100
AcDbEntity
  8
AM_9
100
AcDbLine
 10
-1.948610892283039
 20
0.4999999927817053
 30
0.0
 11
-1.95011289375056
 21
0.499993949162485
 31
0.0
  0
LINE
  5
1DE
330
1B6
100
AcDbEntity
  8
AM_9
100
AcDbLine
 10
3.0
 20
-0.5625
 30
0.0
 11
3.9375
 21
-0.5625
 31
0.0
  0
LINE
  5
1DF
330
1B6
100
AcDbEntity
  8
AM_9
100
AcDbLine
 10
3.9375
 20
0.5625
 30
0.0
 11
3.0
 21
0.5625
 31
0.0
  0
LINE
  5
1E0
330
1B6
100
AcDbEntity
  8
AM_9
100
AcDbLine
 10
2.289999999999999
 20
-0.9090909090909091
 30
0.0
 11
2.289999999999999
 21
0.9090909090909091
 31
0.0
  0
LINE
  5
1E1
330
1B6
100
AcDbEntity
  8
AM_9
100
AcDbLine
 10
2.25
 20
-0.9090909090909091
 30
0.0
 11
2.25
 21
0.9090909090909091
 31
0.0
  0
LINE
  5
1E2
330
1B6
100
AcDbEntity
  8
AM_9
100
AcDbLine
 10
2.959999999999999
 20
-0.9090909090909091
 30
0.0
 11
2.959999999999999
 21
0.9090909090909091
 31
0.0
  0
LINE
  5
1E3
330
1B6
100
AcDbEntity
  8
AM_9
100
AcDbLine
 10
3.0
 20
-0.9090909090909091
 30
0.0
 11
3.0
 21
0.9090909090909091
 31
0.0
  0
LINE
  5
1E4
330
1B6
100
AcDbEntity
  8
AM_9
100
AcDbLine
 10
1.77165
 20
-0.5756410343589744
 30
0.0
 11
1.77165
 21
1.0
 31
0.0
  0
LINE
  5
1E5
330
1B6
100
AcDbEntity
  8
AM_9
100
AcDbLine
 10
-1.77165
 20
1.0
 30
0.0
 11
-1.77165
 21
-0.5756410343589744
 31
0.0
  0
LINE
  5
1E6
330
1B6
100
AcDbEntity
  8
AM_9
100
AcDbLine
 10
-1.77165
 20
-0.5756410343589744
 30
0.0
 11
1.77165
 21
-0.5756410343589744
 31
0.0
  0
LINE
  5
1E7
330
1B6
100
AcDbEntity
  8
AM_9
100
AcDbLine
 10
-1.77165
 20
-0.5756410343589744
 30
0.0
 11
-1.88535664214442
 21
-1.0
 31
0.0
  0
LINE
  5
1E8
330
1B6
100
AcDbEntity
  8
AM_9
100
AcDbLine
 10
1.88535664214442
 20
-1.0
 30
0.0
 11
1.77165
 21
-0.5756410343589744
 31
0.0
  0
LWPOLYLINE
  5
1E9
330
1B6
100
AcDbEntity
  8
AM_9
100
AcDbPolyline
 90
        7
 70
     0
 43
0.0
 10
-1.948557158514987
 20
0.4999999999999999
 10
-1.927757570182515
 20
0.4983170639284897
 10
-1.906467154278858
 20
0.493293968498949
 10
-1.884210235098972
 20
0.4846629570640156
 10
-1.861807385870847
 20
0.4726052871369176
 10
-1.837078291924627
 20
0.4553615960983354
 10
-1.8125
 20
0.4339842795586016
  0
LWPOLYLINE
  5
1EA
330
1B6
100
AcDbEntity
  8
AM_9
100
AcDbPolyline
 90
       29
 70
     0
 43
0.0
 10
-1.948557158514987
 20
-0.5000000000000001
 10
-1.973526009322643
 20
-0.4973907405006157
 10
-1.997245565760943
 20
-0.4896243827886309
 10
-2.02109340425442
 20
-0.4755687012220312
 10
-2.04313171560027
 20
-0.4557991753740349
 10
-2.063091040475115
 20
-0.430693507048156
 10
-2.081160729313993
 20
-0.3999413256348087
 10
-2.097093433635719
 20
-0.3642242252878441
 10
-2.110800612965668
 20
-0.3241804161561737
 10
-2.122533164089277
 20
-0.279222994936525
 10
-2.132126040701047
 20
-0.2305287657449162
 10
-2.13958020093588
 20
-0.1789971297193887
 10
-2.144940715407173
 20
-0.1253883117156284
 10
-2.148336246689885
 20
-0.069953006604097
 10
-2.149778078676176
 20
-0.0137751021996341
 10
-2.149312296603231
 20
0.0413183516206798
 10
-2.1469932276529
 20
0.0960614036553663
 10
-2.142812904325034
 20
0.1494222332484613
 10
-2.136736191651639
 20
0.2006957749393342
 10
-2.128692634772801
 20
0.2496570803843231
 10
-2.11867468221193
 20
0.2954481230848693
 10
-2.106299208204112
 20
0.3384828445683649
 10
-2.091690645853662
 20
0.3774408199640907
 10
-2.074910725347089
 20
0.411623735724944
 10
-2.055607854079882
 20
0.4410005762693601
 10
-2.034020139172255
 20
0.46486758942459
 10
-2.010399125098246
 20
0.4827461398632855
 10
-1.980568899478272
 20
0.495644238177891
 10
-1.948557158514987
 20
0.4999999999999999
  0
LWPOLYLINE
  5
1EB
330
1B6
100
AcDbEntity
  8
AM_9
100
AcDbPolyline
 90
        7
 70
     0
 43
0.0
 10
-1.8125
 20
-0.4339842795586023
 10
-1.825683176964936
 20
-0.4459921619717707
 10
-1.847729768363983
 20
-0.4632975643769939
 10
-1.869969042181199
 20
-0.477388745158452
 10
-1.892862401633123
 20
-0.4884175418212987
 10
-1.915521812238549
 20
-0.4958261275867541
 10
-1.948557158514987
 20
-0.5000000000000001
  0
LINE
  5
1EC
330
1B6
100
AcDbEntity
  8
AM_7
100
AcDbLine
 10
3.98671875
 20
0.0
 30
0.0
 11
2.903906249999999
 21
0.0
 31
0.0
  0
LINE
  5
1ED
330
1B6
100
AcDbEntity
  8
AM_4
100
AcDbLine
 10
3.8975
 20
1.176470588235294
 30
0.0
 11
3.040000000000001
 21
1.176470588235294
 31
0.0
  0
LINE
  5
1EE
330
1B6
100
AcDbEntity
  8
AM_4
100
AcDbLine
 10
3.040000000000001
 20
-1.176470588235294
 30
0.0
 11
3.8975
 21
-1.176470588235294
 31
0.0
  0
LINE
  5
1EF
330
1B6
100
AcDbEntity
  8
AM_4
100
AcDbLine
 10
3.0
 20
1.136470588235294
 30
0.0
 11
3.0
 21
0.9090909090909096
 31
0.0
  0
ARC
  5
1F0
330
1B6
100
AcDbEntity
  8
AM_4
100
AcDbCircle
 10
3.04
 20
1.136470588235294
 30
0.0
 40
0.0400000000000003
100
AcDbArc
 50
90.0
 51
180.0
  0
LINE
  5
1F1
330
1B6
100
AcDbEntity
  8
AM_4
100
AcDbLine
 10
3.040000000000001
 20
1.176470588235294
 30
0.0
 11
3.040000000000001
 21
0.9090909090909092
 31
0.0
  0
LINE
  5
1F2
330
1B6
100
AcDbEntity
  8
AM_4
100
AcDbLine
 10
3.0
 20
-0.9090909090909091
 30
0.0
 11
3.0
 21
-1.136470588235294
 31
0.0
  0
LINE
  5
1F3
330
1B6
100
AcDbEntity
  8
AM_4
100
AcDbLine
 10
3.040000000000001
 20
-0.9090909090909091
 30
0.0
 11
3.040000000000001
 21
-1.176470588235294
 31
0.0
  0
ARC
  5
1F4
330
1B6
100
AcDbEntity
  8
AM_4
100
AcDbCircle
 10
3.04
 20
-1.136470588235294
 30
0.0
 40
0.0400000000000005
100
AcDbArc
 50
180.0
 51
270.0
  0
ARC
  5
1F5
330
1B6
100
AcDbEntity
  8
AM_4
100
AcDbCircle
 10
3.8975
 20
1.136470588235294
 30
0.0
 40
0.0399999999999996
100
AcDbArc
 50
0.0
 51
90.0
  0
LINE
  5
1F6
330
1B6
100
AcDbEntity
  8
AM_4
100
AcDbLine
 10
3.937499999999999
 20
1.136470588235295
 30
0.0
 11
3.937499999999999
 21
-1.136470588235295
 31
0.0
  0
LINE
  5
1F7
330
1B6
100
AcDbEntity
  8
AM_4
100
AcDbLine
 10
3.8975
 20
1.176470588235294
 30
0.0
 11
3.8975
 21
-1.176470588235294
 31
0.0
  0
ARC
  5
1F8
330
1B6
100
AcDbEntity
  8
AM_4
100
AcDbCircle
 10
3.8975
 20
-1.136470588235294
 30
0.0
 40
0.04
100
AcDbArc
 50
270.0
 51
0.0
  0
LINE
  5
1F9
330
1B6
100
AcDbEntity
  8
AM_4
100
AcDbLine
 10
-2.21
 20
0.9999999999999999
 30
0.0
 11
2.209999999994936
 21
0.9999999999999999
 31
0.0
  0
ARC
  5
1FA
330
1B6
100
AcDbEntity
  8
AM_4
100
AcDbCircle
 10
2.21
 20
0.9600000000000001
 30
0.0
 40
0.0399999999999996
100
AcDbArc
 50
0.0
 51
90.0
  0
ARC
  5
1FB
330
1B6
100
AcDbEntity
  8
AM_4
100
AcDbCircle
 10
-2.21
 20
0.9600000000000001
 30
0.0
 40
0.0399999999999998
100
AcDbArc
 50
90.0
 51
180.0
  0
LINE
  5
1FC
330
1B6
100
AcDbEntity
  8
AM_4
100
AcDbLine
 10
-2.21
 20
-1.0
 30
0.0
 11
2.209999999994936
 21
-1.0
 31
0.0
  0
ARC
  5
1FD
330
1B6
100
AcDbEntity
  8
AM_4
100
AcDbCircle
 10
2.21
 20
-0.9599999999999995
 30
0.0
 40
0.0400000000000005
100
AcDbArc
 50
270.0
 51
0.0
  0
ARC
  5
1FE
330
1B6
100
AcDbEntity
  8
AM_4
100
AcDbCircle
 10
-2.21
 20
-0.9599999999999992
 30
0.0
 40
0.0400000000000009
100
AcDbArc
 50
180.0
 51
270.0
  0
LINE
  5
1FF
330
1B6
100
AcDbEntity
  8
AM_4
100
AcDbLine
 10
-2.25
 20
0.9599999999999997
 30
0.0
 11
2.25
 21
0.9599999999999997
 31
0.0
  0
LINE
  5
200
330
1B6
100
AcDbEntity
  8
AM_4
100
AcDbLine
 10
-2.25
 20
-0.9599999999999999
 30
0.0
 11
2.25
 21
-0.9599999999999999
 31
0.0
  0
LINE
  5
201
330
1B6
100
AcDbEntity
  8
AM_4
100
AcDbLine
 10
2.25
 20
-0.9599999999999999
 30
0.0
 11
2.25
 21
-0.909090909090909
 31
0.0
  0
LINE
  5
202
330
1B6
100
AcDbEntity
  8
AM_4
100
AcDbLine
 10
2.25
 20
0.9090909090909091
 30
0.0
 11
2.25
 21
0.9599999999999997
 31
0.0
  0
LINE
  5
203
330
1B6
100
AcDbEntity
  8
AM_4
100
AcDbLine
 10
-2.25
 20
0.9599999999999997
 30
0.0
 11
-2.25
 21
-0.9599999999999999
 31
0.0
  0
LINE
  5
204
330
1B6
100
AcDbEntity
  8
AM_4
100
AcDbLine
 10
1.8125
 20
-0.3437499999999998
 30
0.0
 11
-1.8125
 21
-0.3437499999999998
 31
0.0
  0
LINE
  5
205
330
1B6
100
AcDbEntity
  8
AM_4
100
AcDbLine
 10
-1.7725
 20
-0.909090909090909
 30
0.0
 11
-1.7725
 21
-0.3437499999999998
 31
0.0
  0
LINE
  5
206
330
1B6
100
AcDbEntity
  8
AM_4
100
AcDbLine
 10
3.9375
 20
-0.909090909090909
 30
0.0
 11
-1.8125
 21
-0.909090909090909
 31
0.0
  0
LINE
  5
207
330
1B6
100
AcDbEntity
  8
AM_4
100
AcDbLine
 10
1.8125
 20
-0.909090909090909
 30
0.0
 11
1.8125
 21
0.9090909090909092
 31
0.0
  0
LINE
  5
208
330
1B6
100
AcDbEntity
  8
AM_4
100
AcDbLine
 10
1.7725
 20
-0.909090909090909
 30
0.0
 11
1.7725
 21
-0.3437499999999998
 31
0.0
  0
LINE
  5
209
330
1B6
100
AcDbEntity
  8
AM_4
100
AcDbLine
 10
-1.8125
 20
-0.909090909090909
 30
0.0
 11
-1.8125
 21
0.9090909090909092
 31
0.0
  0
LINE
  5
20A
330
1B6
100
AcDbEntity
  8
AM_4
100
AcDbLine
 10
-1.8125
 20
0.3437500000000001
 30
0.0
 11
1.8125
 21
0.3437500000000001
 31
0.0
  0
LINE
  5
20B
330
1B6
100
AcDbEntity
  8
AM_4
100
AcDbLine
 10
3.9375
 20
0.9090909090909092
 30
0.0
 11
-1.8125
 21
0.9090909090909092
 31
0.0
  0
LINE
  5
20C
330
1B6
100
AcDbEntity
  8
AM_4
100
AcDbLine
 10
-1.7725
 20
0.3437500000000001
 30
0.0
 11
-1.7725
 21
0.9090909090909092
 31
0.0
  0
LINE
  5
20D
330
1B6
100
AcDbEntity
  8
AM_4
100
AcDbLine
 10
1.7725
 20
0.3437500000000001
 30
0.0
 11
1.7725
 21
0.9090909090909092
 31
0.0
  0
ENDBLK
  5
1B9
330
1B6
100
AcDbEntity
  8
0
100
AcDbBlockEnd
  0
ENDSEC
  0
SECTION
  2
ENTITIES
  0
INSERT
  5
6F
330
1F
100
AcDbEntity
  8
0
100
AcDbBlockReference
  2
1_070786_4
 10
0.0
 20
0.0
 30
0.0
  0
POINT
  5
20F
330
1F
100
AcDbEntity
  8
ConnectionPoints
100
AcDbPoint
 10
0.0
 20
-1.6875
 30
0.0000000000000001
  0
POINT
  5
210
330
1F
100
AcDbEntity
  8
ConnectionPoints
100
AcDbPoint
 10
0.0
 20
2.046
 30
-0.0000000000000001
  0
POINT
  5
211
330
1F
100
AcDbEntity
  8
ConnectionPoints
100
AcDbPoint
 10
0.0
 20
-1.6875
 30
0.0000000000000001
  0
POINT
  5
212
330
1F
100
AcDbEntity
  8
ConnectionPoints
100
AcDbPoint
 10
-2.035159698893431
 20
-0.0000000000000001
 30
-1.175
  0
POINT
  5
213
330
1F
100
AcDbEntity
  8
ConnectionPoints
100
AcDbPoint
 10
-2.035159698893431
 20
-0.0000000000000001
 30
-1.175
  0
POINT
  5
214
330
1F
100
AcDbEntity
  8
ConnectionPoints
100
AcDbPoint
 10
0.0
 20
-1.6875
 30
0.0000000000000001
  0
POINT
  5
215
330
1F
100
AcDbEntity
  8
ConnectionPoints
100
AcDbPoint
 10
0.0
 20
-1.9375
 30
0.0000000000000001
  0
ENDSEC
  0
SECTION
  2
OBJECTS
  0
DICTIONARY
  5
C
330
0
100
AcDbDictionary
281
     1
  3
ACAD_DETAILVIEWSTYLE
350
21D
  3
ACAD_GROUP
350
D
  3
ACAD_LAYOUT
350
1A
  3
ACAD_MATERIAL
350
43
  3
ACAD_MLEADERSTYLE
350
6B
  3
ACAD_MLINESTYLE
350
17
  3
ACAD_PLOTSETTINGS
350
19
  3
ACAD_PLOTSTYLENAME
350
E
  3
ACAD_SCALELIST
350
47
  3
ACAD_SECTIONVIEWSTYLE
350
21E
  3
ACAD_TABLESTYLE
350
69
  3
ACAD_VISUALSTYLE
350
2A
  3
ACDB_RECOMPOSE_DATA
350
21A
  3
AcDbVariableDictionary
350
216
  0
SUN
  5
6D
330
29
100
AcDbSun
 90
        1
290
     0
 63
     7
421
 16777215
 40
1.0
291
     1
 91
  2455826
 92
 54000000
292
     0
 70
     2
 71
   256
280
     1
  0
DICTIONARY
  5
21D
102
{ACAD_REACTORS
330
C
102
}
330
C
100
AcDbDictionary
281
     1
  0
DICTIONARY
  5
D
102
{ACAD_REACTORS
330
C
102
}
330
C
100
AcDbDictionary
281
     1
  0
DICTIONARY
  5
1A
102
{ACAD_REACTORS
330
C
102
}
330
C
100
AcDbDictionary
281
     1
  3
Layout1
350
1E
  3
Layout2
350
26
  3
Model
350
22
  0
DICTIONARY
  5
43
102
{ACAD_REACTORS
330
C
102
}
330
C
100
AcDbDictionary
281
     1
  3
ByBlock
350
45
  3
ByLayer
350
44
  3
Global
350
46
  0
DICTIONARY
  5
6B
102
{ACAD_REACTORS
330
C
102
}
330
C
100
AcDbDictionary
281
     1
  3
Standard
350
6C
  0
DICTIONARY
  5
17
102
{ACAD_REACTORS
330
C
102
}
330
C
100
AcDbDictionary
281
     1
  3
Standard
350
18
  0
DICTIONARY
  5
19
102
{ACAD_REACTORS
330
C
102
}
330
C
100
AcDbDictionary
281
     1
  0
ACDBDICTIONARYWDFLT
  5
E
102
{ACAD_REACTORS
330
C
102
}
330
C
100
AcDbDictionary
281
     1
  3
Normal
350
F
100
AcDbDictionaryWithDefault
340
F
  0
DICTIONARY
  5
47
102
{ACAD_REACTORS
330
C
102
}
330
C
100
AcDbDictionary
281
     1
  3
A0
350
48
  3
A1
350
49
  3
A2
350
4A
  3
A3
350
4B
  3
A4
350
4C
  3
A5
350
4D
  3
A6
350
4E
  3
A7
350
4F
  3
A8
350
50
  3
A9
350
51
  3
B0
350
52
  3
B1
350
53
  3
B2
350
54
  3
B3
350
55
  3
B4
350
56
  3
B5
350
57
  3
B6
350
58
  3
B7
350
59
  3
B8
350
5A
  3
B9
350
5B
  3
C0
350
5C
  3
C1
350
5D
  3
C2
350
5E
  3
C3
350
5F
  3
C4
350
60
  3
C5
350
61
  3
C6
350
62
  3
C7
350
63
  3
C8
350
64
  3
C9
350
65
  3
D0
350
66
  3
D1
350
67
  3
D2
350
68
  0
DICTIONARY
  5
21E
102
{ACAD_REACTORS
330
C
102
}
330
C
100
AcDbDictionary
281
     1
  0
DICTIONARY
  5
69
102
{ACAD_REACTORS
330
C
102
}
330
C
100
AcDbDictionary
281
     1
  3
Standard
350
6A
  0
DICTIONARY
  5
2A
102
{ACAD_REACTORS
330
C
102
}
330
C
100
AcDbDictionary
281
     1
  3
2dWireframe
350
2F
  3
Basic
350
32
  3
Brighten
350
36
  3
ColorChange
350
3A
  3
Conceptual
350
34
  3
Dim
350
35
  3
EdgeColorOff
350
3D
  3
Facepattern
350
39
  3
Flat
350
2B
  3
FlatWithEdges
350
2C
  3
Gouraud
350
2D
  3
GouraudWithEdges
350
2E
  3
Hidden
350
31
  3
JitterOff
350
3B
  3
Linepattern
350
38
  3
OverhangOff
350
3C
  3
Realistic
350
33
  3
Shaded
350
42
  3
Shaded with edges
350
41
  3
Shades of Gray
350
3E
  3
Sketchy
350
3F
  3
Thicken
350
37
  3
Wireframe
350
30
  3
X-Ray
350
40
  0
XRECORD
  5
21A
102
{ACAD_REACTORS
330
C
102
}
330
C
100
AcDbXrecord
280
     1
 90
        1
330
6A
  0
DICTIONARY
  5
216
102
{ACAD_REACTORS
330
C
102
}
330
C
100
AcDbDictionary
281
     1
  3
CANNOSCALE
350
217
  3
CMLEADERSTYLE
350
21C
  3
CTABLESTYLE
350
21B
  0
LAYOUT
  5
1E
102
{ACAD_REACTORS
330
1A
102
}
330
1A
100
AcDbPlotSettings
  1

  2
none_device
  4

  6

 40
0.0
 41
0.0
 42
0.0
 43
0.0
 44
0.0
 45
0.0
 46
0.0
 47
0.0
 48
0.0
 49
0.0
140
0.0
141
0.0
142
1.0
143
1.0
 70
   688
 72
     0
 73
     0
 74
     5
  7

 75
    16
 76
     0
 77
     2
 78
   300
147
1.0
148
0.0
149
0.0
100
AcDbLayout
  1
Layout1
 70
     1
 71
     1
 10
0.0
 20
0.0
 11
12.0
 21
9.0
 12
0.0
 22
0.0
 32
0.0
 14
1.000000000000000E+20
 24
1.000000000000000E+20
 34
1.000000000000000E+20
 15
-1.000000000000000E+20
 25
-1.000000000000000E+20
 35
-1.000000000000000E+20
146
0.0
 13
0.0
 23
0.0
 33
0.0
 16
1.0
 26
0.0
 36
0.0
 17
0.0
 27
1.0
 37
0.0
 76
     0
330
1B
  0
LAYOUT
  5
26
102
{ACAD_REACTORS
330
1A
102
}
330
1A
100
AcDbPlotSettings
  1

  2
none_device
  4

  6

 40
0.0
 41
0.0
 42
0.0
 43
0.0
 44
0.0
 45
0.0
 46
0.0
 47
0.0
 48
0.0
 49
0.0
140
0.0
141
0.0
142
1.0
143
1.0
 70
   688
 72
     0
 73
     0
 74
     5
  7

 75
    16
 76
     0
 77
     2
 78
   300
147
1.0
148
0.0
149
0.0
100
AcDbLayout
  1
Layout2
 70
     1
 71
     2
 10
0.0
 20
0.0
 11
0.0
 21
0.0
 12
0.0
 22
0.0
 32
0.0
 14
0.0
 24
0.0
 34
0.0
 15
0.0
 25
0.0
 35
0.0
146
0.0
 13
0.0
 23
0.0
 33
0.0
 16
1.0
 26
0.0
 36
0.0
 17
0.0
 27
1.0
 37
0.0
 76
     0
330
23
  0
LAYOUT
  5
22
102
{ACAD_REACTORS
330
1A
102
}
330
1A
100
AcDbPlotSettings
  1

  2
none_device
  4
Letter_(8.50_x_11.00_Inches)
  6

 40
6.35
 41
6.35
 42
6.35000508
 43
6.35000508
 44
215.9
 45
279.4
 46
0.0
 47
0.0
 48
0.0
 49
0.0
140
0.0
141
0.0
142
1.0
143
1.0
 70
  1712
 72
     0
 73
     0
 74
     0
  7

 75
     0
 76
     0
 77
     2
 78
   300
147
1.0
148
0.0
149
0.0
100
AcDbLayout
  1
Model
 70
     1
 71
     0
 10
0.0
 20
0.0
 11
12.0
 21
9.0
 12
0.0
 22
0.0
 32
0.0
 14
1.000000000000000E+20
 24
1.000000000000000E+20
 34
1.000000000000000E+20
 15
-1.000000000000000E+20
 25
-1.000000000000000E+20
 35
-1.000000000000000E+20
146
0.0
 13
0.0
 23
0.0
 33
0.0
 16
1.0
 26
0.0
 36
0.0
 17
0.0
 27
1.0
 37
0.0
 76
     0
330
1F
331
29
  0
MATERIAL
  5
45
102
{ACAD_REACTORS
330
43
102
}
330
43
100
AcDbMaterial
  1
ByBlock
 72
     1
 94
      127
  0
MATERIAL
  5
44
102
{ACAD_REACTORS
330
43
102
}
330
43
100
AcDbMaterial
  1
ByLayer
 72
     1
 94
      127
  0
MATERIAL
  5
46
102
{ACAD_REACTORS
330
43
102
}
330
43
100
AcDbMaterial
  1
Global
 72
     1
 94
      127
  0
MLEADERSTYLE
  5
6C
102
{ACAD_REACTORS
330
6B
102
}
330
6B
100
AcDbMLeaderStyle
179
     2
170
     2
171
     1
172
     0
 90
        2
 40
0.0
 41
0.0
173
     1
 91
-1056964608
340
14
 92
       -2
290
     1
 42
0.09
291
     1
 43
0.36
  3
Standard
341
0
 44
0.18
300

342
11
174
     1
178
     6
175
     1
176
     0
 93
-1056964608
 45
0.18
292
     0
297
     0
 46
0.18
343
0
 94
-1056964608
 47
1.0
 49
1.0
140
1.0
293
     1
141
0.0
294
     1
177
     0
142
1.0
295
     0
296
     0
143
0.125
271
     0
272
     9
273
     9
298
     0
  0
MLINESTYLE
  5
18
102
{ACAD_REACTORS
330
17
102
}
330
17
100
AcDbMlineStyle
  2
Standard
 70
     0
  3

 62
   256
 51
90.0
 52
90.0
 71
     2
 49
0.5
 62
   256
  6
BYLAYER
 49
-0.5
 62
   256
  6
BYLAYER
  0
ACDBPLACEHOLDER
  5
F
102
{ACAD_REACTORS
330
E
102
}
330
E
  0
SCALE
  5
48
102
{ACAD_REACTORS
330
47
102
}
330
47
100
AcDbScale
 70
     0
300
1:1
140
1.0
141
1.0
290
     1
  0
SCALE
  5
49
102
{ACAD_REACTORS
330
47
102
}
330
47
100
AcDbScale
 70
     0
300
1:2
140
1.0
141
2.0
290
     0
  0
SCALE
  5
4A
102
{ACAD_REACTORS
330
47
102
}
330
47
100
AcDbScale
 70
     0
300
1:4
140
1.0
141
4.0
290
     0
  0
SCALE
  5
4B
102
{ACAD_REACTORS
330
47
102
}
330
47
100
AcDbScale
 70
     0
300
1:5
140
1.0
141
5.0
290
     0
  0
SCALE
  5
4C
102
{ACAD_REACTORS
330
47
102
}
330
47
100
AcDbScale
 70
     0
300
1:8
140
1.0
141
8.0
290
     0
  0
SCALE
  5
4D
102
{ACAD_REACTORS
330
47
102
}
330
47
100
AcDbScale
 70
     0
300
1:10
140
1.0
141
10.0
290
     0
  0
SCALE
  5
4E
102
{ACAD_REACTORS
330
47
102
}
330
47
100
AcDbScale
 70
     0
300
1:16
140
1.0
141
16.0
290
     0
  0
SCALE
  5
4F
102
{ACAD_REACTORS
330
47
102
}
330
47
100
AcDbScale
 70
     0
300
1:20
140
1.0
141
20.0
290
     0
  0
SCALE
  5
50
102
{ACAD_REACTORS
330
47
102
}
330
47
100
AcDbScale
 70
     0
300
1:30
140
1.0
141
30.0
290
     0
  0
SCALE
  5
51
102
{ACAD_REACTORS
330
47
102
}
330
47
100
AcDbScale
 70
     0
300
1:40
140
1.0
141
40.0
290
     0
  0
SCALE
  5
52
102
{ACAD_REACTORS
330
47
102
}
330
47
100
AcDbScale
 70
     0
300
1:50
140
1.0
141
50.0
290
     0
  0
SCALE
  5
53
102
{ACAD_REACTORS
330
47
102
}
330
47
100
AcDbScale
 70
     0
300
1:100
140
1.0
141
100.0
290
     0
  0
SCALE
  5
54
102
{ACAD_REACTORS
330
47
102
}
330
47
100
AcDbScale
 70
     0
300
2:1
140
2.0
141
1.0
290
     0
  0
SCALE
  5
55
102
{ACAD_REACTORS
330
47
102
}
330
47
100
AcDbScale
 70
     0
300
4:1
140
4.0
141
1.0
290
     0
  0
SCALE
  5
56
102
{ACAD_REACTORS
330
47
102
}
330
47
100
AcDbScale
 70
     0
300
8:1
140
8.0
141
1.0
290
     0
  0
SCALE
  5
57
102
{ACAD_REACTORS
330
47
102
}
330
47
100
AcDbScale
 70
     0
300
10:1
140
10.0
141
1.0
290
     0
  0
SCALE
  5
58
102
{ACAD_REACTORS
330
47
102
}
330
47
100
AcDbScale
 70
     0
300
100:1
140
100.0
141
1.0
290
     0
  0
SCALE
  5
59
102
{ACAD_REACTORS
330
47
102
}
330
47
100
AcDbScale
 70
     0
300
1/128" = 1'-0"
140
0.0078125
141
12.0
290
     0
  0
SCALE
  5
5A
102
{ACAD_REACTORS
330
47
102
}
330
47
100
AcDbScale
 70
     0
300
1/64" = 1'-0"
140
0.015625
141
12.0
290
     0
  0
SCALE
  5
5B
102
{ACAD_REACTORS
330
47
102
}
330
47
100
AcDbScale
 70
     0
300
1/32" = 1'-0"
140
0.03125
141
12.0
290
     0
  0
SCALE
  5
5C
102
{ACAD_REACTORS
330
47
102
}
330
47
100
AcDbScale
 70
     0
300
1/16" = 1'-0"
140
0.0625
141
12.0
290
     0
  0
SCALE
  5
5D
102
{ACAD_REACTORS
330
47
102
}
330
47
100
AcDbScale
 70
     0
300
3/32" = 1'-0"
140
0.09375
141
12.0
290
     0
  0
SCALE
  5
5E
102
{ACAD_REACTORS
330
47
102
}
330
47
100
AcDbScale
 70
     0
300
1/8" = 1'-0"
140
0.125
141
12.0
290
     0
  0
SCALE
  5
5F
102
{ACAD_REACTORS
330
47
102
}
330
47
100
AcDbScale
 70
     0
300
3/16" = 1'-0"
140
0.1875
141
12.0
290
     0
  0
SCALE
  5
60
102
{ACAD_REACTORS
330
47
102
}
330
47
100
AcDbScale
 70
     0
300
1/4" = 1'-0"
140
0.25
141
12.0
290
     0
  0
SCALE
  5
61
102
{ACAD_REACTORS
330
47
102
}
330
47
100
AcDbScale
 70
     0
300
3/8" = 1'-0"
140
0.375
141
12.0
290
     0
  0
SCALE
  5
62
102
{ACAD_REACTORS
330
47
102
}
330
47
100
AcDbScale
 70
     0
300
1/2" = 1'-0"
140
0.5
141
12.0
290
     0
  0
SCALE
  5
63
102
{ACAD_REACTORS
330
47
102
}
330
47
100
AcDbScale
 70
     0
300
3/4" = 1'-0"
140
0.75
141
12.0
290
     0
  0
SCALE
  5
64
102
{ACAD_REACTORS
330
47
102
}
330
47
100
AcDbScale
 70
     0
300
1" = 1'-0"
140
1.0
141
12.0
290
     0
  0
SCALE
  5
65
102
{ACAD_REACTORS
330
47
102
}
330
47
100
AcDbScale
 70
     0
300
1-1/2" = 1'-0"
140
1.5
141
12.0
290
     0
  0
SCALE
  5
66
102
{ACAD_REACTORS
330
47
102
}
330
47
100
AcDbScale
 70
     0
300
3" = 1'-0"
140
3.0
141
12.0
290
     0
  0
SCALE
  5
67
102
{ACAD_REACTORS
330
47
102
}
330
47
100
AcDbScale
 70
     0
300
6" = 1'-0"
140
6.0
141
12.0
290
     0
  0
SCALE
  5
68
102
{ACAD_REACTORS
330
47
102
}
330
47
100
AcDbScale
 70
     0
300
1'-0" = 1'-0"
140
12.0
141
12.0
290
     0
  0
TABLESTYLE
  5
6A
102
{ACAD_REACTORS
330
69
102
}
102
{ACAD_XDICTIONARY
360
218
102
}
330
69
100
AcDbTableStyle
  3
Standard
 70
     0
 71
     0
 40
0.06
 41
0.06
280
     0
281
     0
  7
Standard
140
0.18
170
     2
 62
     0
 63
   257
283
     0
 90
        4
 91
        0
  1

274
    -2
284
     1
 64
     0
275
    -2
285
     1
 65
     0
276
    -2
286
     1
 66
     0
277
    -2
287
     1
 67
     0
278
    -2
288
     1
 68
     0
279
    -2
289
     1
 69
     0
  7
Standard
140
0.25
170
     5
 62
     0
 63
   257
283
     0
 90
        4
 91
        0
  1

274
    -2
284
     1
 64
     0
275
    -2
285
     1
 65
     0
276
    -2
286
     1
 66
     0
277
    -2
287
     1
 67
     0
278
    -2
288
     1
 68
     0
279
    -2
289
     1
 69
     0
  7
Standard
140
0.18
170
     5
 62
     0
 63
   257
283
     0
 90
        4
 91
        0
  1

274
    -2
284
     1
 64
     0
275
    -2
285
     1
 65
     0
276
    -2
286
     1
 66
     0
277
    -2
287
     1
 67
     0
278
    -2
288
     1
 68
     0
279
    -2
289
     1
 69
     0
  0
VISUALSTYLE
  5
2F
102
{ACAD_REACTORS
330
2A
102
}
330
2A
100
AcDbVisualStyle
  2
2dWireframe
 70
     4
177
     3
291
     0
 70
    58
 90
        0
176
     1
 90
        2
176
     1
 90
        0
176
     1
 90
        0
176
     1
 40
0.6
176
     1
 40
30.0
176
     1
 62
     7
420
 16777215
176
     1
 90
        1
176
     1
 90
        4
176
     1
 62
     7
176
     1
 62
   257
176
     1
 90
        1
176
     1
 90
        1
176
     1
 40
1.0
176
     1
 90
        0
176
     1
 62
   257
176
     1
 40
1.0
176
     1
 90
        1
176
     1
 90
        6
176
     1
 90
        2
176
     1
 62
     7
176
     1
 90
        5
176
     1
 90
        0
176
     1
 90
        0
176
     1
290
     0
176
     1
 90
        1
176
     1
 40
0.0
176
     1
 90
        0
176
     1
290
     1
176
     1
290
     1
176
     1
290
     0
176
     1
290
     0
176
     1
290
     0
176
     1
290
     0
176
     1
290
     0
176
     1
290
     0
176
     1
290
     0
176
     1
 90
       50
176
     1
 40
0.0
176
     1
 40
1.0
176
     1
 90
        0
176
     1
 62
    18
420
        0
176
     1
 90
       50
176
     1
 90
        3
176
     1
 62
     5
420
      255
176
     1
290
     0
176
     1
 90
       50
176
     1
 90
       50
176
     1
 90
       50
176
     1
290
     0
176
     1
 90
       50
176
     1
 62
   256
176
     0
 40
1.0
176
     0
 90
        2
176
     1
  1
strokes_ogs.tif
176
     1
290
     0
176
     1
 40
1.0
176
     1
 40
1.0
176
     1
  0
VISUALSTYLE
  5
32
102
{ACAD_REACTORS
330
2A
102
}
330
2A
100
AcDbVisualStyle
  2
Basic
 70
     7
177
     3
291
     1
 70
    58
 90
        1
176
     1
 90
        0
176
     1
 90
        1
176
     1
 90
        0
176
     1
 40
0.6
176
     1
 40
30.0
176
     1
 62
     7
420
 16777215
176
     1
 90
        0
176
     1
 90
        4
176
     1
 62
     7
176
     1
 62
   257
176
     1
 90
        1
176
     1
 90
        1
176
     1
 40
1.0
176
     1
 90
        8
176
     1
 62
     7
176
     1
 40
1.0
176
     1
 90
        1
176
     1
 90
        6
176
     1
 90
        2
176
     1
 62
     7
176
     1
 90
        5
176
     1
 90
        0
176
     1
 90
        0
176
     1
290
     0
176
     1
 90
        1
176
     1
 40
0.0
176
     1
 90
        0
176
     1
290
     0
176
     1
290
     1
176
     1
290
     1
176
     1
290
     0
176
     1
290
     0
176
     1
290
     0
176
     1
290
     0
176
     1
290
     0
176
     1
290
     0
176
     1
 90
       50
176
     1
 40
0.0
176
     1
 40
1.0
176
     1
 90
        0
176
     1
 62
    18
420
        0
176
     1
 90
       50
176
     1
 90
        3
176
     1
 62
     5
420
      255
176
     1
290
     0
176
     1
 90
       50
176
     1
 90
       50
176
     1
 90
       50
176
     1
290
     0
176
     1
 90
       50
176
     1
 62
   256
176
     0
 40
1.0
176
     0
 90
        2
176
     1
  1
strokes_ogs.tif
176
     1
290
     0
176
     1
 40
1.0
176
     1
 40
1.0
176
     1
  0
VISUALSTYLE
  5
36
102
{ACAD_REACTORS
330
2A
102
}
330
2A
100
AcDbVisualStyle
  2
Brighten
 70
    12
177
     3
291
     1
 70
    58
 90
        2
176
     1
 90
        2
176
     1
 90
        0
176
     1
 90
        0
176
     1
 40
0.6
176
     1
 40
30.0
176
     1
 62
     7
420
 16777215
176
     1
 90
        1
176
     1
 90
        4
176
     1
 62
     7
176
     1
 62
   257
176
     1
 90
        1
176
     1
 90
        1
176
     1
 40
1.0
176
     1
 90
        8
176
     1
 62
     7
176
     1
 40
1.0
176
     1
 90
        1
176
     1
 90
        6
176
     1
 90
        2
176
     1
 62
     7
176
     1
 90
        5
176
     1
 90
        0
176
     1
 90
        0
176
     1
290
     0
176
     1
 90
        1
176
     1
 40
50.0
176
     1
 90
        0
176
     1
290
     0
176
     1
290
     1
176
     1
290
     1
176
     1
290
     0
176
     1
290
     0
176
     1
290
     0
176
     1
290
     0
176
     1
290
     0
176
     1
290
     0
176
     1
 90
       50
176
     1
 40
0.0
176
     1
 40
1.0
176
     1
 90
        0
176
     1
 62
    18
420
        0
176
     1
 90
       50
176
     1
 90
        3
176
     1
 62
     5
420
      255
176
     1
290
     0
176
     1
 90
       50
176
     1
 90
       50
176
     1
 90
       50
176
     1
290
     0
176
     1
 90
       50
176
     1
 62
   256
176
     0
 40
1.0
176
     0
 90
        2
176
     1
  1
strokes_ogs.tif
176
     1
290
     0
176
     1
 40
1.0
176
     1
 40
1.0
176
     1
  0
VISUALSTYLE
  5
3A
102
{ACAD_REACTORS
330
2A
102
}
330
2A
100
AcDbVisualStyle
  2
ColorChange
 70
    16
177
     3
291
     1
 70
    58
 90
        2
176
     1
 90
        2
176
     1
 90
        3
176
     1
 90
        0
176
     1
 40
0.6
176
     1
 40
30.0
176
     1
 62
     8
420
  8421504
176
     1
 90
        1
176
     1
 90
        4
176
     1
 62
     7
176
     1
 62
   257
176
     1
 90
        1
176
     1
 90
        1
176
     1
 40
1.0
176
     1
 90
        8
176
     1
 62
     8
420
  8421504
176
     1
 40
1.0
176
     1
 90
        1
176
     1
 90
        6
176
     1
 90
        2
176
     1
 62
     7
176
     1
 90
        5
176
     1
 90
        0
176
     1
 90
        0
176
     1
290
     0
176
     1
 90
        1
176
     1
 40
0.0
176
     1
 90
        0
176
     1
290
     0
176
     1
290
     1
176
     1
290
     1
176
     1
290
     0
176
     1
290
     0
176
     1
290
     0
176
     1
290
     0
176
     1
290
     0
176
     1
290
     0
176
     1
 90
       50
176
     1
 40
0.0
176
     1
 40
1.0
176
     1
 90
        0
176
     1
 62
    18
420
        0
176
     1
 90
       50
176
     1
 90
        3
176
     1
 62
     5
420
      255
176
     1
290
     0
176
     1
 90
       50
176
     1
 90
       50
176
     1
 90
       50
176
     1
290
     0
176
     1
 90
       50
176
     1
 62
   256
176
     0
 40
1.0
176
     0
 90
        2
176
     1
  1
strokes_ogs.tif
176
     1
290
     0
176
     1
 40
1.0
176
     1
 40
1.0
176
     1
  0
VISUALSTYLE
  5
34
102
{ACAD_REACTORS
330
2A
102
}
330
2A
100
AcDbVisualStyle
  2
Conceptual
 70
     9
177
     3
291
     0
 70
    58
 90
        3
176
     1
 90
        2
176
     1
 90
        0
176
     1
 90
        0
176
     1
 40
0.6
176
     1
 40
30.0
176
     1
 62
     7
420
 16777215
176
     1
 90
        2
176
     1
 90
        2
176
     1
 62
     7
176
     1
 62
   257
176
     1
 90
        1
176
     1
 90
        1
176
     1
 40
179.0
176
     1
 90
        8
176
     1
 62
     7
176
     1
 40
1.0
176
     1
 90
        1
176
     1
 90
        6
176
     1
 90
        2
176
     1
 62
     7
176
     1
 90
        3
176
     1
 90
        0
176
     1
 90
        0
176
     1
290
     0
176
     1
 90
        1
176
     1
 40
0.0
176
     1
 90
        0
176
     1
290
     0
176
     1
290
     1
176
     1
290
     1
176
     1
290
     0
176
     1
290
     0
176
     1
290
     0
176
     1
290
     0
176
     1
290
     0
176
     1
290
     0
176
     1
 90
       50
176
     1
 40
0.0
176
     1
 40
1.0
176
     1
 90
        0
176
     1
 62
    18
420
        0
176
     1
 90
       50
176
     1
 90
        3
176
     1
 62
     5
420
      255
176
     1
290
     0
176
     1
 90
       50
176
     1
 90
       50
176
     1
 90
       50
176
     1
290
     0
176
     1
 90
       50
176
     1
 62
   256
176
     0
 40
1.0
176
     0
 90
        2
176
     1
  1
strokes_ogs.tif
176
     1
290
     0
176
     1
 40
1.0
176
     1
 40
1.0
176
     1
  0
VISUALSTYLE
  5
35
102
{ACAD_REACTORS
330
2A
102
}
330
2A
100
AcDbVisualStyle
  2
Dim
 70
    11
177
     3
291
     1
 70
    58
 90
        2
176
     1
 90
        2
176
     1
 90
        0
176
     1
 90
        0
176
     1
 40
0.6
176
     1
 40
30.0
176
     1
 62
     7
420
 16777215
176
     1
 90
        1
176
     1
 90
        4
176
     1
 62
     7
176
     1
 62
   257
176
     1
 90
        1
176
     1
 90
        1
176
     1
 40
1.0
176
     1
 90
        8
176
     1
 62
     7
176
     1
 40
1.0
176
     1
 90
        1
176
     1
 90
        6
176
     1
 90
        2
176
     1
 62
     7
176
     1
 90
        5
176
     1
 90
        0
176
     1
 90
        0
176
     1
290
     0
176
     1
 90
        1
176
     1
 40
-50.0
176
     1
 90
        0
176
     1
290
     0
176
     1
290
     1
176
     1
290
     1
176
     1
290
     0
176
     1
290
     0
176
     1
290
     0
176
     1
290
     0
176
     1
290
     0
176
     1
290
     0
176
     1
 90
       50
176
     1
 40
0.0
176
     1
 40
1.0
176
     1
 90
        0
176
     1
 62
    18
420
        0
176
     1
 90
       50
176
     1
 90
        3
176
     1
 62
     5
420
      255
176
     1
290
     0
176
     1
 90
       50
176
     1
 90
       50
176
     1
 90
       50
176
     1
290
     0
176
     1
 90
       50
176
     1
 62
   256
176
     0
 40
1.0
176
     0
 90
        2
176
     1
  1
strokes_ogs.tif
176
     1
290
     0
176
     1
 40
1.0
176
     1
 40
1.0
176
     1
  0
VISUALSTYLE
  5
3D
102
{ACAD_REACTORS
330
2A
102
}
330
2A
100
AcDbVisualStyle
  2
EdgeColorOff
 70
    22
177
     3
291
     1
 70
    58
 90
        2
176
     0
 90
        2
176
     0
 90
        0
176
     0
 90
        0
176
     0
 40
0.6
176
     0
 40
30.0
176
     0
 62
     7
420
 16777215
176
     0
 90
        1
176
     0
 90
        4
176
     0
 62
     7
176
     0
 62
   257
176
     0
 90
        1
176
     0
 90
        1
176
     0
 40
1.0
176
     0
 90
        8
176
     2
 62
     7
176
     0
 40
1.0
176
     0
 90
        1
176
     0
 90
        6
176
     0
 90
        2
176
     0
 62
     7
176
     0
 90
        5
176
     0
 90
        0
176
     0
 90
        0
176
     0
290
     0
176
     0
 90
        1
176
     0
 40
0.0
176
     0
 90
        0
176
     0
290
     0
176
     0
290
     1
176
     0
290
     1
176
     0
290
     0
176
     0
290
     0
176
     0
290
     0
176
     0
290
     0
176
     0
290
     0
176
     0
290
     0
176
     0
 90
       50
176
     0
 40
0.0
176
     0
 40
1.0
176
     0
 90
        0
176
     0
 62
    18
420
        0
176
     0
 90
       50
176
     0
 90
        3
176
     0
 62
     5
420
      255
176
     0
290
     0
176
     0
 90
       50
176
     0
 90
       50
176
     0
 90
       50
176
     0
290
     0
176
     0
 90
       50
176
     0
 62
   256
176
     0
 40
1.0
176
     0
 90
        2
176
     0
  1
strokes_ogs.tif
176
     0
290
     0
176
     0
 40
1.0
176
     0
 40
1.0
176
     0
  0
VISUALSTYLE
  5
39
102
{ACAD_REACTORS
330
2A
102
}
330
2A
100
AcDbVisualStyle
  2
Facepattern
 70
    15
177
     3
291
     1
 70
    58
 90
        2
176
     1
 90
        2
176
     1
 90
        0
176
     1
 90
        0
176
     1
 40
0.6
176
     1
 40
30.0
176
     1
 62
     7
420
 16777215
176
     1
 90
        1
176
     1
 90
        4
176
     1
 62
     7
176
     1
 62
   257
176
     1
 90
        1
176
     1
 90
        1
176
     1
 40
1.0
176
     1
 90
        8
176
     1
 62
     7
176
     1
 40
1.0
176
     1
 90
        1
176
     1
 90
        6
176
     1
 90
        2
176
     1
 62
     7
176
     1
 90
        5
176
     1
 90
        0
176
     1
 90
        0
176
     1
290
     0
176
     1
 90
        1
176
     1
 40
0.0
176
     1
 90
        0
176
     1
290
     0
176
     1
290
     1
176
     1
290
     1
176
     1
290
     0
176
     1
290
     0
176
     1
290
     0
176
     1
290
     0
176
     1
290
     0
176
     1
290
     0
176
     1
 90
       50
176
     1
 40
0.0
176
     1
 40
1.0
176
     1
 90
        0
176
     1
 62
    18
420
        0
176
     1
 90
       50
176
     1
 90
        3
176
     1
 62
     5
420
      255
176
     1
290
     0
176
     1
 90
       50
176
     1
 90
       50
176
     1
 90
       50
176
     1
290
     0
176
     1
 90
       50
176
     1
 62
   256
176
     0
 40
1.0
176
     0
 90
        2
176
     1
  1
strokes_ogs.tif
176
     1
290
     0
176
     1
 40
1.0
176
     1
 40
1.0
176
     1
  0
VISUALSTYLE
  5
2B
102
{ACAD_REACTORS
330
2A
102
}
330
2A
100
AcDbVisualStyle
  2
Flat
 70
     0
177
     3
291
     1
 70
    58
 90
        2
176
     1
 90
        1
176
     1
 90
        1
176
     1
 90
        2
176
     1
 40
0.6
176
     1
 40
30.0
176
     1
 62
     7
420
 16777215
176
     1
 90
        0
176
     1
 90
        0
176
     1
 62
     7
176
     1
 62
   257
176
     1
 90
        1
176
     1
 90
        1
176
     1
 40
1.0
176
     1
 90
        8
176
     1
 62
     7
176
     1
 40
1.0
176
     1
 90
        1
176
     1
 90
        6
176
     1
 90
        2
176
     1
 62
     7
176
     1
 90
        5
176
     1
 90
        0
176
     1
 90
        0
176
     1
290
     0
176
     1
 90
       13
176
     1
 40
0.0
176
     1
 90
        0
176
     1
290
     0
176
     1
290
     1
176
     1
290
     1
176
     1
290
     0
176
     1
290
     0
176
     1
290
     0
176
     1
290
     0
176
     1
290
     0
176
     1
290
     0
176
     1
 90
       50
176
     1
 40
0.0
176
     1
 40
1.0
176
     1
 90
        0
176
     1
 62
    18
420
        0
176
     1
 90
       50
176
     1
 90
        3
176
     1
 62
     5
420
      255
176
     1
290
     0
176
     1
 90
       50
176
     1
 90
       50
176
     1
 90
       50
176
     1
290
     0
176
     1
 90
       50
176
     1
 62
   256
176
     0
 40
1.0
176
     0
 90
        2
176
     1
  1
strokes_ogs.tif
176
     1
290
     0
176
     1
 40
1.0
176
     1
 40
1.0
176
     1
  0
VISUALSTYLE
  5
2C
102
{ACAD_REACTORS
330
2A
102
}
330
2A
100
AcDbVisualStyle
  2
FlatWithEdges
 70
     1
177
     3
291
     1
 70
    58
 90
        2
176
     1
 90
        1
176
     1
 90
        1
176
     1
 90
        2
176
     1
 40
0.6
176
     1
 40
30.0
176
     1
 62
     7
420
 16777215
176
     1
 90
        1
176
     1
 90
        0
176
     1
 62
     7
176
     1
 62
   257
176
     1
 90
        1
176
     1
 90
        1
176
     1
 40
1.0
176
     1
 90
        0
176
     1
 62
   257
176
     1
 40
1.0
176
     1
 90
        1
176
     1
 90
        6
176
     1
 90
        2
176
     1
 62
     7
176
     1
 90
        5
176
     1
 90
        0
176
     1
 90
        0
176
     1
290
     0
176
     1
 90
       13
176
     1
 40
0.0
176
     1
 90
        0
176
     1
290
     0
176
     1
290
     1
176
     1
290
     1
176
     1
290
     0
176
     1
290
     0
176
     1
290
     0
176
     1
290
     0
176
     1
290
     0
176
     1
290
     0
176
     1
 90
       50
176
     1
 40
0.0
176
     1
 40
1.0
176
     1
 90
        0
176
     1
 62
    18
420
        0
176
     1
 90
       50
176
     1
 90
        3
176
     1
 62
     5
420
      255
176
     1
290
     0
176
     1
 90
       50
176
     1
 90
       50
176
     1
 90
       50
176
     1
290
     0
176
     1
 90
       50
176
     1
 62
   256
176
     0
 40
1.0
176
     0
 90
        2
176
     1
  1
strokes_ogs.tif
176
     1
290
     0
176
     1
 40
1.0
176
     1
 40
1.0
176
     1
  0
VISUALSTYLE
  5
2D
102
{ACAD_REACTORS
330
2A
102
}
330
2A
100
AcDbVisualStyle
  2
Gouraud
 70
     2
177
     3
291
     1
 70
    58
 90
        2
176
     1
 90
        2
176
     1
 90
        1
176
     1
 90
        2
176
     1
 40
0.6
176
     1
 40
30.0
176
     1
 62
     7
420
 16777215
176
     1
 90
        0
176
     1
 90
        0
176
     1
 62
     7
176
     1
 62
   257
176
     1
 90
        1
176
     1
 90
        1
176
     1
 40
1.0
176
     1
 90
        0
176
     1
 62
     7
176
     1
 40
1.0
176
     1
 90
        1
176
     1
 90
        6
176
     1
 90
        2
176
     1
 62
     7
176
     1
 90
        5
176
     1
 90
        0
176
     1
 90
        0
176
     1
290
     0
176
     1
 90
       13
176
     1
 40
0.0
176
     1
 90
        0
176
     1
290
     0
176
     1
290
     1
176
     1
290
     1
176
     1
290
     0
176
     1
290
     0
176
     1
290
     0
176
     1
290
     0
176
     1
290
     0
176
     1
290
     0
176
     1
 90
       50
176
     1
 40
0.0
176
     1
 40
1.0
176
     1
 90
        0
176
     1
 62
    18
420
        0
176
     1
 90
       50
176
     1
 90
        3
176
     1
 62
     5
420
      255
176
     1
290
     0
176
     1
 90
       50
176
     1
 90
       50
176
     1
 90
       50
176
     1
290
     0
176
     1
 90
       50
176
     1
 62
   256
176
     0
 40
1.0
176
     0
 90
        2
176
     1
  1
strokes_ogs.tif
176
     1
290
     0
176
     1
 40
1.0
176
     1
 40
1.0
176
     1
  0
VISUALSTYLE
  5
2E
102
{ACAD_REACTORS
330
2A
102
}
330
2A
100
AcDbVisualStyle
  2
GouraudWithEdges
 70
     3
177
     3
291
     1
 70
    58
 90
        2
176
     1
 90
        2
176
     1
 90
        1
176
     1
 90
        2
176
     1
 40
0.6
176
     1
 40
30.0
176
     1
 62
     7
420
 16777215
176
     1
 90
        1
176
     1
 90
        0
176
     1
 62
     7
176
     1
 62
   257
176
     1
 90
        1
176
     1
 90
        1
176
     1
 40
1.0
176
     1
 90
        0
176
     1
 62
   257
176
     1
 40
1.0
176
     1
 90
        1
176
     1
 90
        6
176
     1
 90
        2
176
     1
 62
     7
176
     1
 90
        5
176
     1
 90
        0
176
     1
 90
        0
176
     1
290
     0
176
     1
 90
       13
176
     1
 40
0.0
176
     1
 90
        0
176
     1
290
     0
176
     1
290
     1
176
     1
290
     1
176
     1
290
     0
176
     1
290
     0
176
     1
290
     0
176
     1
290
     0
176
     1
290
     0
176
     1
290
     0
176
     1
 90
       50
176
     1
 40
0.0
176
     1
 40
1.0
176
     1
 90
        0
176
     1
 62
    18
420
        0
176
     1
 90
       50
176
     1
 90
        3
176
     1
 62
     5
420
      255
176
     1
290
     0
176
     1
 90
       50
176
     1
 90
       50
176
     1
 90
       50
176
     1
290
     0
176
     1
 90
       50
176
     1
 62
   256
176
     0
 40
1.0
176
     0
 90
        2
176
     1
  1
strokes_ogs.tif
176
     1
290
     0
176
     1
 40
1.0
176
     1
 40
1.0
176
     1
  0
VISUALSTYLE
  5
31
102
{ACAD_REACTORS
330
2A
102
}
330
2A
100
AcDbVisualStyle
  2
Hidden
 70
     6
177
     3
291
     0
 70
    58
 90
        1
176
     1
 90
        2
176
     1
 90
        2
176
     1
 90
        0
176
     1
 40
0.6
176
     1
 40
30.0
176
     1
 62
     7
420
 16777215
176
     1
 90
        2
176
     1
 90
        2
176
     1
 62
     7
176
     1
 62
   257
176
     1
 90
        2
176
     1
 90
        1
176
     1
 40
40.0
176
     1
 90
        0
176
     1
 62
   257
176
     1
 40
1.0
176
     1
 90
        1
176
     1
 90
        6
176
     1
 90
        2
176
     1
 62
     7
176
     1
 90
        3
176
     1
 90
        0
176
     1
 90
        0
176
     1
290
     0
176
     1
 90
        1
176
     1
 40
0.0
176
     1
 90
        0
176
     1
290
     0
176
     1
290
     1
176
     1
290
     1
176
     1
290
     0
176
     1
290
     0
176
     1
290
     0
176
     1
290
     0
176
     1
290
     0
176
     1
290
     0
176
     1
 90
       50
176
     1
 40
0.0
176
     1
 40
1.0
176
     1
 90
        0
176
     1
 62
    18
420
        0
176
     1
 90
       50
176
     1
 90
        3
176
     1
 62
     5
420
      255
176
     1
290
     0
176
     1
 90
       50
176
     1
 90
       50
176
     1
 90
       50
176
     1
290
     0
176
     1
 90
       50
176
     1
 62
   256
176
     0
 40
1.0
176
     0
 90
        2
176
     1
  1
strokes_ogs.tif
176
     1
290
     0
176
     1
 40
1.0
176
     1
 40
1.0
176
     1
  0
VISUALSTYLE
  5
3B
102
{ACAD_REACTORS
330
2A
102
}
330
2A
100
AcDbVisualStyle
  2
JitterOff
 70
    20
177
     3
291
     1
 70
    58
 90
        2
176
     0
 90
        2
176
     0
 90
        0
176
     0
 90
        0
176
     0
 40
0.6
176
     0
 40
30.0
176
     0
 62
     7
420
 16777215
176
     0
 90
        1
176
     0
 90
        4
176
     0
 62
     7
176
     0
 62
   257
176
     0
 90
        1
176
     0
 90
        1
176
     0
 40
1.0
176
     0
 90
       10
176
     2
 62
     7
176
     0
 40
1.0
176
     0
 90
        1
176
     0
 90
        6
176
     0
 90
        2
176
     0
 62
     7
176
     0
 90
        5
176
     0
 90
        0
176
     0
 90
        0
176
     0
290
     0
176
     0
 90
        1
176
     0
 40
0.0
176
     0
 90
        0
176
     0
290
     0
176
     0
290
     1
176
     0
290
     1
176
     0
290
     0
176
     0
290
     0
176
     0
290
     0
176
     0
290
     0
176
     0
290
     0
176
     0
290
     0
176
     0
 90
       50
176
     0
 40
0.0
176
     0
 40
1.0
176
     0
 90
        0
176
     0
 62
    18
420
        0
176
     0
 90
       50
176
     0
 90
        3
176
     0
 62
     5
420
      255
176
     0
290
     0
176
     0
 90
       50
176
     0
 90
       50
176
     0
 90
       50
176
     0
290
     0
176
     0
 90
       50
176
     0
 62
   256
176
     0
 40
1.0
176
     0
 90
        2
176
     0
  1
strokes_ogs.tif
176
     0
290
     0
176
     0
 40
1.0
176
     0
 40
1.0
176
     0
  0
VISUALSTYLE
  5
38
102
{ACAD_REACTORS
330
2A
102
}
330
2A
100
AcDbVisualStyle
  2
Linepattern
 70
    14
177
     3
291
     1
 70
    58
 90
        2
176
     1
 90
        2
176
     1
 90
        0
176
     1
 90
        0
176
     1
 40
0.6
176
     1
 40
30.0
176
     1
 62
     7
420
 16777215
176
     1
 90
        1
176
     1
 90
        4
176
     1
 62
     7
176
     1
 62
   257
176
     1
 90
        7
176
     1
 90
        7
176
     1
 40
1.0
176
     1
 90
        8
176
     1
 62
     7
176
     1
 40
1.0
176
     1
 90
        1
176
     1
 90
        6
176
     1
 90
        2
176
     1
 62
     7
176
     1
 90
        5
176
     1
 90
        0
176
     1
 90
        0
176
     1
290
     0
176
     1
 90
        1
176
     1
 40
0.0
176
     1
 90
        0
176
     1
290
     0
176
     1
290
     1
176
     1
290
     1
176
     1
290
     0
176
     1
290
     0
176
     1
290
     0
176
     1
290
     0
176
     1
290
     0
176
     1
290
     0
176
     1
 90
       50
176
     1
 40
0.0
176
     1
 40
1.0
176
     1
 90
        0
176
     1
 62
    18
420
        0
176
     1
 90
       50
176
     1
 90
        3
176
     1
 62
     5
420
      255
176
     1
290
     0
176
     1
 90
       50
176
     1
 90
       50
176
     1
 90
       50
176
     1
290
     0
176
     1
 90
       50
176
     1
 62
   256
176
     0
 40
1.0
176
     0
 90
        2
176
     1
  1
strokes_ogs.tif
176
     1
290
     0
176
     1
 40
1.0
176
     1
 40
1.0
176
     1
  0
VISUALSTYLE
  5
3C
102
{ACAD_REACTORS
330
2A
102
}
330
2A
100
AcDbVisualStyle
  2
OverhangOff
 70
    21
177
     3
291
     1
 70
    58
 90
        2
176
     0
 90
        2
176
     0
 90
        0
176
     0
 90
        0
176
     0
 40
0.6
176
     0
 40
30.0
176
     0
 62
     7
420
 16777215
176
     0
 90
        1
176
     0
 90
        4
176
     0
 62
     7
176
     0
 62
   257
176
     0
 90
        1
176
     0
 90
        1
176
     0
 40
1.0
176
     0
 90
        9
176
     2
 62
     7
176
     0
 40
1.0
176
     0
 90
        1
176
     0
 90
        6
176
     0
 90
        2
176
     0
 62
     7
176
     0
 90
        5
176
     0
 90
        0
176
     0
 90
        0
176
     0
290
     0
176
     0
 90
        1
176
     0
 40
0.0
176
     0
 90
        0
176
     0
290
     0
176
     0
290
     1
176
     0
290
     1
176
     0
290
     0
176
     0
290
     0
176
     0
290
     0
176
     0
290
     0
176
     0
290
     0
176
     0
290
     0
176
     0
 90
       50
176
     0
 40
0.0
176
     0
 40
1.0
176
     0
 90
        0
176
     0
 62
    18
420
        0
176
     0
 90
       50
176
     0
 90
        3
176
     0
 62
     5
420
      255
176
     0
290
     0
176
     0
 90
       50
176
     0
 90
       50
176
     0
 90
       50
176
     0
290
     0
176
     0
 90
       50
176
     0
 62
   256
176
     0
 40
1.0
176
     0
 90
        2
176
     0
  1
strokes_ogs.tif
176
     0
290
     0
176
     0
 40
1.0
176
     0
 40
1.0
176
     0
  0
VISUALSTYLE
  5
33
102
{ACAD_REACTORS
330
2A
102
}
330
2A
100
AcDbVisualStyle
  2
Realistic
 70
     8
177
     3
291
     0
 70
    58
 90
        2
176
     1
 90
        3
176
     1
 90
        0
176
     1
 90
        2
176
     1
 40
0.6
176
     1
 40
30.0
176
     1
 62
     7
420
 16777215
176
     1
 90
        0
176
     1
 90
        0
176
     1
 62
     7
176
     1
 62
   257
176
     1
 90
        1
176
     1
 90
        1
176
     1
 40
1.0
176
     1
 90
        8
176
     1
 62
   257
176
     1
 40
1.0
176
     1
 90
        1
176
     1
 90
        6
176
     1
 90
        2
176
     1
 62
     7
176
     1
 90
        3
176
     1
 90
        0
176
     1
 90
        0
176
     1
290
     0
176
     1
 90
       13
176
     1
 40
0.0
176
     1
 90
        0
176
     1
290
     0
176
     1
290
     1
176
     1
290
     1
176
     1
290
     0
176
     1
290
     0
176
     1
290
     0
176
     1
290
     0
176
     1
290
     0
176
     1
290
     0
176
     1
 90
       50
176
     1
 40
0.0
176
     1
 40
1.0
176
     1
 90
        0
176
     1
 62
    18
420
        0
176
     1
 90
       50
176
     1
 90
        3
176
     1
 62
     5
420
      255
176
     1
290
     0
176
     1
 90
       50
176
     1
 90
       50
176
     1
 90
       50
176
     1
290
     0
176
     1
 90
       50
176
     1
 62
   256
176
     0
 40
1.0
176
     0
 90
        2
176
     1
  1
strokes_ogs.tif
176
     1
290
     0
176
     1
 40
1.0
176
     1
 40
1.0
176
     1
  0
VISUALSTYLE
  5
42
102
{ACAD_REACTORS
330
2A
102
}
330
2A
100
AcDbVisualStyle
  2
Shaded
 70
    27
177
     3
291
     0
 70
    58
 90
        2
176
     1
 90
        2
176
     1
 90
        1
176
     1
 90
        2
176
     1
 40
0.6
176
     1
 40
30.0
176
     1
 62
     7
420
 16777215
176
     1
 90
        0
176
     1
 90
        4
176
     1
 62
     7
176
     1
 62
   257
176
     1
 90
        1
176
     1
 90
        1
176
     1
 40
1.0
176
     1
 90
        8
176
     1
 62
   257
176
     1
 40
1.0
176
     1
 90
        1
176
     1
 90
        6
176
     1
 90
        2
176
     1
 62
     8
420
  7895160
176
     1
 90
        3
176
     1
 90
        0
176
     1
 90
        0
176
     1
290
     0
176
     1
 90
        5
176
     1
 40
0.0
176
     1
 90
        0
176
     1
290
     0
176
     1
290
     1
176
     1
290
     1
176
     1
290
     0
176
     1
290
     0
176
     1
290
     0
176
     1
290
     0
176
     1
290
     0
176
     1
290
     0
176
     1
 90
       50
176
     1
 40
0.0
176
     1
 40
1.0
176
     1
 90
        0
176
     1
 62
    18
420
        0
176
     1
 90
       50
176
     1
 90
        3
176
     1
 62
     5
420
      255
176
     1
290
     0
176
     1
 90
       50
176
     1
 90
       50
176
     1
 90
       50
176
     1
290
     0
176
     1
 90
       50
176
     1
 62
   256
176
     0
 40
1.0
176
     0
 90
        2
176
     1
  1
strokes_ogs.tif
176
     1
290
     0
176
     1
 40
1.0
176
     1
 40
1.0
176
     1
  0
VISUALSTYLE
  5
41
102
{ACAD_REACTORS
330
2A
102
}
330
2A
100
AcDbVisualStyle
  2
Shaded with edges
 70
    26
177
     3
291
     0
 70
    58
 90
        2
176
     1
 90
        2
176
     1
 90
        1
176
     1
 90
        2
176
     1
 40
0.6
176
     1
 40
30.0
176
     1
 62
     7
420
 16777215
176
     1
 90
        1
176
     1
 90
       10
176
     1
 62
     7
176
     1
 62
   257
176
     1
 90
        2
176
     1
 90
        1
176
     1
 40
1.0
176
     1
 90
        8
176
     1
 62
   257
176
     1
 40
1.0
176
     1
 90
        1
176
     1
 90
        6
176
     1
 90
        2
176
     1
 62
     7
176
     1
 90
        3
176
     1
 90
        0
176
     1
 90
        0
176
     1
290
     0
176
     1
 90
        5
176
     1
 40
0.0
176
     1
 90
        0
176
     1
290
     0
176
     1
290
     1
176
     1
290
     1
176
     1
290
     0
176
     1
290
     0
176
     1
290
     0
176
     1
290
     0
176
     1
290
     0
176
     1
290
     0
176
     1
 90
       50
176
     1
 40
0.0
176
     1
 40
1.0
176
     1
 90
        0
176
     1
 62
    18
420
        0
176
     1
 90
       50
176
     1
 90
        3
176
     1
 62
     5
420
      255
176
     1
290
     0
176
     1
 90
       50
176
     1
 90
       50
176
     1
 90
       50
176
     1
290
     0
176
     1
 90
       50
176
     1
 62
   256
176
     0
 40
1.0
176
     0
 90
        2
176
     1
  1
strokes_ogs.tif
176
     1
290
     0
176
     1
 40
1.0
176
     1
 40
1.0
176
     1
  0
VISUALSTYLE
  5
3E
102
{ACAD_REACTORS
330
2A
102
}
330
2A
100
AcDbVisualStyle
  2
Shades of Gray
 70
    23
177
     3
291
     0
 70
    58
 90
        2
176
     1
 90
        2
176
     1
 90
        3
176
     1
 90
        0
176
     1
 40
0.6
176
     1
 40
30.0
176
     1
 62
     7
420
 16777215
176
     1
 90
        2
176
     1
 90
        2
176
     1
 62
     7
176
     1
 62
     7
176
     1
 90
        1
176
     1
 90
        1
176
     1
 40
40.0
176
     1
 90
        8
176
     1
 62
     7
176
     1
 40
1.0
176
     1
 90
        1
176
     1
 90
        6
176
     1
 90
        2
176
     1
 62
     7
176
     1
 90
        3
176
     1
 90
        0
176
     1
 90
        0
176
     1
290
     0
176
     1
 90
        1
176
     1
 40
0.0
176
     1
 90
        0
176
     1
290
     0
176
     1
290
     1
176
     1
290
     1
176
     1
290
     0
176
     1
290
     0
176
     1
290
     0
176
     1
290
     0
176
     1
290
     0
176
     1
290
     0
176
     1
 90
       50
176
     1
 40
0.0
176
     1
 40
1.0
176
     1
 90
        0
176
     1
 62
    18
420
        0
176
     1
 90
       50
176
     1
 90
        3
176
     1
 62
     5
420
      255
176
     1
290
     0
176
     1
 90
       50
176
     1
 90
       50
176
     1
 90
       50
176
     1
290
     0
176
     1
 90
       50
176
     1
 62
   256
176
     0
 40
1.0
176
     0
 90
        2
176
     1
  1
strokes_ogs.tif
176
     1
290
     0
176
     1
 40
1.0
176
     1
 40
1.0
176
     1
  0
VISUALSTYLE
  5
3F
102
{ACAD_REACTORS
330
2A
102
}
330
2A
100
AcDbVisualStyle
  2
Sketchy
 70
    24
177
     3
291
     0
 70
    58
 90
        1
176
     1
 90
        2
176
     1
 90
        2
176
     1
 90
        0
176
     1
 40
0.6
176
     1
 40
30.0
176
     1
 62
     7
420
 16777215
176
     1
 90
        2
176
     1
 90
        2
176
     1
 62
     7
176
     1
 62
     7
176
     1
 90
        1
176
     1
 90
        1
176
     1
 40
40.0
176
     1
 90
       11
176
     1
 62
     7
176
     1
 40
1.0
176
     1
 90
        1
176
     1
 90
        6
176
     1
 90
        2
176
     1
 62
     7
176
     1
 90
        6
176
     1
 90
        0
176
     1
 90
        0
176
     1
290
     0
176
     1
 90
        1
176
     1
 40
0.0
176
     1
 90
        0
176
     1
290
     0
176
     1
290
     1
176
     1
290
     1
176
     1
290
     0
176
     1
290
     0
176
     1
290
     0
176
     1
290
     0
176
     1
290
     0
176
     1
290
     0
176
     1
 90
       50
176
     1
 40
0.0
176
     1
 40
1.0
176
     1
 90
        0
176
     1
 62
    18
420
        0
176
     1
 90
       50
176
     1
 90
        3
176
     1
 62
     5
420
      255
176
     1
290
     0
176
     1
 90
       50
176
     1
 90
       50
176
     1
 90
       50
176
     1
290
     0
176
     1
 90
       50
176
     1
 62
   256
176
     0
 40
1.0
176
     0
 90
        2
176
     1
  1
strokes_ogs.tif
176
     1
290
     0
176
     1
 40
1.0
176
     1
 40
1.0
176
     1
  0
VISUALSTYLE
  5
37
102
{ACAD_REACTORS
330
2A
102
}
330
2A
100
AcDbVisualStyle
  2
Thicken
 70
    13
177
     3
291
     1
 70
    58
 90
        2
176
     1
 90
        2
176
     1
 90
        0
176
     1
 90
        0
176
     1
 40
0.6
176
     1
 40
30.0
176
     1
 62
     7
420
 16777215
176
     1
 90
        1
176
     1
 90
        4
176
     1
 62
     7
176
     1
 62
   257
176
     1
 90
        1
176
     1
 90
        1
176
     1
 40
1.0
176
     1
 90
       12
176
     1
 62
     7
176
     1
 40
1.0
176
     1
 90
        1
176
     1
 90
        6
176
     1
 90
        2
176
     1
 62
     7
176
     1
 90
        5
176
     1
 90
        0
176
     1
 90
        0
176
     1
290
     0
176
     1
 90
        1
176
     1
 40
0.0
176
     1
 90
        0
176
     1
290
     0
176
     1
290
     1
176
     1
290
     1
176
     1
290
     0
176
     1
290
     0
176
     1
290
     0
176
     1
290
     0
176
     1
290
     0
176
     1
290
     0
176
     1
 90
       50
176
     1
 40
0.0
176
     1
 40
1.0
176
     1
 90
        0
176
     1
 62
    18
420
        0
176
     1
 90
       50
176
     1
 90
        3
176
     1
 62
     5
420
      255
176
     1
290
     0
176
     1
 90
       50
176
     1
 90
       50
176
     1
 90
       50
176
     1
290
     0
176
     1
 90
       50
176
     1
 62
   256
176
     0
 40
1.0
176
     0
 90
        2
176
     1
  1
strokes_ogs.tif
176
     1
290
     0
176
     1
 40
1.0
176
     1
 40
1.0
176
     1
  0
VISUALSTYLE
  5
30
102
{ACAD_REACTORS
330
2A
102
}
330
2A
100
AcDbVisualStyle
  2
Wireframe
 70
     5
177
     3
291
     0
 70
    58
 90
        0
176
     1
 90
        2
176
     1
 90
        0
176
     1
 90
        0
176
     1
 40
0.6
176
     1
 40
30.0
176
     1
 62
     7
420
 16777215
176
     1
 90
        1
176
     1
 90
        4
176
     1
 62
     7
176
     1
 62
   257
176
     1
 90
        1
176
     1
 90
        1
176
     1
 40
1.0
176
     1
 90
        0
176
     1
 62
   257
176
     1
 40
1.0
176
     1
 90
        1
176
     1
 90
        6
176
     1
 90
        2
176
     1
 62
     7
176
     1
 90
        3
176
     1
 90
        0
176
     1
 90
        0
176
     1
290
     0
176
     1
 90
        1
176
     1
 40
0.0
176
     1
 90
        0
176
     1
290
     0
176
     1
290
     1
176
     1
290
     1
176
     1
290
     0
176
     1
290
     0
176
     1
290
     0
176
     1
290
     0
176
     1
290
     0
176
     1
290
     0
176
     1
 90
       50
176
     1
 40
0.0
176
     1
 40
1.0
176
     1
 90
        0
176
     1
 62
    18
420
        0
176
     1
 90
       50
176
     1
 90
        3
176
     1
 62
     5
420
      255
176
     1
290
     0
176
     1
 90
       50
176
     1
 90
       50
176
     1
 90
       50
176
     1
290
     0
176
     1
 90
       50
176
     1
 62
   256
176
     0
 40
1.0
176
     0
 90
        2
176
     1
  1
strokes_ogs.tif
176
     1
290
     0
176
     1
 40
1.0
176
     1
 40
1.0
176
     1
  0
VISUALSTYLE
  5
40
102
{ACAD_REACTORS
330
2A
102
}
330
2A
100
AcDbVisualStyle
  2
X-Ray
 70
    25
177
     3
291
     0
 70
    58
 90
        2
176
     1
 90
        2
176
     1
 90
        1
176
     1
 90
        1
176
     1
 40
0.5
176
     1
 40
30.0
176
     1
 62
     7
420
 16777215
176
     1
 90
        1
176
     1
 90
        0
176
     1
 62
     7
176
     1
 62
   257
176
     1
 90
        1
176
     1
 90
        1
176
     1
 40
1.0
176
     1
 90
        8
176
     1
 62
     7
176
     1
 40
1.0
176
     1
 90
        1
176
     1
 90
        6
176
     1
 90
        2
176
     1
 62
     7
176
     1
 90
        3
176
     1
 90
        0
176
     1
 90
        0
176
     1
290
     0
176
     1
 90
       13
176
     1
 40
0.0
176
     1
 90
        0
176
     1
290
     0
176
     1
290
     1
176
     1
290
     1
176
     1
290
     0
176
     1
290
     0
176
     1
290
     0
176
     1
290
     0
176
     1
290
     0
176
     1
290
     0
176
     1
 90
       50
176
     1
 40
0.0
176
     1
 40
1.0
176
     1
 90
        0
176
     1
 62
    18
420
        0
176
     1
 90
       50
176
     1
 90
        3
176
     1
 62
     5
420
      255
176
     1
290
     0
176
     1
 90
       50
176
     1
 90
       50
176
     1
 90
       50
176
     1
290
     0
176
     1
 90
       50
176
     1
 62
   256
176
     0
 40
1.0
176
     0
 90
        2
176
     1
  1
strokes_ogs.tif
176
     1
290
     0
176
     1
 40
1.0
176
     1
 40
1.0
176
     1
  0
DICTIONARYVAR
  5
217
102
{ACAD_REACTORS
330
216
102
}
330
216
100
DictionaryVariables
280
     0
  1
1:1
  0
DICTIONARYVAR
  5
21C
102
{ACAD_REACTORS
330
216
102
}
330
216
100
DictionaryVariables
280
     0
  1
Standard
  0
DICTIONARYVAR
  5
21B
102
{ACAD_REACTORS
330
216
102
}
330
216
100
DictionaryVariables
280
     0
  1
Standard
  0
DICTIONARY
  5
218
330
6A
100
AcDbDictionary
280
     1
281
     1
  3
ACAD_ROUNDTRIP_2008_TABLESTYLE_CELLSTYLEMAP
360
219
  0
CELLSTYLEMAP
  5
219
102
{ACAD_REACTORS
330
218
102
}
330
218
100
AcDbCellStyleMap
 90
        3
300
CELLSTYLE
  1
TABLEFORMAT_BEGIN
 90
        5
170
     1
 91
        0
 92
    32768
 62
   257
 93
        1
300
CONTENTFORMAT
  1
CONTENTFORMAT_BEGIN
 90
        0
 91
        0
 92
        4
 93
        0
300

 40
0.0
140
1.0
 94
        5
 62
     0
340
11
144
0.25
309
CONTENTFORMAT_END
171
     1
301
MARGIN
  1
CELLMARGIN_BEGIN
 40
0.06
 40
0.06
 40
0.06
 40
0.06
 40
0.06
 40
0.06
309
CELLMARGIN_END
 94
        6
 95
        1
302
GRIDFORMAT
  1
GRIDFORMAT_BEGIN
 90
        0
 91
        1
 62
     0
 92
       -2
340
14
 93
        0
 40
0.045
309
GRIDFORMAT_END
 95
        2
302
GRIDFORMAT
  1
GRIDFORMAT_BEGIN
 90
        0
 91
        1
 62
     0
 92
       -2
340
14
 93
        0
 40
0.045
309
GRIDFORMAT_END
 95
        4
302
GRIDFORMAT
  1
GRIDFORMAT_BEGIN
 90
        0
 91
        1
 62
     0
 92
       -2
340
14
 93
        0
 40
0.045
309
GRIDFORMAT_END
 95
        8
302
GRIDFORMAT
  1
GRIDFORMAT_BEGIN
 90
        0
 91
        1
 62
     0
 92
       -2
340
14
 93
        0
 40
0.045
309
GRIDFORMAT_END
 95
       16
302
GRIDFORMAT
  1
GRIDFORMAT_BEGIN
 90
        0
 91
        1
 62
     0
 92
       -2
340
14
 93
        0
 40
0.045
309
GRIDFORMAT_END
 95
       32
302
GRIDFORMAT
  1
GRIDFORMAT_BEGIN
 90
        0
 91
        1
 62
     0
 92
       -2
340
14
 93
        0
 40
0.045
309
GRIDFORMAT_END
309
TABLEFORMAT_END
  1
CELLSTYLE_BEGIN
 90
        1
 91
        1
300
_TITLE
309
CELLSTYLE_END
300
CELLSTYLE
  1
TABLEFORMAT_BEGIN
 90
        5
170
     1
 91
        0
 92
        0
 62
   257
 93
        1
300
CONTENTFORMAT
  1
CONTENTFORMAT_BEGIN
 90
        0
 91
        0
 92
        4
 93
        0
300

 40
0.0
140
1.0
 94
        5
 62
     0
340
11
144
0.18
309
CONTENTFORMAT_END
171
     1
301
MARGIN
  1
CELLMARGIN_BEGIN
 40
0.06
 40
0.06
 40
0.06
 40
0.06
 40
0.06
 40
0.06
309
CELLMARGIN_END
 94
        6
 95
        1
302
GRIDFORMAT
  1
GRIDFORMAT_BEGIN
 90
        0
 91
        1
 62
     0
 92
       -2
340
14
 93
        0
 40
0.045
309
GRIDFORMAT_END
 95
        2
302
GRIDFORMAT
  1
GRIDFORMAT_BEGIN
 90
        0
 91
        1
 62
     0
 92
       -2
340
14
 93
        0
 40
0.045
309
GRIDFORMAT_END
 95
        4
302
GRIDFORMAT
  1
GRIDFORMAT_BEGIN
 90
        0
 91
        1
 62
     0
 92
       -2
340
14
 93
        0
 40
0.045
309
GRIDFORMAT_END
 95
        8
302
GRIDFORMAT
  1
GRIDFORMAT_BEGIN
 90
        0
 91
        1
 62
     0
 92
       -2
340
14
 93
        0
 40
0.045
309
GRIDFORMAT_END
 95
       16
302
GRIDFORMAT
  1
GRIDFORMAT_BEGIN
 90
        0
 91
        1
 62
     0
 92
       -2
340
14
 93
        0
 40
0.045
309
GRIDFORMAT_END
 95
       32
302
GRIDFORMAT
  1
GRIDFORMAT_BEGIN
 90
        0
 91
        1
 62
     0
 92
       -2
340
14
 93
        0
 40
0.045
309
GRIDFORMAT_END
309
TABLEFORMAT_END
  1
CELLSTYLE_BEGIN
 90
        2
 91
        1
300
_HEADER
309
CELLSTYLE_END
300
CELLSTYLE
  1
TABLEFORMAT_BEGIN
 90
        5
170
     1
 91
        0
 92
        0
 62
   257
 93
        1
300
CONTENTFORMAT
  1
CONTENTFORMAT_BEGIN
 90
        0
 91
        0
 92
        4
 93
        0
300

 40
0.0
140
1.0
 94
        2
 62
     0
340
11
144
0.18
309
CONTENTFORMAT_END
171
     1
301
MARGIN
  1
CELLMARGIN_BEGIN
 40
0.06
 40
0.06
 40
0.06
 40
0.06
 40
0.06
 40
0.06
309
CELLMARGIN_END
 94
        6
 95
        1
302
GRIDFORMAT
  1
GRIDFORMAT_BEGIN
 90
        0
 91
        1
 62
     0
 92
       -2
340
14
 93
        0
 40
0.045
309
GRIDFORMAT_END
 95
        2
302
GRIDFORMAT
  1
GRIDFORMAT_BEGIN
 90
        0
 91
        1
 62
     0
 92
       -2
340
14
 93
        0
 40
0.045
309
GRIDFORMAT_END
 95
        4
302
GRIDFORMAT
  1
GRIDFORMAT_BEGIN
 90
        0
 91
        1
 62
     0
 92
       -2
340
14
 93
        0
 40
0.045
309
GRIDFORMAT_END
 95
        8
302
GRIDFORMAT
  1
GRIDFORMAT_BEGIN
 90
        0
 91
        1
 62
     0
 92
       -2
340
14
 93
        0
 40
0.045
309
GRIDFORMAT_END
 95
       16
302
GRIDFORMAT
  1
GRIDFORMAT_BEGIN
 90
        0
 91
        1
 62
     0
 92
       -2
340
14
 93
        0
 40
0.045
309
GRIDFORMAT_END
 95
       32
302
GRIDFORMAT
  1
GRIDFORMAT_BEGIN
 90
        0
 91
        1
 62
     0
 92
       -2
340
14
 93
        0
 40
0.045
309
GRIDFORMAT_END
309
TABLEFORMAT_END
  1
CELLSTYLE_BEGIN
 90
        3
 91
        2
300
_DATA
309
CELLSTYLE_END
  0
ENDSEC
  0
EOF