0
SECTION
  2
HEADER
  9
$ACADVER
  1
AC1027
  9
$ACADMAINTVER
 70
     8
  9
$DWGCODEPAGE
  3
ANSI_1252
  9
$REQUIREDVERSIONS
160
                 0
  9
$COMMENTS
  1
File was created by Cadenas
  9
$CUSTOMPROPERTYTAG
  1
NN
  9
$CUSTOMPROPERTY
  1
S-2000 Wide Slot Take-Up Trident Seal
  9
$CUSTOMPROPERTYTAG
  1
NT
  9
$CUSTOMPROPERTY
  1
S-2000 Wide Slot Take-Up Bearing -Inch
  9
$CUSTOMPROPERTYTAG
  1
NB
  9
$CUSTOMPROPERTY
  1
070786
  9
$CUSTOMPROPERTYTAG
  1
NBSYN
  9
$CUSTOMPROPERTY
  1
$PN.
  9
$CUSTOMPROPERTYTAG
  1
LINA
  9
$CUSTOMPROPERTY
  1
070786
  9
$CUSTOMPROPERTYTAG
  1
SS
  9
$CUSTOMPROPERTY
  1
2
  9
$CUSTOMPROPERTYTAG
  1
PN
  9
$CUSTOMPROPERTY
  1
070786
  9
$CUSTOMPROPERTYTAG
  1
DESCRIPTION
  9
$CUSTOMPROPERTY
  1
WSTU-S2-200RE
  9
$CUSTOMPROPERTYTAG
  1
EF
  9
$CUSTOMPROPERTY
  1
Expansion Type
  9
$CUSTOMPROPERTYTAG
  1
ST
  9
$CUSTOMPROPERTY
  1
Contact Seal
  9
$CUSTOMPROPERTYTAG
  1
A
  9
$CUSTOMPROPERTY
  1
2-27/32
  9
$CUSTOMPROPERTYTAG
  1
B
  9
$CUSTOMPROPERTY
  1
6-3/16
  9
$CUSTOMPROPERTYTAG
  1
C
  9
$CUSTOMPROPERTY
  1
11/16
  9
$CUSTOMPROPERTYTAG
  1
D
  9
$CUSTOMPROPERTY
  1
3-5/8
  9
$CUSTOMPROPERTYTAG
  1
E
  9
$CUSTOMPROPERTY
  1
3-15/16
  9
$CUSTOMPROPERTYTAG
  1
F
  9
$CUSTOMPROPERTY
  1
1-1/8
  9
$CUSTOMPROPERTYTAG
  1
G
  9
$CUSTOMPROPERTY
  1
15/16
  9
$CUSTOMPROPERTYTAG
  1
H
  9
$CUSTOMPROPERTY
  1
3/4
  9
$CUSTOMPROPERTYTAG
  1
J
  9
$CUSTOMPROPERTY
  1
3-5/16
  9
$CUSTOMPROPERTYTAG
  1
K
  9
$CUSTOMPROPERTY
  1
1-15/16
  9
$CUSTOMPROPERTYTAG
  1
L
  9
$CUSTOMPROPERTY
  1
3-7/16
  9
$CUSTOMPROPERTYTAG
  1
M
  9
$CUSTOMPROPERTY
  1
4
  9
$CUSTOMPROPERTYTAG
  1
N
  9
$CUSTOMPROPERTY
  1
4-3/4
  9
$CUSTOMPROPERTYTAG
  1
R
  9
$CUSTOMPROPERTY
  1
2-15/16
  9
$CUSTOMPROPERTYTAG
  1
S
  9
$CUSTOMPROPERTY
  1
1-15/16
  9
$CUSTOMPROPERTYTAG
  1
T
  9
$CUSTOMPROPERTY
  1
2
  9
$CUSTOMPROPERTYTAG
  1
X
  9
$CUSTOMPROPERTY
  1
1/4
  9
$CUSTOMPROPERTYTAG
  1
Y
  9
$CUSTOMPROPERTY
  1
0.020
  9
$CUSTOMPROPERTYTAG
  1
Z
  9
$CUSTOMPROPERTY
  1
2-19/64
  9
$CUSTOMPROPERTYTAG
  1
COMPANY
  9
$CUSTOMPROPERTY
  1
baldor
  9
$INSBASE
 10
0.0
 20
0.0
 30
0.0
  9
$EXTMIN
 10
1.000000000000000E+20
 20
1.000000000000000E+20
 30
1.000000000000000E+20
  9
$EXTMAX
 10
-1.000000000000000E+20
 20
-1.000000000000000E+20
 30
-1.000000000000000E+20
  9
$LIMMIN
 10
0.0
 20
0.0
  9
$LIMMAX
 10
12.0
 20
9.0
  9
$ORTHOMODE
 70
     0
  9
$REGENMODE
 70
     1
  9
$FILLMODE
 70
     1
  9
$QTEXTMODE
 70
     0
  9
$MIRRTEXT
 70
     1
  9
$LTSCALE
 40
1.0
  9
$ATTMODE
 70
     1
  9
$TEXTSIZE
 40
0.2
  9
$TRACEWID
 40
0.05
  9
$TEXTSTYLE
  7
Standard
  9
$CLAYER
  8
0
  9
$CELTYPE
  6
ByLayer
  9
$CECOLOR
 62
   256
  9
$CELTSCALE
 40
1.0
  9
$DISPSILH
 70
     0
  9
$DIMSCALE
 40
1.0
  9
$DIMASZ
 40
0.18
  9
$DIMEXO
 40
0.0625
  9
$DIMDLI
 40
0.38
  9
$DIMRND
 40
0.0
  9
$DIMDLE
 40
0.0
  9
$DIMEXE
 40
0.18
  9
$DIMTP
 40
0.0
  9
$DIMTM
 40
0.0
  9
$DIMTXT
 40
0.18
  9
$DIMCEN
 40
0.09
  9
$DIMTSZ
 40
0.0
  9
$DIMTOL
 70
     0
  9
$DIMLIM
 70
     0
  9
$DIMTIH
 70
     1
  9
$DIMTOH
 70
     1
  9
$DIMSE1
 70
     0
  9
$DIMSE2
 70
     0
  9
$DIMTAD
 70
     0
  9
$DIMZIN
 70
     0
  9
$DIMBLK
  1

  9
$DIMASO
 70
     1
  9
$DIMSHO
 70
     1
  9
$DIMPOST
  1

  9
$DIMAPOST
  1

  9
$DIMALT
 70
     0
  9
$DIMALTD
 70
     2
  9
$DIMALTF
 40
25.4
  9
$DIMLFAC
 40
1.0
  9
$DIMTOFL
 70
     0
  9
$DIMTVP
 40
0.0
  9
$DIMTIX
 70
     0
  9
$DIMSOXD
 70
     0
  9
$DIMSAH
 70
     0
  9
$DIMBLK1
  1

  9
$DIMBLK2
  1

  9
$DIMSTYLE
  2
Standard
  9
$DIMCLRD
 70
     0
  9
$DIMCLRE
 70
     0
  9
$DIMCLRT
 70
     0
  9
$DIMTFAC
 40
1.0
  9
$DIMGAP
 40
0.09
  9
$DIMJUST
 70
     0
  9
$DIMSD1
 70
     0
  9
$DIMSD2
 70
     0
  9
$DIMTOLJ
 70
     1
  9
$DIMTZIN
 70
     0
  9
$DIMALTZ
 70
     0
  9
$DIMALTTZ
 70
     0
  9
$DIMUPT
 70
     0
  9
$DIMDEC
 70
     4
  9
$DIMTDEC
 70
     4
  9
$DIMALTU
 70
     2
  9
$DIMALTTD
 70
     2
  9
$DIMTXSTY
  7
Standard
  9
$DIMAUNIT
 70
     0
  9
$DIMADEC
 70
     0
  9
$DIMALTRND
 40
0.0
  9
$DIMAZIN
 70
     0
  9
$DIMDSEP
 70
    46
  9
$DIMATFIT
 70
     3
  9
$DIMFRAC
 70
     0
  9
$DIMLDRBLK
  1

  9
$DIMLUNIT
 70
     2
  9
$DIMLWD
 70
    -2
  9
$DIMLWE
 70
    -2
  9
$DIMTMOVE
 70
     0
  9
$DIMFXL
 40
1.0
  9
$DIMFXLON
 70
     0
  9
$DIMJOGANG
 40
0.7853981633974483
  9
$DIMTFILL
 70
     0
  9
$DIMTFILLCLR
 70
     0
  9
$DIMARCSYM
 70
     0
  9
$DIMLTYPE
  6

  9
$DIMLTEX1
  6

  9
$DIMLTEX2
  6

  9
$DIMTXTDIRECTION
 70
     0
  9
$LUNITS
 70
     2
  9
$LUPREC
 70
     4
  9
$SKETCHINC
 40
0.1
  9
$FILLETRAD
 40
0.5
  9
$AUNITS
 70
     0
  9
$AUPREC
 70
     0
  9
$MENU
  1
.
  9
$ELEVATION
 40
0.0
  9
$PELEVATION
 40
0.0
  9
$THICKNESS
 40
0.0
  9
$LIMCHECK
 70
     0
  9
$CHAMFERA
 40
0.0
  9
$CHAMFERB
 40
0.0
  9
$CHAMFERC
 40
0.0
  9
$CHAMFERD
 40
0.0
  9
$SKPOLY
 70
     0
  9
$TDCREATE
 40
2458168.983908195
  9
$TDUCREATE
 40
2458168.942241528
  9
$TDUPDATE
 40
2458168.983908368
  9
$TDUUPDATE
 40
2458168.942241701
  9
$TDINDWG
 40
0.0000000116
  9
$TDUSRTIMER
 40
0.0000000116
  9
$USRTIMER
 70
     1
  9
$ANGBASE
 50
0.0
  9
$ANGDIR
 70
     0
  9
$PDMODE
 70
     0
  9
$PDSIZE
 40
0.0
  9
$PLINEWID
 40
0.0
  9
$SPLFRAME
 70
     0
  9
$SPLINETYPE
 70
     6
  9
$SPLINESEGS
 70
     8
  9
$HANDSEED
  5
23D
  9
$SURFTAB1
 70
     6
  9
$SURFTAB2
 70
     6
  9
$SURFTYPE
 70
     6
  9
$SURFU
 70
     6
  9
$SURFV
 70
     6
  9
$UCSBASE
  2

  9
$UCSNAME
  2

  9
$UCSORG
 10
0.0
 20
0.0
 30
0.0
  9
$UCSXDIR
 10
1.0
 20
0.0
 30
0.0
  9
$UCSYDIR
 10
0.0
 20
1.0
 30
0.0
  9
$UCSORTHOREF
  2

  9
$UCSORTHOVIEW
 70
     0
  9
$UCSORGTOP
 10
0.0
 20
0.0
 30
0.0
  9
$UCSORGBOTTOM
 10
0.0
 20
0.0
 30
0.0
  9
$UCSORGLEFT
 10
0.0
 20
0.0
 30
0.0
  9
$UCSORGRIGHT
 10
0.0
 20
0.0
 30
0.0
  9
$UCSORGFRONT
 10
0.0
 20
0.0
 30
0.0
  9
$UCSORGBACK
 10
0.0
 20
0.0
 30
0.0
  9
$PUCSBASE
  2

  9
$PUCSNAME
  2

  9
$PUCSORG
 10
0.0
 20
0.0
 30
0.0
  9
$PUCSXDIR
 10
1.0
 20
0.0
 30
0.0
  9
$PUCSYDIR
 10
0.0
 20
1.0
 30
0.0
  9
$PUCSORTHOREF
  2

  9
$PUCSORTHOVIEW
 70
     0
  9
$PUCSORGTOP
 10
0.0
 20
0.0
 30
0.0
  9
$PUCSORGBOTTOM
 10
0.0
 20
0.0
 30
0.0
  9
$PUCSORGLEFT
 10
0.0
 20
0.0
 30
0.0
  9
$PUCSORGRIGHT
 10
0.0
 20
0.0
 30
0.0
  9
$PUCSORGFRONT
 10
0.0
 20
0.0
 30
0.0
  9
$PUCSORGBACK
 10
0.0
 20
0.0
 30
0.0
  9
$USERI1
 70
     0
  9
$USERI2
 70
     0
  9
$USERI3
 70
     0
  9
$USERI4
 70
     0
  9
$USERI5
 70
     0
  9
$USERR1
 40
0.0
  9
$USERR2
 40
0.0
  9
$USERR3
 40
0.0
  9
$USERR4
 40
0.0
  9
$USERR5
 40
0.0
  9
$WORLDVIEW
 70
     1
  9
$SHADEDGE
 70
     3
  9
$SHADEDIF
 70
    70
  9
$TILEMODE
 70
     1
  9
$MAXACTVP
 70
    64
  9
$PINSBASE
 10
0.0
 20
0.0
 30
0.0
  9
$PLIMCHECK
 70
     0
  9
$PEXTMIN
 10
1.000000000000000E+20
 20
1.000000000000000E+20
 30
1.000000000000000E+20
  9
$PEXTMAX
 10
-1.000000000000000E+20
 20
-1.000000000000000E+20
 30
-1.000000000000000E+20
  9
$PLIMMIN
 10
0.0
 20
0.0
  9
$PLIMMAX
 10
12.0
 20
9.0
  9
$UNITMODE
 70
     0
  9
$VISRETAIN
 70
     1
  9
$PLINEGEN
 70
     0
  9
$PSLTSCALE
 70
     1
  9
$TREEDEPTH
 70
  3020
  9
$CMLSTYLE
  2
Standard
  9
$CMLJUST
 70
     0
  9
$CMLSCALE
 40
1.0
  9
$PROXYGRAPHICS
 70
     1
  9
$MEASUREMENT
 70
     0
  9
$CELWEIGHT
370
    -1
  9
$ENDCAPS
280
     0
  9
$JOINSTYLE
280
     0
  9
$LWDISPLAY
290
     0
  9
$INSUNITS
 70
     1
  9
$HYPERLINKBASE
  1

  9
$STYLESHEET
  1

  9
$XEDIT
290
     1
  9
$CEPSNTYPE
380
     0
  9
$PSTYLEMODE
290
     1
  9
$FINGERPRINTGUID
  2
{D6F9619C-7DD5-46D2-BA1F-2EB024E6D4EF}
  9
$VERSIONGUID
  2
{FAEB1C32-E019-11D5-929B-00C0DF256EC4}
  9
$EXTNAMES
290
     1
  9
$PSVPSCALE
 40
0.0
  9
$OLESTARTUP
290
     0
  9
$SORTENTS
280
   127
  9
$INDEXCTL
280
     0
  9
$HIDETEXT
280
     1
  9
$XCLIPFRAME
280
     2
  9
$HALOGAP
280
     0
  9
$OBSCOLOR
 70
   257
  9
$OBSLTYPE
280
     0
  9
$INTERSECTIONDISPLAY
280
     0
  9
$INTERSECTIONCOLOR
 70
   257
  9
$DIMASSOC
280
     2
  9
$PROJECTNAME
  1

  9
$CAMERADISPLAY
290
     0
  9
$LENSLENGTH
 40
50.0
  9
$CAMERAHEIGHT
 40
0.0
  9
$STEPSPERSEC
 40
2.0
  9
$STEPSIZE
 40
6.0
  9
$3DDWFPREC
 40
2.0
  9
$PSOLWIDTH
 40
0.25
  9
$PSOLHEIGHT
 40
4.0
  9
$LOFTANG1
 40
1.570796326794897
  9
$LOFTANG2
 40
1.570796326794897
  9
$LOFTMAG1
 40
0.0
  9
$LOFTMAG2
 40
0.0
  9
$LOFTPARAM
 70
     7
  9
$LOFTNORMALS
280
     1
  9
$LATITUDE
 40
37.795
  9
$LONGITUDE
 40
-122.394
  9
$NORTHDIRECTION
 40
0.0
  9
$TIMEZONE
 70
 -8000
  9
$LIGHTGLYPHDISPLAY
280
     1
  9
$TILEMODELIGHTSYNCH
280
     1
  9
$CMATERIAL
347
44
  9
$SOLIDHIST
280
     0
  9
$SHOWHIST
280
     1
  9
$DWFFRAME
280
     2
  9
$DGNFRAME
280
     2
  9
$REALWORLDSCALE
290
     1
  9
$INTERFERECOLOR
 62
   256
  9
$CSHADOW
280
     0
  9
$SHADOWPLANELOCATION
 40
0.0
  0
ENDSEC
  0
SECTION
  2
CLASSES
  0
CLASS
  1
ACDBDICTIONARYWDFLT
  2
AcDbDictionaryWithDefault
  3
ObjectDBX Classes
 90
        0
 91
        4
280
     0
281
     0
  0
CLASS
  1
VISUALSTYLE
  2
AcDbVisualStyle
  3
ObjectDBX Classes
 90
     4095
 91
        4
280
     0
281
     0
  0
CLASS
  1
MATERIAL
  2
AcDbMaterial
  3
ObjectDBX Classes
 90
     1153
 91
        4
280
     0
281
     0
  0
CLASS
  1
SCALE
  2
AcDbScale
  3
ObjectDBX Classes
 90
     1153
 91
        4
280
     0
281
     0
  0
CLASS
  1
TABLESTYLE
  2
AcDbTableStyle
  3
ObjectDBX Classes
 90
     4095
 91
        4
280
     0
281
     0
  0
CLASS
  1
MLEADERSTYLE
  2
AcDbMLeaderStyle
  3
ACDB_MLEADERSTYLE_CLASS
 90
     4095
 91
        4
280
     0
281
     0
  0
CLASS
  1
SUN
  2
AcDbSun
  3
SCENEOE
 90
     1153
 91
        4
280
     0
281
     0
  0
CLASS
  1
DICTIONARYVAR
  2
AcDbDictionaryVar
  3
ObjectDBX Classes
 90
        0
 91
        4
280
     0
281
     0
  0
CLASS
  1
CELLSTYLEMAP
  2
AcDbCellStyleMap
  3
ObjectDBX Classes
 90
     1152
 91
        4
280
     0
281
     0
  0
ENDSEC
  0
SECTION
  2
TABLES
  0
TABLE
  2
VPORT
  5
8
330
0
100
AcDbSymbolTable
 70
     1
  0
VPORT
  5
29
330
8
100
AcDbSymbolTableRecord
100
AcDbViewportTableRecord
  2
*Active
 70
     0
 10
0.0
 20
0.0
 11
1.0
 21
1.0
 12
0.0542499999999997
 22
0.0
 13
0.0
 23
0.0
 14
0.5
 24
0.5
 15
0.5
 25
0.5
 16
0.0
 26
0.0
 36
1.0
 17
0.0
 27
0.0
 37
0.0
 40
4.845
 41
0.8386315789473684
 42
50.0
 43
0.0
 44
0.0
 50
0.0
 51
0.0
 71
     0
 72
   100
 73
     1
 74
     3
 75
     0
 76
     0
 77
     0
 78
     0
281
     0
 65
     1
110
0.0
120
0.0
130
0.0
111
1.0
121
0.0
131
0.0
112
0.0
122
1.0
132
0.0
 79
     0
146
0.0
348
2F
 60
     3
 61
     5
292
     1
282
     1
141
0.0
142
0.0
 63
   250
361
6D
  0
ENDTAB
  0
TABLE
  2
LTYPE
  5
5
330
0
100
AcDbSymbolTable
 70
     3
  0
LTYPE
  5
14
330
5
100
AcDbSymbolTableRecord
100
AcDbLinetypeTableRecord
  2
ByBlock
 70
     0
  3

 72
    65
 73
     0
 40
0.0
  0
LTYPE
  5
15
330
5
100
AcDbSymbolTableRecord
100
AcDbLinetypeTableRecord
  2
ByLayer
 70
     0
  3

 72
    65
 73
     0
 40
0.0
  0
LTYPE
  5
16
330
5
100
AcDbSymbolTableRecord
100
AcDbLinetypeTableRecord
  2
Continuous
 70
     0
  3
Solid line
 72
    65
 73
     0
 40
0.0
  0
LTYPE
  5
AA
330
5
100
AcDbSymbolTableRecord
100
AcDbLinetypeTableRecord
  2
Dashed
 70
     0
  3

 72
    65
 73
     2
 40
2.0
 49
1.0
 74
     0
 49
-1.0
 74
     0
  0
LTYPE
  5
137
330
5
100
AcDbSymbolTableRecord
100
AcDbLinetypeTableRecord
  2
Center
 70
     0
  3

 72
    65
 73
     4
 40
1.5
 49
0.45
 74
     0
 49
-0.5
 74
     0
 49
0.05
 74
     0
 49
-0.5
 74
     0
  0
ENDTAB
  0
TABLE
  2
LAYER
  5
2
330
0
100
AcDbSymbolTable
 70
     7
  0
LAYER
  5
10
330
2
100
AcDbSymbolTableRecord
100
AcDbLayerTableRecord
  2
0
 70
     0
 62
     7
  6
Continuous
370
    -3
390
F
347
46
348
0
  0
LAYER
  5
72
330
2
100
AcDbSymbolTableRecord
100
AcDbLayerTableRecord
  2
AM_6
 70
     0
 62
    -2
  6
Continuous
370
    35
390
F
347
46
348
0
  0
LAYER
  5
AB
330
2
100
AcDbSymbolTableRecord
100
AcDbLayerTableRecord
  2
AM_9
 70
     0
 62
     6
  6
Dashed
370
    25
390
F
347
46
348
0
  0
LAYER
  5
BE
330
2
100
AcDbSymbolTableRecord
100
AcDbLayerTableRecord
  2
AM_5
 70
     0
 62
     3
  6
Continuous
370
    25
390
F
347
46
348
0
  0
LAYER
  5
C3
330
2
100
AcDbSymbolTableRecord
100
AcDbLayerTableRecord
  2
AM_4
 70
     0
 62
     7
  6
Continuous
370
    50
390
F
347
46
348
0
  0
LAYER
  5
138
330
2
100
AcDbSymbolTableRecord
100
AcDbLayerTableRecord
  2
AM_7
 70
     0
 62
     7
  6
Center
370
    25
390
F
347
46
348
0
  0
LAYER
  5
22C
330
2
100
AcDbSymbolTableRecord
100
AcDbLayerTableRecord
  2
ConnectionPoints
 70
     0
 62
     7
  6
Continuous
370
    50
390
F
347
46
348
0
  0
ENDTAB
  0
TABLE
  2
STYLE
  5
3
330
0
100
AcDbSymbolTable
 70
     1
  0
STYLE
  5
11
330
3
100
AcDbSymbolTableRecord
100
AcDbTextStyleTableRecord
  2
Standard
 70
     0
 40
0.0
 41
1.0
 50
0.0
 71
     0
 42
0.2
  3
txt
  4

  0
ENDTAB
  0
TABLE
  2
VIEW
  5
6
330
0
100
AcDbSymbolTable
 70
     0
  0
ENDTAB
  0
TABLE
  2
UCS
  5
7
330
0
100
AcDbSymbolTable
 70
     0
  0
ENDTAB
  0
TABLE
  2
APPID
  5
9
330
0
100
AcDbSymbolTable
 70
     1
  0
APPID
  5
12
330
9
100
AcDbSymbolTableRecord
100
AcDbRegAppTableRecord
  2
ACAD
 70
     0
  0
ENDTAB
  0
TABLE
  2
DIMSTYLE
  5
A
330
0
100
AcDbSymbolTable
 70
     1
100
AcDbDimStyleTable
  0
DIMSTYLE
105
27
330
A
100
AcDbSymbolTableRecord
100
AcDbDimStyleTableRecord
  2
Standard
 70
     0
178
     0
340
11
  0
ENDTAB
  0
TABLE
  2
BLOCK_RECORD
  5
1
330
0
100
AcDbSymbolTable
 70
     6
  0
BLOCK_RECORD
  5
1F
330
1
100
AcDbSymbolTableRecord
100
AcDbBlockTableRecord
  2
*Model_Space
340
22
 70
     0
280
     1
281
     0
  0
BLOCK_RECORD
  5
1B
330
1
100
AcDbSymbolTableRecord
100
AcDbBlockTableRecord
  2
*Paper_Space
340
1E
 70
     0
280
     1
281
     0
  0
BLOCK_RECORD
  5
23
330
1
100
AcDbSymbolTableRecord
100
AcDbBlockTableRecord
  2
*Paper_Space0
340
26
 70
     0
280
     1
281
     0
  0
BLOCK_RECORD
  5
6E
330
1
100
AcDbSymbolTableRecord
100
AcDbBlockTableRecord
  2
1_070786_2
340
0
102
{BLKREFS
331
6F
102
}
 70
     0
280
     1
281
     0
  0
BLOCK_RECORD
  5
91
330
1
100
AcDbSymbolTableRecord
100
AcDbBlockTableRecord
  2
2_2CS2i_0_in_070786_2
340
0
102
{BLKREFS
331
92
102
}
 70
     0
280
     1
281
     0
  0
BLOCK_RECORD
  5
D9
330
1
100
AcDbSymbolTableRecord
100
AcDbBlockTableRecord
  2
3_070006i_0_in_070786_2
340
0
102
{BLKREFS
331
DA
102
}
 70
     0
280
     1
281
     0
  0
BLOCK_RECORD
  5
142
330
1
100
AcDbSymbolTableRecord
100
AcDbBlockTableRecord
  2
4_405016_Inch_0_in_070786_2
340
0
102
{BLKREFS
331
143
102
}
 70
     0
280
     1
281
     0
  0
BLOCK_RECORD
  5
1BB
330
1
100
AcDbSymbolTableRecord
100
AcDbBlockTableRecord
  2
5_070786H_0_in_070786_2
340
0
102
{BLKREFS
331
1BC
102
}
 70
     0
280
     1
281
     0
  0
ENDTAB
  0
ENDSEC
  0
SECTION
  2
BLOCKS
  0
BLOCK
  5
20
330
1F
100
AcDbEntity
  8
0
100
AcDbBlockBegin
  2
*Model_Space
 70
     0
 10
0.0
 20
0.0
 30
0.0
  3
*Model_Space
  1

  0
ENDBLK
  5
21
330
1F
100
AcDbEntity
  8
0
100
AcDbBlockEnd
  0
BLOCK
  5
1C
330
1B
100
AcDbEntity
 67
     1
  8
0
100
AcDbBlockBegin
  2
*Paper_Space
 70
     0
 10
0.0
 20
0.0
 30
0.0
  3
*Paper_Space
  1

  0
ENDBLK
  5
1D
330
1B
100
AcDbEntity
 67
     1
  8
0
100
AcDbBlockEnd
  0
BLOCK
  5
24
330
23
100
AcDbEntity
  8
0
100
AcDbBlockBegin
  2
*Paper_Space0
 70
     0
 10
0.0
 20
0.0
 30
0.0
  3
*Paper_Space0
  1

  0
ENDBLK
  5
25
330
23
100
AcDbEntity
  8
0
100
AcDbBlockEnd
  0
BLOCK
  5
70
330
6E
100
AcDbEntity
  8
0
100
AcDbBlockBegin
  2
1_070786_2
 70
     2
 10
0.0
 20
0.0
 30
0.0
  3
1_070786_2
  1

  0
ATTDEF
  5
73
330
6E
100
AcDbEntity
  8
AM_6
100
AcDbText
 10
6.2984375
 20
2.375
 30
0.0
 40
0.5
  1
S-2000 Wide Slot Take-Up Trident Seal
100
AcDbAttributeDefinition
  3

  2
NN
 70
     8
280
     0
  0
ATTDEF
  5
74
330
6E
100
AcDbEntity
  8
AM_6
100
AcDbText
 10
6.2984375
 20
1.875
 30
0.0
 40
0.5
  1
S-2000 Wide Slot Take-Up Bearing -Inch
100
AcDbAttributeDefinition
  3

  2
NT
 70
     8
280
     0
  0
ATTDEF
  5
75
330
6E
100
AcDbEntity
  8
AM_6
100
AcDbText
 10
6.2984375
 20
1.375
 30
0.0
 40
0.5
  1
070786
100
AcDbAttributeDefinition
  3

  2
NB
 70
     8
280
     0
  0
ATTDEF
  5
76
330
6E
100
AcDbEntity
  8
AM_6
100
AcDbText
 10
6.2984375
 20
0.875
 30
0.0
 40
0.5
  1
$PN.
100
AcDbAttributeDefinition
  3

  2
NBSYN
 70
     8
280
     0
  0
ATTDEF
  5
77
330
6E
100
AcDbEntity
  8
AM_6
100
AcDbText
 10
6.2984375
 20
0.375
 30
0.0
 40
0.5
  1
070786
100
AcDbAttributeDefinition
  3

  2
LINA
 70
     8
280
     0
  0
ATTDEF
  5
78
330
6E
100
AcDbEntity
  8
AM_6
100
AcDbText
 10
6.2984375
 20
-0.125
 30
0.0
 40
0.5
  1
2
100
AcDbAttributeDefinition
  3

  2
SS
 70
     8
280
     0
  0
ATTDEF
  5
79
330
6E
100
AcDbEntity
  8
AM_6
100
AcDbText
 10
6.2984375
 20
-0.625
 30
0.0
 40
0.5
  1
070786
100
AcDbAttributeDefinition
  3

  2
PN
 70
     8
280
     0
  0
ATTDEF
  5
7A
330
6E
100
AcDbEntity
  8
AM_6
100
AcDbText
 10
6.2984375
 20
-1.125
 30
0.0
 40
0.5
  1
WSTU-S2-200RE
100
AcDbAttributeDefinition
  3

  2
DESCRIPTION
 70
     8
280
     0
  0
ATTDEF
  5
7B
330
6E
100
AcDbEntity
  8
AM_6
100
AcDbText
 10
6.2984375
 20
-1.625
 30
0.0
 40
0.5
  1
Expansion Type
100
AcDbAttributeDefinition
  3

  2
EF
 70
     8
280
     0
  0
ATTDEF
  5
7C
330
6E
100
AcDbEntity
  8
AM_6
100
AcDbText
 10
6.2984375
 20
-2.125
 30
0.0
 40
0.5
  1
Contact Seal
100
AcDbAttributeDefinition
  3

  2
ST
 70
     8
280
     0
  0
ATTDEF
  5
7D
330
6E
100
AcDbEntity
  8
AM_6
100
AcDbText
 10
6.2984375
 20
-2.625
 30
0.0
 40
0.5
  1
2-27/32
100
AcDbAttributeDefinition
  3

  2
A
 70
     8
280
     0
  0
ATTDEF
  5
7E
330
6E
100
AcDbEntity
  8
AM_6
100
AcDbText
 10
6.2984375
 20
-3.125
 30
0.0
 40
0.5
  1
6-3/16
100
AcDbAttributeDefinition
  3

  2
B
 70
     8
280
     0
  0
ATTDEF
  5
7F
330
6E
100
AcDbEntity
  8
AM_6
100
AcDbText
 10
6.2984375
 20
-3.625
 30
0.0
 40
0.5
  1
11/16
100
AcDbAttributeDefinition
  3

  2
C
 70
     8
280
     0
  0
ATTDEF
  5
80
330
6E
100
AcDbEntity
  8
AM_6
100
AcDbText
 10
6.2984375
 20
-4.125
 30
0.0
 40
0.5
  1
3-5/8
100
AcDbAttributeDefinition
  3

  2
D
 70
     8
280
     0
  0
ATTDEF
  5
81
330
6E
100
AcDbEntity
  8
AM_6
100
AcDbText
 10
6.2984375
 20
-4.625
 30
0.0
 40
0.5
  1
3-15/16
100
AcDbAttributeDefinition
  3

  2
E
 70
     8
280
     0
  0
ATTDEF
  5
82
330
6E
100
AcDbEntity
  8
AM_6
100
AcDbText
 10
6.2984375
 20
-5.125
 30
0.0
 40
0.5
  1
1-1/8
100
AcDbAttributeDefinition
  3

  2
F
 70
     8
280
     0
  0
ATTDEF
  5
83
330
6E
100
AcDbEntity
  8
AM_6
100
AcDbText
 10
6.2984375
 20
-5.625
 30
0.0
 40
0.5
  1
15/16
100
AcDbAttributeDefinition
  3

  2
G
 70
     8
280
     0
  0
ATTDEF
  5
84
330
6E
100
AcDbEntity
  8
AM_6
100
AcDbText
 10
6.2984375
 20
-6.125
 30
0.0
 40
0.5
  1
3/4
100
AcDbAttributeDefinition
  3

  2
H
 70
     8
280
     0
  0
ATTDEF
  5
85
330
6E
100
AcDbEntity
  8
AM_6
100
AcDbText
 10
6.2984375
 20
-6.625
 30
0.0
 40
0.5
  1
3-5/16
100
AcDbAttributeDefinition
  3

  2
J
 70
     8
280
     0
  0
ATTDEF
  5
86
330
6E
100
AcDbEntity
  8
AM_6
100
AcDbText
 10
6.2984375
 20
-7.125
 30
0.0
 40
0.5
  1
1-15/16
100
AcDbAttributeDefinition
  3

  2
K
 70
     8
280
     0
  0
ATTDEF
  5
87
330
6E
100
AcDbEntity
  8
AM_6
100
AcDbText
 10
6.2984375
 20
-7.625
 30
0.0
 40
0.5
  1
3-7/16
100
AcDbAttributeDefinition
  3

  2
L
 70
     8
280
     0
  0
ATTDEF
  5
88
330
6E
100
AcDbEntity
  8
AM_6
100
AcDbText
 10
6.2984375
 20
-8.125
 30
0.0
 40
0.5
  1
4
100
AcDbAttributeDefinition
  3

  2
M
 70
     8
280
     0
  0
ATTDEF
  5
89
330
6E
100
AcDbEntity
  8
AM_6
100
AcDbText
 10
6.2984375
 20
-8.625
 30
0.0
 40
0.5
  1
4-3/4
100
AcDbAttributeDefinition
  3

  2
N
 70
     8
280
     0
  0
ATTDEF
  5
8A
330
6E
100
AcDbEntity
  8
AM_6
100
AcDbText
 10
6.2984375
 20
-9.125
 30
0.0
 40
0.5
  1
2-15/16
100
AcDbAttributeDefinition
  3

  2
R
 70
     8
280
     0
  0
ATTDEF
  5
8B
330
6E
100
AcDbEntity
  8
AM_6
100
AcDbText
 10
6.2984375
 20
-9.625
 30
0.0
 40
0.5
  1
1-15/16
100
AcDbAttributeDefinition
  3

  2
S
 70
     8
280
     0
  0
ATTDEF
  5
8C
330
6E
100
AcDbEntity
  8
AM_6
100
AcDbText
 10
6.2984375
 20
-10.125
 30
0.0
 40
0.5
  1
2
100
AcDbAttributeDefinition
  3

  2
T
 70
     8
280
     0
  0
ATTDEF
  5
8D
330
6E
100
AcDbEntity
  8
AM_6
100
AcDbText
 10
6.2984375
 20
-10.625
 30
0.0
 40
0.5
  1
1/4
100
AcDbAttributeDefinition
  3

  2
X
 70
     8
280
     0
  0
ATTDEF
  5
8E
330
6E
100
AcDbEntity
  8
AM_6
100
AcDbText
 10
6.2984375
 20
-11.125
 30
0.0
 40
0.5
  1
0.020
100
AcDbAttributeDefinition
  3

  2
Y
 70
     8
280
     0
  0
ATTDEF
  5
8F
330
6E
100
AcDbEntity
  8
AM_6
100
AcDbText
 10
6.2984375
 20
-11.625
 30
0.0
 40
0.5
  1
2-19/64
100
AcDbAttributeDefinition
  3

  2
Z
 70
     8
280
     0
  0
ATTDEF
  5
90
330
6E
100
AcDbEntity
  8
AM_6
100
AcDbText
 10
6.2984375
 20
-12.125
 30
0.0
 40
0.5
  1
baldor
100
AcDbAttributeDefinition
  3

  2
COMPANY
 70
     8
280
     0
  0
INSERT
  5
92
330
6E
100
AcDbEntity
  8
0
100
AcDbBlockReference
  2
2_2CS2i_0_in_070786_2
 10
0.0
 20
0.0
 30
0.0
  0
INSERT
  5
DA
330
6E
100
AcDbEntity
  8
0
100
AcDbBlockReference
  2
3_070006i_0_in_070786_2
 10
0.0
 20
0.0
 30
0.0
  0
INSERT
  5
143
330
6E
100
AcDbEntity
  8
0
100
AcDbBlockReference
  2
4_405016_Inch_0_in_070786_2
 10
0.0
 20
0.0
 30
0.0
  0
INSERT
  5
1BC
330
6E
100
AcDbEntity
  8
0
100
AcDbBlockReference
  2
5_070786H_0_in_070786_2
 10
0.0
 20
0.0
 30
0.0
  0
ENDBLK
  5
71
330
6E
100
AcDbEntity
  8
0
100
AcDbBlockEnd
  0
BLOCK
  5
93
330
91
100
AcDbEntity
  8
0
100
AcDbBlockBegin
  2
2_2CS2i_0_in_070786_2
 70
     2
 10
0.0
 20
0.0
 30
0.0
  3
2_2CS2i_0_in_070786_2
  1

  0
ATTDEF
  5
95
330
91
100
AcDbEntity
  8
AM_6
100
AcDbText
 10
3.9465
 20
1.71875
 30
0.0
 40
0.5
  1
S-2000 Collar -Inch
100
AcDbAttributeDefinition
  3

  2
NN
 70
     8
280
     0
  0
ATTDEF
  5
96
330
91
100
AcDbEntity
  8
AM_6
100
AcDbText
 10
3.9465
 20
1.21875
 30
0.0
 40
0.5
  1
S-2000 Bearings
100
AcDbAttributeDefinition
  3

  2
NT
 70
     8
280
     0
  0
ATTDEF
  5
97
330
91
100
AcDbEntity
  8
AM_6
100
AcDbText
 10
3.9465
 20
0.7187500000000004
 30
0.0
 40
0.5
  1
2CS2i
100
AcDbAttributeDefinition
  3

  2
NB
 70
     8
280
     0
  0
ATTDEF
  5
98
330
91
100
AcDbEntity
  8
AM_6
100
AcDbText
 10
3.9465
 20
0.2187500000000004
 30
0.0
 40
0.5
  1
$BORE.CS2i
100
AcDbAttributeDefinition
  3

  2
NBSYN
 70
     8
280
     0
  0
ATTDEF
  5
99
330
91
100
AcDbEntity
  8
AM_6
100
AcDbText
 10
3.9465
 20
-0.2812499999999996
 30
0.0
 40
0.5
  1
2CS2i
100
AcDbAttributeDefinition
  3

  2
LINA
 70
     8
280
     0
  0
ATTDEF
  5
9A
330
91
100
AcDbEntity
  8
AM_6
100
AcDbText
 10
3.9465
 20
-0.7812499999999996
 30
0.0
 40
0.5
  1
2
100
AcDbAttributeDefinition
  3

  2
BORE
 70
     8
280
     0
  0
ATTDEF
  5
9B
330
91
100
AcDbEntity
  8
AM_6
100
AcDbText
 10
3.9465
 20
-1.28125
 30
0.0
 40
0.5
  1
2.000000
100
AcDbAttributeDefinition
  3

  2
BORE1
 70
     8
280
     0
  0
ATTDEF
  5
9C
330
91
100
AcDbEntity
  8
AM_6
100
AcDbText
 10
3.9465
 20
-1.78125
 30
0.0
 40
0.5
  1
3-7/16
100
AcDbAttributeDefinition
  3

  2
L1
 70
     8
280
     0
  0
ATTDEF
  5
9D
330
91
100
AcDbEntity
  8
AM_6
100
AcDbText
 10
3.9465
 20
-2.28125
 30
0.0
 40
0.5
  1
3.43750
100
AcDbAttributeDefinition
  3

  2
L
 70
     8
280
     0
  0
ATTDEF
  5
9E
330
91
100
AcDbEntity
  8
AM_6
100
AcDbText
 10
3.9465
 20
-2.78125
 30
0.0
 40
0.5
  1
3.34375
100
AcDbAttributeDefinition
  3

  2
L2
 70
     8
280
     0
  0
ATTDEF
  5
9F
330
91
100
AcDbEntity
  8
AM_6
100
AcDbText
 10
3.9465
 20
-3.28125
 30
0.0
 40
0.5
  1
3.50
100
AcDbAttributeDefinition
  3

  2
A
 70
     8
280
     0
  0
ATTDEF
  5
A0
330
91
100
AcDbEntity
  8
AM_6
100
AcDbText
 10
3.9465
 20
-3.78125
 30
0.0
 40
0.5
  1
1.62
100
AcDbAttributeDefinition
  3

  2
B
 70
     8
280
     0
  0
ATTDEF
  5
A1
330
91
100
AcDbEntity
  8
AM_6
100
AcDbText
 10
3.9465
 20
-4.28125
 30
0.0
 40
0.5
  1
2.31
100
AcDbAttributeDefinition
  3

  2
C
 70
     8
280
     0
  0
ATTDEF
  5
A2
330
91
100
AcDbEntity
  8
AM_6
100
AcDbText
 10
3.9465
 20
-4.78125
 30
0.0
 40
0.5
  1
3.50
100
AcDbAttributeDefinition
  3

  2
D
 70
     8
280
     0
  0
ATTDEF
  5
A3
330
91
100
AcDbEntity
  8
AM_6
100
AcDbText
 10
3.9465
 20
-5.28125
 30
0.0
 40
0.5
  1
0.41
100
AcDbAttributeDefinition
  3

  2
E
 70
     8
280
     0
  0
ATTDEF
  5
A4
330
91
100
AcDbEntity
  8
AM_6
100
AcDbText
 10
3.9465
 20
-5.78125
 30
0.0
 40
0.5
  1
0.317
100
AcDbAttributeDefinition
  3

  2
F
 70
     8
280
     0
  0
ATTDEF
  5
A5
330
91
100
AcDbEntity
  8
AM_6
100
AcDbText
 10
3.9465
 20
-6.28125
 30
0.0
 40
0.5
  1
3/8-16
100
AcDbAttributeDefinition
  3

  2
CS
 70
     8
280
     0
  0
ATTDEF
  5
A6
330
91
100
AcDbEntity
  8
AM_6
100
AcDbText
 10
3.9465
 20
-6.78125
 30
0.0
 40
0.5
  1
0.3750
100
AcDbAttributeDefinition
  3

  2
NDM
 70
     8
280
     0
  0
ATTDEF
  5
A7
330
91
100
AcDbEntity
  8
AM_6
100
AcDbText
 10
3.9465
 20
-7.28125
 30
0.0
 40
0.5
  1
0.3070
100
AcDbAttributeDefinition
  3

  2
KDM
 70
     8
280
     0
  0
ATTDEF
  5
A8
330
91
100
AcDbEntity
  8
AM_6
100
AcDbText
 10
3.9465
 20
-7.78125
 30
0.0
 40
0.5
  1
1
100
AcDbAttributeDefinition
  3

  2
DD
 70
     8
280
     0
  0
ATTDEF
  5
A9
330
91
100
AcDbEntity
  8
AM_6
100
AcDbText
 10
3.9465
 20
-8.28125
 30
0.0
 40
0.5
  1
baldor
100
AcDbAttributeDefinition
  3

  2
COMPANY
 70
     8
280
     0
  0
LINE
  5
AC
330
91
100
AcDbEntity
  8
AM_9
100
AcDbLine
 10
-1.21685
 20
1.163849999999998
 30
0.0
 11
-1.21685
 21
1.6849
 31
0.0
  0
LINE
  5
AD
330
91
100
AcDbEntity
  8
AM_9
100
AcDbLine
 10
-1.52415
 20
1.671829317052831
 30
0.0
 11
-1.52415
 21
1.163849999999998
 31
0.0
  0
LINE
  5
AE
330
91
100
AcDbEntity
  8
AM_9
100
AcDbLine
 10
-1.52415
 20
1.163849999999998
 30
0.0
 11
-1.21685
 21
1.163849999999998
 31
0.0
  0
LINE
  5
AF
330
91
100
AcDbEntity
  8
AM_9
100
AcDbLine
 10
-1.52415
 20
1.163849999999998
 30
0.0
 11
-1.532833859590501
 21
1.155166140409497
 31
0.0
  0
LINE
  5
B0
330
91
100
AcDbEntity
  8
AM_9
100
AcDbLine
 10
-1.208268486589466
 20
1.155268486589464
 30
0.0
 11
-1.21685
 21
1.163849999999998
 31
0.0
  0
LINE
  5
B1
330
91
100
AcDbEntity
  8
AM_9
100
AcDbLine
 10
-1.3705
 20
1.6849
 30
0.0
 11
-1.21685
 21
1.6849
 31
0.0
  0
LINE
  5
B2
330
91
100
AcDbEntity
  8
AM_9
100
AcDbLine
 10
-1.21685
 20
1.6849
 30
0.0
 11
-1.183
 21
1.71875
 31
0.0
  0
LWPOLYLINE
  5
B3
330
91
100
AcDbEntity
  8
AM_9
100
AcDbPolyline
 90
       39
 70
     0
 43
0.0
 10
-1.250770700757612
 20
0.3779306153227044
 10
-1.236073278082185
 20
0.396982385124557
 10
-1.224308271443683
 20
0.4176293360648101
 10
-1.214301432537048
 20
0.4439182519710251
 10
-1.208931658753938
 20
0.4710708270096682
 10
-1.208422827735138
 20
0.4993266874148425
 10
-1.21300684088404
 20
0.5269257457283382
 10
-1.222764255474738
 20
0.5533184649773224
 10
-1.237416029846859
 20
0.5775465560041885
 10
-1.256328571350549
 20
0.5985069496908864
 10
-1.279240925088392
 20
0.6160441469379788
 10
-1.304009356111882
 20
0.6288048404677827
 10
-1.331115795223777
 20
0.6374696658014952
 10
-1.357171165229202
 20
0.6414014566813416
 10
-1.383647638067584
 20
0.6414329664232032
 10
-1.408197315440199
 20
0.6378349976865144
 10
-1.431712472618771
 20
0.630908090442375
 10
-1.45390029802289
 20
0.620674193172453
 10
-1.473937085965839
 20
0.6075673369347369
 10
-1.492564809653995
 20
0.5906952130942349
 10
-1.507945301954541
 20
0.5713661406842145
 10
-1.520580868890707
 20
0.548212272045049
 10
-1.528904421512373
 20
0.523295179199191
 10
-1.532792849706192
 20
0.4958213139565711
 10
-1.531676650013289
 20
0.4677970280308617
 10
-1.525358942332216
 20
0.4394979658413348
 10
-1.514004583658788
 20
0.4122797271984379
 10
-1.497932303738319
 20
0.3872468336572877
 10
-1.477472829888135
 20
0.3650564070238989
 10
-1.454178283758052
 20
0.3473968064820112
 10
-1.427911069580451
 20
0.3340073621827003
 10
-1.401836514347769
 20
0.3261834974355968
 10
-1.374724615848441
 20
0.3229852316942747
 10
-1.349521520915244
 20
0.324387128498041
 10
-1.324919242035971
 20
0.3298323777881113
 10
-1.301855322039371
 20
0.3390024523154564
 10
-1.280578384257335
 20
0.3514964254536935
 10
-1.264836269731259
 20
0.3638867207156672
 10
-1.250770700757612
 20
0.3779306153227044
  0
LINE
  5
B4
330
91
100
AcDbEntity
  8
AM_9
100
AcDbLine
 10
-1.6875
 20
-1.155
 30
0.0
 11
-1.0535
 21
-1.155
 31
0.0
  0
LINE
  5
B5
330
91
100
AcDbEntity
  8
AM_9
100
AcDbLine
 10
-1.0535
 20
1.155
 30
0.0
 11
-1.208641874627086
 21
1.155
 31
0.0
  0
LINE
  5
B6
330
91
100
AcDbEntity
  8
AM_9
100
AcDbLine
 10
-1.532602342789092
 20
1.155
 30
0.0
 11
-1.6875
 21
1.155
 31
0.0
  0
LWPOLYLINE
  5
B7
330
91
100
AcDbEntity
  8
AM_9
100
AcDbPolyline
 90
       21
 70
     0
 43
0.0
 10
-1.532999999999292
 20
1.154999999999884
 10
-1.532900986662971
 20
1.15498379342257
 10
-1.52925712012805
 20
1.154393873255462
 10
-1.520631994249787
 20
1.153048235227185
 10
-1.506698885410673
 20
1.151026350938733
 10
-1.488885052348584
 20
1.148717802829725
 10
-1.466271329989636
 20
1.146240524342773
 10
-1.442315148278001
 20
1.144177281125706
 10
-1.414923654001466
 20
1.142534733138016
 10
-1.389263695572541
 20
1.141696141547657
 10
-1.362141036554752
 20
1.1415500348332
 10
-1.337739733160896
 20
1.14206930960979
 10
-1.313578803751199
 20
1.143188797776558
 10
-1.291397546785491
 20
1.144743350316933
 10
-1.270742928870743
 20
1.146640022566709
 10
-1.251898942507809
 20
1.148743921308349
 10
-1.235787017588642
 20
1.150821876167579
 10
-1.222595250353041
 20
1.152712392277049
 10
-1.213358838042087
 20
1.154136323883433
 10
-1.208573151141624
 20
1.154906315782236
 10
-1.208000000000019
 20
1.154999999999997
  0
ELLIPSE
  5
B8
330
91
100
AcDbEntity
  8
AM_9
100
AcDbEllipse
 10
-1.370500000000001
 20
0.4918642639269118
 30
0.0
 11
0.1536499999999991
 21
2.289563417434680E-9
 31
0.0
210
0.0
220
0.0
230
1.0
 40
0.9063077870366522
 41
2.268583540887497
 42
3.141592653589793
  0
LINE
  5
B9
330
91
100
AcDbEntity
  8
AM_9
100
AcDbLine
 10
-1.21685
 20
0.4918642639269121
 30
0.0
 11
-1.21685
 21
0.7120695092069046
 31
0.0
  0
LINE
  5
BA
330
91
100
AcDbEntity
  8
AM_9
100
AcDbLine
 10
-1.52415
 20
0.7065456216338938
 30
0.0
 11
-1.52415
 21
0.4918642639269121
 31
0.0
  0
ELLIPSE
  5
BB
330
91
100
AcDbEntity
  8
AM_9
100
AcDbEllipse
 10
-1.3705
 20
0.491864263926912
 30
0.0
 11
0.1536500000000001
 21
0.0
 31
0.0
210
0.0
220
0.0
230
1.0
 40
0.906307787036649
 41
3.141592653589793
 42
7.195070406291682
  0
LINE
  5
BC
330
91
100
AcDbEntity
  8
AM_9
100
AcDbLine
 10
-1.3705
 20
0.5728153177287234
 30
0.0
 11
-1.3705
 21
0.8428289026684154
 31
0.0
  0
LINE
  5
BD
330
91
100
AcDbEntity
  8
AM_9
100
AcDbLine
 10
-1.0535
 20
0.523660954227732
 30
0.0
 11
-1.0535
 21
-0.523660954227732
 31
0.0
  0
LINE
  5
BF
330
91
100
AcDbEntity
  8
AM_5
100
AcDbLine
 10
-1.558
 20
1.671875
 30
0.0
 11
-1.558
 21
1.155
 31
0.0
  0
LINE
  5
C0
330
91
100
AcDbEntity
  8
AM_5
100
AcDbLine
 10
-1.46425
 20
1.13
 30
0.0
 11
-1.558
 21
1.13
 31
0.0
  0
LINE
  5
C1
330
91
100
AcDbEntity
  8
AM_5
100
AcDbLine
 10
-1.183
 20
1.71875
 30
0.0
 11
-1.183
 21
1.155
 31
0.0
  0
LINE
  5
C2
330
91
100
AcDbEntity
  8
AM_5
100
AcDbLine
 10
-1.27675
 20
1.13
 30
0.0
 11
-1.183
 21
1.13
 31
0.0
  0
ELLIPSE
  5
C4
330
91
100
AcDbEntity
  8
AM_4
100
AcDbEllipse
 10
-1.3705
 20
0.4918642639269103
 30
0.0
 11
0.1536500000000012
 21
0.0
 31
0.0
210
0.0
220
0.0
230
1.0
 40
0.9063077870366546
 41
1.570796326794897
 42
2.268583555604861
  0
LWPOLYLINE
  5
C5
330
91
100
AcDbEntity
  8
AM_4
100
AcDbPolyline
 90
       11
 70
     0
 43
0.0
 10
-1.52414999933858
 20
0.7065519853387418
 10
-1.5231525561079
 20
0.7223677525029673
 10
-1.518066316752001
 20
0.7450798938133635
 10
-1.50885769827306
 20
0.7665635542834761
 10
-1.495711551078412
 20
0.7862473905750144
 10
-1.479062016143881
 20
0.8036135625653672
 10
-1.459252309063228
 20
0.8182307055177177
 10
-1.436934647229059
 20
0.829699244922787
 10
-1.412703436775501
 20
0.8376852193488313
 10
-1.38727282237596
 20
0.8420324150572488
 10
-1.3705
 20
0.8428289026684153
  0
ELLIPSE
  5
C6
330
91
100
AcDbEntity
  8
AM_4
100
AcDbEllipse
 10
-1.370499999999999
 20
0.7120695092069051
 30
0.0
 11
0.1536499999999994
 21
0.0
 31
0.0
210
0.0
220
0.0
230
1.0
 40
0.9063077870366487
 41
0.0
 42
1.570796326794897
  0
ELLIPSE
  5
C7
330
91
100
AcDbEntity
  8
AM_4
100
AcDbEllipse
 10
-1.3705
 20
0.4918642639269108
 30
0.0
 11
0.1536500000000014
 21
0.0
 31
0.0
210
0.0
220
0.0
230
1.0
 40
0.9063077870366499
 41
0.9118850991120979
 42
1.570796326794897
  0
LINE
  5
C8
330
91
100
AcDbEntity
  8
AM_4
100
AcDbLine
 10
-1.3705
 20
-1.71875
 30
0.0
 11
-1.3705
 21
0.5728153177287234
 31
0.0
  0
ELLIPSE
  5
C9
330
91
100
AcDbEntity
  8
AM_4
100
AcDbEllipse
 10
-1.370499999999999
 20
0.712069509206904
 30
0.0
 11
0.1536499999999994
 21
0.0
 31
0.0
210
0.0
220
0.0
230
1.0
 40
0.9063077870366487
 41
4.71238898038469
 42
6.283185307179586
  0
LWPOLYLINE
  5
CA
330
91
100
AcDbEntity
  8
AM_4
100
AcDbPolyline
 90
       11
 70
     0
 43
0.0
 10
-1.3705
 20
0.5643205197120527
 10
-1.396232005179207
 20
0.5663866780101692
 10
-1.421237211398877
 20
0.5724584470094645
 10
-1.444788552679179
 20
0.5823953811810795
 10
-1.466252610598775
 20
0.5958305184129878
 10
-1.485041329003416
 20
0.6124404091607075
 10
-1.500607577861147
 20
0.6316444970415929
 10
-1.512480991528923
 20
0.652934049888534
 10
-1.520343985596427
 20
0.6756163970244478
 10
-1.523906032941591
 20
0.6989667970565889
 10
-1.52414999933858
 20
0.7065519853387418
  0
LWPOLYLINE
  5
CB
330
91
100
AcDbEntity
  8
AM_4
100
AcDbPolyline
 90
       11
 70
     0
 43
0.0
 10
-1.3705
 20
1.664799595484393
 10
-1.395868605699438
 20
1.664992870639431
 10
-1.421237211398877
 20
1.665572561537183
 10
-1.444473567875275
 20
1.666442252785616
 10
-1.466252610598775
 20
1.667550975401196
 10
-1.484805966665376
 20
1.668719133689162
 10
-1.500607577861147
 20
1.6698759459738
 10
-1.512352043975834
 20
1.670832036892136
 10
-1.520343985596427
 20
1.671529513094047
 10
-1.523900876683711
 20
1.671852123272968
 10
-1.524149999999953
 20
1.671874999999996
  0
LINE
  5
CC
330
91
100
AcDbEntity
  8
AM_4
100
AcDbLine
 10
-1.581833333333333
 20
-1.671875
 30
0.0
 11
-1.3705
 21
-1.671875
 31
0.0
  0
LINE
  5
CD
330
91
100
AcDbEntity
  8
AM_4
100
AcDbLine
 10
-1.523651316279622
 20
1.671875
 30
0.0
 11
-1.581833333333333
 21
1.671875
 31
0.0
  0
LINE
  5
CE
330
91
100
AcDbEntity
  8
AM_4
100
AcDbLine
 10
-1.6875
 20
1.566208333333333
 30
0.0
 11
-1.6875
 21
-1.566208333333333
 31
0.0
  0
ARC
  5
CF
330
91
100
AcDbEntity
  8
AM_4
100
AcDbCircle
 10
-1.581833333333333
 20
-1.566208333333333
 30
0.0
 40
0.105666666666667
100
AcDbArc
 50
179.9999991462263
 51
270.0
  0
ARC
  5
D0
330
91
100
AcDbEntity
  8
AM_4
100
AcDbCircle
 10
-1.581833333333333
 20
1.566208333333333
 30
0.0
 40
0.105666666666667
100
AcDbArc
 50
90.0
 51
179.9999991462263
  0
LINE
  5
D1
330
91
100
AcDbEntity
  8
AM_4
100
AcDbLine
 10
-1.581833333333333
 20
1.671875
 30
0.0
 11
-1.581833333333333
 21
-1.671875
 31
0.0
  0
LINE
  5
D2
330
91
100
AcDbEntity
  8
AM_4
100
AcDbLine
 10
-1.3705
 20
1.709483644408685
 30
0.0
 11
-1.3705
 21
0.8428289026684154
 31
0.0
  0
LWPOLYLINE
  5
D3
330
91
100
AcDbEntity
  8
AM_4
100
AcDbPolyline
 90
       20
 70
     0
 43
0.0
 10
-1.3705
 20
0.8839935461136664
 10
-1.346956540255968
 20
0.8827704602397235
 10
-1.323755059594891
 20
0.8791269088512271
 10
-1.292997135914977
 20
0.870192284193473
 10
-1.263610789565219
 20
0.8564042619296152
 10
-1.238623123540388
 20
0.8391659542218922
 10
-1.216827849004654
 20
0.8175785154073791
 10
-1.200924811512153
 20
0.7945277981996288
 10
-1.189530813820807
 20
0.768327344412466
 10
-1.183976048069603
 20
0.7427777149904374
 10
-1.183407654116658
 20
0.7157236493827165
 10
-1.187661980617995
 20
0.6904235425830941
 10
-1.196711959468604
 20
0.6652448531997145
 10
-1.209851993982014
 20
0.6421061405004778
 10
-1.227299729506366
 20
0.6205387968669153
 10
-1.248513923217217
 20
0.601504255556413
 10
-1.273342373331685
 20
0.5853983471201033
 10
-1.301225531611538
 20
0.5729130873073736
 10
-1.33168570963239
 20
0.564599505893966
 10
-1.3705
 20
0.560924466434642
  0
LINE
  5
D4
330
91
100
AcDbEntity
  8
AM_4
100
AcDbLine
 10
-1.3705
 20
-1.71875
 30
0.0
 11
-1.0535
 21
-1.71875
 31
0.0
  0
LINE
  5
D5
330
91
100
AcDbEntity
  8
AM_4
100
AcDbLine
 10
-1.0535
 20
1.71875
 30
0.0
 11
-1.183
 21
1.71875
 31
0.0
  0
LWPOLYLINE
  5
D6
330
91
100
AcDbEntity
  8
AM_4
100
AcDbPolyline
 90
       11
 70
     0
 43
0.0
 10
-1.18300000000004
 20
1.718749999999996
 10
-1.183407654116658
 20
1.718709945620833
 10
-1.187661980617995
 20
1.718297037634551
 10
-1.196711959468604
 20
1.717449711877597
 10
-1.209851993982014
 20
1.716294780493615
 10
-1.227299729506366
 20
1.714899617463105
 10
-1.248513923217217
 20
1.713416876990633
 10
-1.273342373331685
 20
1.711980611192172
 10
-1.301225531611538
 20
1.710753888887781
 10
-1.33168570963239
 20
1.709882600018857
 10
-1.3705
 20
1.709483644408685
  0
LINE
  5
D7
330
91
100
AcDbEntity
  8
AM_4
100
AcDbLine
 10
-1.0535
 20
-0.523660954227732
 30
0.0
 11
-1.0535
 21
-1.71875
 31
0.0
  0
LINE
  5
D8
330
91
100
AcDbEntity
  8
AM_4
100
AcDbLine
 10
-1.0535
 20
1.71875
 30
0.0
 11
-1.0535
 21
0.523660954227732
 31
0.0
  0
ENDBLK
  5
94
330
91
100
AcDbEntity
  8
0
100
AcDbBlockEnd
  0
BLOCK
  5
DB
330
D9
100
AcDbEntity
  8
0
100
AcDbBlockBegin
  2
3_070006i_0_in_070786_2
 70
     2
 10
0.0
 20
0.0
 30
0.0
  3
3_070006i_0_in_070786_2
  1

  0
ATTDEF
  5
DD
330
D9
100
AcDbEntity
  8
AM_6
100
AcDbText
 10
6.2984375
 20
1.77165
 30
0.0
 40
0.5
  1
S-2000 Insert -Inch
100
AcDbAttributeDefinition
  3

  2
NN
 70
     8
280
     0
  0
ATTDEF
  5
DE
330
D9
100
AcDbEntity
  8
AM_6
100
AcDbText
 10
6.2984375
 20
1.27165
 30
0.0
 40
0.5
  1
S-2000 Bearings
100
AcDbAttributeDefinition
  3

  2
NT
 70
     8
280
     0
  0
ATTDEF
  5
DF
330
D9
100
AcDbEntity
  8
AM_6
100
AcDbText
 10
6.2984375
 20
0.77165
 30
0.0
 40
0.5
  1
070006i
100
AcDbAttributeDefinition
  3

  2
NB
 70
     8
280
     0
  0
ATTDEF
  5
E0
330
D9
100
AcDbEntity
  8
AM_6
100
AcDbText
 10
6.2984375
 20
0.2716499999999999
 30
0.0
 40
0.5
  1
$PN.i
100
AcDbAttributeDefinition
  3

  2
NBSYN
 70
     8
280
     0
  0
ATTDEF
  5
E1
330
D9
100
AcDbEntity
  8
AM_6
100
AcDbText
 10
6.2984375
 20
-0.2283500000000001
 30
0.0
 40
0.5
  1
070006i
100
AcDbAttributeDefinition
  3

  2
LINA
 70
     8
280
     0
  0
ATTDEF
  5
E2
330
D9
100
AcDbEntity
  8
AM_6
100
AcDbText
 10
6.2984375
 20
-0.72835
 30
0.0
 40
0.5
  1
2
100
AcDbAttributeDefinition
  3

  2
SS
 70
     8
280
     0
  0
ATTDEF
  5
E3
330
D9
100
AcDbEntity
  8
AM_6
100
AcDbText
 10
6.2984375
 20
-1.22835
 30
0.0
 40
0.5
  1
2.31
100
AcDbAttributeDefinition
  3

  2
CC
 70
     8
280
     0
  0
ATTDEF
  5
E4
330
D9
100
AcDbEntity
  8
AM_6
100
AcDbText
 10
6.2984375
 20
-1.72835
 30
0.0
 40
0.5
  1
2.000000
100
AcDbAttributeDefinition
  3

  2
SS1
 70
     8
280
     0
  0
ATTDEF
  5
E5
330
D9
100
AcDbEntity
  8
AM_6
100
AcDbText
 10
6.2984375
 20
-2.22835
 30
0.0
 40
0.5
  1
070006
100
AcDbAttributeDefinition
  3

  2
PN
 70
     8
280
     0
  0
ATTDEF
  5
E6
330
D9
100
AcDbEntity
  8
AM_6
100
AcDbText
 10
6.2984375
 20
-2.72835
 30
0.0
 40
0.5
  1
INS-S2-200R
100
AcDbAttributeDefinition
  3

  2
DESCRIPTION
 70
     8
280
     0
  0
ATTDEF
  5
E7
330
D9
100
AcDbEntity
  8
AM_6
100
AcDbText
 10
6.2984375
 20
-3.22835
 30
0.0
 40
0.5
  1
Contact Seal
100
AcDbAttributeDefinition
  3

  2
ST
 70
     8
280
     0
  0
ATTDEF
  5
E8
330
D9
100
AcDbEntity
  8
AM_6
100
AcDbText
 10
6.2984375
 20
-3.72835
 30
0.0
 40
0.5
  1
1
100
AcDbAttributeDefinition
  3

  2
ST1
 70
     8
280
     0
  0
ATTDEF
  5
E9
330
D9
100
AcDbEntity
  8
AM_6
100
AcDbText
 10
6.2984375
 20
-4.22835
 30
0.0
 40
0.5
  1
3.5433
100
AcDbAttributeDefinition
  3

  2
A
 70
     8
280
     0
  0
ATTDEF
  5
EA
330
D9
100
AcDbEntity
  8
AM_6
100
AcDbText
 10
6.2984375
 20
-4.72835
 30
0.0
 40
0.5
  1
61/64
100
AcDbAttributeDefinition
  3

  2
B
 70
     8
280
     0
  0
ATTDEF
  5
EB
330
D9
100
AcDbEntity
  8
AM_6
100
AcDbText
 10
6.2984375
 20
-5.22835
 30
0.0
 40
0.5
  1
2-27/32
100
AcDbAttributeDefinition
  3

  2
C
 70
     8
280
     0
  0
ATTDEF
  5
EC
330
D9
100
AcDbEntity
  8
AM_6
100
AcDbText
 10
6.2984375
 20
-5.72835
 30
0.0
 40
0.5
  1
0.977
100
AcDbAttributeDefinition
  3

  2
D
 70
     8
280
     0
  0
ATTDEF
  5
ED
330
D9
100
AcDbEntity
  8
AM_6
100
AcDbText
 10
6.2984375
 20
-6.22835
 30
0.0
 40
0.5
  1
3-11/32
100
AcDbAttributeDefinition
  3

  2
E
 70
     8
280
     0
  0
ATTDEF
  5
EE
330
D9
100
AcDbEntity
  8
AM_6
100
AcDbText
 10
6.2984375
 20
-6.72835
 30
0.0
 40
0.5
  1
0.53125
100
AcDbAttributeDefinition
  3

  2
F
 70
     8
280
     0
  0
ATTDEF
  5
EF
330
D9
100
AcDbEntity
  8
AM_6
100
AcDbText
 10
6.2984375
 20
-7.22835
 30
0.0
 40
0.5
  1
1
100
AcDbAttributeDefinition
  3

  2
DD
 70
     8
280
     0
  0
ATTDEF
  5
F0
330
D9
100
AcDbEntity
  8
AM_6
100
AcDbText
 10
6.2984375
 20
-7.72835
 30
0.0
 40
0.5
  1
baldor
100
AcDbAttributeDefinition
  3

  2
COMPANY
 70
     8
280
     0
  0
LINE
  5
F1
330
D9
100
AcDbEntity
  8
AM_9
100
AcDbLine
 10
-1.5755
 20
1.154877756637567
 30
0.0
 11
-1.5755
 21
1.0
 31
0.0
  0
LINE
  5
F2
330
D9
100
AcDbEntity
  8
AM_9
100
AcDbLine
 10
-1.1655
 20
1.0
 30
0.0
 11
-1.1655
 21
1.154962221367664
 31
0.0
  0
LINE
  5
F3
330
D9
100
AcDbEntity
  8
AM_9
100
AcDbLine
 10
-1.5755
 20
0.4881240923105079
 30
0.0
 11
-1.5755
 21
0.4225897699030136
 31
0.0
  0
LINE
  5
F4
330
D9
100
AcDbEntity
  8
AM_9
100
AcDbLine
 10
-1.1655
 20
0.4225578444136548
 30
0.0
 11
-1.1655
 21
0.4881240923105079
 31
0.0
  0
LWPOLYLINE
  5
F5
330
D9
100
AcDbEntity
  8
AM_9
100
AcDbPolyline
 90
        3
 70
     0
 43
0.0
 10
-1.572006270089942
 20
0.4564730262009933
 10
-1.57544994397566
 20
0.4267194562545711
 10
-1.575499998999768
 20
0.4226366151136874
  0
LWPOLYLINE
  5
F6
330
D9
100
AcDbEntity
  8
AM_9
100
AcDbPolyline
 90
        6
 70
     0
 43
0.0
 10
-1.504637249504255
 20
0.5580079065365553
 10
-1.527365257303498
 20
0.5385344765929791
 10
-1.547359810253069
 20
0.5142529731756984
 10
-1.562339287254995
 20
0.4870104172949201
 10
-1.571739445524966
 20
0.457612105786844
 10
-1.572006270089942
 20
0.4564730262009933
  0
LWPOLYLINE
  5
F7
330
D9
100
AcDbEntity
  8
AM_9
100
AcDbPolyline
 90
        4
 70
     0
 43
0.0
 10
-1.450403424357176
 20
0.5861176997855472
 10
-1.475540800011407
 20
0.5755678434116003
 10
-1.503287843964381
 20
0.5589588513061597
 10
-1.504637249504255
 20
0.5580079065365553
  0
LWPOLYLINE
  5
F8
330
D9
100
AcDbEntity
  8
AM_9
100
AcDbPolyline
 90
        4
 70
     0
 43
0.0
 10
-1.234902666865805
 20
0.5569361485084685
 10
-1.24908480377235
 20
0.5664934922536629
 10
-1.278568316156538
 20
0.5815268920400453
 10
-1.299715426709471
 20
0.5890890457867343
  0
LWPOLYLINE
  5
F9
330
D9
100
AcDbEntity
  8
AM_9
100
AcDbPolyline
 90
        6
 70
     0
 43
0.0
 10
-1.168603861426903
 20
0.4545596681198957
 10
-1.173018660592632
 20
0.471766220930593
 10
-1.184715962022485
 20
0.4995656485020914
 10
-1.201594448914185
 20
0.5250145792109282
 10
-1.223056113061309
 20
0.5473920527276863
 10
-1.234902666865805
 20
0.5569361485084685
  0
LWPOLYLINE
  5
FA
330
D9
100
AcDbEntity
  8
AM_9
100
AcDbPolyline
 90
        3
 70
     0
 43
0.0
 10
-1.165500000528258
 20
0.4226049236980905
 10
-1.166650161941116
 20
0.4421722574912293
 10
-1.168603861426903
 20
0.4545596681198957
  0
LWPOLYLINE
  5
FB
330
D9
100
AcDbEntity
  8
AM_9
100
AcDbPolyline
 90
       11
 70
     0
 43
0.0
 10
-1.575499998999768
 20
0.4226366151136874
 10
-1.573357763211015
 20
0.3957732371423081
 10
-1.565731369249134
 20
0.3651219591332633
 10
-1.552768271809792
 20
0.3357554165575195
 10
-1.534902110309404
 20
0.3084490173138481
 10
-1.512148046698552
 20
0.2836691071133137
 10
-1.485444248219814
 20
0.262645590565302
 10
-1.455106578002177
 20
0.2459775210583136
 10
-1.422298784148368
 20
0.2344573093430225
 10
-1.39661953880751
 20
0.2295190123437953
 10
-1.3705
 20
0.2278495873897979
  0
LWPOLYLINE
  5
FC
330
D9
100
AcDbEntity
  8
AM_9
100
AcDbPolyline
 90
        8
 70
     0
 43
0.0
 10
-1.246229659155949
 20
0.6310004021899709
 10
-1.236418559939227
 20
0.6242252158873673
 10
-1.212469404785717
 20
0.6033408369111426
 10
-1.192745335435469
 20
0.5787257344100867
 10
-1.178055624917102
 20
0.5512328414947232
 10
-1.168941907098632
 20
0.5216613630812379
 10
-1.165519874684364
 20
0.4907096659398389
 10
-1.165500000576729
 20
0.4881380287629355
  0
LWPOLYLINE
  5
FD
330
D9
100
AcDbEntity
  8
AM_9
100
AcDbPolyline
 90
       10
 70
     0
 43
0.0
 10
-1.498257478856362
 20
0.6286995562887309
 10
-1.490981352391879
 20
0.6333634238699369
 10
-1.461400303144283
 20
0.648436972693003
 10
-1.42912500327932
 20
0.6590286972977397
 10
-1.395145425831918
 20
0.6649324833827779
 10
-1.360904582061244
 20
0.6659645037566185
 10
-1.326937555419073
 20
0.6622764730365416
 10
-1.294460575943977
 20
0.6539702262409812
 10
-1.264092745364521
 20
0.6412787325986632
 10
-1.246229659155949
 20
0.6310004021899709
  0
LWPOLYLINE
  5
FE
330
D9
100
AcDbEntity
  8
AM_9
100
AcDbPolyline
 90
        7
 70
     0
 43
0.0
 10
-1.575499999363772
 20
0.4881094545278524
 10
-1.574294998115517
 20
0.5081490698992479
 10
-1.567798212665202
 20
0.537937138922821
 10
-1.555920443226721
 20
0.5659633614361719
 10
-1.53883651427101
 20
0.5916166019356104
 10
-1.517139899355452
 20
0.6141873703698317
 10
-1.498257478856362
 20
0.6286995562887309
  0
LWPOLYLINE
  5
FF
330
D9
100
AcDbEntity
  8
AM_9
100
AcDbPolyline
 90
       11
 70
     0
 43
0.0
 10
-1.165500000576729
 20
0.4881380287629355
 10
-1.167907761293979
 20
0.4596740657920109
 10
-1.175863953789169
 20
0.429038600303694
 10
-1.189202571434621
 20
0.3997597701124795
 10
-1.207476360126783
 20
0.3726435244119451
 10
-1.230566196985514
 20
0.3482500085262514
 10
-1.257573889191244
 20
0.3276763021680447
 10
-1.288060959345697
 20
0.3115511382649416
 10
-1.320935264890733
 20
0.300549654389962
 10
-1.345526989680055
 20
0.2960869521883451
 10
-1.3705
 20
0.2945809289154057
  0
LWPOLYLINE
  5
100
330
D9
100
AcDbEntity
  8
AM_9
100
AcDbPolyline
 90
       11
 70
     0
 43
0.0
 10
-1.3705
 20
0.2278495873897979
 10
-1.336493912576419
 20
0.2306960036890418
 10
-1.303456388462615
 20
0.2390356625584262
 10
-1.272359147874855
 20
0.2526198424240899
 10
-1.243984367114789
 20
0.2708934676453657
 10
-1.218817408240864
 20
0.2936235868526592
 10
-1.197883840115097
 20
0.3198037996069842
 10
-1.181701194872995
 20
0.3489255657489853
 10
-1.170895353760841
 20
0.379811825451323
 10
-1.165915869700951
 20
0.4110680234188425
 10
-1.165500000528258
 20
0.4226049236980905
  0
LWPOLYLINE
  5
101
330
D9
100
AcDbEntity
  8
AM_9
100
AcDbPolyline
 90
       11
 70
     0
 43
0.0
 10
-1.3705
 20
0.9787619731068429
 10
-1.336978194231308
 20
0.9793358522294556
 10
-1.303456388462615
 20
0.9810554754181723
 10
-1.272766248866855
 20
0.9836294455284244
 10
-1.243984367114789
 20
0.986904861354095
 10
-1.219129532714186
 20
0.9903979091084177
 10
-1.197883840115097
 20
0.9938668616335946
 10
-1.181882314099073
 20
0.9967706012090349
 10
-1.170895353760841
 20
0.9989079110710156
 10
-1.165926187271197
 20
0.9999127186181801
 10
-1.165500000000905
 20
0.9999999999998146
  0
LINE
  5
102
330
D9
100
AcDbEntity
  8
AM_9
100
AcDbLine
 10
1.15625
 20
1.0
 30
0.0
 11
-1.1655
 21
1.0
 31
0.0
  0
LINE
  5
103
330
D9
100
AcDbEntity
  8
AM_9
100
AcDbLine
 10
-1.5755
 20
1.0
 30
0.0
 11
-1.6875
 21
1.0
 31
0.0
  0
LINE
  5
104
330
D9
100
AcDbEntity
  8
AM_9
100
AcDbLine
 10
-1.6875
 20
-1.0
 30
0.0
 11
1.15625
 21
-1.0
 31
0.0
  0
LINE
  5
105
330
D9
100
AcDbEntity
  8
AM_9
100
AcDbLine
 10
-1.564881237108657
 20
0.9978772796992085
 30
0.0
 11
-1.575499999998435
 21
0.9999999999996793
 31
0.0
  0
LINE
  5
106
330
D9
100
AcDbEntity
  8
AM_9
100
AcDbLine
 10
-1.357510553339594
 20
0.9788481627527951
 30
0.0
 11
-1.37515985778625
 21
0.9787730657688676
 31
0.0
  0
LWPOLYLINE
  5
107
330
D9
100
AcDbEntity
  8
AM_9
100
AcDbPolyline
 90
       11
 70
     0
 43
0.0
 10
-1.575499999998435
 20
0.9999999999996793
 10
-1.573447954838699
 20
0.999581348552088
 10
-1.565731369249134
 20
0.9980432292936472
 10
-1.552998534593898
 20
0.9956308126654781
 10
-1.534902110309404
 20
0.9924732005823562
 10
-1.512508833309517
 20
0.9890103683672535
 10
-1.485444248219814
 20
0.985488295312947
 10
-1.455582045599567
 20
0.9824530291486749
 10
-1.422298784148368
 20
0.9801316819893384
 10
-1.396841648089188
 20
0.9791163783861725
 10
-1.3705
 20
0.9787619731068429
  0
LINE
  5
108
330
D9
100
AcDbEntity
  8
AM_9
100
AcDbLine
 10
1.15625
 20
-0.217184213244654
 30
0.0
 11
1.15625
 21
0.2171842132446538
 31
0.0
  0
LINE
  5
109
330
D9
100
AcDbEntity
  8
AM_9
100
AcDbLine
 10
1.0
 20
1.155
 30
0.0
 11
0.8807500000000006
 21
1.155
 31
0.0
  0
LINE
  5
10A
330
D9
100
AcDbEntity
  8
AM_9
100
AcDbLine
 10
0.8807500000000006
 20
-1.155
 30
0.0
 11
1.0
 21
-1.155
 31
0.0
  0
LWPOLYLINE
  5
10B
330
D9
100
AcDbEntity
  8
AM_9
100
AcDbPolyline
 90
       11
 70
     0
 43
0.0
 10
-1.3705
 20
0.2945809289154057
 10
-1.40460843538501
 20
0.2974090635686094
 10
-1.437748002252064
 20
0.3057019191665715
 10
-1.468947523479572
 20
0.3192274373077653
 10
-1.497405193923415
 20
0.3374457705877584
 10
-1.522541955311809
 20
0.3600553481938412
 10
-1.543424449120014
 20
0.3861162654203096
 10
-1.559499307750009
 20
0.415057967683503
 10
-1.570205549264893
 20
0.4457796282625968
 10
-1.575113652474625
 20
0.4770156832445993
 10
-1.575499999363772
 20
0.4881094545278524
  0
LWPOLYLINE
  5
10C
330
D9
100
AcDbEntity
  8
AM_9
100
AcDbPolyline
 90
       11
 70
     0
 43
0.0
 10
-1.3705
 20
1.136661779070626
 10
-1.404124001126032
 20
1.137158992160605
 10
-1.437748002252064
 20
1.138649328725439
 10
-1.46853633428095
 20
1.140881730434512
 10
-1.497405193923415
 20
1.1437241486673
 10
-1.522229194740476
 20
1.146743976891352
 10
-1.543424449120014
 20
1.149740346818994
 10
-1.559321069430812
 20
1.15223842856459
 10
-1.570205549264893
 20
1.154072054252763
 10
-1.575104431485292
 20
1.154929856477622
 10
-1.575499999999383
 20
1.154999999999891
  0
LINE
  5
10D
330
D9
100
AcDbEntity
  8
AM_9
100
AcDbLine
 10
-1.0535
 20
1.155
 30
0.0
 11
-1.165714888604288
 21
1.155
 31
0.0
  0
LINE
  5
10E
330
D9
100
AcDbEntity
  8
AM_9
100
AcDbLine
 10
-0.5222500000000001
 20
1.155
 30
0.0
 11
-0.9999999999999999
 21
1.155
 31
0.0
  0
LINE
  5
10F
330
D9
100
AcDbEntity
  8
AM_9
100
AcDbLine
 10
-1.574809419942035
 20
1.155
 30
0.0
 11
-1.6875
 21
1.155
 31
0.0
  0
LINE
  5
110
330
D9
100
AcDbEntity
  8
AM_9
100
AcDbLine
 10
-0.9999999999999999
 20
-1.155
 30
0.0
 11
-0.5222500000000001
 21
-1.155
 31
0.0
  0
LINE
  5
111
330
D9
100
AcDbEntity
  8
AM_9
100
AcDbLine
 10
-1.6875
 20
-1.155
 30
0.0
 11
-1.0535
 21
-1.155
 31
0.0
  0
LINE
  5
112
330
D9
100
AcDbEntity
  8
AM_9
100
AcDbLine
 10
-1.170895680631518
 20
1.154054541306673
 30
0.0
 11
-1.165500000000512
 21
1.154999999999909
 31
0.0
  0
LINE
  5
113
330
D9
100
AcDbEntity
  8
AM_9
100
AcDbLine
 10
-1.382947183144433
 20
1.136729929388778
 30
0.0
 11
-1.364984740588999
 21
1.136675159439306
 31
0.0
  0
LWPOLYLINE
  5
114
330
D9
100
AcDbEntity
  8
AM_9
100
AcDbPolyline
 90
       11
 70
     0
 43
0.0
 10
-1.165500000000512
 20
1.154999999999909
 10
-1.167813289603336
 20
1.154591660532598
 10
-1.175863953789169
 20
1.153205615007395
 10
-1.188964750620486
 20
1.151066916719998
 10
-1.207476360126783
 20
1.148292953543438
 10
-1.230198368403657
 20
1.14528797593819
 10
-1.257573889191244
 20
1.14225754823612
 10
-1.287586840693594
 20
1.139681794180362
 10
-1.320935264890733
 20
1.13774191404134
 10
-1.345334828794658
 20
1.136940317625246
 10
-1.3705
 20
1.136661779070626
  0
LINE
  5
115
330
D9
100
AcDbEntity
  8
AM_9
100
AcDbLine
 10
-0.2973124999999997
 20
1.41732
 30
0.0
 11
-0.4269375000000004
 21
1.41732
 31
0.0
  0
LINE
  5
116
330
D9
100
AcDbEntity
  8
AM_9
100
AcDbLine
 10
-0.4269375000000004
 20
-1.41732
 30
0.0
 11
-0.2973124999999997
 21
-1.41732
 31
0.0
  0
LINE
  5
117
330
D9
100
AcDbEntity
  8
AM_9
100
AcDbLine
 10
-0.4269375000000004
 20
-1.41732
 30
0.0
 11
-0.4269375000000004
 21
1.41732
 31
0.0
  0
LINE
  5
118
330
D9
100
AcDbEntity
  8
AM_9
100
AcDbLine
 10
-0.5222500000000001
 20
-1.3220075
 30
0.0
 11
-0.5222500000000001
 21
1.3220075
 31
0.0
  0
ARC
  5
119
330
D9
100
AcDbEntity
  8
AM_9
100
AcDbCircle
 10
-0.4269375000000006
 20
1.3220075
 30
0.0
 40
0.0953124999999997
100
AcDbArc
 50
90.0
 51
179.9999991462263
  0
ARC
  5
11A
330
D9
100
AcDbEntity
  8
AM_9
100
AcDbCircle
 10
-0.4269375000000006
 20
-1.3220075
 30
0.0
 40
0.0953124999999995
100
AcDbArc
 50
179.9999991462263
 51
270.0
  0
LINE
  5
11B
330
D9
100
AcDbEntity
  8
AM_9
100
AcDbLine
 10
0.7854375000000001
 20
1.41732
 30
0.0
 11
0.6558125
 21
1.41732
 31
0.0
  0
LINE
  5
11C
330
D9
100
AcDbEntity
  8
AM_9
100
AcDbLine
 10
0.6558125
 20
-1.41732
 30
0.0
 11
0.7854375000000001
 21
-1.41732
 31
0.0
  0
LINE
  5
11D
330
D9
100
AcDbEntity
  8
AM_9
100
AcDbLine
 10
0.8807500000000006
 20
-1.3220075
 30
0.0
 11
0.8807500000000006
 21
1.3220075
 31
0.0
  0
LINE
  5
11E
330
D9
100
AcDbEntity
  8
AM_9
100
AcDbLine
 10
0.7854375000000001
 20
-1.41732
 30
0.0
 11
0.7854375000000001
 21
1.41732
 31
0.0
  0
ARC
  5
11F
330
D9
100
AcDbEntity
  8
AM_9
100
AcDbCircle
 10
0.7854375000000009
 20
1.3220075
 30
0.0
 40
0.0953124999999997
100
AcDbArc
 50
0.0
 51
90.0
  0
ARC
  5
120
330
D9
100
AcDbEntity
  8
AM_9
100
AcDbCircle
 10
0.7854375000000009
 20
-1.3220075
 30
0.0
 40
0.0953124999999995
100
AcDbArc
 50
270.0
 51
0.0
  0
LINE
  5
121
330
D9
100
AcDbEntity
  8
AM_9
100
AcDbLine
 10
0.2269062500000009
 20
1.700784
 30
0.0
 11
0.1315937499999996
 21
1.700784
 31
0.0
  0
LINE
  5
122
330
D9
100
AcDbEntity
  8
AM_9
100
AcDbLine
 10
0.1315937499999996
 20
-1.700784
 30
0.0
 11
0.2269062500000009
 21
-1.700784
 31
0.0
  0
LINE
  5
123
330
D9
100
AcDbEntity
  8
AM_9
100
AcDbLine
 10
-0.2973124999999997
 20
-1.6763375
 30
0.0
 11
-0.2973124999999997
 21
1.6763375
 31
0.0
  0
ARC
  5
124
330
D9
100
AcDbEntity
  8
AM_9
100
AcDbCircle
 10
-0.2019999999999995
 20
1.6763375
 30
0.0
 40
0.0953125000000004
100
AcDbArc
 50
90.0
 51
180.0
  0
ARC
  5
125
330
D9
100
AcDbEntity
  8
AM_9
100
AcDbCircle
 10
-0.2019999999999995
 20
-1.6763375
 30
0.0
 40
0.0953125000000002
100
AcDbArc
 50
180.0
 51
270.0
  0
LINE
  5
126
330
D9
100
AcDbEntity
  8
AM_9
100
AcDbLine
 10
0.0906792458236075
 20
1.77165
 30
0.0
 11
-0.2020000000000001
 21
1.77165
 31
0.0
  0
LINE
  5
127
330
D9
100
AcDbEntity
  8
AM_9
100
AcDbLine
 10
-0.2020000000000001
 20
-1.77165
 30
0.0
 11
0.0906792458236075
 21
-1.77165
 31
0.0
  0
LINE
  5
128
330
D9
100
AcDbEntity
  8
AM_9
100
AcDbLine
 10
-0.2020000000000001
 20
-1.77165
 30
0.0
 11
-0.2020000000000001
 21
1.77165
 31
0.0
  0
LINE
  5
129
330
D9
100
AcDbEntity
  8
AM_9
100
AcDbLine
 10
0.2269062500000009
 20
-1.700784
 30
0.0
 11
0.2678207541763928
 21
-1.77165
 31
0.0
  0
LINE
  5
12A
330
D9
100
AcDbEntity
  8
AM_9
100
AcDbLine
 10
0.2678207541763928
 20
1.77165
 30
0.0
 11
0.2269062500000009
 21
1.700784
 31
0.0
  0
LINE
  5
12B
330
D9
100
AcDbEntity
  8
AM_9
100
AcDbLine
 10
0.2269062500000009
 20
-1.700784
 30
0.0
 11
0.2269062500000009
 21
1.700784
 31
0.0
  0
LINE
  5
12C
330
D9
100
AcDbEntity
  8
AM_9
100
AcDbLine
 10
0.5605000000000001
 20
1.77165
 30
0.0
 11
0.2678207541763928
 21
1.77165
 31
0.0
  0
LINE
  5
12D
330
D9
100
AcDbEntity
  8
AM_9
100
AcDbLine
 10
0.2678207541763928
 20
-1.77165
 30
0.0
 11
0.5605000000000001
 21
-1.77165
 31
0.0
  0
LINE
  5
12E
330
D9
100
AcDbEntity
  8
AM_9
100
AcDbLine
 10
0.2678207541763928
 20
-1.77165
 30
0.0
 11
0.2678207541763928
 21
1.77165
 31
0.0
  0
LINE
  5
12F
330
D9
100
AcDbEntity
  8
AM_9
100
AcDbLine
 10
0.1315937499999996
 20
1.700784
 30
0.0
 11
0.0906792458236075
 21
1.77165
 31
0.0
  0
LINE
  5
130
330
D9
100
AcDbEntity
  8
AM_9
100
AcDbLine
 10
0.0906792458236075
 20
-1.77165
 30
0.0
 11
0.1315937499999996
 21
-1.700784
 31
0.0
  0
LINE
  5
131
330
D9
100
AcDbEntity
  8
AM_9
100
AcDbLine
 10
0.1315937499999996
 20
-1.700784
 30
0.0
 11
0.1315937499999996
 21
1.700784
 31
0.0
  0
LINE
  5
132
330
D9
100
AcDbEntity
  8
AM_9
100
AcDbLine
 10
0.0906792458236075
 20
-1.77165
 30
0.0
 11
0.0906792458236075
 21
1.77165
 31
0.0
  0
LINE
  5
133
330
D9
100
AcDbEntity
  8
AM_9
100
AcDbLine
 10
0.6558125
 20
-1.676337499999999
 30
0.0
 11
0.6558125
 21
1.676337499999999
 31
0.0
  0
ARC
  5
134
330
D9
100
AcDbEntity
  8
AM_9
100
AcDbCircle
 10
0.5604999999999994
 20
1.676337499999999
 30
0.0
 40
0.0953125000000006
100
AcDbArc
 50
0.0
 51
90.0
  0
ARC
  5
135
330
D9
100
AcDbEntity
  8
AM_9
100
AcDbCircle
 10
0.5604999999999994
 20
-1.676337499999999
 30
0.0
 40
0.0953125000000006
100
AcDbArc
 50
270.0
 51
0.0
  0
LINE
  5
136
330
D9
100
AcDbEntity
  8
AM_9
100
AcDbLine
 10
0.5605000000000001
 20
-1.77165
 30
0.0
 11
0.5605000000000001
 21
1.77165
 31
0.0
  0
LINE
  5
139
330
D9
100
AcDbEntity
  8
AM_7
100
AcDbLine
 10
1.2984375
 20
0.0
 30
0.0
 11
-1.8296875
 21
0.0
 31
0.0
  0
LINE
  5
13A
330
D9
100
AcDbEntity
  8
AM_7
100
AcDbLine
 10
-1.3705
 20
-0.0592307692307692
 30
0.0
 11
-1.3705
 21
1.7481875
 31
0.0
  0
LWPOLYLINE
  5
13B
330
D9
100
AcDbEntity
  8
AM_4
100
AcDbPolyline
 90
        7
 70
     0
 43
0.0
 10
-1.299715426709471
 20
0.5890890457867343
 10
-1.310821720220751
 20
0.592139497166814
 10
-1.344828299168185
 20
0.5981154770957586
 10
-1.378981065290765
 20
0.5992764781478266
 10
-1.412890609368116
 20
0.5958079568660982
 10
-1.445247119315967
 20
0.5878336055750649
 10
-1.450403424357176
 20
0.5861176997855472
  0
LINE
  5
13C
330
D9
100
AcDbEntity
  8
AM_4
100
AcDbLine
 10
1.15625
 20
0.2171842132446538
 30
0.0
 11
1.15625
 21
1.155
 31
0.0
  0
LINE
  5
13D
330
D9
100
AcDbEntity
  8
AM_4
100
AcDbLine
 10
1.15625
 20
-1.155
 30
0.0
 11
1.15625
 21
-0.217184213244654
 31
0.0
  0
LINE
  5
13E
330
D9
100
AcDbEntity
  8
AM_4
100
AcDbLine
 10
1.15625
 20
1.155
 30
0.0
 11
1.0
 21
1.155
 31
0.0
  0
LINE
  5
13F
330
D9
100
AcDbEntity
  8
AM_4
100
AcDbLine
 10
1.0
 20
-1.155
 30
0.0
 11
1.15625
 21
-1.155
 31
0.0
  0
LINE
  5
140
330
D9
100
AcDbEntity
  8
AM_4
100
AcDbLine
 10
-0.9999999999999999
 20
1.155
 30
0.0
 11
-1.0535
 21
1.155
 31
0.0
  0
LINE
  5
141
330
D9
100
AcDbEntity
  8
AM_4
100
AcDbLine
 10
-1.0535
 20
-1.155
 30
0.0
 11
-0.9999999999999999
 21
-1.155
 31
0.0
  0
ENDBLK
  5
DC
330
D9
100
AcDbEntity
  8
0
100
AcDbBlockEnd
  0
BLOCK
  5
144
330
142
100
AcDbEntity
  8
0
100
AcDbBlockBegin
  2
4_405016_Inch_0_in_070786_2
 70
     2
 10
0.0
 20
0.0
 30
0.0
  3
4_405016_Inch_0_in_070786_2
  1

  0
ATTDEF
  5
146
330
142
100
AcDbEntity
  8
AM_6
100
AcDbText
 10
5.21875
 20
-0.91692569835516
 30
0.0
 40
0.5
  1
405016 -Inch
100
AcDbAttributeDefinition
  3

  2
NN
 70
     8
280
     0
  0
ATTDEF
  5
147
330
142
100
AcDbEntity
  8
AM_6
100
AcDbText
 10
5.21875
 20
-1.41692569835516
 30
0.0
 40
0.5
  1
Grease Fitting
100
AcDbAttributeDefinition
  3

  2
NT
 70
     8
280
     0
  0
ATTDEF
  5
148
330
142
100
AcDbEntity
  8
AM_6
100
AcDbText
 10
5.21875
 20
-1.91692569835516
 30
0.0
 40
0.5
  1
405016-Inch
100
AcDbAttributeDefinition
  3

  2
NB
 70
     8
280
     0
  0
ATTDEF
  5
149
330
142
100
AcDbEntity
  8
AM_6
100
AcDbText
 10
5.21875
 20
-2.41692569835516
 30
0.0
 40
0.5
  1
$MN.-Inch
100
AcDbAttributeDefinition
  3

  2
NBSYN
 70
     8
280
     0
  0
ATTDEF
  5
14A
330
142
100
AcDbEntity
  8
AM_6
100
AcDbText
 10
5.21875
 20
-2.91692569835516
 30
0.0
 40
0.5
  1
405016
100
AcDbAttributeDefinition
  3

  2
LINA
 70
     8
280
     0
  0
ATTDEF
  5
14B
330
142
100
AcDbEntity
  8
AM_6
100
AcDbText
 10
5.21875
 20
-3.41692569835516
 30
0.0
 40
0.5
  1
405016
100
AcDbAttributeDefinition
  3

  2
MN
 70
     8
280
     0
  0
ATTDEF
  5
14C
330
142
100
AcDbEntity
  8
AM_6
100
AcDbText
 10
5.21875
 20
-3.91692569835516
 30
0.0
 40
0.5
  1
7/16 HEX
100
AcDbAttributeDefinition
  3

  2
H
 70
     8
280
     0
  0
ATTDEF
  5
14D
330
142
100
AcDbEntity
  8
AM_6
100
AcDbText
 10
5.21875
 20
-4.416925698355159
 30
0.0
 40
0.5
  1
0.383
100
AcDbAttributeDefinition
  3

  2
NDR
 70
     8
280
     0
  0
ATTDEF
  5
14E
330
142
100
AcDbEntity
  8
AM_6
100
AcDbText
 10
5.21875
 20
-4.916925698355159
 30
0.0
 40
0.5
  1
0.337
100
AcDbAttributeDefinition
  3

  2
KDR
 70
     8
280
     0
  0
ATTDEF
  5
14F
330
142
100
AcDbEntity
  8
AM_6
100
AcDbText
 10
5.21875
 20
-5.416925698355159
 30
0.0
 40
0.5
  1
0.1575
100
AcDbAttributeDefinition
  3

  2
BZE
 70
     8
280
     0
  0
ATTDEF
  5
150
330
142
100
AcDbEntity
  8
AM_6
100
AcDbText
 10
5.21875
 20
-5.916925698355159
 30
0.0
 40
0.5
  1
0.4375
100
AcDbAttributeDefinition
  3

  2
HEX
 70
     8
280
     0
  0
ATTDEF
  5
151
330
142
100
AcDbEntity
  8
AM_6
100
AcDbText
 10
5.21875
 20
-6.416925698355159
 30
0.0
 40
0.5
  1
0.281250
100
AcDbAttributeDefinition
  3

  2
HEX2
 70
     8
280
     0
  0
ATTDEF
  5
152
330
142
100
AcDbEntity
  8
AM_6
100
AcDbText
 10
5.21875
 20
-6.916925698355159
 30
0.0
 40
0.5
  1
baldor
100
AcDbAttributeDefinition
  3

  2
COMPANY
 70
     8
280
     0
  0
LWPOLYLINE
  5
153
330
142
100
AcDbEntity
  8
AM_9
100
AcDbPolyline
 90
        5
 70
     0
 43
0.0
 10
-0.1791093260592888
 20
-1.521738809059826
 10
-0.1842540823997055
 20
-1.488670119967152
 10
-0.1862220679364952
 20
-1.454312409178914
 10
-0.1844124966919382
 20
-1.418126446285356
 10
-0.1791093260592888
 20
-1.381113809059826
  0
LINE
  5
154
330
142
100
AcDbEntity
  8
AM_9
100
AcDbLine
 10
-0.1510741298357571
 20
-1.37457729571137
 30
0.0
 11
-0.1791093260592888
 21
-1.381113809059826
 31
0.0
  0
LWPOLYLINE
  5
155
330
142
100
AcDbEntity
  8
AM_9
100
AcDbPolyline
 90
        5
 70
     0
 43
0.0
 10
-0.1791093260592888
 20
-1.381113809059826
 10
-0.198835512140694
 20
-1.349688517736611
 10
-0.2156330920108726
 20
-1.316997724328328
 10
-0.2290462109660022
 20
-1.282506153690794
 10
-0.2389369657326277
 20
-1.247169092407283
  0
LINE
  5
156
330
142
100
AcDbEntity
  8
AM_9
100
AcDbLine
 10
-0.2099962668917054
 20
-1.240421457656344
 30
0.0
 11
-0.2389369657326277
 21
-1.247169092407283
 31
0.0
  0
LINE
  5
157
330
142
100
AcDbEntity
  8
AM_9
100
AcDbLine
 10
-0.2389369657326277
 20
-1.247169092407283
 30
0.0
 11
-0.2711532636537957
 21
-1.251618123437406
 31
0.0
  0
LWPOLYLINE
  5
158
330
142
100
AcDbEntity
  8
AM_9
100
AcDbPolyline
 90
        3
 70
     0
 43
0.0
 10
-0.2813919000363601
 20
-1.252753048956784
 10
-0.2911775952746244
 20
-1.25355559349426
 10
-0.2987675689889719
 20
-1.253850066725467
  0
LWPOLYLINE
  5
159
330
142
100
AcDbEntity
  8
AM_9
100
AcDbPolyline
 90
        5
 70
     0
 43
0.0
 10
-0.2389369657326277
 20
-1.528419092407283
 10
-0.2295338871417797
 20
-1.52799806213629
 10
-0.2166871171046321
 20
-1.526802555641742
 10
-0.1996402057054679
 20
-1.524676787031713
 10
-0.1791093260592888
 20
-1.521738809059826
  0
LINE
  5
15A
330
142
100
AcDbEntity
  8
AM_9
100
AcDbLine
 10
-0.1510741298357571
 20
-1.51520229571137
 30
0.0
 11
-0.1791093260592888
 21
-1.521738809059826
 31
0.0
  0
LINE
  5
15B
330
142
100
AcDbEntity
  8
AM_9
100
AcDbLine
 10
-0.452415808934145
 20
-1.541254016496842
 30
0.0
 11
-0.3774664534000949
 21
-1.559780662014441
 31
0.0
  0
LINE
  5
15C
330
142
100
AcDbEntity
  8
AM_9
100
AcDbLine
 10
-0.4395859245204076
 20
-1.293349390582632
 30
0.0
 11
-0.4986131040655764
 21
-1.343113178260487
 31
0.0
  0
LWPOLYLINE
  5
15D
330
142
100
AcDbEntity
  8
AM_9
100
AcDbPolyline
 90
        3
 70
     0
 43
0.0
 10
-0.2689146070947223
 20
-1.246889734350518
 10
-0.2512755937295761
 20
-1.244238843014547
 10
-0.2360765106845276
 20
-1.242187592413266
  0
LWPOLYLINE
  5
15E
330
142
100
AcDbEntity
  8
AM_9
100
AcDbPolyline
 90
       10
 70
     0
 43
0.0
 10
-0.3768661696056184
 20
-1.299029767795665
 10
-0.3789473939478042
 20
-1.297196296513944
 10
-0.3877375769797403
 20
-1.290800117737542
 10
-0.3964335508444276
 20
-1.286483641100471
 10
-0.4051409037569779
 20
-1.28402601423349
 10
-0.4138723941415534
 20
-1.283368399000933
 10
-0.4233343880568403
 20
-1.284756448046354
 10
-0.431819425752789
 20
-1.288097252013425
 10
-0.4391813430594266
 20
-1.29301225690825
 10
-0.4406061800304997
 20
-1.294235362393269
  0
LWPOLYLINE
  5
15F
330
142
100
AcDbEntity
  8
AM_9
100
AcDbPolyline
 90
        9
 70
     0
 43
0.0
 10
-0.3782451323998787
 20
-1.559580964476022
 10
-0.3700997822781224
 20
-1.560959740897772
 10
-0.3614071467137056
 20
-1.560687827553375
 10
-0.3523786631903139
 20
-1.558364558278108
 10
-0.3443934393969267
 20
-1.554261219207264
 10
-0.3375265200018089
 20
-1.548711846236242
 10
-0.3316339884952145
 20
-1.541800847399779
 10
-0.326577111604797
 20
-1.533366505504364
 10
-0.324746606217456
 20
-1.529429843295403
  0
LWPOLYLINE
  5
160
330
142
100
AcDbEntity
  8
AM_9
100
AcDbPolyline
 90
        3
 70
     0
 43
0.0
 10
-0.109375
 20
-1.1
 10
-0.0546875000000001
 20
-1.071459559607483
 10
-0.0000000000000001
 20
-1.040778700151693
  0
LWPOLYLINE
  5
161
330
142
100
AcDbEntity
  8
AM_9
100
AcDbPolyline
 90
        3
 70
     0
 43
0.0
 10
-0.0000000000000001
 20
-1.040778700151693
 10
0.0544416102741494
 20
-1.071326042662265
 10
0.1093749999999998
 20
-1.1
  0
LWPOLYLINE
  5
162
330
142
100
AcDbEntity
  8
AM_9
100
AcDbPolyline
 90
        6
 70
     0
 43
0.0
 10
-0.1510741298357571
 20
-1.51520229571137
 10
-0.1564222384464443
 20
-1.515146258798399
 10
-0.1639940363880806
 20
-1.515585121917566
 10
-0.1744063212866123
 20
-1.516646289109957
 10
-0.1876759562813859
 20
-1.518363121169831
 10
-0.2099962668917054
 20
-1.521671457656344
  0
LWPOLYLINE
  5
163
330
142
100
AcDbEntity
  8
AM_9
100
AcDbPolyline
 90
        4
 70
     0
 43
0.0
 10
-0.1510741298357571
 20
-1.37457729571137
 10
-0.1458778226760521
 20
-1.398510622598914
 10
-0.1427138007556463
 20
-1.423367212109331
 10
-0.1419585098156051
 20
-1.442769408754154
  0
LWPOLYLINE
  5
164
330
142
100
AcDbEntity
  8
AM_9
100
AcDbPolyline
 90
        3
 70
     0
 43
0.0
 10
-0.1808542917315971
 20
-1.285884284647093
 10
-0.1805491420332304
 20
-1.286456884363538
 10
-0.1765789831125444
 20
-1.29420585554236
  0
LWPOLYLINE
  5
165
330
142
100
AcDbEntity
  8
AM_9
100
AcDbPolyline
 90
        3
 70
     0
 43
0.0
 10
-0.2099962668917054
 20
-1.240421457656344
 10
-0.1943573015029059
 20
-1.262992854288234
 10
-0.1813683668361164
 20
-1.284926434349499
  0
LWPOLYLINE
  5
166
330
142
100
AcDbEntity
  8
AM_9
100
AcDbPolyline
 90
        3
 70
     0
 43
0.0
 10
-0.2258378743019628
 20
-1.241052666893888
 10
-0.2189176876709016
 20
-1.240510369847583
 10
-0.2099962668917054
 20
-1.240421457656344
  0
LINE
  5
167
330
142
100
AcDbEntity
  8
AM_9
100
AcDbLine
 10
-0.1442893806638437
 20
-1.477916258715706
 30
0.0
 11
-0.1510741298357571
 21
-1.51520229571137
 31
0.0
  0
LINE
  5
168
330
142
100
AcDbEntity
  8
AM_9
100
AcDbLine
 10
-0.1440086075925362
 20
-1.475662240873426
 30
0.0
 11
-0.1442893806638437
 21
-1.477916258715706
 31
0.0
  0
LWPOLYLINE
  5
169
330
142
100
AcDbEntity
  8
AM_9
100
AcDbPolyline
 90
        3
 70
     0
 43
0.0
 10
-0.1419585098156051
 20
-1.442769408754154
 10
-0.1420496512545707
 20
-1.449566312422038
 10
-0.1440086075925362
 20
-1.475662240873426
  0
LINE
  5
16A
330
142
100
AcDbEntity
  8
AM_9
100
AcDbLine
 10
-0.1598591426512392
 20
-1.336814854302944
 30
0.0
 11
-0.1510741298357571
 21
-1.37457729571137
 31
0.0
  0
LWPOLYLINE
  5
16B
330
142
100
AcDbEntity
  8
AM_9
100
AcDbPolyline
 90
        3
 70
     0
 43
0.0
 10
-0.1765789831125444
 20
-1.29420585554236
 10
-0.168899767719981
 20
-1.311210167846305
 10
-0.168525750894768
 20
-1.31212576269532
  0
ELLIPSE
  5
16C
330
142
100
AcDbEntity
  8
AM_9
100
AcDbEllipse
 10
-0.2013892028241898
 20
-1.378270244837341
 30
0.0
 11
-0.03193085011438332
 21
0.1369518580960976
 31
0.0
210
0.0
220
0.0
230
1.0
 40
0.3659981507706691
 41
2.150416404658221
 42
6.139946939636859
  0
LWPOLYLINE
  5
16D
330
142
100
AcDbEntity
  8
AM_9
100
AcDbPolyline
 90
        3
 70
     0
 43
0.0
 10
-0.3055458577949632
 20
-1.342852494962034
 10
-0.3030753670497809
 20
-1.368922855181632
 10
-0.2987675689889719
 20
-1.394475066725467
  0
LWPOLYLINE
  5
16E
330
142
100
AcDbEntity
  8
AM_9
100
AcDbPolyline
 90
        3
 70
     0
 43
0.0
 10
-0.2602304684431209
 20
-1.298067949924796
 10
-0.2616913382589204
 20
-1.2834112730526
 10
-0.2689146070947223
 20
-1.246889734350518
  0
LINE
  5
16F
330
142
100
AcDbEntity
  8
AM_9
100
AcDbLine
 10
-0.2689146070947223
 20
-1.246889734350518
 30
0.0
 11
-0.2987675689889719
 21
-1.253850066725467
 31
0.0
  0
LWPOLYLINE
  5
170
330
142
100
AcDbEntity
  8
AM_9
100
AcDbPolyline
 90
        3
 70
     0
 43
0.0
 10
-0.2987675689889719
 20
-1.253850066725467
 10
-0.3030606061861224
 20
-1.281294122408012
 10
-0.3055458577949632
 20
-1.308633406468319
  0
LINE
  5
171
330
142
100
AcDbEntity
  8
AM_9
100
AcDbLine
 10
-0.2711532636537957
 20
-1.251618123437406
 30
0.0
 11
-0.2813919000363601
 21
-1.252753048956784
 31
0.0
  0
ELLIPSE
  5
172
330
142
100
AcDbEntity
  8
AM_9
100
AcDbEllipse
 10
-0.246704592176021
 20
-1.388835701380858
 30
0.0
 11
-0.03193085011438258
 21
0.1369518580960947
 31
0.0
210
0.0
220
0.0
230
1.0
 40
0.3659981507706643
 41
2.150416404658201
 42
6.139946939636892
  0
ELLIPSE
  5
173
330
142
100
AcDbEntity
  8
AM_9
100
AcDbEllipse
 10
-0.2467045921760184
 20
-1.388835701380858
 30
0.0
 11
-0.03193085011438343
 21
0.136951858096098
 31
0.0
210
0.0
220
0.0
230
1.0
 40
0.3659981507706749
 41
1.206556584905304
 42
1.951156734850493
  0
LINE
  5
174
330
142
100
AcDbEntity
  8
AM_9
100
AcDbLine
 10
-0.3055458577949632
 20
-1.308633406468319
 30
0.0
 11
-0.3055458577949632
 21
-1.342852494962034
 31
0.0
  0
ELLIPSE
  5
175
330
142
100
AcDbEntity
  8
AM_9
100
AcDbEllipse
 10
-0.2467045921760344
 20
-1.388835701380854
 30
0.0
 11
-0.03193085011437181
 21
0.1369518580960873
 31
0.0
210
0.0
220
0.0
230
1.0
 40
0.3659981507706203
 41
0.0560213022649529
 42
0.8626327579758015
  0
LWPOLYLINE
  5
176
330
142
100
AcDbEntity
  8
AM_9
100
AcDbPolyline
 90
        4
 70
     0
 43
0.0
 10
-0.2469219272287788
 20
-1.51069398149166
 10
-0.2465266429963361
 20
-1.510966285925187
 10
-0.2457256988084565
 20
-1.511571353482666
 10
-0.2457249882508971
 20
-1.511571960916105
  0
LWPOLYLINE
  5
177
330
142
100
AcDbEntity
  8
AM_9
100
AcDbPolyline
 90
        3
 70
     0
 43
0.0
 10
-0.2516697642334965
 20
-1.508065747864536
 10
-0.2490112278774058
 20
-1.509417215447763
 10
-0.2469219272287788
 20
-1.51069398149166
  0
LWPOLYLINE
  5
178
330
142
100
AcDbEntity
  8
AM_9
100
AcDbPolyline
 90
        7
 70
     0
 43
0.0
 10
-0.2974762768310979
 20
-1.507523511804025
 10
-0.2908868266146429
 20
-1.505392019226376
 10
-0.2796429272794966
 20
-1.503477435580414
 10
-0.2690635684207381
 20
-1.503546734383868
 10
-0.2601719452760892
 20
-1.505076436470165
 10
-0.2534758378633693
 20
-1.507278761435603
 10
-0.2516697642334965
 20
-1.508065747864536
  0
LWPOLYLINE
  5
179
330
142
100
AcDbEntity
  8
AM_9
100
AcDbPolyline
 90
        8
 70
     0
 43
0.0
 10
-0.3250140788987153
 20
-1.530043717850796
 10
-0.3249294918260366
 20
-1.529861044026401
 10
-0.3238910554759876
 20
-1.527996375397344
 10
-0.3213679814842487
 20
-1.524445399883954
 10
-0.3169725450431023
 20
-1.519680765494945
 10
-0.3103738036429221
 20
-1.514327546691916
 10
-0.3015059327541614
 20
-1.509238450597328
 10
-0.2974762768310979
 20
-1.507523511804025
  0
LWPOLYLINE
  5
17A
330
142
100
AcDbEntity
  8
AM_9
100
AcDbPolyline
 90
        3
 70
     0
 43
0.0
 10
-0.2457249882508971
 20
-1.511571960916105
 10
-0.2463656620356903
 20
-1.510959976803385
 10
-0.2470828627779448
 20
-1.510211790208965
  0
LWPOLYLINE
  5
17B
330
142
100
AcDbEntity
  8
AM_9
100
AcDbPolyline
 90
        3
 70
     0
 43
0.0
 10
-0.3007525245575478
 20
-1.280237546938181
 10
-0.3002605936971818
 20
-1.278720205018133
 10
-0.3001080482840256
 20
-1.278322263717043
  0
LWPOLYLINE
  5
17C
330
142
100
AcDbEntity
  8
AM_9
100
AcDbPolyline
 90
       14
 70
     0
 43
0.0
 10
-0.3001802956127281
 20
-1.278480347364248
 10
-0.3011575546737592
 20
-1.280254626113826
 10
-0.3036004690695654
 20
-1.283734614132634
 10
-0.3078974868014395
 20
-1.288453684815829
 10
-0.3143855837913291
 20
-1.293796215461102
 10
-0.3231506629963372
 20
-1.298920549356229
 10
-0.3337079360328454
 20
-1.302846684147671
 10
-0.3449516830725646
 20
-1.304860609782808
 10
-0.3555913481668456
 20
-1.304878116962479
 10
-0.3645792716359958
 20
-1.303401176426236
 10
-0.3713848207650444
 20
-1.301212874791576
 10
-0.3759517917237701
 20
-1.29905762707401
 10
-0.378524222913279
 20
-1.297471253551929
 10
-0.3793615662208713
 20
-1.296846151514872
  0
LINE
  5
17D
330
142
100
AcDbEntity
  8
AM_9
100
AcDbLine
 10
-0.177120771554662
 20
-1.259661692407327
 30
0.0
 11
-0.2263662233581053
 21
-1.271143458059951
 31
0.0
  0
LINE
  5
17E
330
142
100
AcDbEntity
  8
AM_9
100
AcDbLine
 10
-0.176412182290271
 20
-1.48539703161473
 30
0.0
 11
-0.1343592486638227
 21
-1.475592229115782
 31
0.0
  0
LWPOLYLINE
  5
17F
330
142
100
AcDbEntity
  8
AM_9
100
AcDbPolyline
 90
       20
 70
     0
 43
0.0
 10
-0.1343659249938088
 20
-1.47559378540361
 10
-0.1293028157827817
 20
-1.472990967168627
 10
-0.1247141396218193
 20
-1.467417196040507
 10
-0.1208880884981782
 20
-1.458797239076489
 10
-0.1181545989145989
 20
-1.447880991490922
 10
-0.1164278875396129
 20
-1.434336212655024
 10
-0.1158549073091555
 20
-1.419330271317741
 10
-0.1164156227038168
 20
-1.402408286749774
 10
-0.1180609686233502
 20
-1.385004703027538
 10
-0.1208367673933812
 20
-1.366607393511457
 10
-0.1245107513506023
 20
-1.348747455120002
 10
-0.1291842652280563
 20
-1.330922481606625
 10
-0.134472979061152
 20
-1.3145960564441
 10
-0.140518627090196
 20
-1.299328872764631
 10
-0.1468270783017121
 20
-1.286370478489193
 10
-0.1535654953592165
 20
-1.275381372029879
 10
-0.1601799433259584
 20
-1.267268942862664
 10
-0.1668493358980662
 20
-1.261820477436415
 10
-0.1731116383367607
 20
-1.259480939756072
 10
-0.1771125901748264
 20
-1.259659785344162
  0
LINE
  5
180
330
142
100
AcDbEntity
  8
AM_9
100
AcDbLine
 10
-0.1771125901748264
 20
-1.259659785344162
 30
0.0
 11
-0.1790373738502115
 21
-1.260304054033761
 31
0.0
  0
LWPOLYLINE
  5
181
330
142
100
AcDbEntity
  8
AM_9
100
AcDbPolyline
 90
        3
 70
     0
 43
0.0
 10
-0.2689146070947223
 20
-1.387514734350517
 10
-0.2634308483997529
 20
-1.359890958955647
 10
-0.2602304684431306
 20
-1.332287038418517
  0
LWPOLYLINE
  5
182
330
142
100
AcDbEntity
  8
AM_9
100
AcDbPolyline
 90
        5
 70
     0
 43
0.0
 10
-0.179037373850178
 20
-1.414695945966246
 10
-0.1733931390117468
 20
-1.430209976006311
 10
-0.1670729780242512
 20
-1.444357975630669
 10
-0.1606047421316796
 20
-1.455955943415793
 10
-0.1545916237253831
 20
-1.464391353354244
  0
ARC
  5
183
330
142
100
AcDbEntity
  8
AM_9
100
AcDbCircle
 10
0.0000000000000001
 20
-1.3375
 30
0.0
 40
0.1999999999999997
100
AcDbArc
 50
219.3479464349318
 51
0.0
  0
LWPOLYLINE
  5
184
330
142
100
AcDbEntity
  8
AM_9
100
AcDbPolyline
 90
        6
 70
     0
 43
0.0
 10
-0.1545916237253831
 20
-1.464391353354244
 10
-0.1538031670974778
 20
-1.465334802540261
 10
-0.1472336073736394
 20
-1.471712011960484
 10
-0.1407130262602577
 20
-1.47526170963818
 10
-0.1347930597680668
 20
-1.475684256104104
 10
-0.1343659249938088
 20
-1.47559378540361
  0
LINE
  5
185
330
142
100
AcDbEntity
  8
AM_9
100
AcDbLine
 10
-0.2360765106845276
 20
-1.242187592413266
 30
0.0
 11
-0.2258378743019628
 21
-1.241052666893888
 31
0.0
  0
ELLIPSE
  5
186
330
142
100
AcDbEntity
  8
AM_9
100
AcDbEllipse
 10
-0.2013892028241875
 20
-1.378270244837343
 30
0.0
 11
-0.03193085011438405
 21
0.1369518580960967
 31
0.0
210
0.0
220
0.0
230
1.0
 40
0.3659981507705698
 41
0.056021302265008
 42
0.8626327579757257
  0
LINE
  5
187
330
142
100
AcDbEntity
  8
AM_9
100
AcDbLine
 10
-0.2602304684431306
 20
-1.332287038418517
 30
0.0
 11
-0.2602304684431209
 21
-1.298067949924796
 31
0.0
  0
ELLIPSE
  5
188
330
142
100
AcDbEntity
  8
AM_9
100
AcDbEllipse
 10
-0.2013892028241885
 20
-1.378270244837341
 30
0.0
 11
-0.03193085011438262
 21
0.1369518580960933
 31
0.0
210
0.0
220
0.0
230
1.0
 40
0.3659981507706665
 41
1.144545279139733
 42
1.951156734850495
  0
LWPOLYLINE
  5
189
330
142
100
AcDbEntity
  8
AM_9
100
AcDbPolyline
 90
        3
 70
     0
 43
0.0
 10
-0.2099962668917054
 20
-1.521671457656344
 10
-0.2163479371246914
 20
-1.492339189975666
 10
-0.225837874301963
 20
-1.46305747759944
  0
LINE
  5
18A
330
142
100
AcDbEntity
  8
AM_9
100
AcDbLine
 10
-0.225837874301963
 20
-1.46305747759944
 30
0.0
 11
-0.2360765106845278
 21
-1.439965725501071
 31
0.0
  0
LWPOLYLINE
  5
18B
330
142
100
AcDbEntity
  8
AM_9
100
AcDbPolyline
 90
        3
 70
     0
 43
0.0
 10
-0.2360765106845278
 20
-1.439965725501071
 10
-0.2462091938631852
 20
-1.421421611213501
 10
-0.2689146070947223
 20
-1.387514734350517
  0
LINE
  5
18C
330
142
100
AcDbEntity
  8
AM_9
100
AcDbLine
 10
-0.2689146070947223
 20
-1.387514734350517
 30
0.0
 11
-0.2987675689889719
 21
-1.394475066725467
 31
0.0
  0
LWPOLYLINE
  5
18D
330
142
100
AcDbEntity
  8
AM_9
100
AcDbPolyline
 90
        3
 70
     0
 43
0.0
 10
-0.2987675689889719
 20
-1.394475066725467
 10
-0.2912216284034025
 20
-1.422576183495197
 10
-0.28139190003636
 20
-1.450531182044589
  0
LINE
  5
18E
330
142
100
AcDbEntity
  8
AM_9
100
AcDbLine
 10
-0.28139190003636
 20
-1.450531182044589
 30
0.0
 11
-0.2711532636537957
 21
-1.473622934142958
 31
0.0
  0
LWPOLYLINE
  5
18F
330
142
100
AcDbEntity
  8
AM_9
100
AcDbPolyline
 90
        3
 70
     0
 43
0.0
 10
-0.2711532636537957
 20
-1.473622934142958
 10
-0.2561815527589922
 20
-1.501327936735335
 10
-0.2389369657326277
 20
-1.528419092407283
  0
LINE
  5
190
330
142
100
AcDbEntity
  8
AM_9
100
AcDbLine
 10
-0.2099962668917054
 20
-1.521671457656344
 30
0.0
 11
-0.2389369657326277
 21
-1.528419092407283
 31
0.0
  0
LWPOLYLINE
  5
191
330
142
100
AcDbEntity
  8
AM_9
100
AcDbPolyline
 90
        3
 70
     0
 43
0.0
 10
-0.0000000000000001
 20
-0.999846299848307
 10
-0.0544416102741497
 20
-1.023740567611884
 10
-0.1093750000000001
 20
-1.05
  0
LWPOLYLINE
  5
192
330
142
100
AcDbEntity
  8
AM_9
100
AcDbPolyline
 90
        3
 70
     0
 43
0.0
 10
0.1045938977748979
 20
-1.047618780787026
 10
0.0546874999999999
 20
-1.023852940392517
 10
-0.0000000000000001
 20
-0.999846299848307
  0
LINE
  5
193
330
142
100
AcDbEntity
  8
AM_9
100
AcDbLine
 10
0.1093749999999999
 20
-1.05
 30
0.0
 11
0.1045938977748979
 21
-1.047618780787026
 31
0.0
  0
LWPOLYLINE
  5
194
330
142
100
AcDbEntity
  8
AM_9
100
AcDbPolyline
 90
        3
 70
     0
 43
0.0
 10
0.1093749999999998
 20
-1.1
 10
0.1640624999999998
 20
-1.126147059607482
 10
0.2187499999999999
 20
-1.150153700151692
  0
LWPOLYLINE
  5
195
330
142
100
AcDbEntity
  8
AM_9
100
AcDbPolyline
 90
        3
 70
     0
 43
0.0
 10
-0.2187500000000001
 20
-1.150153700151692
 10
-0.1643083897258505
 20
-1.126259432388115
 10
-0.109375
 20
-1.1
  0
LINE
  5
196
330
142
100
AcDbEntity
  8
AM_9
100
AcDbLine
 10
-0.0000000000000001
 20
-1.040778700151693
 30
0.0
 11
-0.0000000000000001
 21
-1.0
 31
0.0
  0
LWPOLYLINE
  5
197
330
142
100
AcDbEntity
  8
AM_9
100
AcDbPolyline
 90
        3
 70
     0
 43
0.0
 10
0.2187499999999999
 20
-1.109221299848307
 10
0.1643083897258503
 20
-1.078673957337735
 10
0.1093749999999999
 20
-1.05
  0
LWPOLYLINE
  5
198
330
142
100
AcDbEntity
  8
AM_9
100
AcDbPolyline
 90
        3
 70
     0
 43
0.0
 10
-0.1140345642793006
 20
-1.052338645697463
 10
-0.1640625000000001
 20
-1.078540440392517
 10
-0.2187500000000001
 20
-1.109221299848307
  0
LINE
  5
199
330
142
100
AcDbEntity
  8
AM_9
100
AcDbLine
 10
-0.1093750000000001
 20
-1.05
 30
0.0
 11
-0.1140345642793006
 21
-1.052338645697463
 31
0.0
  0
ELLIPSE
  5
19A
330
142
100
AcDbEntity
  8
AM_9
100
AcDbEllipse
 10
-0.0000000000000001
 20
-1.337499999999999
 30
0.0
 11
-0.2000000000000001
 21
2.449293598294707E-17
 31
0.0
210
0.0
220
0.0
230
1.0
 40
0.8660254037844369
 41
0.4619460205669688
 42
5.821239286612619
  0
LWPOLYLINE
  5
19B
330
142
100
AcDbEntity
  8
AM_9
100
AcDbPolyline
 90
        7
 70
     0
 43
0.0
 10
-0.1790373738501785
 20
-1.414695945966246
 10
-0.1842628795203942
 20
-1.398701216295605
 10
-0.1891729979031394
 20
-1.382644458256412
 10
-0.1936098952159724
 20
-1.365877825105295
 10
-0.1971856748420372
 20
-1.348429808725254
 10
-0.1994144431868155
 20
-1.330957633207593
 10
-0.1999999999699529
 20
-1.31725755900097
  0
LINE
  5
19C
330
142
100
AcDbEntity
  8
AM_9
100
AcDbLine
 10
-0.2000000000000001
 20
-1.2640625
 30
0.0
 11
-0.2000000000000001
 21
-1.317346885409147
 31
0.0
  0
LINE
  5
19D
330
142
100
AcDbEntity
  8
AM_9
100
AcDbLine
 10
0.1999999999999998
 20
-1.3375
 30
0.0
 11
0.1999999999999998
 21
-1.2640625
 31
0.0
  0
LWPOLYLINE
  5
19E
330
142
100
AcDbEntity
  8
AM_9
100
AcDbPolyline
 90
        8
 70
     0
 43
0.0
 10
-0.1999999999699529
 20
-1.31725755900097
 10
-0.1999786710855128
 20
-1.314747492794571
 10
-0.1988321115509054
 20
-1.299477046299115
 10
-0.196164942998426
 20
-1.286547828583382
 10
-0.1920694300574959
 20
-1.275495849846331
 10
-0.1870948030566196
 20
-1.267226804053057
 10
-0.1815005947613931
 20
-1.261703487144151
 10
-0.1790373738501785
 20
-1.260304054033753
  0
LWPOLYLINE
  5
19F
330
142
100
AcDbEntity
  8
AM_9
100
AcDbPolyline
 90
        3
 70
     0
 43
0.0
 10
0.1093749999999998
 20
-1.428125
 10
0.0546874999999999
 20
-1.454272059607483
 10
-0.0000000000000001
 20
-1.478278700151693
  0
LINE
  5
1A0
330
142
100
AcDbEntity
  8
AM_9
100
AcDbLine
 10
0.1140378212023584
 20
-1.425784713447726
 30
0.0
 11
0.1093749999999998
 21
-1.428125
 31
0.0
  0
LWPOLYLINE
  5
1A1
330
142
100
AcDbEntity
  8
AM_9
100
AcDbPolyline
 90
        3
 70
     0
 43
0.0
 10
0.2187499999999999
 20
-1.368903700151693
 10
0.1643083897258503
 20
-1.399451042662265
 10
0.1140378212023584
 20
-1.425784713447726
  0
LINE
  5
1A2
330
142
100
AcDbEntity
  8
AM_9
100
AcDbLine
 10
0.2187499999999999
 20
-1.368903700151693
 30
0.0
 11
0.2187499999999999
 21
-1.109221299848307
 31
0.0
  0
LWPOLYLINE
  5
1A3
330
142
100
AcDbEntity
  8
AM_9
100
AcDbPolyline
 90
        3
 70
     0
 43
0.0
 10
0.1093749999999999
 20
-1.378125
 10
0.1640624999999998
 20
-1.351977940392517
 10
0.2187499999999999
 20
-1.327971299848307
  0
LWPOLYLINE
  5
1A4
330
142
100
AcDbEntity
  8
AM_9
100
AcDbPolyline
 90
        3
 70
     0
 43
0.0
 10
-0.0000000000000001
 20
-1.437346299848307
 10
0.0544416102741494
 20
-1.406798957337735
 10
0.1093749999999999
 20
-1.378125
  0
LINE
  5
1A5
330
142
100
AcDbEntity
  8
AM_9
100
AcDbLine
 10
-0.2187500000000001
 20
-1.368903700151693
 30
0.0
 11
-0.2187500000000001
 21
-1.109221299848307
 31
0.0
  0
LWPOLYLINE
  5
1A6
330
142
100
AcDbEntity
  8
AM_9
100
AcDbPolyline
 90
        3
 70
     0
 43
0.0
 10
-0.109375
 20
-1.428125
 10
-0.1640625000000001
 20
-1.399584559607483
 10
-0.2187500000000001
 20
-1.368903700151693
  0
LINE
  5
1A7
330
142
100
AcDbEntity
  8
AM_9
100
AcDbLine
 10
-0.1045899292574291
 20
-1.430508187976005
 30
0.0
 11
-0.109375
 21
-1.428125
 31
0.0
  0
LWPOLYLINE
  5
1A8
330
142
100
AcDbEntity
  8
AM_9
100
AcDbPolyline
 90
        3
 70
     0
 43
0.0
 10
-0.0000000000000001
 20
-1.478278700151693
 10
-0.0544416102741497
 20
-1.454384432388115
 10
-0.1045899292574291
 20
-1.430508187976005
  0
LINE
  5
1A9
330
142
100
AcDbEntity
  8
AM_9
100
AcDbLine
 10
-0.0000000000000001
 20
-1.478278700151693
 30
0.0
 11
-0.0000000000000001
 21
-1.437346299848307
 31
0.0
  0
LWPOLYLINE
  5
1AA
330
142
100
AcDbEntity
  8
AM_9
100
AcDbPolyline
 90
        3
 70
     0
 43
0.0
 10
-0.1093750000000001
 20
-1.378125
 10
-0.0546875000000001
 20
-1.406665440392517
 10
-0.0000000000000001
 20
-1.437346299848307
  0
LWPOLYLINE
  5
1AB
330
142
100
AcDbEntity
  8
AM_9
100
AcDbPolyline
 90
        3
 70
     0
 43
0.0
 10
-0.2187500000000001
 20
-1.327971299848307
 10
-0.1643083897258505
 20
-1.351865567611884
 10
-0.1093750000000001
 20
-1.378125
  0
LINE
  5
1AC
330
142
100
AcDbEntity
  8
AM_9
100
AcDbLine
 10
-0.2000000000000001
 20
-1.175
 30
0.0
 11
-0.2000000000000001
 21
-1.2140625
 31
0.0
  0
LINE
  5
1AD
330
142
100
AcDbEntity
  8
AM_9
100
AcDbLine
 10
0.1999999999999998
 20
-1.2140625
 30
0.0
 11
0.1999999999999998
 21
-1.175
 31
0.0
  0
LINE
  5
1AE
330
142
100
AcDbEntity
  8
AM_9
100
AcDbLine
 10
-0.1851454569549802
 20
-1.068809912570727
 30
0.0
 11
-0.1912304659644924
 21
-1.166022462287446
 31
0.0
  0
LINE
  5
1AF
330
142
100
AcDbEntity
  8
AM_9
100
AcDbLine
 10
0.1912304659644922
 20
-1.166022462287446
 30
0.0
 11
0.1851454569549799
 21
-1.068809912570727
 31
0.0
  0
ELLIPSE
  5
1B0
330
142
100
AcDbEntity
  8
AM_9
100
AcDbEllipse
 10
-0.0000000000000001
 20
-1.065625
 30
0.0
 11
0.1616637258772237
 21
0.0
 31
0.0
210
0.0
220
0.0
230
1.0
 40
0.8660254037844384
 41
0.0
 42
6.283185307179586
  0
ELLIPSE
  5
1B1
330
142
100
AcDbEntity
  8
AM_9
100
AcDbEllipse
 10
-0.4687500000000004
 20
-1.440606438444094
 30
0.0
 11
-0.02349716402074609
 21
0.1007796617096763
 31
0.0
210
0.0
220
0.0
230
1.0
 40
0.3659981507706683
 41
0.0
 42
6.283185307179586
  0
ELLIPSE
  5
1B2
330
142
100
AcDbEntity
  8
AM_9
100
AcDbEllipse
 10
-0.3729962569746644
 20
-1.418281086609234
 30
0.0
 11
-0.03024351534849252
 21
0.1297148559307584
 31
0.0
210
0.0
220
0.0
230
1.0
 40
0.3659981507706664
 41
0.0
 42
6.283185307179586
  0
ELLIPSE
  5
1B3
330
142
100
AcDbEntity
  8
AM_9
100
AcDbEllipse
 10
-0.2013892028241882
 20
-1.378270244837341
 30
0.0
 11
-0.02497702053391714
 21
0.1071267867773893
 31
0.0
210
0.0
220
0.0
230
1.0
 40
0.3659981507706665
 41
0.0
 42
6.283185307179586
  0
ELLIPSE
  5
1B4
330
142
100
AcDbEntity
  8
AM_9
100
AcDbEllipse
 10
0.0000000000000003
 20
-1.264062499999999
 30
0.0
 11
-0.2000000000000004
 21
2.449293598294711E-17
 31
0.0
210
0.0
220
0.0
230
1.0
 40
0.8660254037844388
 41
0.0
 42
6.283185307179586
  0
ELLIPSE
  5
1B5
330
142
100
AcDbEntity
  8
AM_9
100
AcDbEllipse
 10
0.0000000000001911
 20
-1.264062499999803
 30
0.0
 11
-0.2187499999996286
 21
2.678914873130286E-17
 31
0.0
210
0.0
220
0.0
230
1.0
 40
0.8660254037862769
 41
0.0
 42
6.283185307179586
  0
ELLIPSE
  5
1B6
330
142
100
AcDbEntity
  8
AM_9
100
AcDbEllipse
 10
-0.0000000000000001
 20
-1.214062500000002
 30
0.0
 11
-0.2187499999999986
 21
2.678914873134817E-17
 31
0.0
210
0.0
220
0.0
230
1.0
 40
0.8660254037844355
 41
0.0
 42
6.283185307179586
  0
ELLIPSE
  5
1B7
330
142
100
AcDbEntity
  8
AM_9
100
AcDbEllipse
 10
-0.0000000000000002
 20
-1.2140625
 30
0.0
 11
-0.1999999999999998
 21
2.449293598294704E-17
 31
0.0
210
0.0
220
0.0
230
1.0
 40
0.8660254037844394
 41
0.0
 42
6.283185307179586
  0
ELLIPSE
  5
1B8
330
142
100
AcDbEntity
  8
AM_9
100
AcDbEllipse
 10
-0.0000000000000001
 20
-1.175
 30
0.0
 11
-0.1999999999999998
 21
2.449293598294704E-17
 31
0.0
210
0.0
220
0.0
230
1.0
 40
0.8660254037844382
 41
0.0
 42
6.283185307179586
  0
ELLIPSE
  5
1B9
330
142
100
AcDbEntity
  8
AM_9
100
AcDbEllipse
 10
-0.0000000000000005
 20
-1.175
 30
0.0
 11
-0.1915112338502291
 21
2.345336195354433E-17
 31
0.0
210
0.0
220
0.0
230
1.0
 40
0.8660254037844392
 41
0.0
 42
6.283185307179586
  0
ELLIPSE
  5
1BA
330
142
100
AcDbEntity
  8
AM_9
100
AcDbEllipse
 10
-0.0000000000000002
 20
-1.077501782423881
 30
0.0
 11
-0.185417290724986
 21
2.270706915929283E-17
 31
0.0
210
0.0
220
0.0
230
1.0
 40
0.8660254037844288
 41
0.0
 42
6.283185307179586
  0
ENDBLK
  5
145
330
142
100
AcDbEntity
  8
0
100
AcDbBlockEnd
  0
BLOCK
  5
1BD
330
1BB
100
AcDbEntity
  8
0
100
AcDbBlockBegin
  2
5_070786H_0_in_070786_2
 70
     2
 10
0.0
 20
0.0
 30
0.0
  3
5_070786H_0_in_070786_2
  1

  0
ATTDEF
  5
1BF
330
1BB
100
AcDbEntity
  8
AM_6
100
AcDbText
 10
6.176470588235294
 20
2.375
 30
0.0
 40
0.5
  1
WSTU-S2 -(Contact Seal)-Housing
100
AcDbAttributeDefinition
  3

  2
NN
 70
     8
280
     0
  0
ATTDEF
  5
1C0
330
1BB
100
AcDbEntity
  8
AM_6
100
AcDbText
 10
6.176470588235294
 20
1.875
 30
0.0
 40
0.5
  1
S-2000 Wide Slot Take-Up Bearing -Inch
100
AcDbAttributeDefinition
  3

  2
NT
 70
     8
280
     0
  0
ATTDEF
  5
1C1
330
1BB
100
AcDbEntity
  8
AM_6
100
AcDbText
 10
6.176470588235294
 20
1.375
 30
0.0
 40
0.5
  1
070786H
100
AcDbAttributeDefinition
  3

  2
NB
 70
     8
280
     0
  0
ATTDEF
  5
1C2
330
1BB
100
AcDbEntity
  8
AM_6
100
AcDbText
 10
6.176470588235294
 20
0.875
 30
0.0
 40
0.5
  1
$PN.H
100
AcDbAttributeDefinition
  3

  2
NBSYN
 70
     8
280
     0
  0
ATTDEF
  5
1C3
330
1BB
100
AcDbEntity
  8
AM_6
100
AcDbText
 10
6.176470588235294
 20
0.375
 30
0.0
 40
0.5
  1
070786
100
AcDbAttributeDefinition
  3

  2
LINA
 70
     8
280
     0
  0
ATTDEF
  5
1C4
330
1BB
100
AcDbEntity
  8
AM_6
100
AcDbText
 10
6.176470588235294
 20
-0.125
 30
0.0
 40
0.5
  1
2
100
AcDbAttributeDefinition
  3

  2
SS
 70
     8
280
     0
  0
ATTDEF
  5
1C5
330
1BB
100
AcDbEntity
  8
AM_6
100
AcDbText
 10
6.176470588235294
 20
-0.625
 30
0.0
 40
0.5
  1
070786
100
AcDbAttributeDefinition
  3

  2
PN
 70
     8
280
     0
  0
ATTDEF
  5
1C6
330
1BB
100
AcDbEntity
  8
AM_6
100
AcDbText
 10
6.176470588235294
 20
-1.125
 30
0.0
 40
0.5
  1
WSTU-S2-200RE
100
AcDbAttributeDefinition
  3

  2
DESCRIPTION
 70
     8
280
     0
  0
ATTDEF
  5
1C7
330
1BB
100
AcDbEntity
  8
AM_6
100
AcDbText
 10
6.176470588235294
 20
-1.625
 30
0.0
 40
0.5
  1
Expansion Type
100
AcDbAttributeDefinition
  3

  2
EF
 70
     8
280
     0
  0
ATTDEF
  5
1C8
330
1BB
100
AcDbEntity
  8
AM_6
100
AcDbText
 10
6.176470588235294
 20
-2.125
 30
0.0
 40
0.5
  1
2-27/32
100
AcDbAttributeDefinition
  3

  2
A
 70
     8
280
     0
  0
ATTDEF
  5
1C9
330
1BB
100
AcDbEntity
  8
AM_6
100
AcDbText
 10
6.176470588235294
 20
-2.625
 30
0.0
 40
0.5
  1
6-3/16
100
AcDbAttributeDefinition
  3

  2
B
 70
     8
280
     0
  0
ATTDEF
  5
1CA
330
1BB
100
AcDbEntity
  8
AM_6
100
AcDbText
 10
6.176470588235294
 20
-3.125
 30
0.0
 40
0.5
  1
11/16
100
AcDbAttributeDefinition
  3

  2
C
 70
     8
280
     0
  0
ATTDEF
  5
1CB
330
1BB
100
AcDbEntity
  8
AM_6
100
AcDbText
 10
6.176470588235294
 20
-3.625
 30
0.0
 40
0.5
  1
3-15/16
100
AcDbAttributeDefinition
  3

  2
E
 70
     8
280
     0
  0
ATTDEF
  5
1CC
330
1BB
100
AcDbEntity
  8
AM_6
100
AcDbText
 10
6.176470588235294
 20
-4.125
 30
0.0
 40
0.5
  1
1-1/8
100
AcDbAttributeDefinition
  3

  2
F
 70
     8
280
     0
  0
ATTDEF
  5
1CD
330
1BB
100
AcDbEntity
  8
AM_6
100
AcDbText
 10
6.176470588235294
 20
-4.625
 30
0.0
 40
0.5
  1
15/16
100
AcDbAttributeDefinition
  3

  2
G
 70
     8
280
     0
  0
ATTDEF
  5
1CE
330
1BB
100
AcDbEntity
  8
AM_6
100
AcDbText
 10
6.176470588235294
 20
-5.125
 30
0.0
 40
0.5
  1
3/4
100
AcDbAttributeDefinition
  3

  2
H
 70
     8
280
     0
  0
ATTDEF
  5
1CF
330
1BB
100
AcDbEntity
  8
AM_6
100
AcDbText
 10
6.176470588235294
 20
-5.625
 30
0.0
 40
0.5
  1
3-5/16
100
AcDbAttributeDefinition
  3

  2
J
 70
     8
280
     0
  0
ATTDEF
  5
1D0
330
1BB
100
AcDbEntity
  8
AM_6
100
AcDbText
 10
6.176470588235294
 20
-6.125
 30
0.0
 40
0.5
  1
1-15/16
100
AcDbAttributeDefinition
  3

  2
K
 70
     8
280
     0
  0
ATTDEF
  5
1D1
330
1BB
100
AcDbEntity
  8
AM_6
100
AcDbText
 10
6.176470588235294
 20
-6.625
 30
0.0
 40
0.5
  1
1.937500
100
AcDbAttributeDefinition
  3

  2
K1
 70
     8
280
     0
  0
ATTDEF
  5
1D2
330
1BB
100
AcDbEntity
  8
AM_6
100
AcDbText
 10
6.176470588235294
 20
-7.125
 30
0.0
 40
0.5
  1
3-7/16
100
AcDbAttributeDefinition
  3

  2
L
 70
     8
280
     0
  0
ATTDEF
  5
1D3
330
1BB
100
AcDbEntity
  8
AM_6
100
AcDbText
 10
6.176470588235294
 20
-7.625
 30
0.0
 40
0.5
  1
4
100
AcDbAttributeDefinition
  3

  2
M
 70
     8
280
     0
  0
ATTDEF
  5
1D4
330
1BB
100
AcDbEntity
  8
AM_6
100
AcDbText
 10
6.176470588235294
 20
-8.125
 30
0.0
 40
0.5
  1
4-3/4
100
AcDbAttributeDefinition
  3

  2
N
 70
     8
280
     0
  0
ATTDEF
  5
1D5
330
1BB
100
AcDbEntity
  8
AM_6
100
AcDbText
 10
6.176470588235294
 20
-8.625
 30
0.0
 40
0.5
  1
2-15/16
100
AcDbAttributeDefinition
  3

  2
R
 70
     8
280
     0
  0
ATTDEF
  5
1D6
330
1BB
100
AcDbEntity
  8
AM_6
100
AcDbText
 10
6.176470588235294
 20
-9.125
 30
0.0
 40
0.5
  1
1-15/16
100
AcDbAttributeDefinition
  3

  2
S
 70
     8
280
     0
  0
ATTDEF
  5
1D7
330
1BB
100
AcDbEntity
  8
AM_6
100
AcDbText
 10
6.176470588235294
 20
-9.625
 30
0.0
 40
0.5
  1
2
100
AcDbAttributeDefinition
  3

  2
T
 70
     8
280
     0
  0
ATTDEF
  5
1D8
330
1BB
100
AcDbEntity
  8
AM_6
100
AcDbText
 10
6.176470588235294
 20
-10.125
 30
0.0
 40
0.5
  1
2.000000
100
AcDbAttributeDefinition
  3

  2
T1
 70
     8
280
     0
  0
ATTDEF
  5
1D9
330
1BB
100
AcDbEntity
  8
AM_6
100
AcDbText
 10
6.176470588235294
 20
-10.625
 30
0.0
 40
0.5
  1
1/4
100
AcDbAttributeDefinition
  3

  2
X
 70
     8
280
     0
  0
ATTDEF
  5
1DA
330
1BB
100
AcDbEntity
  8
AM_6
100
AcDbText
 10
6.176470588235294
 20
-11.125
 30
0.0
 40
0.5
  1
0.020
100
AcDbAttributeDefinition
  3

  2
Y
 70
     8
280
     0
  0
ATTDEF
  5
1DB
330
1BB
100
AcDbEntity
  8
AM_6
100
AcDbText
 10
6.176470588235294
 20
-11.625
 30
0.0
 40
0.5
  1
2-19/64
100
AcDbAttributeDefinition
  3

  2
Z
 70
     8
280
     0
  0
ATTDEF
  5
1DC
330
1BB
100
AcDbEntity
  8
AM_6
100
AcDbText
 10
6.176470588235294
 20
-12.125
 30
0.0
 40
0.5
  1
baldor
100
AcDbAttributeDefinition
  3

  2
COMPANY
 70
     8
280
     0
  0
LWPOLYLINE
  5
1DD
330
1BB
100
AcDbEntity
  8
AM_9
100
AcDbPolyline
 90
        5
 70
     0
 43
0.0
 10
-0.4194684713626414
 20
-1.360657911281409
 10
-0.4177558594941195
 20
-1.363661826564645
 10
-0.3990113260555905
 20
-1.391978518150786
 10
-0.3771024848893539
 20
-1.418083471866434
 10
-0.3612055161710332
 20
-1.433954658884796
  0
ELLIPSE
  5
1DE
330
1BB
100
AcDbEntity
  8
AM_9
100
AcDbEllipse
 10
-0.0000000000000001
 20
-1.175
 30
0.0
 11
-0.4
 21
4.898587196589413E-17
 31
0.0
210
0.0
220
0.0
230
1.0
 40
0.8660254037844389
 41
0.0
 42
6.283185307179586
  0
ELLIPSE
  5
1DF
330
1BB
100
AcDbEntity
  8
AM_9
100
AcDbEllipse
 10
-0.0000000000000001
 20
-1.125
 30
0.0
 11
0.4999999999999999
 21
0.0
 31
0.0
210
0.0
220
0.0
230
1.0
 40
0.866025403784439
 41
0.1392823045158353
 42
2.966728264062247
  0
LWPOLYLINE
  5
1E0
330
1BB
100
AcDbEntity
  8
AM_9
100
AcDbPolyline
 90
       14
 70
     0
 43
0.0
 10
-0.4999914755990029
 20
-1.127611409917472
 10
-0.4998771320362759
 20
-1.134913733156474
 10
-0.4981316855947905
 20
-1.163624028835047
 10
-0.4943301930769537
 20
-1.192154535578973
 10
-0.488490939458607
 20
-1.220392191117941
 10
-0.4806386563833676
 20
-1.248226250443617
 10
-0.4708045392122195
 20
-1.275547415396629
 10
-0.4590263842626967
 20
-1.302247793514578
 10
-0.4453488319052007
 20
-1.328220951162121
 10
-0.4298236675365454
 20
-1.353362094583405
 10
-0.4125101232836354
 20
-1.377568396826626
 10
-0.3934751211346859
 20
-1.40073946982038
 10
-0.3727934040486658
 20
-1.422777961724786
 10
-0.3612170672304023
 20
-1.433943934334884
  0
LINE
  5
1E1
330
1BB
100
AcDbEntity
  8
AM_9
100
AcDbLine
 10
-0.499999068016868
 20
-1.125863473103221
 30
0.0
 11
-0.4999914755990029
 21
-1.127611409917472
 31
0.0
  0
LINE
  5
1E2
330
1BB
100
AcDbEntity
  8
AM_9
100
AcDbLine
 10
0.4999708338941886
 20
-1.129830340928661
 30
0.0
 11
0.4999996264021005
 21
-1.124453302454638
 31
0.0
  0
LWPOLYLINE
  5
1E3
330
1BB
100
AcDbEntity
  8
AM_9
100
AcDbPolyline
 90
       13
 70
     0
 43
0.0
 10
0.3696214762866835
 20
-1.425914252334898
 10
0.3735279667121504
 20
-1.422043048631061
 10
0.3943357514102525
 20
-1.399756938527925
 10
0.4134675272435083
 20
-1.376315871694746
 10
0.4308420814395453
 20
-1.351824621158352
 10
0.4463873777369217
 20
-1.326392707113616
 10
0.4600409435425629
 20
-1.300133403156637
 10
0.4717500381626185
 20
-1.273162712814131
 10
0.4814716020677189
 20
-1.245598379500729
 10
0.4891720108562013
 20
-1.217558988234227
 10
0.4948266775330807
 20
-1.189163204860315
 10
0.4984195599542782
 20
-1.160529180923447
 10
0.4996142616683387
 20
-1.142563307542593
  0
LINE
  5
1E4
330
1BB
100
AcDbEntity
  8
AM_9
100
AcDbLine
 10
0.3613301708482364
 20
-1.433838478833363
 30
0.0
 11
0.3676942306170506
 21
-1.427790943189437
 31
0.0
  0
LWPOLYLINE
  5
1E5
330
1BB
100
AcDbEntity
  8
AM_9
100
AcDbPolyline
 90
       17
 70
     0
 43
0.0
 10
-0.3612055161710332
 20
-1.433954658884796
 10
-0.3526289903286545
 20
-1.441675611618473
 10
-0.3189419413866611
 20
-1.467559651496012
 10
-0.2824002194695278
 20
-1.489530098955324
 10
-0.2438605305872694
 20
-1.507523376883047
 10
-0.1873271993443838
 20
-1.526394498677392
 10
-0.128782482862679
 20
-1.538789381643934
 10
-0.069434619950275
 20
-1.545719341184148
 10
-0.0085624235267777
 20
-1.548524011379658
 10
0.0525334867638474
 20
-1.547266483117439
 10
0.113257443899885
 20
-1.541321788227751
 10
0.1730137808596199
 20
-1.530064958540853
 10
0.2159614415899905
 20
-1.517805677675322
 10
0.2576675956136592
 20
-1.501595333457497
 10
0.2973539398208423
 20
-1.481227047016832
 10
0.3348401965030343
 20
-1.456099633062738
 10
0.3613288037493582
 20
-1.433839748320095
  0
LWPOLYLINE
  5
1E6
330
1BB
100
AcDbEntity
  8
AM_9
100
AcDbPolyline
 90
        4
 70
     0
 43
0.0
 10
0.3613288037493582
 20
-1.433839748320095
 10
0.369016270564814
 20
-1.426382346761041
 10
0.3986643918412049
 20
-1.39246409234792
 10
0.4194684713626411
 20
-1.360657911281409
  0
LINE
  5
1E7
330
1BB
100
AcDbEntity
  8
AM_9
100
AcDbLine
 10
0.4339842795586019
 20
-1.333170562981347
 30
0.0
 11
0.4194684713626411
 21
-1.360657911281409
 31
0.0
  0
ELLIPSE
  5
1E8
330
1BB
100
AcDbEntity
  8
AM_9
100
AcDbEllipse
 10
-0.0000000000000053
 20
-1.124999999999996
 30
0.0
 11
0.5000000000000056
 21
0.0
 31
0.0
210
0.0
220
0.0
230
1.0
 40
0.8660254037844394
 41
5.707715923346114
 42
6.018153801714827
  0
ELLIPSE
  5
1E9
330
1BB
100
AcDbEntity
  8
AM_9
100
AcDbEllipse
 10
0.0000000000000068
 20
-1.124999999999997
 30
0.0
 11
0.5000000000000073
 21
0.0
 31
0.0
210
0.0
220
0.0
230
1.0
 40
0.8660254037844385
 41
3.37955527916348
 42
3.717062037423261
  0
LINE
  5
1EA
330
1BB
100
AcDbEntity
  8
AM_9
100
AcDbLine
 10
-0.4194684713626414
 20
-1.360657911281409
 30
0.0
 11
-0.4339842795586019
 21
-1.333170562981348
 31
0.0
  0
LINE
  5
1EB
330
1BB
100
AcDbEntity
  8
AM_9
100
AcDbLine
 10
-0.5756410343589744
 20
-1.77165
 30
0.0
 11
1.0
 21
-1.77165
 31
0.0
  0
LINE
  5
1EC
330
1BB
100
AcDbEntity
  8
AM_9
100
AcDbLine
 10
1.0
 20
1.77165
 30
0.0
 11
-0.5756410343589744
 21
1.77165
 31
0.0
  0
LINE
  5
1ED
330
1BB
100
AcDbEntity
  8
AM_9
100
AcDbLine
 10
-0.5756410343589744
 20
1.77165
 30
0.0
 11
-1.0
 21
1.88535664214442
 31
0.0
  0
LINE
  5
1EE
330
1BB
100
AcDbEntity
  8
AM_9
100
AcDbLine
 10
-1.0
 20
-1.88535664214442
 30
0.0
 11
-0.5756410343589744
 21
-1.77165
 31
0.0
  0
LINE
  5
1EF
330
1BB
100
AcDbEntity
  8
AM_9
100
AcDbLine
 10
-0.5756410343589744
 20
1.77165
 30
0.0
 11
-0.5756410343589744
 21
-1.77165
 31
0.0
  0
LINE
  5
1F0
330
1BB
100
AcDbEntity
  8
AM_9
100
AcDbLine
 10
1.0
 20
0.6197443384031026
 30
0.0
 11
1.0
 21
-0.6197443384031026
 31
0.0
  0
LINE
  5
1F1
330
1BB
100
AcDbEntity
  8
AM_9
100
AcDbLine
 10
0.9090909090909092
 20
0.6819964200288305
 30
0.0
 11
0.9090909090909092
 21
-0.6808504377777862
 31
0.0
  0
LINE
  5
1F2
330
1BB
100
AcDbEntity
  8
AM_9
100
AcDbLine
 10
-0.909090909090909
 20
0.680850437777786
 30
0.0
 11
-0.909090909090909
 21
-0.680850437777786
 31
0.0
  0
LINE
  5
1F3
330
1BB
100
AcDbEntity
  8
AM_9
100
AcDbLine
 10
-0.9999999999999999
 20
0.6197443384031022
 30
0.0
 11
-0.9999999999999999
 21
-0.6197443384031022
 31
0.0
  0
LINE
  5
1F4
330
1BB
100
AcDbEntity
  8
AM_9
100
AcDbLine
 10
-0.9090909090909091
 20
1.333170562981347
 30
0.0
 11
0.909090909090909
 21
1.333170562981347
 31
0.0
  0
LINE
  5
1F5
330
1BB
100
AcDbEntity
  8
AM_9
100
AcDbLine
 10
0.909090909090909
 20
-1.333170562981347
 30
0.0
 11
0.4339842795586016
 21
-1.333170562981347
 31
0.0
  0
LWPOLYLINE
  5
1F6
330
1BB
100
AcDbEntity
  8
AM_9
100
AcDbPolyline
 90
        7
 70
     0
 43
0.0
 10
0.4999999999999998
 20
-1.125
 10
0.4983170639284896
 20
-1.160278005512685
 10
0.493293968498949
 20
-1.194940579968675
 10
0.4846629570640156
 20
-1.229734119191657
 10
0.4726052871369176
 20
-1.263397505900959
 10
0.4553615960983353
 20
-1.299093279691377
 10
0.4339842795586016
 20
-1.333170562981347
  0
LWPOLYLINE
  5
1F7
330
1BB
100
AcDbEntity
  8
AM_9
100
AcDbPolyline
 90
       29
 70
     0
 43
0.0
 10
-0.5000000000000001
 20
-1.125
 10
-0.4973907405006158
 20
-1.080593134175059
 10
-0.489624382788631
 20
-1.036103349115451
 10
-0.4755687012220312
 20
-0.9887483959383947
 10
-0.4557991753740349
 20
-0.9423671989491837
 10
-0.4306935070481561
 20
-0.8978615476293152
 10
-0.3999413256348088
 20
-0.8551257333671496
 10
-0.3642242252878443
 20
-0.8152735963714746
 10
-0.3241804161561737
 20
-0.7791153780434334
 10
-0.2792229949365251
 20
-0.7465640808994498
 10
-0.2305287657449163
 20
-0.7187111129546475
 10
-0.1789971297193887
 20
-0.6962015252519786
 10
-0.1253883117156285
 20
-0.6795326774459808
 10
-0.069953006604097
 20
-0.6687210159304834
 10
-0.0137751021996342
 20
-0.6640438332244119
 10
0.0413183516206797
 20
-0.66557682079948
 10
0.0960614036553662
 20
-0.6730194848042336
 10
0.1494222332484612
 20
-0.6861871880603089
 10
0.200695774939334
 20
-0.704890774312061
 10
0.249657080384323
 20
-0.7288199163454602
 10
0.2954481230848692
 20
-0.7574414769169822
 10
0.3384828445683649
 20
-0.7911905143639651
 10
0.3774408199640906
 20
-0.8290397956353145
 10
0.411623735724944
 20
-0.8701985301295441
 10
0.44100057626936
 20
-0.9148318107270773
 10
0.4648675894245899
 20
-0.9618738737103504
 10
0.4827461398632855
 20
-1.010344177893954
 10
0.4956442381778909
 20
-1.067618709413217
 10
0.4999999999999998
 20
-1.125
  0
LWPOLYLINE
  5
1F8
330
1BB
100
AcDbEntity
  8
AM_9
100
AcDbPolyline
 90
        7
 70
     0
 43
0.0
 10
-0.4339842795586024
 20
-1.333170562981347
 10
-0.4459921619717708
 20
-1.315059290430366
 10
-0.463297564376994
 20
-1.283896378973867
 10
-0.4773887451584521
 20
-1.25128565135381
 10
-0.4884175418212987
 20
-1.216373875042599
 10
-0.4958261275867542
 20
-1.180371207221841
 10
-0.5000000000000001
 20
-1.125
  0
LINE
  5
1F9
330
1BB
100
AcDbEntity
  8
AM_9
100
AcDbLine
 10
-0.4339842795586024
 20
-1.333170562981347
 30
0.0
 11
-0.9090909090909091
 21
-1.333170562981347
 31
0.0
  0
LINE
  5
1FA
330
1BB
100
AcDbEntity
  8
AM_9
100
AcDbLine
 10
0.9599999999999999
 20
0.6800610597458874
 30
0.0
 11
0.9599999999999999
 21
-0.6800610597458874
 31
0.0
  0
LINE
  5
1FB
330
1BB
100
AcDbEntity
  8
AM_9
100
AcDbLine
 10
-0.9599999999999997
 20
0.6800610597458874
 30
0.0
 11
-0.9599999999999997
 21
-0.6800610597458874
 31
0.0
  0
LINE
  5
1FC
330
1BB
100
AcDbEntity
  8
AM_9
100
AcDbLine
 10
-0.909090909090909
 20
-0.9287500000000002
 30
0.0
 11
0.9090909090909092
 21
-0.9287500000000002
 31
0.0
  0
LINE
  5
1FD
330
1BB
100
AcDbEntity
  8
AM_9
100
AcDbLine
 10
-0.909090909090909
 20
-0.96875
 30
0.0
 11
0.9090909090909092
 21
-0.96875
 31
0.0
  0
LINE
  5
1FE
330
1BB
100
AcDbEntity
  8
AM_9
100
AcDbLine
 10
-0.909090909090909
 20
0.9287499999999999
 30
0.0
 11
0.9090909090909092
 21
0.9287499999999999
 31
0.0
  0
LINE
  5
1FF
330
1BB
100
AcDbEntity
  8
AM_9
100
AcDbLine
 10
-0.909090909090909
 20
0.9687500000000006
 30
0.0
 11
0.9090909090909092
 21
0.9687500000000006
 31
0.0
  0
LINE
  5
200
330
1BB
100
AcDbEntity
  8
AM_7
100
AcDbLine
 10
0.0000000000000002
 20
-0.5906250000000001
 30
0.0
 11
0.0000000000000002
 21
0.5906250000000001
 31
0.0
  0
LINE
  5
201
330
1BB
100
AcDbEntity
  8
AM_4
100
AcDbLine
 10
0.3437500000000001
 20
2.375
 30
0.0
 11
0.9090909090909092
 21
2.375
 31
0.0
  0
LINE
  5
202
330
1BB
100
AcDbEntity
  8
AM_4
100
AcDbLine
 10
0.3437500000000001
 20
2.375
 30
0.0
 11
0.3437500000000001
 21
2.0
 31
0.0
  0
LINE
  5
203
330
1BB
100
AcDbEntity
  8
AM_4
100
AcDbLine
 10
-0.909090909090909
 20
-2.375
 30
0.0
 11
-0.3437499999999998
 21
-2.375
 31
0.0
  0
LINE
  5
204
330
1BB
100
AcDbEntity
  8
AM_4
100
AcDbLine
 10
-0.3437499999999998
 20
-2.375
 30
0.0
 11
-0.3437499999999998
 21
-2.0
 31
0.0
  0
LINE
  5
205
330
1BB
100
AcDbEntity
  8
AM_4
100
AcDbLine
 10
-0.3437499999999998
 20
-2.0
 30
0.0
 11
0.3437500000000001
 21
-2.0
 31
0.0
  0
LINE
  5
206
330
1BB
100
AcDbEntity
  8
AM_4
100
AcDbLine
 10
0.3437500000000001
 20
-2.0
 30
0.0
 11
0.3437500000000001
 21
-2.375
 31
0.0
  0
LINE
  5
207
330
1BB
100
AcDbEntity
  8
AM_4
100
AcDbLine
 10
-0.909090909090909
 20
-2.335
 30
0.0
 11
-0.3437499999999998
 21
-2.335
 31
0.0
  0
LINE
  5
208
330
1BB
100
AcDbEntity
  8
AM_4
100
AcDbLine
 10
0.3437500000000001
 20
2.0
 30
0.0
 11
-0.3437499999999998
 21
2.0
 31
0.0
  0
LINE
  5
209
330
1BB
100
AcDbEntity
  8
AM_4
100
AcDbLine
 10
-0.3437499999999998
 20
2.0
 30
0.0
 11
-0.3437499999999998
 21
2.375
 31
0.0
  0
LINE
  5
20A
330
1BB
100
AcDbEntity
  8
AM_4
100
AcDbLine
 10
0.3437500000000001
 20
2.335
 30
0.0
 11
0.9090909090909092
 21
2.335
 31
0.0
  0
LINE
  5
20B
330
1BB
100
AcDbEntity
  8
AM_4
100
AcDbLine
 10
0.3437500000000001
 20
-2.335
 30
0.0
 11
0.9090909090909092
 21
-2.335
 31
0.0
  0
LINE
  5
20C
330
1BB
100
AcDbEntity
  8
AM_4
100
AcDbLine
 10
0.3437500000000001
 20
-2.375
 30
0.0
 11
0.9090909090909092
 21
-2.375
 31
0.0
  0
LINE
  5
20D
330
1BB
100
AcDbEntity
  8
AM_4
100
AcDbLine
 10
-0.909090909090909
 20
2.335
 30
0.0
 11
-0.3437499999999998
 21
2.335
 31
0.0
  0
LINE
  5
20E
330
1BB
100
AcDbEntity
  8
AM_4
100
AcDbLine
 10
-0.909090909090909
 20
2.375
 30
0.0
 11
-0.3437499999999998
 21
2.375
 31
0.0
  0
LINE
  5
20F
330
1BB
100
AcDbEntity
  8
AM_4
100
AcDbLine
 10
1.0
 20
-0.6197443384031026
 30
0.0
 11
0.9999999999999999
 21
-2.21
 31
0.0
  0
LINE
  5
210
330
1BB
100
AcDbEntity
  8
AM_4
100
AcDbLine
 10
0.9999999999999999
 20
2.21
 30
0.0
 11
1.0
 21
0.6197443384031026
 31
0.0
  0
ARC
  5
211
330
1BB
100
AcDbEntity
  8
AM_4
100
AcDbCircle
 10
0.9600000000000001
 20
-2.21
 30
0.0
 40
0.0399999999999996
100
AcDbArc
 50
270.0
 51
0.0
  0
ARC
  5
212
330
1BB
100
AcDbEntity
  8
AM_4
100
AcDbCircle
 10
0.9600000000000001
 20
2.21
 30
0.0
 40
0.0399999999999998
100
AcDbArc
 50
0.0
 51
90.0
  0
LINE
  5
213
330
1BB
100
AcDbEntity
  8
AM_4
100
AcDbLine
 10
-0.9999999999999999
 20
-0.6197443384031022
 30
0.0
 11
-1.0
 21
-2.21
 31
0.0
  0
LINE
  5
214
330
1BB
100
AcDbEntity
  8
AM_4
100
AcDbLine
 10
-1.0
 20
2.21
 30
0.0
 11
-0.9999999999999999
 21
0.6197443384031022
 31
0.0
  0
ARC
  5
215
330
1BB
100
AcDbEntity
  8
AM_4
100
AcDbCircle
 10
-0.9599999999999991
 20
-2.21
 30
0.0
 40
0.0400000000000009
100
AcDbArc
 50
180.0
 51
270.0
  0
ARC
  5
216
330
1BB
100
AcDbEntity
  8
AM_4
100
AcDbCircle
 10
-0.9599999999999992
 20
2.21
 30
0.0
 40
0.0400000000000009
100
AcDbArc
 50
90.0
 51
180.0
  0
LINE
  5
217
330
1BB
100
AcDbEntity
  8
AM_4
100
AcDbLine
 10
-0.9599999999999999
 20
-2.25
 30
0.0
 11
-0.909090909090909
 21
-2.25
 31
0.0
  0
LINE
  5
218
330
1BB
100
AcDbEntity
  8
AM_4
100
AcDbLine
 10
0.9090909090909091
 20
-2.25
 30
0.0
 11
0.9599999999999997
 21
-2.25
 31
0.0
  0
LINE
  5
219
330
1BB
100
AcDbEntity
  8
AM_4
100
AcDbLine
 10
0.9599999999999997
 20
2.25
 30
0.0
 11
0.9090909090909091
 21
2.25
 31
0.0
  0
LINE
  5
21A
330
1BB
100
AcDbEntity
  8
AM_4
100
AcDbLine
 10
-0.909090909090909
 20
2.25
 30
0.0
 11
-0.9599999999999999
 21
2.25
 31
0.0
  0
LINE
  5
21B
330
1BB
100
AcDbEntity
  8
AM_4
100
AcDbLine
 10
0.9599999999999999
 20
-0.6800610597458874
 30
0.0
 11
0.9599999999999997
 21
-2.25
 31
0.0
  0
LINE
  5
21C
330
1BB
100
AcDbEntity
  8
AM_4
100
AcDbLine
 10
0.9599999999999997
 20
2.25
 30
0.0
 11
0.9599999999999999
 21
0.6800610597458874
 31
0.0
  0
LINE
  5
21D
330
1BB
100
AcDbEntity
  8
AM_4
100
AcDbLine
 10
-0.9599999999999997
 20
-0.6800610597458874
 30
0.0
 11
-0.9599999999999999
 21
-2.25
 31
0.0
  0
LINE
  5
21E
330
1BB
100
AcDbEntity
  8
AM_4
100
AcDbLine
 10
-0.9599999999999999
 20
2.25
 30
0.0
 11
-0.9599999999999997
 21
0.6800610597458874
 31
0.0
  0
ARC
  5
21F
330
1BB
100
AcDbEntity
  8
AM_4
100
AcDbCircle
 10
0.0000000000000062
 20
0.0000000000000018
 30
0.0
 40
1.1764705882353
100
AcDbArc
 50
140.5994312462624
 51
219.4005687537376
  0
LINE
  5
220
330
1BB
100
AcDbEntity
  8
AM_4
100
AcDbLine
 10
-0.9090909090909087
 20
-1.65625
 30
0.0
 11
0.9090909090909093
 21
-1.65625
 31
0.0
  0
ARC
  5
221
330
1BB
100
AcDbEntity
  8
AM_4
100
AcDbCircle
 10
0.0000000000000002
 20
0.0
 30
0.0
 40
1.176470588235294
100
AcDbArc
 50
320.5994312462623
 51
39.40056875373772
  0
LINE
  5
222
330
1BB
100
AcDbEntity
  8
AM_4
100
AcDbLine
 10
0.9090909090909092
 20
-2.375
 30
0.0
 11
0.9090909090909093
 21
-0.6819964200288305
 31
0.0
  0
LINE
  5
223
330
1BB
100
AcDbEntity
  8
AM_4
100
AcDbLine
 10
-0.9090909090909087
 20
0.6819964200288305
 30
0.0
 11
-0.909090909090909
 21
2.375
 31
0.0
  0
LINE
  5
224
330
1BB
100
AcDbEntity
  8
AM_4
100
AcDbLine
 10
0.9090909090909093
 20
0.6819964200288305
 30
0.0
 11
0.9090909090909092
 21
2.375
 31
0.0
  0
CIRCLE
  5
225
330
1BB
100
AcDbEntity
  8
AM_4
100
AcDbCircle
 10
0.0000000000000002
 20
0.0
 30
0.0
 40
0.5625
  0
ARC
  5
226
330
1BB
100
AcDbEntity
  8
AM_4
100
AcDbCircle
 10
0.0000000000000013
 20
0.0
 30
0.0
 40
1.136470588235295
100
AcDbArc
 50
143.1229135734867
 51
216.8770864265133
  0
LINE
  5
227
330
1BB
100
AcDbEntity
  8
AM_4
100
AcDbLine
 10
-0.909090909090909
 20
-2.375
 30
0.0
 11
-0.9090909090909087
 21
-0.6819964200288305
 31
0.0
  0
LINE
  5
228
330
1BB
100
AcDbEntity
  8
AM_4
100
AcDbLine
 10
-0.9090909090909087
 20
-1.61625
 30
0.0
 11
0.9090909090909093
 21
-1.61625
 31
0.0
  0
ARC
  5
229
330
1BB
100
AcDbEntity
  8
AM_4
100
AcDbCircle
 10
0.0
 20
0.0
 30
0.0
 40
1.136470588235295
100
AcDbArc
 50
323.1229135734867
 51
36.87708642651332
  0
LINE
  5
22A
330
1BB
100
AcDbEntity
  8
AM_4
100
AcDbLine
 10
-0.9090909090909087
 20
1.65625
 30
0.0
 11
0.9090909090909093
 21
1.65625
 31
0.0
  0
LINE
  5
22B
330
1BB
100
AcDbEntity
  8
AM_4
100
AcDbLine
 10
-0.9090909090909087
 20
1.61625
 30
0.0
 11
0.9090909090909093
 21
1.61625
 31
0.0
  0
ENDBLK
  5
1BE
330
1BB
100
AcDbEntity
  8
0
100
AcDbBlockEnd
  0
ENDSEC
  0
SECTION
  2
ENTITIES
  0
INSERT
  5
6F
330
1F
100
AcDbEntity
  8
0
100
AcDbBlockReference
  2
1_070786_2
 10
0.0
 20
0.0
 30
0.0
  0
POINT
  5
22D
330
1F
100
AcDbEntity
  8
ConnectionPoints
100
AcDbPoint
 10
-1.6875
 20
0.0
 30
0.0000000000000001
  0
POINT
  5
22E
330
1F
100
AcDbEntity
  8
ConnectionPoints
100
AcDbPoint
 10
2.046
 20
0.0
 30
-0.0000000000000001
  0
POINT
  5
22F
330
1F
100
AcDbEntity
  8
ConnectionPoints
100
AcDbPoint
 10
-1.6875
 20
0.0
 30
0.0000000000000001
  0
POINT
  5
230
330
1F
100
AcDbEntity
  8
ConnectionPoints
100
AcDbPoint
 10
-0.0000000000000001
 20
-1.175
 30
-2.035159698893431
  0
POINT
  5
231
330
1F
100
AcDbEntity
  8
ConnectionPoints
100
AcDbPoint
 10
-0.0000000000000001
 20
-1.175
 30
-2.035159698893431
  0
POINT
  5
232
330
1F
100
AcDbEntity
  8
ConnectionPoints
100
AcDbPoint
 10
-1.6875
 20
0.0
 30
0.0000000000000001
  0
POINT
  5
233
330
1F
100
AcDbEntity
  8
ConnectionPoints
100
AcDbPoint
 10
-1.9375
 20
0.0
 30
0.0000000000000001
  0
ENDSEC
  0
SECTION
  2
OBJECTS
  0
DICTIONARY
  5
C
330
0
100
AcDbDictionary
281
     1
  3
ACAD_DETAILVIEWSTYLE
350
23B
  3
ACAD_GROUP
350
D
  3
ACAD_LAYOUT
350
1A
  3
ACAD_MATERIAL
350
43
  3
ACAD_MLEADERSTYLE
350
6B
  3
ACAD_MLINESTYLE
350
17
  3
ACAD_PLOTSETTINGS
350
19
  3
ACAD_PLOTSTYLENAME
350
E
  3
ACAD_SCALELIST
350
47
  3
ACAD_SECTIONVIEWSTYLE
350
23C
  3
ACAD_TABLESTYLE
350
69
  3
ACAD_VISUALSTYLE
350
2A
  3
ACDB_RECOMPOSE_DATA
350
238
  3
AcDbVariableDictionary
350
234
  0
SUN
  5
6D
330
29
100
AcDbSun
 90
        1
290
     0
 63
     7
421
 16777215
 40
1.0
291
     1
 91
  2455826
 92
 54000000
292
     0
 70
     2
 71
   256
280
     1
  0
DICTIONARY
  5
23B
102
{ACAD_REACTORS
330
C
102
}
330
C
100
AcDbDictionary
281
     1
  0
DICTIONARY
  5
D
102
{ACAD_REACTORS
330
C
102
}
330
C
100
AcDbDictionary
281
     1
  0
DICTIONARY
  5
1A
102
{ACAD_REACTORS
330
C
102
}
330
C
100
AcDbDictionary
281
     1
  3
Layout1
350
1E
  3
Layout2
350
26
  3
Model
350
22
  0
DICTIONARY
  5
43
102
{ACAD_REACTORS
330
C
102
}
330
C
100
AcDbDictionary
281
     1
  3
ByBlock
350
45
  3
ByLayer
350
44
  3
Global
350
46
  0
DICTIONARY
  5
6B
102
{ACAD_REACTORS
330
C
102
}
330
C
100
AcDbDictionary
281
     1
  3
Standard
350
6C
  0
DICTIONARY
  5
17
102
{ACAD_REACTORS
330
C
102
}
330
C
100
AcDbDictionary
281
     1
  3
Standard
350
18
  0
DICTIONARY
  5
19
102
{ACAD_REACTORS
330
C
102
}
330
C
100
AcDbDictionary
281
     1
  0
ACDBDICTIONARYWDFLT
  5
E
102
{ACAD_REACTORS
330
C
102
}
330
C
100
AcDbDictionary
281
     1
  3
Normal
350
F
100
AcDbDictionaryWithDefault
340
F
  0
DICTIONARY
  5
47
102
{ACAD_REACTORS
330
C
102
}
330
C
100
AcDbDictionary
281
     1
  3
A0
350
48
  3
A1
350
49
  3
A2
350
4A
  3
A3
350
4B
  3
A4
350
4C
  3
A5
350
4D
  3
A6
350
4E
  3
A7
350
4F
  3
A8
350
50
  3
A9
350
51
  3
B0
350
52
  3
B1
350
53
  3
B2
350
54
  3
B3
350
55
  3
B4
350
56
  3
B5
350
57
  3
B6
350
58
  3
B7
350
59
  3
B8
350
5A
  3
B9
350
5B
  3
C0
350
5C
  3
C1
350
5D
  3
C2
350
5E
  3
C3
350
5F
  3
C4
350
60
  3
C5
350
61
  3
C6
350
62
  3
C7
350
63
  3
C8
350
64
  3
C9
350
65
  3
D0
350
66
  3
D1
350
67
  3
D2
350
68
  0
DICTIONARY
  5
23C
102
{ACAD_REACTORS
330
C
102
}
330
C
100
AcDbDictionary
281
     1
  0
DICTIONARY
  5
69
102
{ACAD_REACTORS
330
C
102
}
330
C
100
AcDbDictionary
281
     1
  3
Standard
350
6A
  0
DICTIONARY
  5
2A
102
{ACAD_REACTORS
330
C
102
}
330
C
100
AcDbDictionary
281
     1
  3
2dWireframe
350
2F
  3
Basic
350
32
  3
Brighten
350
36
  3
ColorChange
350
3A
  3
Conceptual
350
34
  3
Dim
350
35
  3
EdgeColorOff
350
3D
  3
Facepattern
350
39
  3
Flat
350
2B
  3
FlatWithEdges
350
2C
  3
Gouraud
350
2D
  3
GouraudWithEdges
350
2E
  3
Hidden
350
31
  3
JitterOff
350
3B
  3
Linepattern
350
38
  3
OverhangOff
350
3C
  3
Realistic
350
33
  3
Shaded
350
42
  3
Shaded with edges
350
41
  3
Shades of Gray
350
3E
  3
Sketchy
350
3F
  3
Thicken
350
37
  3
Wireframe
350
30
  3
X-Ray
350
40
  0
XRECORD
  5
238
102
{ACAD_REACTORS
330
C
102
}
330
C
100
AcDbXrecord
280
     1
 90
        1
330
6A
  0
DICTIONARY
  5
234
102
{ACAD_REACTORS
330
C
102
}
330
C
100
AcDbDictionary
281
     1
  3
CANNOSCALE
350
235
  3
CMLEADERSTYLE
350
23A
  3
CTABLESTYLE
350
239
  0
LAYOUT
  5
1E
102
{ACAD_REACTORS
330
1A
102
}
330
1A
100
AcDbPlotSettings
  1

  2
none_device
  4

  6

 40
0.0
 41
0.0
 42
0.0
 43
0.0
 44
0.0
 45
0.0
 46
0.0
 47
0.0
 48
0.0
 49
0.0
140
0.0
141
0.0
142
1.0
143
1.0
 70
   688
 72
     0
 73
     0
 74
     5
  7

 75
    16
 76
     0
 77
     2
 78
   300
147
1.0
148
0.0
149
0.0
100
AcDbLayout
  1
Layout1
 70
     1
 71
     1
 10
0.0
 20
0.0
 11
12.0
 21
9.0
 12
0.0
 22
0.0
 32
0.0
 14
1.000000000000000E+20
 24
1.000000000000000E+20
 34
1.000000000000000E+20
 15
-1.000000000000000E+20
 25
-1.000000000000000E+20
 35
-1.000000000000000E+20
146
0.0
 13
0.0
 23
0.0
 33
0.0
 16
1.0
 26
0.0
 36
0.0
 17
0.0
 27
1.0
 37
0.0
 76
     0
330
1B
  0
LAYOUT
  5
26
102
{ACAD_REACTORS
330
1A
102
}
330
1A
100
AcDbPlotSettings
  1

  2
none_device
  4

  6

 40
0.0
 41
0.0
 42
0.0
 43
0.0
 44
0.0
 45
0.0
 46
0.0
 47
0.0
 48
0.0
 49
0.0
140
0.0
141
0.0
142
1.0
143
1.0
 70
   688
 72
     0
 73
     0
 74
     5
  7

 75
    16
 76
     0
 77
     2
 78
   300
147
1.0
148
0.0
149
0.0
100
AcDbLayout
  1
Layout2
 70
     1
 71
     2
 10
0.0
 20
0.0
 11
0.0
 21
0.0
 12
0.0
 22
0.0
 32
0.0
 14
0.0
 24
0.0
 34
0.0
 15
0.0
 25
0.0
 35
0.0
146
0.0
 13
0.0
 23
0.0
 33
0.0
 16
1.0
 26
0.0
 36
0.0
 17
0.0
 27
1.0
 37
0.0
 76
     0
330
23
  0
LAYOUT
  5
22
102
{ACAD_REACTORS
330
1A
102
}
330
1A
100
AcDbPlotSettings
  1

  2
none_device
  4
Letter_(8.50_x_11.00_Inches)
  6

 40
6.35
 41
6.35
 42
6.35000508
 43
6.35000508
 44
215.9
 45
279.4
 46
0.0
 47
0.0
 48
0.0
 49
0.0
140
0.0
141
0.0
142
1.0
143
1.0
 70
  1712
 72
     0
 73
     0
 74
     0
  7

 75
     0
 76
     0
 77
     2
 78
   300
147
1.0
148
0.0
149
0.0
100
AcDbLayout
  1
Model
 70
     1
 71
     0
 10
0.0
 20
0.0
 11
12.0
 21
9.0
 12
0.0
 22
0.0
 32
0.0
 14
1.000000000000000E+20
 24
1.000000000000000E+20
 34
1.000000000000000E+20
 15
-1.000000000000000E+20
 25
-1.000000000000000E+20
 35
-1.000000000000000E+20
146
0.0
 13
0.0
 23
0.0
 33
0.0
 16
1.0
 26
0.0
 36
0.0
 17
0.0
 27
1.0
 37
0.0
 76
     0
330
1F
331
29
  0
MATERIAL
  5
45
102
{ACAD_REACTORS
330
43
102
}
330
43
100
AcDbMaterial
  1
ByBlock
 72
     1
 94
      127
  0
MATERIAL
  5
44
102
{ACAD_REACTORS
330
43
102
}
330
43
100
AcDbMaterial
  1
ByLayer
 72
     1
 94
      127
  0
MATERIAL
  5
46
102
{ACAD_REACTORS
330
43
102
}
330
43
100
AcDbMaterial
  1
Global
 72
     1
 94
      127
  0
MLEADERSTYLE
  5
6C
102
{ACAD_REACTORS
330
6B
102
}
330
6B
100
AcDbMLeaderStyle
179
     2
170
     2
171
     1
172
     0
 90
        2
 40
0.0
 41
0.0
173
     1
 91
-1056964608
340
14
 92
       -2
290
     1
 42
0.09
291
     1
 43
0.36
  3
Standard
341
0
 44
0.18
300

342
11
174
     1
178
     6
175
     1
176
     0
 93
-1056964608
 45
0.18
292
     0
297
     0
 46
0.18
343
0
 94
-1056964608
 47
1.0
 49
1.0
140
1.0
293
     1
141
0.0
294
     1
177
     0
142
1.0
295
     0
296
     0
143
0.125
271
     0
272
     9
273
     9
298
     0
  0
MLINESTYLE
  5
18
102
{ACAD_REACTORS
330
17
102
}
330
17
100
AcDbMlineStyle
  2
Standard
 70
     0
  3

 62
   256
 51
90.0
 52
90.0
 71
     2
 49
0.5
 62
   256
  6
BYLAYER
 49
-0.5
 62
   256
  6
BYLAYER
  0
ACDBPLACEHOLDER
  5
F
102
{ACAD_REACTORS
330
E
102
}
330
E
  0
SCALE
  5
48
102
{ACAD_REACTORS
330
47
102
}
330
47
100
AcDbScale
 70
     0
300
1:1
140
1.0
141
1.0
290
     1
  0
SCALE
  5
49
102
{ACAD_REACTORS
330
47
102
}
330
47
100
AcDbScale
 70
     0
300
1:2
140
1.0
141
2.0
290
     0
  0
SCALE
  5
4A
102
{ACAD_REACTORS
330
47
102
}
330
47
100
AcDbScale
 70
     0
300
1:4
140
1.0
141
4.0
290
     0
  0
SCALE
  5
4B
102
{ACAD_REACTORS
330
47
102
}
330
47
100
AcDbScale
 70
     0
300
1:5
140
1.0
141
5.0
290
     0
  0
SCALE
  5
4C
102
{ACAD_REACTORS
330
47
102
}
330
47
100
AcDbScale
 70
     0
300
1:8
140
1.0
141
8.0
290
     0
  0
SCALE
  5
4D
102
{ACAD_REACTORS
330
47
102
}
330
47
100
AcDbScale
 70
     0
300
1:10
140
1.0
141
10.0
290
     0
  0
SCALE
  5
4E
102
{ACAD_REACTORS
330
47
102
}
330
47
100
AcDbScale
 70
     0
300
1:16
140
1.0
141
16.0
290
     0
  0
SCALE
  5
4F
102
{ACAD_REACTORS
330
47
102
}
330
47
100
AcDbScale
 70
     0
300
1:20
140
1.0
141
20.0
290
     0
  0
SCALE
  5
50
102
{ACAD_REACTORS
330
47
102
}
330
47
100
AcDbScale
 70
     0
300
1:30
140
1.0
141
30.0
290
     0
  0
SCALE
  5
51
102
{ACAD_REACTORS
330
47
102
}
330
47
100
AcDbScale
 70
     0
300
1:40
140
1.0
141
40.0
290
     0
  0
SCALE
  5
52
102
{ACAD_REACTORS
330
47
102
}
330
47
100
AcDbScale
 70
     0
300
1:50
140
1.0
141
50.0
290
     0
  0
SCALE
  5
53
102
{ACAD_REACTORS
330
47
102
}
330
47
100
AcDbScale
 70
     0
300
1:100
140
1.0
141
100.0
290
     0
  0
SCALE
  5
54
102
{ACAD_REACTORS
330
47
102
}
330
47
100
AcDbScale
 70
     0
300
2:1
140
2.0
141
1.0
290
     0
  0
SCALE
  5
55
102
{ACAD_REACTORS
330
47
102
}
330
47
100
AcDbScale
 70
     0
300
4:1
140
4.0
141
1.0
290
     0
  0
SCALE
  5
56
102
{ACAD_REACTORS
330
47
102
}
330
47
100
AcDbScale
 70
     0
300
8:1
140
8.0
141
1.0
290
     0
  0
SCALE
  5
57
102
{ACAD_REACTORS
330
47
102
}
330
47
100
AcDbScale
 70
     0
300
10:1
140
10.0
141
1.0
290
     0
  0
SCALE
  5
58
102
{ACAD_REACTORS
330
47
102
}
330
47
100
AcDbScale
 70
     0
300
100:1
140
100.0
141
1.0
290
     0
  0
SCALE
  5
59
102
{ACAD_REACTORS
330
47
102
}
330
47
100
AcDbScale
 70
     0
300
1/128" = 1'-0"
140
0.0078125
141
12.0
290
     0
  0
SCALE
  5
5A
102
{ACAD_REACTORS
330
47
102
}
330
47
100
AcDbScale
 70
     0
300
1/64" = 1'-0"
140
0.015625
141
12.0
290
     0
  0
SCALE
  5
5B
102
{ACAD_REACTORS
330
47
102
}
330
47
100
AcDbScale
 70
     0
300
1/32" = 1'-0"
140
0.03125
141
12.0
290
     0
  0
SCALE
  5
5C
102
{ACAD_REACTORS
330
47
102
}
330
47
100
AcDbScale
 70
     0
300
1/16" = 1'-0"
140
0.0625
141
12.0
290
     0
  0
SCALE
  5
5D
102
{ACAD_REACTORS
330
47
102
}
330
47
100
AcDbScale
 70
     0
300
3/32" = 1'-0"
140
0.09375
141
12.0
290
     0
  0
SCALE
  5
5E
102
{ACAD_REACTORS
330
47
102
}
330
47
100
AcDbScale
 70
     0
300
1/8" = 1'-0"
140
0.125
141
12.0
290
     0
  0
SCALE
  5
5F
102
{ACAD_REACTORS
330
47
102
}
330
47
100
AcDbScale
 70
     0
300
3/16" = 1'-0"
140
0.1875
141
12.0
290
     0
  0
SCALE
  5
60
102
{ACAD_REACTORS
330
47
102
}
330
47
100
AcDbScale
 70
     0
300
1/4" = 1'-0"
140
0.25
141
12.0
290
     0
  0
SCALE
  5
61
102
{ACAD_REACTORS
330
47
102
}
330
47
100
AcDbScale
 70
     0
300
3/8" = 1'-0"
140
0.375
141
12.0
290
     0
  0
SCALE
  5
62
102
{ACAD_REACTORS
330
47
102
}
330
47
100
AcDbScale
 70
     0
300
1/2" = 1'-0"
140
0.5
141
12.0
290
     0
  0
SCALE
  5
63
102
{ACAD_REACTORS
330
47
102
}
330
47
100
AcDbScale
 70
     0
300
3/4" = 1'-0"
140
0.75
141
12.0
290
     0
  0
SCALE
  5
64
102
{ACAD_REACTORS
330
47
102
}
330
47
100
AcDbScale
 70
     0
300
1" = 1'-0"
140
1.0
141
12.0
290
     0
  0
SCALE
  5
65
102
{ACAD_REACTORS
330
47
102
}
330
47
100
AcDbScale
 70
     0
300
1-1/2" = 1'-0"
140
1.5
141
12.0
290
     0
  0
SCALE
  5
66
102
{ACAD_REACTORS
330
47
102
}
330
47
100
AcDbScale
 70
     0
300
3" = 1'-0"
140
3.0
141
12.0
290
     0
  0
SCALE
  5
67
102
{ACAD_REACTORS
330
47
102
}
330
47
100
AcDbScale
 70
     0
300
6" = 1'-0"
140
6.0
141
12.0
290
     0
  0
SCALE
  5
68
102
{ACAD_REACTORS
330
47
102
}
330
47
100
AcDbScale
 70
     0
300
1'-0" = 1'-0"
140
12.0
141
12.0
290
     0
  0
TABLESTYLE
  5
6A
102
{ACAD_REACTORS
330
69
102
}
102
{ACAD_XDICTIONARY
360
236
102
}
330
69
100
AcDbTableStyle
  3
Standard
 70
     0
 71
     0
 40
0.06
 41
0.06
280
     0
281
     0
  7
Standard
140
0.18
170
     2
 62
     0
 63
   257
283
     0
 90
        4
 91
        0
  1

274
    -2
284
     1
 64
     0
275
    -2
285
     1
 65
     0
276
    -2
286
     1
 66
     0
277
    -2
287
     1
 67
     0
278
    -2
288
     1
 68
     0
279
    -2
289
     1
 69
     0
  7
Standard
140
0.25
170
     5
 62
     0
 63
   257
283
     0
 90
        4
 91
        0
  1

274
    -2
284
     1
 64
     0
275
    -2
285
     1
 65
     0
276
    -2
286
     1
 66
     0
277
    -2
287
     1
 67
     0
278
    -2
288
     1
 68
     0
279
    -2
289
     1
 69
     0
  7
Standard
140
0.18
170
     5
 62
     0
 63
   257
283
     0
 90
        4
 91
        0
  1

274
    -2
284
     1
 64
     0
275
    -2
285
     1
 65
     0
276
    -2
286
     1
 66
     0
277
    -2
287
     1
 67
     0
278
    -2
288
     1
 68
     0
279
    -2
289
     1
 69
     0
  0
VISUALSTYLE
  5
2F
102
{ACAD_REACTORS
330
2A
102
}
330
2A
100
AcDbVisualStyle
  2
2dWireframe
 70
     4
177
     3
291
     0
 70
    58
 90
        0
176
     1
 90
        2
176
     1
 90
        0
176
     1
 90
        0
176
     1
 40
0.6
176
     1
 40
30.0
176
     1
 62
     7
420
 16777215
176
     1
 90
        1
176
     1
 90
        4
176
     1
 62
     7
176
     1
 62
   257
176
     1
 90
        1
176
     1
 90
        1
176
     1
 40
1.0
176
     1
 90
        0
176
     1
 62
   257
176
     1
 40
1.0
176
     1
 90
        1
176
     1
 90
        6
176
     1
 90
        2
176
     1
 62
     7
176
     1
 90
        5
176
     1
 90
        0
176
     1
 90
        0
176
     1
290
     0
176
     1
 90
        1
176
     1
 40
0.0
176
     1
 90
        0
176
     1
290
     1
176
     1
290
     1
176
     1
290
     0
176
     1
290
     0
176
     1
290
     0
176
     1
290
     0
176
     1
290
     0
176
     1
290
     0
176
     1
290
     0
176
     1
 90
       50
176
     1
 40
0.0
176
     1
 40
1.0
176
     1
 90
        0
176
     1
 62
    18
420
        0
176
     1
 90
       50
176
     1
 90
        3
176
     1
 62
     5
420
      255
176
     1
290
     0
176
     1
 90
       50
176
     1
 90
       50
176
     1
 90
       50
176
     1
290
     0
176
     1
 90
       50
176
     1
 62
   256
176
     0
 40
1.0
176
     0
 90
        2
176
     1
  1
strokes_ogs.tif
176
     1
290
     0
176
     1
 40
1.0
176
     1
 40
1.0
176
     1
  0
VISUALSTYLE
  5
32
102
{ACAD_REACTORS
330
2A
102
}
330
2A
100
AcDbVisualStyle
  2
Basic
 70
     7
177
     3
291
     1
 70
    58
 90
        1
176
     1
 90
        0
176
     1
 90
        1
176
     1
 90
        0
176
     1
 40
0.6
176
     1
 40
30.0
176
     1
 62
     7
420
 16777215
176
     1
 90
        0
176
     1
 90
        4
176
     1
 62
     7
176
     1
 62
   257
176
     1
 90
        1
176
     1
 90
        1
176
     1
 40
1.0
176
     1
 90
        8
176
     1
 62
     7
176
     1
 40
1.0
176
     1
 90
        1
176
     1
 90
        6
176
     1
 90
        2
176
     1
 62
     7
176
     1
 90
        5
176
     1
 90
        0
176
     1
 90
        0
176
     1
290
     0
176
     1
 90
        1
176
     1
 40
0.0
176
     1
 90
        0
176
     1
290
     0
176
     1
290
     1
176
     1
290
     1
176
     1
290
     0
176
     1
290
     0
176
     1
290
     0
176
     1
290
     0
176
     1
290
     0
176
     1
290
     0
176
     1
 90
       50
176
     1
 40
0.0
176
     1
 40
1.0
176
     1
 90
        0
176
     1
 62
    18
420
        0
176
     1
 90
       50
176
     1
 90
        3
176
     1
 62
     5
420
      255
176
     1
290
     0
176
     1
 90
       50
176
     1
 90
       50
176
     1
 90
       50
176
     1
290
     0
176
     1
 90
       50
176
     1
 62
   256
176
     0
 40
1.0
176
     0
 90
        2
176
     1
  1
strokes_ogs.tif
176
     1
290
     0
176
     1
 40
1.0
176
     1
 40
1.0
176
     1
  0
VISUALSTYLE
  5
36
102
{ACAD_REACTORS
330
2A
102
}
330
2A
100
AcDbVisualStyle
  2
Brighten
 70
    12
177
     3
291
     1
 70
    58
 90
        2
176
     1
 90
        2
176
     1
 90
        0
176
     1
 90
        0
176
     1
 40
0.6
176
     1
 40
30.0
176
     1
 62
     7
420
 16777215
176
     1
 90
        1
176
     1
 90
        4
176
     1
 62
     7
176
     1
 62
   257
176
     1
 90
        1
176
     1
 90
        1
176
     1
 40
1.0
176
     1
 90
        8
176
     1
 62
     7
176
     1
 40
1.0
176
     1
 90
        1
176
     1
 90
        6
176
     1
 90
        2
176
     1
 62
     7
176
     1
 90
        5
176
     1
 90
        0
176
     1
 90
        0
176
     1
290
     0
176
     1
 90
        1
176
     1
 40
50.0
176
     1
 90
        0
176
     1
290
     0
176
     1
290
     1
176
     1
290
     1
176
     1
290
     0
176
     1
290
     0
176
     1
290
     0
176
     1
290
     0
176
     1
290
     0
176
     1
290
     0
176
     1
 90
       50
176
     1
 40
0.0
176
     1
 40
1.0
176
     1
 90
        0
176
     1
 62
    18
420
        0
176
     1
 90
       50
176
     1
 90
        3
176
     1
 62
     5
420
      255
176
     1
290
     0
176
     1
 90
       50
176
     1
 90
       50
176
     1
 90
       50
176
     1
290
     0
176
     1
 90
       50
176
     1
 62
   256
176
     0
 40
1.0
176
     0
 90
        2
176
     1
  1
strokes_ogs.tif
176
     1
290
     0
176
     1
 40
1.0
176
     1
 40
1.0
176
     1
  0
VISUALSTYLE
  5
3A
102
{ACAD_REACTORS
330
2A
102
}
330
2A
100
AcDbVisualStyle
  2
ColorChange
 70
    16
177
     3
291
     1
 70
    58
 90
        2
176
     1
 90
        2
176
     1
 90
        3
176
     1
 90
        0
176
     1
 40
0.6
176
     1
 40
30.0
176
     1
 62
     8
420
  8421504
176
     1
 90
        1
176
     1
 90
        4
176
     1
 62
     7
176
     1
 62
   257
176
     1
 90
        1
176
     1
 90
        1
176
     1
 40
1.0
176
     1
 90
        8
176
     1
 62
     8
420
  8421504
176
     1
 40
1.0
176
     1
 90
        1
176
     1
 90
        6
176
     1
 90
        2
176
     1
 62
     7
176
     1
 90
        5
176
     1
 90
        0
176
     1
 90
        0
176
     1
290
     0
176
     1
 90
        1
176
     1
 40
0.0
176
     1
 90
        0
176
     1
290
     0
176
     1
290
     1
176
     1
290
     1
176
     1
290
     0
176
     1
290
     0
176
     1
290
     0
176
     1
290
     0
176
     1
290
     0
176
     1
290
     0
176
     1
 90
       50
176
     1
 40
0.0
176
     1
 40
1.0
176
     1
 90
        0
176
     1
 62
    18
420
        0
176
     1
 90
       50
176
     1
 90
        3
176
     1
 62
     5
420
      255
176
     1
290
     0
176
     1
 90
       50
176
     1
 90
       50
176
     1
 90
       50
176
     1
290
     0
176
     1
 90
       50
176
     1
 62
   256
176
     0
 40
1.0
176
     0
 90
        2
176
     1
  1
strokes_ogs.tif
176
     1
290
     0
176
     1
 40
1.0
176
     1
 40
1.0
176
     1
  0
VISUALSTYLE
  5
34
102
{ACAD_REACTORS
330
2A
102
}
330
2A
100
AcDbVisualStyle
  2
Conceptual
 70
     9
177
     3
291
     0
 70
    58
 90
        3
176
     1
 90
        2
176
     1
 90
        0
176
     1
 90
        0
176
     1
 40
0.6
176
     1
 40
30.0
176
     1
 62
     7
420
 16777215
176
     1
 90
        2
176
     1
 90
        2
176
     1
 62
     7
176
     1
 62
   257
176
     1
 90
        1
176
     1
 90
        1
176
     1
 40
179.0
176
     1
 90
        8
176
     1
 62
     7
176
     1
 40
1.0
176
     1
 90
        1
176
     1
 90
        6
176
     1
 90
        2
176
     1
 62
     7
176
     1
 90
        3
176
     1
 90
        0
176
     1
 90
        0
176
     1
290
     0
176
     1
 90
        1
176
     1
 40
0.0
176
     1
 90
        0
176
     1
290
     0
176
     1
290
     1
176
     1
290
     1
176
     1
290
     0
176
     1
290
     0
176
     1
290
     0
176
     1
290
     0
176
     1
290
     0
176
     1
290
     0
176
     1
 90
       50
176
     1
 40
0.0
176
     1
 40
1.0
176
     1
 90
        0
176
     1
 62
    18
420
        0
176
     1
 90
       50
176
     1
 90
        3
176
     1
 62
     5
420
      255
176
     1
290
     0
176
     1
 90
       50
176
     1
 90
       50
176
     1
 90
       50
176
     1
290
     0
176
     1
 90
       50
176
     1
 62
   256
176
     0
 40
1.0
176
     0
 90
        2
176
     1
  1
strokes_ogs.tif
176
     1
290
     0
176
     1
 40
1.0
176
     1
 40
1.0
176
     1
  0
VISUALSTYLE
  5
35
102
{ACAD_REACTORS
330
2A
102
}
330
2A
100
AcDbVisualStyle
  2
Dim
 70
    11
177
     3
291
     1
 70
    58
 90
        2
176
     1
 90
        2
176
     1
 90
        0
176
     1
 90
        0
176
     1
 40
0.6
176
     1
 40
30.0
176
     1
 62
     7
420
 16777215
176
     1
 90
        1
176
     1
 90
        4
176
     1
 62
     7
176
     1
 62
   257
176
     1
 90
        1
176
     1
 90
        1
176
     1
 40
1.0
176
     1
 90
        8
176
     1
 62
     7
176
     1
 40
1.0
176
     1
 90
        1
176
     1
 90
        6
176
     1
 90
        2
176
     1
 62
     7
176
     1
 90
        5
176
     1
 90
        0
176
     1
 90
        0
176
     1
290
     0
176
     1
 90
        1
176
     1
 40
-50.0
176
     1
 90
        0
176
     1
290
     0
176
     1
290
     1
176
     1
290
     1
176
     1
290
     0
176
     1
290
     0
176
     1
290
     0
176
     1
290
     0
176
     1
290
     0
176
     1
290
     0
176
     1
 90
       50
176
     1
 40
0.0
176
     1
 40
1.0
176
     1
 90
        0
176
     1
 62
    18
420
        0
176
     1
 90
       50
176
     1
 90
        3
176
     1
 62
     5
420
      255
176
     1
290
     0
176
     1
 90
       50
176
     1
 90
       50
176
     1
 90
       50
176
     1
290
     0
176
     1
 90
       50
176
     1
 62
   256
176
     0
 40
1.0
176
     0
 90
        2
176
     1
  1
strokes_ogs.tif
176
     1
290
     0
176
     1
 40
1.0
176
     1
 40
1.0
176
     1
  0
VISUALSTYLE
  5
3D
102
{ACAD_REACTORS
330
2A
102
}
330
2A
100
AcDbVisualStyle
  2
EdgeColorOff
 70
    22
177
     3
291
     1
 70
    58
 90
        2
176
     0
 90
        2
176
     0
 90
        0
176
     0
 90
        0
176
     0
 40
0.6
176
     0
 40
30.0
176
     0
 62
     7
420
 16777215
176
     0
 90
        1
176
     0
 90
        4
176
     0
 62
     7
176
     0
 62
   257
176
     0
 90
        1
176
     0
 90
        1
176
     0
 40
1.0
176
     0
 90
        8
176
     2
 62
     7
176
     0
 40
1.0
176
     0
 90
        1
176
     0
 90
        6
176
     0
 90
        2
176
     0
 62
     7
176
     0
 90
        5
176
     0
 90
        0
176
     0
 90
        0
176
     0
290
     0
176
     0
 90
        1
176
     0
 40
0.0
176
     0
 90
        0
176
     0
290
     0
176
     0
290
     1
176
     0
290
     1
176
     0
290
     0
176
     0
290
     0
176
     0
290
     0
176
     0
290
     0
176
     0
290
     0
176
     0
290
     0
176
     0
 90
       50
176
     0
 40
0.0
176
     0
 40
1.0
176
     0
 90
        0
176
     0
 62
    18
420
        0
176
     0
 90
       50
176
     0
 90
        3
176
     0
 62
     5
420
      255
176
     0
290
     0
176
     0
 90
       50
176
     0
 90
       50
176
     0
 90
       50
176
     0
290
     0
176
     0
 90
       50
176
     0
 62
   256
176
     0
 40
1.0
176
     0
 90
        2
176
     0
  1
strokes_ogs.tif
176
     0
290
     0
176
     0
 40
1.0
176
     0
 40
1.0
176
     0
  0
VISUALSTYLE
  5
39
102
{ACAD_REACTORS
330
2A
102
}
330
2A
100
AcDbVisualStyle
  2
Facepattern
 70
    15
177
     3
291
     1
 70
    58
 90
        2
176
     1
 90
        2
176
     1
 90
        0
176
     1
 90
        0
176
     1
 40
0.6
176
     1
 40
30.0
176
     1
 62
     7
420
 16777215
176
     1
 90
        1
176
     1
 90
        4
176
     1
 62
     7
176
     1
 62
   257
176
     1
 90
        1
176
     1
 90
        1
176
     1
 40
1.0
176
     1
 90
        8
176
     1
 62
     7
176
     1
 40
1.0
176
     1
 90
        1
176
     1
 90
        6
176
     1
 90
        2
176
     1
 62
     7
176
     1
 90
        5
176
     1
 90
        0
176
     1
 90
        0
176
     1
290
     0
176
     1
 90
        1
176
     1
 40
0.0
176
     1
 90
        0
176
     1
290
     0
176
     1
290
     1
176
     1
290
     1
176
     1
290
     0
176
     1
290
     0
176
     1
290
     0
176
     1
290
     0
176
     1
290
     0
176
     1
290
     0
176
     1
 90
       50
176
     1
 40
0.0
176
     1
 40
1.0
176
     1
 90
        0
176
     1
 62
    18
420
        0
176
     1
 90
       50
176
     1
 90
        3
176
     1
 62
     5
420
      255
176
     1
290
     0
176
     1
 90
       50
176
     1
 90
       50
176
     1
 90
       50
176
     1
290
     0
176
     1
 90
       50
176
     1
 62
   256
176
     0
 40
1.0
176
     0
 90
        2
176
     1
  1
strokes_ogs.tif
176
     1
290
     0
176
     1
 40
1.0
176
     1
 40
1.0
176
     1
  0
VISUALSTYLE
  5
2B
102
{ACAD_REACTORS
330
2A
102
}
330
2A
100
AcDbVisualStyle
  2
Flat
 70
     0
177
     3
291
     1
 70
    58
 90
        2
176
     1
 90
        1
176
     1
 90
        1
176
     1
 90
        2
176
     1
 40
0.6
176
     1
 40
30.0
176
     1
 62
     7
420
 16777215
176
     1
 90
        0
176
     1
 90
        0
176
     1
 62
     7
176
     1
 62
   257
176
     1
 90
        1
176
     1
 90
        1
176
     1
 40
1.0
176
     1
 90
        8
176
     1
 62
     7
176
     1
 40
1.0
176
     1
 90
        1
176
     1
 90
        6
176
     1
 90
        2
176
     1
 62
     7
176
     1
 90
        5
176
     1
 90
        0
176
     1
 90
        0
176
     1
290
     0
176
     1
 90
       13
176
     1
 40
0.0
176
     1
 90
        0
176
     1
290
     0
176
     1
290
     1
176
     1
290
     1
176
     1
290
     0
176
     1
290
     0
176
     1
290
     0
176
     1
290
     0
176
     1
290
     0
176
     1
290
     0
176
     1
 90
       50
176
     1
 40
0.0
176
     1
 40
1.0
176
     1
 90
        0
176
     1
 62
    18
420
        0
176
     1
 90
       50
176
     1
 90
        3
176
     1
 62
     5
420
      255
176
     1
290
     0
176
     1
 90
       50
176
     1
 90
       50
176
     1
 90
       50
176
     1
290
     0
176
     1
 90
       50
176
     1
 62
   256
176
     0
 40
1.0
176
     0
 90
        2
176
     1
  1
strokes_ogs.tif
176
     1
290
     0
176
     1
 40
1.0
176
     1
 40
1.0
176
     1
  0
VISUALSTYLE
  5
2C
102
{ACAD_REACTORS
330
2A
102
}
330
2A
100
AcDbVisualStyle
  2
FlatWithEdges
 70
     1
177
     3
291
     1
 70
    58
 90
        2
176
     1
 90
        1
176
     1
 90
        1
176
     1
 90
        2
176
     1
 40
0.6
176
     1
 40
30.0
176
     1
 62
     7
420
 16777215
176
     1
 90
        1
176
     1
 90
        0
176
     1
 62
     7
176
     1
 62
   257
176
     1
 90
        1
176
     1
 90
        1
176
     1
 40
1.0
176
     1
 90
        0
176
     1
 62
   257
176
     1
 40
1.0
176
     1
 90
        1
176
     1
 90
        6
176
     1
 90
        2
176
     1
 62
     7
176
     1
 90
        5
176
     1
 90
        0
176
     1
 90
        0
176
     1
290
     0
176
     1
 90
       13
176
     1
 40
0.0
176
     1
 90
        0
176
     1
290
     0
176
     1
290
     1
176
     1
290
     1
176
     1
290
     0
176
     1
290
     0
176
     1
290
     0
176
     1
290
     0
176
     1
290
     0
176
     1
290
     0
176
     1
 90
       50
176
     1
 40
0.0
176
     1
 40
1.0
176
     1
 90
        0
176
     1
 62
    18
420
        0
176
     1
 90
       50
176
     1
 90
        3
176
     1
 62
     5
420
      255
176
     1
290
     0
176
     1
 90
       50
176
     1
 90
       50
176
     1
 90
       50
176
     1
290
     0
176
     1
 90
       50
176
     1
 62
   256
176
     0
 40
1.0
176
     0
 90
        2
176
     1
  1
strokes_ogs.tif
176
     1
290
     0
176
     1
 40
1.0
176
     1
 40
1.0
176
     1
  0
VISUALSTYLE
  5
2D
102
{ACAD_REACTORS
330
2A
102
}
330
2A
100
AcDbVisualStyle
  2
Gouraud
 70
     2
177
     3
291
     1
 70
    58
 90
        2
176
     1
 90
        2
176
     1
 90
        1
176
     1
 90
        2
176
     1
 40
0.6
176
     1
 40
30.0
176
     1
 62
     7
420
 16777215
176
     1
 90
        0
176
     1
 90
        0
176
     1
 62
     7
176
     1
 62
   257
176
     1
 90
        1
176
     1
 90
        1
176
     1
 40
1.0
176
     1
 90
        0
176
     1
 62
     7
176
     1
 40
1.0
176
     1
 90
        1
176
     1
 90
        6
176
     1
 90
        2
176
     1
 62
     7
176
     1
 90
        5
176
     1
 90
        0
176
     1
 90
        0
176
     1
290
     0
176
     1
 90
       13
176
     1
 40
0.0
176
     1
 90
        0
176
     1
290
     0
176
     1
290
     1
176
     1
290
     1
176
     1
290
     0
176
     1
290
     0
176
     1
290
     0
176
     1
290
     0
176
     1
290
     0
176
     1
290
     0
176
     1
 90
       50
176
     1
 40
0.0
176
     1
 40
1.0
176
     1
 90
        0
176
     1
 62
    18
420
        0
176
     1
 90
       50
176
     1
 90
        3
176
     1
 62
     5
420
      255
176
     1
290
     0
176
     1
 90
       50
176
     1
 90
       50
176
     1
 90
       50
176
     1
290
     0
176
     1
 90
       50
176
     1
 62
   256
176
     0
 40
1.0
176
     0
 90
        2
176
     1
  1
strokes_ogs.tif
176
     1
290
     0
176
     1
 40
1.0
176
     1
 40
1.0
176
     1
  0
VISUALSTYLE
  5
2E
102
{ACAD_REACTORS
330
2A
102
}
330
2A
100
AcDbVisualStyle
  2
GouraudWithEdges
 70
     3
177
     3
291
     1
 70
    58
 90
        2
176
     1
 90
        2
176
     1
 90
        1
176
     1
 90
        2
176
     1
 40
0.6
176
     1
 40
30.0
176
     1
 62
     7
420
 16777215
176
     1
 90
        1
176
     1
 90
        0
176
     1
 62
     7
176
     1
 62
   257
176
     1
 90
        1
176
     1
 90
        1
176
     1
 40
1.0
176
     1
 90
        0
176
     1
 62
   257
176
     1
 40
1.0
176
     1
 90
        1
176
     1
 90
        6
176
     1
 90
        2
176
     1
 62
     7
176
     1
 90
        5
176
     1
 90
        0
176
     1
 90
        0
176
     1
290
     0
176
     1
 90
       13
176
     1
 40
0.0
176
     1
 90
        0
176
     1
290
     0
176
     1
290
     1
176
     1
290
     1
176
     1
290
     0
176
     1
290
     0
176
     1
290
     0
176
     1
290
     0
176
     1
290
     0
176
     1
290
     0
176
     1
 90
       50
176
     1
 40
0.0
176
     1
 40
1.0
176
     1
 90
        0
176
     1
 62
    18
420
        0
176
     1
 90
       50
176
     1
 90
        3
176
     1
 62
     5
420
      255
176
     1
290
     0
176
     1
 90
       50
176
     1
 90
       50
176
     1
 90
       50
176
     1
290
     0
176
     1
 90
       50
176
     1
 62
   256
176
     0
 40
1.0
176
     0
 90
        2
176
     1
  1
strokes_ogs.tif
176
     1
290
     0
176
     1
 40
1.0
176
     1
 40
1.0
176
     1
  0
VISUALSTYLE
  5
31
102
{ACAD_REACTORS
330
2A
102
}
330
2A
100
AcDbVisualStyle
  2
Hidden
 70
     6
177
     3
291
     0
 70
    58
 90
        1
176
     1
 90
        2
176
     1
 90
        2
176
     1
 90
        0
176
     1
 40
0.6
176
     1
 40
30.0
176
     1
 62
     7
420
 16777215
176
     1
 90
        2
176
     1
 90
        2
176
     1
 62
     7
176
     1
 62
   257
176
     1
 90
        2
176
     1
 90
        1
176
     1
 40
40.0
176
     1
 90
        0
176
     1
 62
   257
176
     1
 40
1.0
176
     1
 90
        1
176
     1
 90
        6
176
     1
 90
        2
176
     1
 62
     7
176
     1
 90
        3
176
     1
 90
        0
176
     1
 90
        0
176
     1
290
     0
176
     1
 90
        1
176
     1
 40
0.0
176
     1
 90
        0
176
     1
290
     0
176
     1
290
     1
176
     1
290
     1
176
     1
290
     0
176
     1
290
     0
176
     1
290
     0
176
     1
290
     0
176
     1
290
     0
176
     1
290
     0
176
     1
 90
       50
176
     1
 40
0.0
176
     1
 40
1.0
176
     1
 90
        0
176
     1
 62
    18
420
        0
176
     1
 90
       50
176
     1
 90
        3
176
     1
 62
     5
420
      255
176
     1
290
     0
176
     1
 90
       50
176
     1
 90
       50
176
     1
 90
       50
176
     1
290
     0
176
     1
 90
       50
176
     1
 62
   256
176
     0
 40
1.0
176
     0
 90
        2
176
     1
  1
strokes_ogs.tif
176
     1
290
     0
176
     1
 40
1.0
176
     1
 40
1.0
176
     1
  0
VISUALSTYLE
  5
3B
102
{ACAD_REACTORS
330
2A
102
}
330
2A
100
AcDbVisualStyle
  2
JitterOff
 70
    20
177
     3
291
     1
 70
    58
 90
        2
176
     0
 90
        2
176
     0
 90
        0
176
     0
 90
        0
176
     0
 40
0.6
176
     0
 40
30.0
176
     0
 62
     7
420
 16777215
176
     0
 90
        1
176
     0
 90
        4
176
     0
 62
     7
176
     0
 62
   257
176
     0
 90
        1
176
     0
 90
        1
176
     0
 40
1.0
176
     0
 90
       10
176
     2
 62
     7
176
     0
 40
1.0
176
     0
 90
        1
176
     0
 90
        6
176
     0
 90
        2
176
     0
 62
     7
176
     0
 90
        5
176
     0
 90
        0
176
     0
 90
        0
176
     0
290
     0
176
     0
 90
        1
176
     0
 40
0.0
176
     0
 90
        0
176
     0
290
     0
176
     0
290
     1
176
     0
290
     1
176
     0
290
     0
176
     0
290
     0
176
     0
290
     0
176
     0
290
     0
176
     0
290
     0
176
     0
290
     0
176
     0
 90
       50
176
     0
 40
0.0
176
     0
 40
1.0
176
     0
 90
        0
176
     0
 62
    18
420
        0
176
     0
 90
       50
176
     0
 90
        3
176
     0
 62
     5
420
      255
176
     0
290
     0
176
     0
 90
       50
176
     0
 90
       50
176
     0
 90
       50
176
     0
290
     0
176
     0
 90
       50
176
     0
 62
   256
176
     0
 40
1.0
176
     0
 90
        2
176
     0
  1
strokes_ogs.tif
176
     0
290
     0
176
     0
 40
1.0
176
     0
 40
1.0
176
     0
  0
VISUALSTYLE
  5
38
102
{ACAD_REACTORS
330
2A
102
}
330
2A
100
AcDbVisualStyle
  2
Linepattern
 70
    14
177
     3
291
     1
 70
    58
 90
        2
176
     1
 90
        2
176
     1
 90
        0
176
     1
 90
        0
176
     1
 40
0.6
176
     1
 40
30.0
176
     1
 62
     7
420
 16777215
176
     1
 90
        1
176
     1
 90
        4
176
     1
 62
     7
176
     1
 62
   257
176
     1
 90
        7
176
     1
 90
        7
176
     1
 40
1.0
176
     1
 90
        8
176
     1
 62
     7
176
     1
 40
1.0
176
     1
 90
        1
176
     1
 90
        6
176
     1
 90
        2
176
     1
 62
     7
176
     1
 90
        5
176
     1
 90
        0
176
     1
 90
        0
176
     1
290
     0
176
     1
 90
        1
176
     1
 40
0.0
176
     1
 90
        0
176
     1
290
     0
176
     1
290
     1
176
     1
290
     1
176
     1
290
     0
176
     1
290
     0
176
     1
290
     0
176
     1
290
     0
176
     1
290
     0
176
     1
290
     0
176
     1
 90
       50
176
     1
 40
0.0
176
     1
 40
1.0
176
     1
 90
        0
176
     1
 62
    18
420
        0
176
     1
 90
       50
176
     1
 90
        3
176
     1
 62
     5
420
      255
176
     1
290
     0
176
     1
 90
       50
176
     1
 90
       50
176
     1
 90
       50
176
     1
290
     0
176
     1
 90
       50
176
     1
 62
   256
176
     0
 40
1.0
176
     0
 90
        2
176
     1
  1
strokes_ogs.tif
176
     1
290
     0
176
     1
 40
1.0
176
     1
 40
1.0
176
     1
  0
VISUALSTYLE
  5
3C
102
{ACAD_REACTORS
330
2A
102
}
330
2A
100
AcDbVisualStyle
  2
OverhangOff
 70
    21
177
     3
291
     1
 70
    58
 90
        2
176
     0
 90
        2
176
     0
 90
        0
176
     0
 90
        0
176
     0
 40
0.6
176
     0
 40
30.0
176
     0
 62
     7
420
 16777215
176
     0
 90
        1
176
     0
 90
        4
176
     0
 62
     7
176
     0
 62
   257
176
     0
 90
        1
176
     0
 90
        1
176
     0
 40
1.0
176
     0
 90
        9
176
     2
 62
     7
176
     0
 40
1.0
176
     0
 90
        1
176
     0
 90
        6
176
     0
 90
        2
176
     0
 62
     7
176
     0
 90
        5
176
     0
 90
        0
176
     0
 90
        0
176
     0
290
     0
176
     0
 90
        1
176
     0
 40
0.0
176
     0
 90
        0
176
     0
290
     0
176
     0
290
     1
176
     0
290
     1
176
     0
290
     0
176
     0
290
     0
176
     0
290
     0
176
     0
290
     0
176
     0
290
     0
176
     0
290
     0
176
     0
 90
       50
176
     0
 40
0.0
176
     0
 40
1.0
176
     0
 90
        0
176
     0
 62
    18
420
        0
176
     0
 90
       50
176
     0
 90
        3
176
     0
 62
     5
420
      255
176
     0
290
     0
176
     0
 90
       50
176
     0
 90
       50
176
     0
 90
       50
176
     0
290
     0
176
     0
 90
       50
176
     0
 62
   256
176
     0
 40
1.0
176
     0
 90
        2
176
     0
  1
strokes_ogs.tif
176
     0
290
     0
176
     0
 40
1.0
176
     0
 40
1.0
176
     0
  0
VISUALSTYLE
  5
33
102
{ACAD_REACTORS
330
2A
102
}
330
2A
100
AcDbVisualStyle
  2
Realistic
 70
     8
177
     3
291
     0
 70
    58
 90
        2
176
     1
 90
        3
176
     1
 90
        0
176
     1
 90
        2
176
     1
 40
0.6
176
     1
 40
30.0
176
     1
 62
     7
420
 16777215
176
     1
 90
        0
176
     1
 90
        0
176
     1
 62
     7
176
     1
 62
   257
176
     1
 90
        1
176
     1
 90
        1
176
     1
 40
1.0
176
     1
 90
        8
176
     1
 62
   257
176
     1
 40
1.0
176
     1
 90
        1
176
     1
 90
        6
176
     1
 90
        2
176
     1
 62
     7
176
     1
 90
        3
176
     1
 90
        0
176
     1
 90
        0
176
     1
290
     0
176
     1
 90
       13
176
     1
 40
0.0
176
     1
 90
        0
176
     1
290
     0
176
     1
290
     1
176
     1
290
     1
176
     1
290
     0
176
     1
290
     0
176
     1
290
     0
176
     1
290
     0
176
     1
290
     0
176
     1
290
     0
176
     1
 90
       50
176
     1
 40
0.0
176
     1
 40
1.0
176
     1
 90
        0
176
     1
 62
    18
420
        0
176
     1
 90
       50
176
     1
 90
        3
176
     1
 62
     5
420
      255
176
     1
290
     0
176
     1
 90
       50
176
     1
 90
       50
176
     1
 90
       50
176
     1
290
     0
176
     1
 90
       50
176
     1
 62
   256
176
     0
 40
1.0
176
     0
 90
        2
176
     1
  1
strokes_ogs.tif
176
     1
290
     0
176
     1
 40
1.0
176
     1
 40
1.0
176
     1
  0
VISUALSTYLE
  5
42
102
{ACAD_REACTORS
330
2A
102
}
330
2A
100
AcDbVisualStyle
  2
Shaded
 70
    27
177
     3
291
     0
 70
    58
 90
        2
176
     1
 90
        2
176
     1
 90
        1
176
     1
 90
        2
176
     1
 40
0.6
176
     1
 40
30.0
176
     1
 62
     7
420
 16777215
176
     1
 90
        0
176
     1
 90
        4
176
     1
 62
     7
176
     1
 62
   257
176
     1
 90
        1
176
     1
 90
        1
176
     1
 40
1.0
176
     1
 90
        8
176
     1
 62
   257
176
     1
 40
1.0
176
     1
 90
        1
176
     1
 90
        6
176
     1
 90
        2
176
     1
 62
     8
420
  7895160
176
     1
 90
        3
176
     1
 90
        0
176
     1
 90
        0
176
     1
290
     0
176
     1
 90
        5
176
     1
 40
0.0
176
     1
 90
        0
176
     1
290
     0
176
     1
290
     1
176
     1
290
     1
176
     1
290
     0
176
     1
290
     0
176
     1
290
     0
176
     1
290
     0
176
     1
290
     0
176
     1
290
     0
176
     1
 90
       50
176
     1
 40
0.0
176
     1
 40
1.0
176
     1
 90
        0
176
     1
 62
    18
420
        0
176
     1
 90
       50
176
     1
 90
        3
176
     1
 62
     5
420
      255
176
     1
290
     0
176
     1
 90
       50
176
     1
 90
       50
176
     1
 90
       50
176
     1
290
     0
176
     1
 90
       50
176
     1
 62
   256
176
     0
 40
1.0
176
     0
 90
        2
176
     1
  1
strokes_ogs.tif
176
     1
290
     0
176
     1
 40
1.0
176
     1
 40
1.0
176
     1
  0
VISUALSTYLE
  5
41
102
{ACAD_REACTORS
330
2A
102
}
330
2A
100
AcDbVisualStyle
  2
Shaded with edges
 70
    26
177
     3
291
     0
 70
    58
 90
        2
176
     1
 90
        2
176
     1
 90
        1
176
     1
 90
        2
176
     1
 40
0.6
176
     1
 40
30.0
176
     1
 62
     7
420
 16777215
176
     1
 90
        1
176
     1
 90
       10
176
     1
 62
     7
176
     1
 62
   257
176
     1
 90
        2
176
     1
 90
        1
176
     1
 40
1.0
176
     1
 90
        8
176
     1
 62
   257
176
     1
 40
1.0
176
     1
 90
        1
176
     1
 90
        6
176
     1
 90
        2
176
     1
 62
     7
176
     1
 90
        3
176
     1
 90
        0
176
     1
 90
        0
176
     1
290
     0
176
     1
 90
        5
176
     1
 40
0.0
176
     1
 90
        0
176
     1
290
     0
176
     1
290
     1
176
     1
290
     1
176
     1
290
     0
176
     1
290
     0
176
     1
290
     0
176
     1
290
     0
176
     1
290
     0
176
     1
290
     0
176
     1
 90
       50
176
     1
 40
0.0
176
     1
 40
1.0
176
     1
 90
        0
176
     1
 62
    18
420
        0
176
     1
 90
       50
176
     1
 90
        3
176
     1
 62
     5
420
      255
176
     1
290
     0
176
     1
 90
       50
176
     1
 90
       50
176
     1
 90
       50
176
     1
290
     0
176
     1
 90
       50
176
     1
 62
   256
176
     0
 40
1.0
176
     0
 90
        2
176
     1
  1
strokes_ogs.tif
176
     1
290
     0
176
     1
 40
1.0
176
     1
 40
1.0
176
     1
  0
VISUALSTYLE
  5
3E
102
{ACAD_REACTORS
330
2A
102
}
330
2A
100
AcDbVisualStyle
  2
Shades of Gray
 70
    23
177
     3
291
     0
 70
    58
 90
        2
176
     1
 90
        2
176
     1
 90
        3
176
     1
 90
        0
176
     1
 40
0.6
176
     1
 40
30.0
176
     1
 62
     7
420
 16777215
176
     1
 90
        2
176
     1
 90
        2
176
     1
 62
     7
176
     1
 62
     7
176
     1
 90
        1
176
     1
 90
        1
176
     1
 40
40.0
176
     1
 90
        8
176
     1
 62
     7
176
     1
 40
1.0
176
     1
 90
        1
176
     1
 90
        6
176
     1
 90
        2
176
     1
 62
     7
176
     1
 90
        3
176
     1
 90
        0
176
     1
 90
        0
176
     1
290
     0
176
     1
 90
        1
176
     1
 40
0.0
176
     1
 90
        0
176
     1
290
     0
176
     1
290
     1
176
     1
290
     1
176
     1
290
     0
176
     1
290
     0
176
     1
290
     0
176
     1
290
     0
176
     1
290
     0
176
     1
290
     0
176
     1
 90
       50
176
     1
 40
0.0
176
     1
 40
1.0
176
     1
 90
        0
176
     1
 62
    18
420
        0
176
     1
 90
       50
176
     1
 90
        3
176
     1
 62
     5
420
      255
176
     1
290
     0
176
     1
 90
       50
176
     1
 90
       50
176
     1
 90
       50
176
     1
290
     0
176
     1
 90
       50
176
     1
 62
   256
176
     0
 40
1.0
176
     0
 90
        2
176
     1
  1
strokes_ogs.tif
176
     1
290
     0
176
     1
 40
1.0
176
     1
 40
1.0
176
     1
  0
VISUALSTYLE
  5
3F
102
{ACAD_REACTORS
330
2A
102
}
330
2A
100
AcDbVisualStyle
  2
Sketchy
 70
    24
177
     3
291
     0
 70
    58
 90
        1
176
     1
 90
        2
176
     1
 90
        2
176
     1
 90
        0
176
     1
 40
0.6
176
     1
 40
30.0
176
     1
 62
     7
420
 16777215
176
     1
 90
        2
176
     1
 90
        2
176
     1
 62
     7
176
     1
 62
     7
176
     1
 90
        1
176
     1
 90
        1
176
     1
 40
40.0
176
     1
 90
       11
176
     1
 62
     7
176
     1
 40
1.0
176
     1
 90
        1
176
     1
 90
        6
176
     1
 90
        2
176
     1
 62
     7
176
     1
 90
        6
176
     1
 90
        0
176
     1
 90
        0
176
     1
290
     0
176
     1
 90
        1
176
     1
 40
0.0
176
     1
 90
        0
176
     1
290
     0
176
     1
290
     1
176
     1
290
     1
176
     1
290
     0
176
     1
290
     0
176
     1
290
     0
176
     1
290
     0
176
     1
290
     0
176
     1
290
     0
176
     1
 90
       50
176
     1
 40
0.0
176
     1
 40
1.0
176
     1
 90
        0
176
     1
 62
    18
420
        0
176
     1
 90
       50
176
     1
 90
        3
176
     1
 62
     5
420
      255
176
     1
290
     0
176
     1
 90
       50
176
     1
 90
       50
176
     1
 90
       50
176
     1
290
     0
176
     1
 90
       50
176
     1
 62
   256
176
     0
 40
1.0
176
     0
 90
        2
176
     1
  1
strokes_ogs.tif
176
     1
290
     0
176
     1
 40
1.0
176
     1
 40
1.0
176
     1
  0
VISUALSTYLE
  5
37
102
{ACAD_REACTORS
330
2A
102
}
330
2A
100
AcDbVisualStyle
  2
Thicken
 70
    13
177
     3
291
     1
 70
    58
 90
        2
176
     1
 90
        2
176
     1
 90
        0
176
     1
 90
        0
176
     1
 40
0.6
176
     1
 40
30.0
176
     1
 62
     7
420
 16777215
176
     1
 90
        1
176
     1
 90
        4
176
     1
 62
     7
176
     1
 62
   257
176
     1
 90
        1
176
     1
 90
        1
176
     1
 40
1.0
176
     1
 90
       12
176
     1
 62
     7
176
     1
 40
1.0
176
     1
 90
        1
176
     1
 90
        6
176
     1
 90
        2
176
     1
 62
     7
176
     1
 90
        5
176
     1
 90
        0
176
     1
 90
        0
176
     1
290
     0
176
     1
 90
        1
176
     1
 40
0.0
176
     1
 90
        0
176
     1
290
     0
176
     1
290
     1
176
     1
290
     1
176
     1
290
     0
176
     1
290
     0
176
     1
290
     0
176
     1
290
     0
176
     1
290
     0
176
     1
290
     0
176
     1
 90
       50
176
     1
 40
0.0
176
     1
 40
1.0
176
     1
 90
        0
176
     1
 62
    18
420
        0
176
     1
 90
       50
176
     1
 90
        3
176
     1
 62
     5
420
      255
176
     1
290
     0
176
     1
 90
       50
176
     1
 90
       50
176
     1
 90
       50
176
     1
290
     0
176
     1
 90
       50
176
     1
 62
   256
176
     0
 40
1.0
176
     0
 90
        2
176
     1
  1
strokes_ogs.tif
176
     1
290
     0
176
     1
 40
1.0
176
     1
 40
1.0
176
     1
  0
VISUALSTYLE
  5
30
102
{ACAD_REACTORS
330
2A
102
}
330
2A
100
AcDbVisualStyle
  2
Wireframe
 70
     5
177
     3
291
     0
 70
    58
 90
        0
176
     1
 90
        2
176
     1
 90
        0
176
     1
 90
        0
176
     1
 40
0.6
176
     1
 40
30.0
176
     1
 62
     7
420
 16777215
176
     1
 90
        1
176
     1
 90
        4
176
     1
 62
     7
176
     1
 62
   257
176
     1
 90
        1
176
     1
 90
        1
176
     1
 40
1.0
176
     1
 90
        0
176
     1
 62
   257
176
     1
 40
1.0
176
     1
 90
        1
176
     1
 90
        6
176
     1
 90
        2
176
     1
 62
     7
176
     1
 90
        3
176
     1
 90
        0
176
     1
 90
        0
176
     1
290
     0
176
     1
 90
        1
176
     1
 40
0.0
176
     1
 90
        0
176
     1
290
     0
176
     1
290
     1
176
     1
290
     1
176
     1
290
     0
176
     1
290
     0
176
     1
290
     0
176
     1
290
     0
176
     1
290
     0
176
     1
290
     0
176
     1
 90
       50
176
     1
 40
0.0
176
     1
 40
1.0
176
     1
 90
        0
176
     1
 62
    18
420
        0
176
     1
 90
       50
176
     1
 90
        3
176
     1
 62
     5
420
      255
176
     1
290
     0
176
     1
 90
       50
176
     1
 90
       50
176
     1
 90
       50
176
     1
290
     0
176
     1
 90
       50
176
     1
 62
   256
176
     0
 40
1.0
176
     0
 90
        2
176
     1
  1
strokes_ogs.tif
176
     1
290
     0
176
     1
 40
1.0
176
     1
 40
1.0
176
     1
  0
VISUALSTYLE
  5
40
102
{ACAD_REACTORS
330
2A
102
}
330
2A
100
AcDbVisualStyle
  2
X-Ray
 70
    25
177
     3
291
     0
 70
    58
 90
        2
176
     1
 90
        2
176
     1
 90
        1
176
     1
 90
        1
176
     1
 40
0.5
176
     1
 40
30.0
176
     1
 62
     7
420
 16777215
176
     1
 90
        1
176
     1
 90
        0
176
     1
 62
     7
176
     1
 62
   257
176
     1
 90
        1
176
     1
 90
        1
176
     1
 40
1.0
176
     1
 90
        8
176
     1
 62
     7
176
     1
 40
1.0
176
     1
 90
        1
176
     1
 90
        6
176
     1
 90
        2
176
     1
 62
     7
176
     1
 90
        3
176
     1
 90
        0
176
     1
 90
        0
176
     1
290
     0
176
     1
 90
       13
176
     1
 40
0.0
176
     1
 90
        0
176
     1
290
     0
176
     1
290
     1
176
     1
290
     1
176
     1
290
     0
176
     1
290
     0
176
     1
290
     0
176
     1
290
     0
176
     1
290
     0
176
     1
290
     0
176
     1
 90
       50
176
     1
 40
0.0
176
     1
 40
1.0
176
     1
 90
        0
176
     1
 62
    18
420
        0
176
     1
 90
       50
176
     1
 90
        3
176
     1
 62
     5
420
      255
176
     1
290
     0
176
     1
 90
       50
176
     1
 90
       50
176
     1
 90
       50
176
     1
290
     0
176
     1
 90
       50
176
     1
 62
   256
176
     0
 40
1.0
176
     0
 90
        2
176
     1
  1
strokes_ogs.tif
176
     1
290
     0
176
     1
 40
1.0
176
     1
 40
1.0
176
     1
  0
DICTIONARYVAR
  5
235
102
{ACAD_REACTORS
330
234
102
}
330
234
100
DictionaryVariables
280
     0
  1
1:1
  0
DICTIONARYVAR
  5
23A
102
{ACAD_REACTORS
330
234
102
}
330
234
100
DictionaryVariables
280
     0
  1
Standard
  0
DICTIONARYVAR
  5
239
102
{ACAD_REACTORS
330
234
102
}
330
234
100
DictionaryVariables
280
     0
  1
Standard
  0
DICTIONARY
  5
236
330
6A
100
AcDbDictionary
280
     1
281
     1
  3
ACAD_ROUNDTRIP_2008_TABLESTYLE_CELLSTYLEMAP
360
237
  0
CELLSTYLEMAP
  5
237
102
{ACAD_REACTORS
330
236
102
}
330
236
100
AcDbCellStyleMap
 90
        3
300
CELLSTYLE
  1
TABLEFORMAT_BEGIN
 90
        5
170
     1
 91
        0
 92
    32768
 62
   257
 93
        1
300
CONTENTFORMAT
  1
CONTENTFORMAT_BEGIN
 90
        0
 91
        0
 92
        4
 93
        0
300

 40
0.0
140
1.0
 94
        5
 62
     0
340
11
144
0.25
309
CONTENTFORMAT_END
171
     1
301
MARGIN
  1
CELLMARGIN_BEGIN
 40
0.06
 40
0.06
 40
0.06
 40
0.06
 40
0.06
 40
0.06
309
CELLMARGIN_END
 94
        6
 95
        1
302
GRIDFORMAT
  1
GRIDFORMAT_BEGIN
 90
        0
 91
        1
 62
     0
 92
       -2
340
14
 93
        0
 40
0.045
309
GRIDFORMAT_END
 95
        2
302
GRIDFORMAT
  1
GRIDFORMAT_BEGIN
 90
        0
 91
        1
 62
     0
 92
       -2
340
14
 93
        0
 40
0.045
309
GRIDFORMAT_END
 95
        4
302
GRIDFORMAT
  1
GRIDFORMAT_BEGIN
 90
        0
 91
        1
 62
     0
 92
       -2
340
14
 93
        0
 40
0.045
309
GRIDFORMAT_END
 95
        8
302
GRIDFORMAT
  1
GRIDFORMAT_BEGIN
 90
        0
 91
        1
 62
     0
 92
       -2
340
14
 93
        0
 40
0.045
309
GRIDFORMAT_END
 95
       16
302
GRIDFORMAT
  1
GRIDFORMAT_BEGIN
 90
        0
 91
        1
 62
     0
 92
       -2
340
14
 93
        0
 40
0.045
309
GRIDFORMAT_END
 95
       32
302
GRIDFORMAT
  1
GRIDFORMAT_BEGIN
 90
        0
 91
        1
 62
     0
 92
       -2
340
14
 93
        0
 40
0.045
309
GRIDFORMAT_END
309
TABLEFORMAT_END
  1
CELLSTYLE_BEGIN
 90
        1
 91
        1
300
_TITLE
309
CELLSTYLE_END
300
CELLSTYLE
  1
TABLEFORMAT_BEGIN
 90
        5
170
     1
 91
        0
 92
        0
 62
   257
 93
        1
300
CONTENTFORMAT
  1
CONTENTFORMAT_BEGIN
 90
        0
 91
        0
 92
        4
 93
        0
300

 40
0.0
140
1.0
 94
        5
 62
     0
340
11
144
0.18
309
CONTENTFORMAT_END
171
     1
301
MARGIN
  1
CELLMARGIN_BEGIN
 40
0.06
 40
0.06
 40
0.06
 40
0.06
 40
0.06
 40
0.06
309
CELLMARGIN_END
 94
        6
 95
        1
302
GRIDFORMAT
  1
GRIDFORMAT_BEGIN
 90
        0
 91
        1
 62
     0
 92
       -2
340
14
 93
        0
 40
0.045
309
GRIDFORMAT_END
 95
        2
302
GRIDFORMAT
  1
GRIDFORMAT_BEGIN
 90
        0
 91
        1
 62
     0
 92
       -2
340
14
 93
        0
 40
0.045
309
GRIDFORMAT_END
 95
        4
302
GRIDFORMAT
  1
GRIDFORMAT_BEGIN
 90
        0
 91
        1
 62
     0
 92
       -2
340
14
 93
        0
 40
0.045
309
GRIDFORMAT_END
 95
        8
302
GRIDFORMAT
  1
GRIDFORMAT_BEGIN
 90
        0
 91
        1
 62
     0
 92
       -2
340
14
 93
        0
 40
0.045
309
GRIDFORMAT_END
 95
       16
302
GRIDFORMAT
  1
GRIDFORMAT_BEGIN
 90
        0
 91
        1
 62
     0
 92
       -2
340
14
 93
        0
 40
0.045
309
GRIDFORMAT_END
 95
       32
302
GRIDFORMAT
  1
GRIDFORMAT_BEGIN
 90
        0
 91
        1
 62
     0
 92
       -2
340
14
 93
        0
 40
0.045
309
GRIDFORMAT_END
309
TABLEFORMAT_END
  1
CELLSTYLE_BEGIN
 90
        2
 91
        1
300
_HEADER
309
CELLSTYLE_END
300
CELLSTYLE
  1
TABLEFORMAT_BEGIN
 90
        5
170
     1
 91
        0
 92
        0
 62
   257
 93
        1
300
CONTENTFORMAT
  1
CONTENTFORMAT_BEGIN
 90
        0
 91
        0
 92
        4
 93
        0
300

 40
0.0
140
1.0
 94
        2
 62
     0
340
11
144
0.18
309
CONTENTFORMAT_END
171
     1
301
MARGIN
  1
CELLMARGIN_BEGIN
 40
0.06
 40
0.06
 40
0.06
 40
0.06
 40
0.06
 40
0.06
309
CELLMARGIN_END
 94
        6
 95
        1
302
GRIDFORMAT
  1
GRIDFORMAT_BEGIN
 90
        0
 91
        1
 62
     0
 92
       -2
340
14
 93
        0
 40
0.045
309
GRIDFORMAT_END
 95
        2
302
GRIDFORMAT
  1
GRIDFORMAT_BEGIN
 90
        0
 91
        1
 62
     0
 92
       -2
340
14
 93
        0
 40
0.045
309
GRIDFORMAT_END
 95
        4
302
GRIDFORMAT
  1
GRIDFORMAT_BEGIN
 90
        0
 91
        1
 62
     0
 92
       -2
340
14
 93
        0
 40
0.045
309
GRIDFORMAT_END
 95
        8
302
GRIDFORMAT
  1
GRIDFORMAT_BEGIN
 90
        0
 91
        1
 62
     0
 92
       -2
340
14
 93
        0
 40
0.045
309
GRIDFORMAT_END
 95
       16
302
GRIDFORMAT
  1
GRIDFORMAT_BEGIN
 90
        0
 91
        1
 62
     0
 92
       -2
340
14
 93
        0
 40
0.045
309
GRIDFORMAT_END
 95
       32
302
GRIDFORMAT
  1
GRIDFORMAT_BEGIN
 90
        0
 91
        1
 62
     0
 92
       -2
340
14
 93
        0
 40
0.045
309
GRIDFORMAT_END
309
TABLEFORMAT_END
  1
CELLSTYLE_BEGIN
 90
        3
 91
        2
300
_DATA
309
CELLSTYLE_END
  0
ENDSEC
  0
EOF