0
SECTION
  2
HEADER
  9
$ACADVER
  1
AC1027
  9
$ACADMAINTVER
 70
     8
  9
$DWGCODEPAGE
  3
ANSI_1252
  9
$REQUIREDVERSIONS
160
                 0
  9
$COMMENTS
  1
File was created by Cadenas
  9
$CUSTOMPROPERTYTAG
  1
NN
  9
$CUSTOMPROPERTY
  1
S-2000 Wide Slot Take-Up Trident Seal
  9
$CUSTOMPROPERTYTAG
  1
NT
  9
$CUSTOMPROPERTY
  1
S-2000 Wide Slot Take-Up Bearing -Inch
  9
$CUSTOMPROPERTYTAG
  1
NB
  9
$CUSTOMPROPERTY
  1
070774
  9
$CUSTOMPROPERTYTAG
  1
NBSYN
  9
$CUSTOMPROPERTY
  1
$PN.
  9
$CUSTOMPROPERTYTAG
  1
LINA
  9
$CUSTOMPROPERTY
  1
070774
  9
$CUSTOMPROPERTYTAG
  1
SS
  9
$CUSTOMPROPERTY
  1
4-15/16
  9
$CUSTOMPROPERTYTAG
  1
PN
  9
$CUSTOMPROPERTY
  1
070774
  9
$CUSTOMPROPERTYTAG
  1
DESCRIPTION
  9
$CUSTOMPROPERTY
  1
WSTU-S2-415R
  9
$CUSTOMPROPERTYTAG
  1
EF
  9
$CUSTOMPROPERTY
  1
Non-Expansion Type
  9
$CUSTOMPROPERTYTAG
  1
ST
  9
$CUSTOMPROPERTY
  1
Contact Seal
  9
$CUSTOMPROPERTYTAG
  1
A
  9
$CUSTOMPROPERTY
  1
6-29/32
  9
$CUSTOMPROPERTYTAG
  1
B
  9
$CUSTOMPROPERTY
  1
15-5/8
  9
$CUSTOMPROPERTYTAG
  1
C
  9
$CUSTOMPROPERTY
  1
2-1/16
  9
$CUSTOMPROPERTYTAG
  1
D
  9
$CUSTOMPROPERTY
  1
9
  9
$CUSTOMPROPERTYTAG
  1
E
  9
$CUSTOMPROPERTY
  1
10-5/16
  9
$CUSTOMPROPERTYTAG
  1
F
  9
$CUSTOMPROPERTY
  1
2-3/8
  9
$CUSTOMPROPERTYTAG
  1
G
  9
$CUSTOMPROPERTY
  1
2-1/2
  9
$CUSTOMPROPERTYTAG
  1
H
  9
$CUSTOMPROPERTY
  1
2-1/2
  9
$CUSTOMPROPERTYTAG
  1
J
  9
$CUSTOMPROPERTY
  1
7
  9
$CUSTOMPROPERTYTAG
  1
K
  9
$CUSTOMPROPERTY
  1
3-3/4
  9
$CUSTOMPROPERTYTAG
  1
L
  9
$CUSTOMPROPERTY
  1
7-29/64
  9
$CUSTOMPROPERTYTAG
  1
M
  9
$CUSTOMPROPERTY
  1
10-1/4
  9
$CUSTOMPROPERTYTAG
  1
N
  9
$CUSTOMPROPERTY
  1
11-1/4
  9
$CUSTOMPROPERTYTAG
  1
R
  9
$CUSTOMPROPERTY
  1
5-47/64
  9
$CUSTOMPROPERTYTAG
  1
S
  9
$CUSTOMPROPERTY
  1
3-41/64
  9
$CUSTOMPROPERTYTAG
  1
T
  9
$CUSTOMPROPERTY
  1
4-3/16
  9
$CUSTOMPROPERTYTAG
  1
X
  9
$CUSTOMPROPERTY
  1
3/8
  9
$CUSTOMPROPERTYTAG
  1
Y
  9
$CUSTOMPROPERTY
  1
0.036
  9
$CUSTOMPROPERTYTAG
  1
Z
  9
$CUSTOMPROPERTY
  1
5-27/32
  9
$CUSTOMPROPERTYTAG
  1
COMPANY
  9
$CUSTOMPROPERTY
  1
baldor
  9
$INSBASE
 10
0.0
 20
0.0
 30
0.0
  9
$EXTMIN
 10
1.000000000000000E+20
 20
1.000000000000000E+20
 30
1.000000000000000E+20
  9
$EXTMAX
 10
-1.000000000000000E+20
 20
-1.000000000000000E+20
 30
-1.000000000000000E+20
  9
$LIMMIN
 10
0.0
 20
0.0
  9
$LIMMAX
 10
12.0
 20
9.0
  9
$ORTHOMODE
 70
     0
  9
$REGENMODE
 70
     1
  9
$FILLMODE
 70
     1
  9
$QTEXTMODE
 70
     0
  9
$MIRRTEXT
 70
     1
  9
$LTSCALE
 40
1.0
  9
$ATTMODE
 70
     1
  9
$TEXTSIZE
 40
0.2
  9
$TRACEWID
 40
0.05
  9
$TEXTSTYLE
  7
Standard
  9
$CLAYER
  8
0
  9
$CELTYPE
  6
ByLayer
  9
$CECOLOR
 62
   256
  9
$CELTSCALE
 40
1.0
  9
$DISPSILH
 70
     0
  9
$DIMSCALE
 40
1.0
  9
$DIMASZ
 40
0.18
  9
$DIMEXO
 40
0.0625
  9
$DIMDLI
 40
0.38
  9
$DIMRND
 40
0.0
  9
$DIMDLE
 40
0.0
  9
$DIMEXE
 40
0.18
  9
$DIMTP
 40
0.0
  9
$DIMTM
 40
0.0
  9
$DIMTXT
 40
0.18
  9
$DIMCEN
 40
0.09
  9
$DIMTSZ
 40
0.0
  9
$DIMTOL
 70
     0
  9
$DIMLIM
 70
     0
  9
$DIMTIH
 70
     1
  9
$DIMTOH
 70
     1
  9
$DIMSE1
 70
     0
  9
$DIMSE2
 70
     0
  9
$DIMTAD
 70
     0
  9
$DIMZIN
 70
     0
  9
$DIMBLK
  1

  9
$DIMASO
 70
     1
  9
$DIMSHO
 70
     1
  9
$DIMPOST
  1

  9
$DIMAPOST
  1

  9
$DIMALT
 70
     0
  9
$DIMALTD
 70
     2
  9
$DIMALTF
 40
25.4
  9
$DIMLFAC
 40
1.0
  9
$DIMTOFL
 70
     0
  9
$DIMTVP
 40
0.0
  9
$DIMTIX
 70
     0
  9
$DIMSOXD
 70
     0
  9
$DIMSAH
 70
     0
  9
$DIMBLK1
  1

  9
$DIMBLK2
  1

  9
$DIMSTYLE
  2
Standard
  9
$DIMCLRD
 70
     0
  9
$DIMCLRE
 70
     0
  9
$DIMCLRT
 70
     0
  9
$DIMTFAC
 40
1.0
  9
$DIMGAP
 40
0.09
  9
$DIMJUST
 70
     0
  9
$DIMSD1
 70
     0
  9
$DIMSD2
 70
     0
  9
$DIMTOLJ
 70
     1
  9
$DIMTZIN
 70
     0
  9
$DIMALTZ
 70
     0
  9
$DIMALTTZ
 70
     0
  9
$DIMUPT
 70
     0
  9
$DIMDEC
 70
     4
  9
$DIMTDEC
 70
     4
  9
$DIMALTU
 70
     2
  9
$DIMALTTD
 70
     2
  9
$DIMTXSTY
  7
Standard
  9
$DIMAUNIT
 70
     0
  9
$DIMADEC
 70
     0
  9
$DIMALTRND
 40
0.0
  9
$DIMAZIN
 70
     0
  9
$DIMDSEP
 70
    46
  9
$DIMATFIT
 70
     3
  9
$DIMFRAC
 70
     0
  9
$DIMLDRBLK
  1

  9
$DIMLUNIT
 70
     2
  9
$DIMLWD
 70
    -2
  9
$DIMLWE
 70
    -2
  9
$DIMTMOVE
 70
     0
  9
$DIMFXL
 40
1.0
  9
$DIMFXLON
 70
     0
  9
$DIMJOGANG
 40
0.7853981633974483
  9
$DIMTFILL
 70
     0
  9
$DIMTFILLCLR
 70
     0
  9
$DIMARCSYM
 70
     0
  9
$DIMLTYPE
  6

  9
$DIMLTEX1
  6

  9
$DIMLTEX2
  6

  9
$DIMTXTDIRECTION
 70
     0
  9
$LUNITS
 70
     2
  9
$LUPREC
 70
     4
  9
$SKETCHINC
 40
0.1
  9
$FILLETRAD
 40
0.5
  9
$AUNITS
 70
     0
  9
$AUPREC
 70
     0
  9
$MENU
  1
.
  9
$ELEVATION
 40
0.0
  9
$PELEVATION
 40
0.0
  9
$THICKNESS
 40
0.0
  9
$LIMCHECK
 70
     0
  9
$CHAMFERA
 40
0.0
  9
$CHAMFERB
 40
0.0
  9
$CHAMFERC
 40
0.0
  9
$CHAMFERD
 40
0.0
  9
$SKPOLY
 70
     0
  9
$TDCREATE
 40
2458168.984071609
  9
$TDUCREATE
 40
2458168.942404942
  9
$TDUPDATE
 40
2458168.984071782
  9
$TDUUPDATE
 40
2458168.942405116
  9
$TDINDWG
 40
0.0000000116
  9
$TDUSRTIMER
 40
0.0000000116
  9
$USRTIMER
 70
     1
  9
$ANGBASE
 50
0.0
  9
$ANGDIR
 70
     0
  9
$PDMODE
 70
     0
  9
$PDSIZE
 40
0.0
  9
$PLINEWID
 40
0.0
  9
$SPLFRAME
 70
     0
  9
$SPLINETYPE
 70
     6
  9
$SPLINESEGS
 70
     8
  9
$HANDSEED
  5
1F4
  9
$SURFTAB1
 70
     6
  9
$SURFTAB2
 70
     6
  9
$SURFTYPE
 70
     6
  9
$SURFU
 70
     6
  9
$SURFV
 70
     6
  9
$UCSBASE
  2

  9
$UCSNAME
  2

  9
$UCSORG
 10
0.0
 20
0.0
 30
0.0
  9
$UCSXDIR
 10
1.0
 20
0.0
 30
0.0
  9
$UCSYDIR
 10
0.0
 20
1.0
 30
0.0
  9
$UCSORTHOREF
  2

  9
$UCSORTHOVIEW
 70
     0
  9
$UCSORGTOP
 10
0.0
 20
0.0
 30
0.0
  9
$UCSORGBOTTOM
 10
0.0
 20
0.0
 30
0.0
  9
$UCSORGLEFT
 10
0.0
 20
0.0
 30
0.0
  9
$UCSORGRIGHT
 10
0.0
 20
0.0
 30
0.0
  9
$UCSORGFRONT
 10
0.0
 20
0.0
 30
0.0
  9
$UCSORGBACK
 10
0.0
 20
0.0
 30
0.0
  9
$PUCSBASE
  2

  9
$PUCSNAME
  2

  9
$PUCSORG
 10
0.0
 20
0.0
 30
0.0
  9
$PUCSXDIR
 10
1.0
 20
0.0
 30
0.0
  9
$PUCSYDIR
 10
0.0
 20
1.0
 30
0.0
  9
$PUCSORTHOREF
  2

  9
$PUCSORTHOVIEW
 70
     0
  9
$PUCSORGTOP
 10
0.0
 20
0.0
 30
0.0
  9
$PUCSORGBOTTOM
 10
0.0
 20
0.0
 30
0.0
  9
$PUCSORGLEFT
 10
0.0
 20
0.0
 30
0.0
  9
$PUCSORGRIGHT
 10
0.0
 20
0.0
 30
0.0
  9
$PUCSORGFRONT
 10
0.0
 20
0.0
 30
0.0
  9
$PUCSORGBACK
 10
0.0
 20
0.0
 30
0.0
  9
$USERI1
 70
     0
  9
$USERI2
 70
     0
  9
$USERI3
 70
     0
  9
$USERI4
 70
     0
  9
$USERI5
 70
     0
  9
$USERR1
 40
0.0
  9
$USERR2
 40
0.0
  9
$USERR3
 40
0.0
  9
$USERR4
 40
0.0
  9
$USERR5
 40
0.0
  9
$WORLDVIEW
 70
     1
  9
$SHADEDGE
 70
     3
  9
$SHADEDIF
 70
    70
  9
$TILEMODE
 70
     1
  9
$MAXACTVP
 70
    64
  9
$PINSBASE
 10
0.0
 20
0.0
 30
0.0
  9
$PLIMCHECK
 70
     0
  9
$PEXTMIN
 10
1.000000000000000E+20
 20
1.000000000000000E+20
 30
1.000000000000000E+20
  9
$PEXTMAX
 10
-1.000000000000000E+20
 20
-1.000000000000000E+20
 30
-1.000000000000000E+20
  9
$PLIMMIN
 10
0.0
 20
0.0
  9
$PLIMMAX
 10
12.0
 20
9.0
  9
$UNITMODE
 70
     0
  9
$VISRETAIN
 70
     1
  9
$PLINEGEN
 70
     0
  9
$PSLTSCALE
 70
     1
  9
$TREEDEPTH
 70
  3020
  9
$CMLSTYLE
  2
Standard
  9
$CMLJUST
 70
     0
  9
$CMLSCALE
 40
1.0
  9
$PROXYGRAPHICS
 70
     1
  9
$MEASUREMENT
 70
     0
  9
$CELWEIGHT
370
    -1
  9
$ENDCAPS
280
     0
  9
$JOINSTYLE
280
     0
  9
$LWDISPLAY
290
     0
  9
$INSUNITS
 70
     1
  9
$HYPERLINKBASE
  1

  9
$STYLESHEET
  1

  9
$XEDIT
290
     1
  9
$CEPSNTYPE
380
     0
  9
$PSTYLEMODE
290
     1
  9
$FINGERPRINTGUID
  2
{8D129A13-8D8C-4B79-9F69-8702C4BB7B30}
  9
$VERSIONGUID
  2
{FAEB1C32-E019-11D5-929B-00C0DF256EC4}
  9
$EXTNAMES
290
     1
  9
$PSVPSCALE
 40
0.0
  9
$OLESTARTUP
290
     0
  9
$SORTENTS
280
   127
  9
$INDEXCTL
280
     0
  9
$HIDETEXT
280
     1
  9
$XCLIPFRAME
280
     2
  9
$HALOGAP
280
     0
  9
$OBSCOLOR
 70
   257
  9
$OBSLTYPE
280
     0
  9
$INTERSECTIONDISPLAY
280
     0
  9
$INTERSECTIONCOLOR
 70
   257
  9
$DIMASSOC
280
     2
  9
$PROJECTNAME
  1

  9
$CAMERADISPLAY
290
     0
  9
$LENSLENGTH
 40
50.0
  9
$CAMERAHEIGHT
 40
0.0
  9
$STEPSPERSEC
 40
2.0
  9
$STEPSIZE
 40
6.0
  9
$3DDWFPREC
 40
2.0
  9
$PSOLWIDTH
 40
0.25
  9
$PSOLHEIGHT
 40
4.0
  9
$LOFTANG1
 40
1.570796326794897
  9
$LOFTANG2
 40
1.570796326794897
  9
$LOFTMAG1
 40
0.0
  9
$LOFTMAG2
 40
0.0
  9
$LOFTPARAM
 70
     7
  9
$LOFTNORMALS
280
     1
  9
$LATITUDE
 40
37.795
  9
$LONGITUDE
 40
-122.394
  9
$NORTHDIRECTION
 40
0.0
  9
$TIMEZONE
 70
 -8000
  9
$LIGHTGLYPHDISPLAY
280
     1
  9
$TILEMODELIGHTSYNCH
280
     1
  9
$CMATERIAL
347
44
  9
$SOLIDHIST
280
     0
  9
$SHOWHIST
280
     1
  9
$DWFFRAME
280
     2
  9
$DGNFRAME
280
     2
  9
$REALWORLDSCALE
290
     1
  9
$INTERFERECOLOR
 62
   256
  9
$CSHADOW
280
     0
  9
$SHADOWPLANELOCATION
 40
0.0
  0
ENDSEC
  0
SECTION
  2
CLASSES
  0
CLASS
  1
ACDBDICTIONARYWDFLT
  2
AcDbDictionaryWithDefault
  3
ObjectDBX Classes
 90
        0
 91
        4
280
     0
281
     0
  0
CLASS
  1
VISUALSTYLE
  2
AcDbVisualStyle
  3
ObjectDBX Classes
 90
     4095
 91
        4
280
     0
281
     0
  0
CLASS
  1
MATERIAL
  2
AcDbMaterial
  3
ObjectDBX Classes
 90
     1153
 91
        4
280
     0
281
     0
  0
CLASS
  1
SCALE
  2
AcDbScale
  3
ObjectDBX Classes
 90
     1153
 91
        4
280
     0
281
     0
  0
CLASS
  1
TABLESTYLE
  2
AcDbTableStyle
  3
ObjectDBX Classes
 90
     4095
 91
        4
280
     0
281
     0
  0
CLASS
  1
MLEADERSTYLE
  2
AcDbMLeaderStyle
  3
ACDB_MLEADERSTYLE_CLASS
 90
     4095
 91
        4
280
     0
281
     0
  0
CLASS
  1
SUN
  2
AcDbSun
  3
SCENEOE
 90
     1153
 91
        4
280
     0
281
     0
  0
CLASS
  1
DICTIONARYVAR
  2
AcDbDictionaryVar
  3
ObjectDBX Classes
 90
        0
 91
        4
280
     0
281
     0
  0
CLASS
  1
CELLSTYLEMAP
  2
AcDbCellStyleMap
  3
ObjectDBX Classes
 90
     1152
 91
        4
280
     0
281
     0
  0
ENDSEC
  0
SECTION
  2
TABLES
  0
TABLE
  2
VPORT
  5
8
330
0
100
AcDbSymbolTable
 70
     1
  0
VPORT
  5
29
330
8
100
AcDbSymbolTableRecord
100
AcDbViewportTableRecord
  2
*Active
 70
     0
 10
0.0
 20
0.0
 11
1.0
 21
1.0
 12
2.565625
 22
0.0
 13
0.0
 23
0.0
 14
0.5
 24
0.5
 15
0.5
 25
0.5
 16
0.0
 26
0.0
 36
1.0
 17
0.0
 27
0.0
 37
0.0
 40
11.475
 41
1.400555555555556
 42
50.0
 43
0.0
 44
0.0
 50
0.0
 51
0.0
 71
     0
 72
   100
 73
     1
 74
     3
 75
     0
 76
     0
 77
     0
 78
     0
281
     0
 65
     1
110
0.0
120
0.0
130
0.0
111
1.0
121
0.0
131
0.0
112
0.0
122
1.0
132
0.0
 79
     0
146
0.0
348
2F
 60
     3
 61
     5
292
     1
282
     1
141
0.0
142
0.0
 63
   250
361
6D
  0
ENDTAB
  0
TABLE
  2
LTYPE
  5
5
330
0
100
AcDbSymbolTable
 70
     3
  0
LTYPE
  5
14
330
5
100
AcDbSymbolTableRecord
100
AcDbLinetypeTableRecord
  2
ByBlock
 70
     0
  3

 72
    65
 73
     0
 40
0.0
  0
LTYPE
  5
15
330
5
100
AcDbSymbolTableRecord
100
AcDbLinetypeTableRecord
  2
ByLayer
 70
     0
  3

 72
    65
 73
     0
 40
0.0
  0
LTYPE
  5
16
330
5
100
AcDbSymbolTableRecord
100
AcDbLinetypeTableRecord
  2
Continuous
 70
     0
  3
Solid line
 72
    65
 73
     0
 40
0.0
  0
LTYPE
  5
AA
330
5
100
AcDbSymbolTableRecord
100
AcDbLinetypeTableRecord
  2
Dashed
 70
     0
  3

 72
    65
 73
     2
 40
2.0
 49
1.0
 74
     0
 49
-1.0
 74
     0
  0
LTYPE
  5
110
330
5
100
AcDbSymbolTableRecord
100
AcDbLinetypeTableRecord
  2
Center
 70
     0
  3

 72
    65
 73
     4
 40
1.5
 49
0.45
 74
     0
 49
-0.5
 74
     0
 49
0.05
 74
     0
 49
-0.5
 74
     0
  0
ENDTAB
  0
TABLE
  2
LAYER
  5
2
330
0
100
AcDbSymbolTable
 70
     7
  0
LAYER
  5
10
330
2
100
AcDbSymbolTableRecord
100
AcDbLayerTableRecord
  2
0
 70
     0
 62
     7
  6
Continuous
370
    -3
390
F
347
46
348
0
  0
LAYER
  5
72
330
2
100
AcDbSymbolTableRecord
100
AcDbLayerTableRecord
  2
AM_6
 70
     0
 62
    -2
  6
Continuous
370
    35
390
F
347
46
348
0
  0
LAYER
  5
AB
330
2
100
AcDbSymbolTableRecord
100
AcDbLayerTableRecord
  2
AM_9
 70
     0
 62
     6
  6
Dashed
370
    25
390
F
347
46
348
0
  0
LAYER
  5
C1
330
2
100
AcDbSymbolTableRecord
100
AcDbLayerTableRecord
  2
AM_5
 70
     0
 62
     3
  6
Continuous
370
    25
390
F
347
46
348
0
  0
LAYER
  5
CA
330
2
100
AcDbSymbolTableRecord
100
AcDbLayerTableRecord
  2
AM_4
 70
     0
 62
     7
  6
Continuous
370
    50
390
F
347
46
348
0
  0
LAYER
  5
111
330
2
100
AcDbSymbolTableRecord
100
AcDbLayerTableRecord
  2
AM_7
 70
     0
 62
     7
  6
Center
370
    25
390
F
347
46
348
0
  0
LAYER
  5
1E2
330
2
100
AcDbSymbolTableRecord
100
AcDbLayerTableRecord
  2
ConnectionPoints
 70
     0
 62
     7
  6
Continuous
370
    50
390
F
347
46
348
0
  0
ENDTAB
  0
TABLE
  2
STYLE
  5
3
330
0
100
AcDbSymbolTable
 70
     1
  0
STYLE
  5
11
330
3
100
AcDbSymbolTableRecord
100
AcDbTextStyleTableRecord
  2
Standard
 70
     0
 40
0.0
 41
1.0
 50
0.0
 71
     0
 42
0.2
  3
txt
  4

  0
ENDTAB
  0
TABLE
  2
VIEW
  5
6
330
0
100
AcDbSymbolTable
 70
     0
  0
ENDTAB
  0
TABLE
  2
UCS
  5
7
330
0
100
AcDbSymbolTable
 70
     0
  0
ENDTAB
  0
TABLE
  2
APPID
  5
9
330
0
100
AcDbSymbolTable
 70
     1
  0
APPID
  5
12
330
9
100
AcDbSymbolTableRecord
100
AcDbRegAppTableRecord
  2
ACAD
 70
     0
  0
ENDTAB
  0
TABLE
  2
DIMSTYLE
  5
A
330
0
100
AcDbSymbolTable
 70
     1
100
AcDbDimStyleTable
  0
DIMSTYLE
105
27
330
A
100
AcDbSymbolTableRecord
100
AcDbDimStyleTableRecord
  2
Standard
 70
     0
178
     0
340
11
  0
ENDTAB
  0
TABLE
  2
BLOCK_RECORD
  5
1
330
0
100
AcDbSymbolTable
 70
     7
  0
BLOCK_RECORD
  5
1F
330
1
100
AcDbSymbolTableRecord
100
AcDbBlockTableRecord
  2
*Model_Space
340
22
 70
     0
280
     1
281
     0
  0
BLOCK_RECORD
  5
1B
330
1
100
AcDbSymbolTableRecord
100
AcDbBlockTableRecord
  2
*Paper_Space
340
1E
 70
     0
280
     1
281
     0
  0
BLOCK_RECORD
  5
23
330
1
100
AcDbSymbolTableRecord
100
AcDbBlockTableRecord
  2
*Paper_Space0
340
26
 70
     0
280
     1
281
     0
  0
BLOCK_RECORD
  5
6E
330
1
100
AcDbSymbolTableRecord
100
AcDbBlockTableRecord
  2
1_070774_0
340
0
102
{BLKREFS
331
6F
102
}
 70
     0
280
     1
281
     0
  0
BLOCK_RECORD
  5
91
330
1
100
AcDbSymbolTableRecord
100
AcDbBlockTableRecord
  2
2_4_15_16CS2i_1_0_in_070774_0
340
0
102
{BLKREFS
331
92
102
}
 70
     0
280
     1
281
     0
  0
BLOCK_RECORD
  5
CF
330
1
100
AcDbSymbolTableRecord
100
AcDbBlockTableRecord
  2
3_4_15_16CS2i_2_0_in_070774_0
340
0
102
{BLKREFS
331
D0
102
}
 70
     0
280
     1
281
     0
  0
BLOCK_RECORD
  5
F1
330
1
100
AcDbSymbolTableRecord
100
AcDbBlockTableRecord
  2
4_070015i_0_in_070774_0
340
0
102
{BLKREFS
331
F2
102
}
 70
     0
280
     1
281
     0
  0
BLOCK_RECORD
  5
116
330
1
100
AcDbSymbolTableRecord
100
AcDbBlockTableRecord
  2
5_405016_Inch_0_in_070774_0
340
0
102
{BLKREFS
331
117
102
}
 70
     0
280
     1
281
     0
  0
BLOCK_RECORD
  5
18F
330
1
100
AcDbSymbolTableRecord
100
AcDbBlockTableRecord
  2
6_070774H_0_in_070774_0
340
0
102
{BLKREFS
331
190
102
}
 70
     0
280
     1
281
     0
  0
ENDTAB
  0
ENDSEC
  0
SECTION
  2
BLOCKS
  0
BLOCK
  5
20
330
1F
100
AcDbEntity
  8
0
100
AcDbBlockBegin
  2
*Model_Space
 70
     0
 10
0.0
 20
0.0
 30
0.0
  3
*Model_Space
  1

  0
ENDBLK
  5
21
330
1F
100
AcDbEntity
  8
0
100
AcDbBlockEnd
  0
BLOCK
  5
1C
330
1B
100
AcDbEntity
 67
     1
  8
0
100
AcDbBlockBegin
  2
*Paper_Space
 70
     0
 10
0.0
 20
0.0
 30
0.0
  3
*Paper_Space
  1

  0
ENDBLK
  5
1D
330
1B
100
AcDbEntity
 67
     1
  8
0
100
AcDbBlockEnd
  0
BLOCK
  5
24
330
23
100
AcDbEntity
  8
0
100
AcDbBlockBegin
  2
*Paper_Space0
 70
     0
 10
0.0
 20
0.0
 30
0.0
  3
*Paper_Space0
  1

  0
ENDBLK
  5
25
330
23
100
AcDbEntity
  8
0
100
AcDbBlockEnd
  0
BLOCK
  5
70
330
6E
100
AcDbEntity
  8
0
100
AcDbBlockBegin
  2
1_070774_0
 70
     2
 10
0.0
 20
0.0
 30
0.0
  3
1_070774_0
  1

  0
ATTDEF
  5
73
330
6E
100
AcDbEntity
  8
AM_6
100
AcDbText
 10
15.44375
 20
5.625
 30
0.0
 40
0.5
  1
S-2000 Wide Slot Take-Up Trident Seal
100
AcDbAttributeDefinition
  3

  2
NN
 70
     8
280
     0
  0
ATTDEF
  5
74
330
6E
100
AcDbEntity
  8
AM_6
100
AcDbText
 10
15.44375
 20
5.125
 30
0.0
 40
0.5
  1
S-2000 Wide Slot Take-Up Bearing -Inch
100
AcDbAttributeDefinition
  3

  2
NT
 70
     8
280
     0
  0
ATTDEF
  5
75
330
6E
100
AcDbEntity
  8
AM_6
100
AcDbText
 10
15.44375
 20
4.625
 30
0.0
 40
0.5
  1
070774
100
AcDbAttributeDefinition
  3

  2
NB
 70
     8
280
     0
  0
ATTDEF
  5
76
330
6E
100
AcDbEntity
  8
AM_6
100
AcDbText
 10
15.44375
 20
4.125
 30
0.0
 40
0.5
  1
$PN.
100
AcDbAttributeDefinition
  3

  2
NBSYN
 70
     8
280
     0
  0
ATTDEF
  5
77
330
6E
100
AcDbEntity
  8
AM_6
100
AcDbText
 10
15.44375
 20
3.625
 30
0.0
 40
0.5
  1
070774
100
AcDbAttributeDefinition
  3

  2
LINA
 70
     8
280
     0
  0
ATTDEF
  5
78
330
6E
100
AcDbEntity
  8
AM_6
100
AcDbText
 10
15.44375
 20
3.125
 30
0.0
 40
0.5
  1
4-15/16
100
AcDbAttributeDefinition
  3

  2
SS
 70
     8
280
     0
  0
ATTDEF
  5
79
330
6E
100
AcDbEntity
  8
AM_6
100
AcDbText
 10
15.44375
 20
2.625
 30
0.0
 40
0.5
  1
070774
100
AcDbAttributeDefinition
  3

  2
PN
 70
     8
280
     0
  0
ATTDEF
  5
7A
330
6E
100
AcDbEntity
  8
AM_6
100
AcDbText
 10
15.44375
 20
2.125
 30
0.0
 40
0.5
  1
WSTU-S2-415R
100
AcDbAttributeDefinition
  3

  2
DESCRIPTION
 70
     8
280
     0
  0
ATTDEF
  5
7B
330
6E
100
AcDbEntity
  8
AM_6
100
AcDbText
 10
15.44375
 20
1.625
 30
0.0
 40
0.5
  1
Non-Expansion Type
100
AcDbAttributeDefinition
  3

  2
EF
 70
     8
280
     0
  0
ATTDEF
  5
7C
330
6E
100
AcDbEntity
  8
AM_6
100
AcDbText
 10
15.44375
 20
1.125
 30
0.0
 40
0.5
  1
Contact Seal
100
AcDbAttributeDefinition
  3

  2
ST
 70
     8
280
     0
  0
ATTDEF
  5
7D
330
6E
100
AcDbEntity
  8
AM_6
100
AcDbText
 10
15.44375
 20
0.625
 30
0.0
 40
0.5
  1
6-29/32
100
AcDbAttributeDefinition
  3

  2
A
 70
     8
280
     0
  0
ATTDEF
  5
7E
330
6E
100
AcDbEntity
  8
AM_6
100
AcDbText
 10
15.44375
 20
0.125
 30
0.0
 40
0.5
  1
15-5/8
100
AcDbAttributeDefinition
  3

  2
B
 70
     8
280
     0
  0
ATTDEF
  5
7F
330
6E
100
AcDbEntity
  8
AM_6
100
AcDbText
 10
15.44375
 20
-0.375
 30
0.0
 40
0.5
  1
2-1/16
100
AcDbAttributeDefinition
  3

  2
C
 70
     8
280
     0
  0
ATTDEF
  5
80
330
6E
100
AcDbEntity
  8
AM_6
100
AcDbText
 10
15.44375
 20
-0.875
 30
0.0
 40
0.5
  1
9
100
AcDbAttributeDefinition
  3

  2
D
 70
     8
280
     0
  0
ATTDEF
  5
81
330
6E
100
AcDbEntity
  8
AM_6
100
AcDbText
 10
15.44375
 20
-1.375
 30
0.0
 40
0.5
  1
10-5/16
100
AcDbAttributeDefinition
  3

  2
E
 70
     8
280
     0
  0
ATTDEF
  5
82
330
6E
100
AcDbEntity
  8
AM_6
100
AcDbText
 10
15.44375
 20
-1.875
 30
0.0
 40
0.5
  1
2-3/8
100
AcDbAttributeDefinition
  3

  2
F
 70
     8
280
     0
  0
ATTDEF
  5
83
330
6E
100
AcDbEntity
  8
AM_6
100
AcDbText
 10
15.44375
 20
-2.375
 30
0.0
 40
0.5
  1
2-1/2
100
AcDbAttributeDefinition
  3

  2
G
 70
     8
280
     0
  0
ATTDEF
  5
84
330
6E
100
AcDbEntity
  8
AM_6
100
AcDbText
 10
15.44375
 20
-2.875
 30
0.0
 40
0.5
  1
2-1/2
100
AcDbAttributeDefinition
  3

  2
H
 70
     8
280
     0
  0
ATTDEF
  5
85
330
6E
100
AcDbEntity
  8
AM_6
100
AcDbText
 10
15.44375
 20
-3.375
 30
0.0
 40
0.5
  1
7
100
AcDbAttributeDefinition
  3

  2
J
 70
     8
280
     0
  0
ATTDEF
  5
86
330
6E
100
AcDbEntity
  8
AM_6
100
AcDbText
 10
15.44375
 20
-3.875
 30
0.0
 40
0.5
  1
3-3/4
100
AcDbAttributeDefinition
  3

  2
K
 70
     8
280
     0
  0
ATTDEF
  5
87
330
6E
100
AcDbEntity
  8
AM_6
100
AcDbText
 10
15.44375
 20
-4.375
 30
0.0
 40
0.5
  1
7-29/64
100
AcDbAttributeDefinition
  3

  2
L
 70
     8
280
     0
  0
ATTDEF
  5
88
330
6E
100
AcDbEntity
  8
AM_6
100
AcDbText
 10
15.44375
 20
-4.875
 30
0.0
 40
0.5
  1
10-1/4
100
AcDbAttributeDefinition
  3

  2
M
 70
     8
280
     0
  0
ATTDEF
  5
89
330
6E
100
AcDbEntity
  8
AM_6
100
AcDbText
 10
15.44375
 20
-5.375
 30
0.0
 40
0.5
  1
11-1/4
100
AcDbAttributeDefinition
  3

  2
N
 70
     8
280
     0
  0
ATTDEF
  5
8A
330
6E
100
AcDbEntity
  8
AM_6
100
AcDbText
 10
15.44375
 20
-5.875
 30
0.0
 40
0.5
  1
5-47/64
100
AcDbAttributeDefinition
  3

  2
R
 70
     8
280
     0
  0
ATTDEF
  5
8B
330
6E
100
AcDbEntity
  8
AM_6
100
AcDbText
 10
15.44375
 20
-6.375
 30
0.0
 40
0.5
  1
3-41/64
100
AcDbAttributeDefinition
  3

  2
S
 70
     8
280
     0
  0
ATTDEF
  5
8C
330
6E
100
AcDbEntity
  8
AM_6
100
AcDbText
 10
15.44375
 20
-6.875
 30
0.0
 40
0.5
  1
4-3/16
100
AcDbAttributeDefinition
  3

  2
T
 70
     8
280
     0
  0
ATTDEF
  5
8D
330
6E
100
AcDbEntity
  8
AM_6
100
AcDbText
 10
15.44375
 20
-7.375
 30
0.0
 40
0.5
  1
3/8
100
AcDbAttributeDefinition
  3

  2
X
 70
     8
280
     0
  0
ATTDEF
  5
8E
330
6E
100
AcDbEntity
  8
AM_6
100
AcDbText
 10
15.44375
 20
-7.875
 30
0.0
 40
0.5
  1
0.036
100
AcDbAttributeDefinition
  3

  2
Y
 70
     8
280
     0
  0
ATTDEF
  5
8F
330
6E
100
AcDbEntity
  8
AM_6
100
AcDbText
 10
15.44375
 20
-8.375
 30
0.0
 40
0.5
  1
5-27/32
100
AcDbAttributeDefinition
  3

  2
Z
 70
     8
280
     0
  0
ATTDEF
  5
90
330
6E
100
AcDbEntity
  8
AM_6
100
AcDbText
 10
15.44375
 20
-8.875
 30
0.0
 40
0.5
  1
baldor
100
AcDbAttributeDefinition
  3

  2
COMPANY
 70
     8
280
     0
  0
INSERT
  5
92
330
6E
100
AcDbEntity
  8
0
100
AcDbBlockReference
  2
2_4_15_16CS2i_1_0_in_070774_0
 10
0.0
 20
0.0
 30
0.0
  0
INSERT
  5
D0
330
6E
100
AcDbEntity
  8
0
100
AcDbBlockReference
  2
3_4_15_16CS2i_2_0_in_070774_0
 10
0.0
 20
0.0
 30
0.0
  0
INSERT
  5
F2
330
6E
100
AcDbEntity
  8
0
100
AcDbBlockReference
  2
4_070015i_0_in_070774_0
 10
0.0
 20
0.0
 30
0.0
  0
INSERT
  5
117
330
6E
100
AcDbEntity
  8
0
100
AcDbBlockReference
  2
5_405016_Inch_0_in_070774_0
 10
0.0
 20
0.0
 30
0.0
  0
INSERT
  5
190
330
6E
100
AcDbEntity
  8
0
100
AcDbBlockReference
  2
6_070774H_0_in_070774_0
 10
0.0
 20
0.0
 30
0.0
  0
ENDBLK
  5
71
330
6E
100
AcDbEntity
  8
0
100
AcDbBlockEnd
  0
BLOCK
  5
93
330
91
100
AcDbEntity
  8
0
100
AcDbBlockBegin
  2
2_4_15_16CS2i_1_0_in_070774_0
 70
     2
 10
0.0
 20
0.0
 30
0.0
  3
2_4_15_16CS2i_1_0_in_070774_0
  1

  0
ATTDEF
  5
95
330
91
100
AcDbEntity
  8
AM_6
100
AcDbText
 10
8.72656
 20
3.726559999999999
 30
0.0
 40
0.5
  1
S-2000 Collar -Inch
100
AcDbAttributeDefinition
  3

  2
NN
 70
     8
280
     0
  0
ATTDEF
  5
96
330
91
100
AcDbEntity
  8
AM_6
100
AcDbText
 10
8.72656
 20
3.226559999999999
 30
0.0
 40
0.5
  1
S-2000 Bearings
100
AcDbAttributeDefinition
  3

  2
NT
 70
     8
280
     0
  0
ATTDEF
  5
97
330
91
100
AcDbEntity
  8
AM_6
100
AcDbText
 10
8.72656
 20
2.726559999999999
 30
0.0
 40
0.5
  1
4-15/16CS2i
100
AcDbAttributeDefinition
  3

  2
NB
 70
     8
280
     0
  0
ATTDEF
  5
98
330
91
100
AcDbEntity
  8
AM_6
100
AcDbText
 10
8.72656
 20
2.226559999999999
 30
0.0
 40
0.5
  1
$BORE.CS2i
100
AcDbAttributeDefinition
  3

  2
NBSYN
 70
     8
280
     0
  0
ATTDEF
  5
99
330
91
100
AcDbEntity
  8
AM_6
100
AcDbText
 10
8.72656
 20
1.726559999999999
 30
0.0
 40
0.5
  1
4-15/16CS2i
100
AcDbAttributeDefinition
  3

  2
LINA
 70
     8
280
     0
  0
ATTDEF
  5
9A
330
91
100
AcDbEntity
  8
AM_6
100
AcDbText
 10
8.72656
 20
1.226559999999999
 30
0.0
 40
0.5
  1
4-15/16
100
AcDbAttributeDefinition
  3

  2
BORE
 70
     8
280
     0
  0
ATTDEF
  5
9B
330
91
100
AcDbEntity
  8
AM_6
100
AcDbText
 10
8.72656
 20
0.7265599999999992
 30
0.0
 40
0.5
  1
4.937500
100
AcDbAttributeDefinition
  3

  2
BORE1
 70
     8
280
     0
  0
ATTDEF
  5
9C
330
91
100
AcDbEntity
  8
AM_6
100
AcDbText
 10
8.72656
 20
0.2265599999999992
 30
0.0
 40
0.5
  1
7-29/64
100
AcDbAttributeDefinition
  3

  2
L1
 70
     8
280
     0
  0
ATTDEF
  5
9D
330
91
100
AcDbEntity
  8
AM_6
100
AcDbText
 10
8.72656
 20
-0.2734400000000008
 30
0.0
 40
0.5
  1
7.45313
100
AcDbAttributeDefinition
  3

  2
L
 70
     8
280
     0
  0
ATTDEF
  5
9E
330
91
100
AcDbEntity
  8
AM_6
100
AcDbText
 10
8.72656
 20
-0.7734400000000008
 30
0.0
 40
0.5
  1
7.45312
100
AcDbAttributeDefinition
  3

  2
L2
 70
     8
280
     0
  0
ATTDEF
  5
9F
330
91
100
AcDbEntity
  8
AM_6
100
AcDbText
 10
8.72656
 20
-1.273440000000001
 30
0.0
 40
0.5
  1
7.25
100
AcDbAttributeDefinition
  3

  2
A
 70
     8
280
     0
  0
ATTDEF
  5
A0
330
91
100
AcDbEntity
  8
AM_6
100
AcDbText
 10
8.72656
 20
-1.773440000000001
 30
0.0
 40
0.5
  1
3.75
100
AcDbAttributeDefinition
  3

  2
B
 70
     8
280
     0
  0
ATTDEF
  5
A1
330
91
100
AcDbEntity
  8
AM_6
100
AcDbText
 10
8.72656
 20
-2.273440000000001
 30
0.0
 40
0.5
  1
5.79
100
AcDbAttributeDefinition
  3

  2
C
 70
     8
280
     0
  0
ATTDEF
  5
A2
330
91
100
AcDbEntity
  8
AM_6
100
AcDbText
 10
8.72656
 20
-2.773440000000001
 30
0.0
 40
0.5
  1
8.12
100
AcDbAttributeDefinition
  3

  2
D
 70
     8
280
     0
  0
ATTDEF
  5
A3
330
91
100
AcDbEntity
  8
AM_6
100
AcDbText
 10
8.72656
 20
-3.273440000000001
 30
0.0
 40
0.5
  1
0.78
100
AcDbAttributeDefinition
  3

  2
E
 70
     8
280
     0
  0
ATTDEF
  5
A4
330
91
100
AcDbEntity
  8
AM_6
100
AcDbText
 10
8.72656
 20
-3.773440000000001
 30
0.0
 40
0.5
  1
0.620
100
AcDbAttributeDefinition
  3

  2
F
 70
     8
280
     0
  0
ATTDEF
  5
A5
330
91
100
AcDbEntity
  8
AM_6
100
AcDbText
 10
8.72656
 20
-4.273440000000001
 30
0.0
 40
0.5
  1
5/8-11
100
AcDbAttributeDefinition
  3

  2
CS
 70
     8
280
     0
  0
ATTDEF
  5
A6
330
91
100
AcDbEntity
  8
AM_6
100
AcDbText
 10
8.72656
 20
-4.773440000000001
 30
0.0
 40
0.5
  1
0.6250
100
AcDbAttributeDefinition
  3

  2
NDM
 70
     8
280
     0
  0
ATTDEF
  5
A7
330
91
100
AcDbEntity
  8
AM_6
100
AcDbText
 10
8.72656
 20
-5.273440000000001
 30
0.0
 40
0.5
  1
0.5270
100
AcDbAttributeDefinition
  3

  2
KDM
 70
     8
280
     0
  0
ATTDEF
  5
A8
330
91
100
AcDbEntity
  8
AM_6
100
AcDbText
 10
8.72656
 20
-5.773440000000001
 30
0.0
 40
0.5
  1
2
100
AcDbAttributeDefinition
  3

  2
DD
 70
     8
280
     0
  0
ATTDEF
  5
A9
330
91
100
AcDbEntity
  8
AM_6
100
AcDbText
 10
8.72656
 20
-6.273440000000001
 30
0.0
 40
0.5
  1
baldor
100
AcDbAttributeDefinition
  3

  2
COMPANY
 70
     8
280
     0
  0
CIRCLE
  5
AC
330
91
100
AcDbEntity
  8
AM_9
100
AcDbCircle
 10
0.0
 20
0.0
 30
0.0
 40
3.549104761904762
  0
CIRCLE
  5
AD
330
91
100
AcDbEntity
  8
AM_9
100
AcDbCircle
 10
0.0
 20
0.0
 30
0.0
 40
3.635668292682927
  0
LINE
  5
AE
330
91
100
AcDbEntity
  8
AM_9
100
AcDbLine
 10
2.741863950449772
 20
0.9880327516510221
 30
0.0
 11
3.444099923592356
 21
1.315490763759337
 31
0.0
  0
LINE
  5
AF
330
91
100
AcDbEntity
  8
AM_9
100
AcDbLine
 10
3.221549146959704
 20
1.792752444412837
 30
0.0
 11
2.519313173817119
 21
1.465294432304522
 31
0.0
  0
LINE
  5
B0
330
91
100
AcDbEntity
  8
AM_9
100
AcDbLine
 10
0.2633
 20
2.902533333333335
 30
0.0
 11
0.2633
 21
3.677365
 31
0.0
  0
LINE
  5
B1
330
91
100
AcDbEntity
  8
AM_9
100
AcDbLine
 10
-0.2633
 20
3.677365
 30
0.0
 11
-0.2633
 21
2.902533333333335
 31
0.0
  0
LINE
  5
B2
330
91
100
AcDbEntity
  8
AM_9
100
AcDbLine
 10
2.519313173817119
 20
1.465294432304522
 30
0.0
 11
2.741863950449772
 21
0.9880327516510226
 31
0.0
  0
LINE
  5
B3
330
91
100
AcDbEntity
  8
AM_9
100
AcDbLine
 10
2.519313173817119
 20
1.465294432304522
 30
0.0
 11
2.492540934238846
 21
1.475038730615656
 31
0.0
  0
LINE
  5
B4
330
91
100
AcDbEntity
  8
AM_9
100
AcDbLine
 10
2.731791452874368
 20
0.9603587920050888
 30
0.0
 11
2.741863950449772
 21
0.9880327516510226
 31
0.0
  0
LINE
  5
B5
330
91
100
AcDbEntity
  8
AM_9
100
AcDbLine
 10
-0.2633
 20
2.902533333333335
 30
0.0
 11
0.2633
 21
2.902533333333335
 31
0.0
  0
LINE
  5
B6
330
91
100
AcDbEntity
  8
AM_9
100
AcDbLine
 10
-0.2633
 20
2.902533333333335
 30
0.0
 11
-0.2828111629442299
 21
2.883022170389104
 31
0.0
  0
LINE
  5
B7
330
91
100
AcDbEntity
  8
AM_9
100
AcDbLine
 10
0.2835418356209762
 20
2.882291497712358
 30
0.0
 11
0.2633
 21
2.902533333333335
 31
0.0
  0
LWPOLYLINE
  5
B8
330
91
100
AcDbEntity
  8
AM_9
100
AcDbPolyline
 90
        6
 70
     0
 43
0.0
 10
-0.1665182552699782
 20
3.722837775711137
 10
-0.091675636164321
 20
3.702365996861305
 10
-0.0111127317606268
 20
3.693428556713109
 10
0.0618062322783142
 20
3.697430756491431
 10
0.1351175689575522
 20
3.712869065453451
 10
0.1665182552699817
 20
3.722837775711137
  0
LINE
  5
B9
330
91
100
AcDbEntity
  8
AM_9
100
AcDbLine
 10
-0.2633
 20
3.677365
 30
0.0
 11
0.2633
 21
3.677365
 31
0.0
  0
LINE
  5
BA
330
91
100
AcDbEntity
  8
AM_9
100
AcDbLine
 10
0.2633
 20
3.677365
 30
0.0
 11
0.3001677814491588
 21
3.714232781449159
 31
0.0
  0
LINE
  5
BB
330
91
100
AcDbEntity
  8
AM_9
100
AcDbLine
 10
-0.2985061682569045
 20
3.712571168256904
 30
0.0
 11
-0.2633
 21
3.677365
 31
0.0
  0
LWPOLYLINE
  5
BC
330
91
100
AcDbEntity
  8
AM_9
100
AcDbPolyline
 90
        6
 70
     0
 43
0.0
 10
3.304733726110603
 20
1.714494170046491
 10
3.316739335415378
 20
1.647773824858631
 10
3.342686618432759
 20
1.57098191183146
 10
3.377130729087198
 20
1.506586289613776
 10
3.422105298391421
 20
1.446668165601062
 10
3.444410521591497
 20
1.422422438078714
  0
LINE
  5
BD
330
91
100
AcDbEntity
  8
AM_9
100
AcDbLine
 10
3.303663210410917
 20
1.724256020948538
 30
0.0
 11
3.304733726110603
 21
1.714494170046491
 31
0.0
  0
LINE
  5
BE
330
91
100
AcDbEntity
  8
AM_9
100
AcDbLine
 10
3.221549146959704
 20
1.792752444412837
 30
0.0
 11
3.444099923592356
 21
1.315490763759337
 31
0.0
  0
LINE
  5
BF
330
91
100
AcDbEntity
  8
AM_9
100
AcDbLine
 10
3.444099923592356
 20
1.315490763759337
 30
0.0
 11
3.491584182310957
 21
1.298207906989571
 31
0.0
  0
LINE
  5
C0
330
91
100
AcDbEntity
  8
AM_9
100
AcDbLine
 10
3.239078793298689
 20
1.840914751900222
 30
0.0
 11
3.221549146959704
 21
1.792752444412837
 31
0.0
  0
LINE
  5
C2
330
91
100
AcDbEntity
  8
AM_5
100
AcDbLine
 10
-0.3125
 20
3.713434149624845
 30
0.0
 11
-0.3125
 21
2.878084215237629
 31
0.0
  0
LINE
  5
C3
330
91
100
AcDbEntity
  8
AM_5
100
AcDbLine
 10
-0.15625
 20
2.853333333333333
 30
0.0
 11
-0.3125
 21
2.853333333333333
 31
0.0
  0
LINE
  5
C4
330
91
100
AcDbEntity
  8
AM_5
100
AcDbLine
 10
0.3125
 20
3.713434149624845
 30
0.0
 11
0.3125
 21
2.878084215237629
 31
0.0
  0
LINE
  5
C5
330
91
100
AcDbEntity
  8
AM_5
100
AcDbLine
 10
0.15625
 20
2.853333333333333
 30
0.0
 11
0.3125
 21
2.853333333333333
 31
0.0
  0
LINE
  5
C6
330
91
100
AcDbEntity
  8
AM_5
100
AcDbLine
 10
3.497582493246786
 20
1.286143901954051
 30
0.0
 11
2.740498342811098
 21
0.9331097647381192
 31
0.0
  0
LINE
  5
C7
330
91
100
AcDbEntity
  8
AM_5
100
AcDbLine
 10
2.652032322408226
 20
1.064260181775653
 30
0.0
 11
2.718066425805209
 21
0.922649590051176
 31
0.0
  0
LINE
  5
C8
330
91
100
AcDbEntity
  8
AM_5
100
AcDbLine
 10
3.233446079658849
 20
1.852586268851958
 30
0.0
 11
2.476361929223161
 21
1.499552131636025
 31
0.0
  0
LINE
  5
C9
330
91
100
AcDbEntity
  8
AM_5
100
AcDbLine
 10
2.519964115614257
 20
1.347481365224606
 30
0.0
 11
2.453930012217272
 21
1.489091956949082
 31
0.0
  0
LWPOLYLINE
  5
CB
330
91
100
AcDbEntity
  8
AM_4
100
AcDbPolyline
 90
        5
 70
     0
 43
0.0
 10
3.444410521591497
 20
1.422422438078714
 10
3.451609785399825
 20
1.404862764853679
 10
3.474251033827747
 20
1.347898062743184
 10
3.489485319805519
 20
1.307953224110775
 10
3.49336318544942
 20
1.297560437184596
  0
CIRCLE
  5
CC
330
91
100
AcDbEntity
  8
AM_4
100
AcDbCircle
 10
0.0
 20
0.0
 30
0.0
 40
2.895
  0
CIRCLE
  5
CD
330
91
100
AcDbEntity
  8
AM_4
100
AcDbCircle
 10
0.0
 20
0.0
 30
0.0
 40
3.519893333333334
  0
CIRCLE
  5
CE
330
91
100
AcDbEntity
  8
AM_4
100
AcDbCircle
 10
-0.0000000000000007
 20
-0.0000000000000007
 30
0.0
 40
3.72656
  0
ENDBLK
  5
94
330
91
100
AcDbEntity
  8
0
100
AcDbBlockEnd
  0
BLOCK
  5
D1
330
CF
100
AcDbEntity
  8
0
100
AcDbBlockBegin
  2
3_4_15_16CS2i_2_0_in_070774_0
 70
     2
 10
0.0
 20
0.0
 30
0.0
  3
3_4_15_16CS2i_2_0_in_070774_0
  1

  0
ATTDEF
  5
D3
330
CF
100
AcDbEntity
  8
AM_6
100
AcDbText
 10
8.497582493246785
 20
3.713434149624846
 30
0.0
 40
0.5
  1
S-2000 Collar -Inch
100
AcDbAttributeDefinition
  3

  2
NN
 70
     8
280
     0
  0
ATTDEF
  5
D4
330
CF
100
AcDbEntity
  8
AM_6
100
AcDbText
 10
8.497582493246785
 20
3.213434149624846
 30
0.0
 40
0.5
  1
S-2000 Bearings
100
AcDbAttributeDefinition
  3

  2
NT
 70
     8
280
     0
  0
ATTDEF
  5
D5
330
CF
100
AcDbEntity
  8
AM_6
100
AcDbText
 10
8.497582493246785
 20
2.713434149624846
 30
0.0
 40
0.5
  1
4-15/16CS2i
100
AcDbAttributeDefinition
  3

  2
NB
 70
     8
280
     0
  0
ATTDEF
  5
D6
330
CF
100
AcDbEntity
  8
AM_6
100
AcDbText
 10
8.497582493246785
 20
2.213434149624846
 30
0.0
 40
0.5
  1
$BORE.CS2i
100
AcDbAttributeDefinition
  3

  2
NBSYN
 70
     8
280
     0
  0
ATTDEF
  5
D7
330
CF
100
AcDbEntity
  8
AM_6
100
AcDbText
 10
8.497582493246785
 20
1.713434149624846
 30
0.0
 40
0.5
  1
4-15/16CS2i
100
AcDbAttributeDefinition
  3

  2
LINA
 70
     8
280
     0
  0
ATTDEF
  5
D8
330
CF
100
AcDbEntity
  8
AM_6
100
AcDbText
 10
8.497582493246785
 20
1.213434149624846
 30
0.0
 40
0.5
  1
4-15/16
100
AcDbAttributeDefinition
  3

  2
BORE
 70
     8
280
     0
  0
ATTDEF
  5
D9
330
CF
100
AcDbEntity
  8
AM_6
100
AcDbText
 10
8.497582493246785
 20
0.7134341496248457
 30
0.0
 40
0.5
  1
4.937500
100
AcDbAttributeDefinition
  3

  2
BORE1
 70
     8
280
     0
  0
ATTDEF
  5
DA
330
CF
100
AcDbEntity
  8
AM_6
100
AcDbText
 10
8.497582493246785
 20
0.2134341496248457
 30
0.0
 40
0.5
  1
7-29/64
100
AcDbAttributeDefinition
  3

  2
L1
 70
     8
280
     0
  0
ATTDEF
  5
DB
330
CF
100
AcDbEntity
  8
AM_6
100
AcDbText
 10
8.497582493246785
 20
-0.2865658503751543
 30
0.0
 40
0.5
  1
7.45313
100
AcDbAttributeDefinition
  3

  2
L
 70
     8
280
     0
  0
ATTDEF
  5
DC
330
CF
100
AcDbEntity
  8
AM_6
100
AcDbText
 10
8.497582493246785
 20
-0.7865658503751543
 30
0.0
 40
0.5
  1
7.45312
100
AcDbAttributeDefinition
  3

  2
L2
 70
     8
280
     0
  0
ATTDEF
  5
DD
330
CF
100
AcDbEntity
  8
AM_6
100
AcDbText
 10
8.497582493246785
 20
-1.286565850375154
 30
0.0
 40
0.5
  1
7.25
100
AcDbAttributeDefinition
  3

  2
A
 70
     8
280
     0
  0
ATTDEF
  5
DE
330
CF
100
AcDbEntity
  8
AM_6
100
AcDbText
 10
8.497582493246785
 20
-1.786565850375154
 30
0.0
 40
0.5
  1
3.75
100
AcDbAttributeDefinition
  3

  2
B
 70
     8
280
     0
  0
ATTDEF
  5
DF
330
CF
100
AcDbEntity
  8
AM_6
100
AcDbText
 10
8.497582493246785
 20
-2.286565850375154
 30
0.0
 40
0.5
  1
5.79
100
AcDbAttributeDefinition
  3

  2
C
 70
     8
280
     0
  0
ATTDEF
  5
E0
330
CF
100
AcDbEntity
  8
AM_6
100
AcDbText
 10
8.497582493246785
 20
-2.786565850375154
 30
0.0
 40
0.5
  1
8.12
100
AcDbAttributeDefinition
  3

  2
D
 70
     8
280
     0
  0
ATTDEF
  5
E1
330
CF
100
AcDbEntity
  8
AM_6
100
AcDbText
 10
8.497582493246785
 20
-3.286565850375154
 30
0.0
 40
0.5
  1
0.78
100
AcDbAttributeDefinition
  3

  2
E
 70
     8
280
     0
  0
ATTDEF
  5
E2
330
CF
100
AcDbEntity
  8
AM_6
100
AcDbText
 10
8.497582493246785
 20
-3.786565850375154
 30
0.0
 40
0.5
  1
0.620
100
AcDbAttributeDefinition
  3

  2
F
 70
     8
280
     0
  0
ATTDEF
  5
E3
330
CF
100
AcDbEntity
  8
AM_6
100
AcDbText
 10
8.497582493246785
 20
-4.286565850375155
 30
0.0
 40
0.5
  1
5/8-11
100
AcDbAttributeDefinition
  3

  2
CS
 70
     8
280
     0
  0
ATTDEF
  5
E4
330
CF
100
AcDbEntity
  8
AM_6
100
AcDbText
 10
8.497582493246785
 20
-4.786565850375155
 30
0.0
 40
0.5
  1
0.6250
100
AcDbAttributeDefinition
  3

  2
NDM
 70
     8
280
     0
  0
ATTDEF
  5
E5
330
CF
100
AcDbEntity
  8
AM_6
100
AcDbText
 10
8.497582493246785
 20
-5.286565850375155
 30
0.0
 40
0.5
  1
0.5270
100
AcDbAttributeDefinition
  3

  2
KDM
 70
     8
280
     0
  0
ATTDEF
  5
E6
330
CF
100
AcDbEntity
  8
AM_6
100
AcDbText
 10
8.497582493246785
 20
-5.786565850375155
 30
0.0
 40
0.5
  1
2
100
AcDbAttributeDefinition
  3

  2
DD
 70
     8
280
     0
  0
ATTDEF
  5
E7
330
CF
100
AcDbEntity
  8
AM_6
100
AcDbText
 10
8.497582493246785
 20
-6.286565850375155
 30
0.0
 40
0.5
  1
baldor
100
AcDbAttributeDefinition
  3

  2
COMPANY
 70
     8
280
     0
  0
LINE
  5
E8
330
CF
100
AcDbEntity
  8
AM_9
100
AcDbLine
 10
-0.2828111629442296
 20
2.883022170389104
 30
0.0
 11
-0.2841243037085426
 21
2.881709029624791
 31
0.0
  0
LINE
  5
E9
330
CF
100
AcDbEntity
  8
AM_5
100
AcDbLine
 10
3.497582493246786
 20
1.286143901954051
 30
0.0
 11
2.740498342811098
 21
0.9331097647381188
 31
0.0
  0
LINE
  5
EA
330
CF
100
AcDbEntity
  8
AM_5
100
AcDbLine
 10
2.652032322408226
 20
1.064260181775653
 30
0.0
 11
2.71806642580521
 21
0.9226495900511761
 31
0.0
  0
LINE
  5
EB
330
CF
100
AcDbEntity
  8
AM_5
100
AcDbLine
 10
3.233446079658849
 20
1.852586268851958
 30
0.0
 11
2.476361929223161
 21
1.499552131636025
 31
0.0
  0
LINE
  5
EC
330
CF
100
AcDbEntity
  8
AM_5
100
AcDbLine
 10
2.519964115614257
 20
1.347481365224606
 30
0.0
 11
2.453930012217273
 21
1.489091956949082
 31
0.0
  0
LINE
  5
ED
330
CF
100
AcDbEntity
  8
AM_5
100
AcDbLine
 10
0.3125000000000006
 20
3.713434149624846
 30
0.0
 11
0.3125000000000003
 21
2.878084215237629
 31
0.0
  0
LINE
  5
EE
330
CF
100
AcDbEntity
  8
AM_5
100
AcDbLine
 10
0.1562500000000001
 20
2.853333333333333
 30
0.0
 11
0.3125000000000002
 21
2.853333333333333
 31
0.0
  0
LINE
  5
EF
330
CF
100
AcDbEntity
  8
AM_5
100
AcDbLine
 10
-0.3124999999999997
 20
3.713434149624845
 30
0.0
 11
-0.3124999999999997
 21
2.878084215237629
 31
0.0
  0
LINE
  5
F0
330
CF
100
AcDbEntity
  8
AM_5
100
AcDbLine
 10
-0.1562499999999999
 20
2.853333333333333
 30
0.0
 11
-0.3124999999999999
 21
2.853333333333333
 31
0.0
  0
ENDBLK
  5
D2
330
CF
100
AcDbEntity
  8
0
100
AcDbBlockEnd
  0
BLOCK
  5
F3
330
F1
100
AcDbEntity
  8
0
100
AcDbBlockBegin
  2
4_070015i_0_in_070774_0
 70
     2
 10
0.0
 20
0.0
 30
0.0
  3
4_070015i_0_in_070774_0
  1

  0
ATTDEF
  5
F5
330
F1
100
AcDbEntity
  8
AM_6
100
AcDbText
 10
9.346447999999999
 20
4.346448
 30
0.0
 40
0.5
  1
S-2000 Insert -Inch
100
AcDbAttributeDefinition
  3

  2
NN
 70
     8
280
     0
  0
ATTDEF
  5
F6
330
F1
100
AcDbEntity
  8
AM_6
100
AcDbText
 10
9.346447999999999
 20
3.846448
 30
0.0
 40
0.5
  1
S-2000 Bearings
100
AcDbAttributeDefinition
  3

  2
NT
 70
     8
280
     0
  0
ATTDEF
  5
F7
330
F1
100
AcDbEntity
  8
AM_6
100
AcDbText
 10
9.346447999999999
 20
3.346448
 30
0.0
 40
0.5
  1
070015i
100
AcDbAttributeDefinition
  3

  2
NB
 70
     8
280
     0
  0
ATTDEF
  5
F8
330
F1
100
AcDbEntity
  8
AM_6
100
AcDbText
 10
9.346447999999999
 20
2.846448
 30
0.0
 40
0.5
  1
$PN.i
100
AcDbAttributeDefinition
  3

  2
NBSYN
 70
     8
280
     0
  0
ATTDEF
  5
F9
330
F1
100
AcDbEntity
  8
AM_6
100
AcDbText
 10
9.346447999999999
 20
2.346448
 30
0.0
 40
0.5
  1
070015i
100
AcDbAttributeDefinition
  3

  2
LINA
 70
     8
280
     0
  0
ATTDEF
  5
FA
330
F1
100
AcDbEntity
  8
AM_6
100
AcDbText
 10
9.346447999999999
 20
1.846448
 30
0.0
 40
0.5
  1
4-15/16
100
AcDbAttributeDefinition
  3

  2
SS
 70
     8
280
     0
  0
ATTDEF
  5
FB
330
F1
100
AcDbEntity
  8
AM_6
100
AcDbText
 10
9.346447999999999
 20
1.346448
 30
0.0
 40
0.5
  1
5.79
100
AcDbAttributeDefinition
  3

  2
CC
 70
     8
280
     0
  0
ATTDEF
  5
FC
330
F1
100
AcDbEntity
  8
AM_6
100
AcDbText
 10
9.346447999999999
 20
0.8464479999999996
 30
0.0
 40
0.5
  1
4.937500
100
AcDbAttributeDefinition
  3

  2
SS1
 70
     8
280
     0
  0
ATTDEF
  5
FD
330
F1
100
AcDbEntity
  8
AM_6
100
AcDbText
 10
9.346447999999999
 20
0.3464479999999996
 30
0.0
 40
0.5
  1
070015
100
AcDbAttributeDefinition
  3

  2
PN
 70
     8
280
     0
  0
ATTDEF
  5
FE
330
F1
100
AcDbEntity
  8
AM_6
100
AcDbText
 10
9.346447999999999
 20
-0.1535520000000004
 30
0.0
 40
0.5
  1
INS-S2-415R
100
AcDbAttributeDefinition
  3

  2
DESCRIPTION
 70
     8
280
     0
  0
ATTDEF
  5
FF
330
F1
100
AcDbEntity
  8
AM_6
100
AcDbText
 10
9.346447999999999
 20
-0.6535520000000004
 30
0.0
 40
0.5
  1
Contact Seal
100
AcDbAttributeDefinition
  3

  2
ST
 70
     8
280
     0
  0
ATTDEF
  5
100
330
F1
100
AcDbEntity
  8
AM_6
100
AcDbText
 10
9.346447999999999
 20
-1.153552
 30
0.0
 40
0.5
  1
1
100
AcDbAttributeDefinition
  3

  2
ST1
 70
     8
280
     0
  0
ATTDEF
  5
101
330
F1
100
AcDbEntity
  8
AM_6
100
AcDbText
 10
9.346447999999999
 20
-1.653552
 30
0.0
 40
0.5
  1
9.0551
100
AcDbAttributeDefinition
  3

  2
A
 70
     8
280
     0
  0
ATTDEF
  5
102
330
F1
100
AcDbEntity
  8
AM_6
100
AcDbText
 10
9.346447999999999
 20
-2.153552
 30
0.0
 40
0.5
  1
2-19/32
100
AcDbAttributeDefinition
  3

  2
B
 70
     8
280
     0
  0
ATTDEF
  5
103
330
F1
100
AcDbEntity
  8
AM_6
100
AcDbText
 10
9.346447999999999
 20
-2.653552
 30
0.0
 40
0.5
  1
6-29/32
100
AcDbAttributeDefinition
  3

  2
C
 70
     8
280
     0
  0
ATTDEF
  5
104
330
F1
100
AcDbEntity
  8
AM_6
100
AcDbText
 10
9.346447999999999
 20
-3.153552
 30
0.0
 40
0.5
  1
3.453
100
AcDbAttributeDefinition
  3

  2
D
 70
     8
280
     0
  0
ATTDEF
  5
105
330
F1
100
AcDbEntity
  8
AM_6
100
AcDbText
 10
9.346447999999999
 20
-3.653552
 30
0.0
 40
0.5
  1
7-29/64
100
AcDbAttributeDefinition
  3

  2
E
 70
     8
280
     0
  0
ATTDEF
  5
106
330
F1
100
AcDbEntity
  8
AM_6
100
AcDbText
 10
9.346447999999999
 20
-4.153552
 30
0.0
 40
0.5
  1
0.37500
100
AcDbAttributeDefinition
  3

  2
F
 70
     8
280
     0
  0
ATTDEF
  5
107
330
F1
100
AcDbEntity
  8
AM_6
100
AcDbText
 10
9.346447999999999
 20
-4.653552
 30
0.0
 40
0.5
  1
2
100
AcDbAttributeDefinition
  3

  2
DD
 70
     8
280
     0
  0
ATTDEF
  5
108
330
F1
100
AcDbEntity
  8
AM_6
100
AcDbText
 10
9.346447999999999
 20
-5.153552
 30
0.0
 40
0.5
  1
baldor
100
AcDbAttributeDefinition
  3

  2
COMPANY
 70
     8
280
     0
  0
CIRCLE
  5
109
330
F1
100
AcDbEntity
  8
AM_9
100
AcDbCircle
 10
0.0
 20
0.0
 30
0.0
 40
4.346448
  0
CIRCLE
  5
10A
330
F1
100
AcDbEntity
  8
AM_9
100
AcDbCircle
 10
0.0
 20
0.0
 30
0.0
 40
3.62204
  0
CIRCLE
  5
10B
330
F1
100
AcDbEntity
  8
AM_9
100
AcDbCircle
 10
0.0
 20
0.0
 30
0.0
 40
3.362665
  0
LINE
  5
10C
330
F1
100
AcDbEntity
  8
AM_9
100
AcDbLine
 10
-0.3900000000000002
 20
2.868779634494349
 30
0.0
 11
-0.3900000000000003
 21
2.437942301167593
 31
0.0
  0
LINE
  5
10D
330
F1
100
AcDbEntity
  8
AM_9
100
AcDbLine
 10
0.39
 20
2.437750307660734
 30
0.0
 11
0.39
 21
2.868610290715698
 31
0.0
  0
LINE
  5
10E
330
F1
100
AcDbEntity
  8
AM_9
100
AcDbLine
 10
2.435176199955511
 20
1.565858699391415
 30
0.0
 11
2.044704969815367
 21
1.383778974487863
 31
0.0
  0
LINE
  5
10F
330
F1
100
AcDbEntity
  8
AM_9
100
AcDbLine
 10
2.374173208762785
 20
0.6767777606371408
 30
0.0
 11
2.764664966527977
 21
0.8588670577294572
 31
0.0
  0
LINE
  5
112
330
F1
100
AcDbEntity
  8
AM_7
100
AcDbLine
 10
-0.1345518483831334
 20
-0.0627425573199654
 30
0.0
 11
3.416985711367582
 21
1.59336660501691
 31
0.0
  0
CIRCLE
  5
113
330
F1
100
AcDbEntity
  8
AM_4
100
AcDbCircle
 10
0.0
 20
0.0
 30
0.0
 40
4.268174999999999
  0
CIRCLE
  5
114
330
F1
100
AcDbEntity
  8
AM_4
100
AcDbCircle
 10
0.0
 20
0.0
 30
0.0
 40
2.895
  0
CIRCLE
  5
115
330
F1
100
AcDbEntity
  8
AM_4
100
AcDbCircle
 10
0.0
 20
0.0
 30
0.0
 40
2.46875
  0
ENDBLK
  5
F4
330
F1
100
AcDbEntity
  8
0
100
AcDbBlockEnd
  0
BLOCK
  5
118
330
116
100
AcDbEntity
  8
0
100
AcDbBlockBegin
  2
5_405016_Inch_0_in_070774_0
 70
     2
 10
0.0
 20
0.0
 30
0.0
  3
5_405016_Inch_0_in_070774_0
  1

  0
ATTDEF
  5
11A
330
116
100
AcDbEntity
  8
AM_6
100
AcDbText
 10
0.5829124220331838
 20
-2.448175698355158
 30
0.0
 40
0.5
  1
405016 -Inch
100
AcDbAttributeDefinition
  3

  2
NN
 70
     8
280
     0
  0
ATTDEF
  5
11B
330
116
100
AcDbEntity
  8
AM_6
100
AcDbText
 10
0.5829124220331838
 20
-2.948175698355158
 30
0.0
 40
0.5
  1
Grease Fitting
100
AcDbAttributeDefinition
  3

  2
NT
 70
     8
280
     0
  0
ATTDEF
  5
11C
330
116
100
AcDbEntity
  8
AM_6
100
AcDbText
 10
0.5829124220331838
 20
-3.448175698355158
 30
0.0
 40
0.5
  1
405016-Inch
100
AcDbAttributeDefinition
  3

  2
NB
 70
     8
280
     0
  0
ATTDEF
  5
11D
330
116
100
AcDbEntity
  8
AM_6
100
AcDbText
 10
0.5829124220331838
 20
-3.948175698355158
 30
0.0
 40
0.5
  1
$MN.-Inch
100
AcDbAttributeDefinition
  3

  2
NBSYN
 70
     8
280
     0
  0
ATTDEF
  5
11E
330
116
100
AcDbEntity
  8
AM_6
100
AcDbText
 10
0.5829124220331838
 20
-4.448175698355158
 30
0.0
 40
0.5
  1
405016
100
AcDbAttributeDefinition
  3

  2
LINA
 70
     8
280
     0
  0
ATTDEF
  5
11F
330
116
100
AcDbEntity
  8
AM_6
100
AcDbText
 10
0.5829124220331838
 20
-4.948175698355158
 30
0.0
 40
0.5
  1
405016
100
AcDbAttributeDefinition
  3

  2
MN
 70
     8
280
     0
  0
ATTDEF
  5
120
330
116
100
AcDbEntity
  8
AM_6
100
AcDbText
 10
0.5829124220331838
 20
-5.448175698355158
 30
0.0
 40
0.5
  1
7/16 HEX
100
AcDbAttributeDefinition
  3

  2
H
 70
     8
280
     0
  0
ATTDEF
  5
121
330
116
100
AcDbEntity
  8
AM_6
100
AcDbText
 10
0.5829124220331838
 20
-5.948175698355158
 30
0.0
 40
0.5
  1
0.383
100
AcDbAttributeDefinition
  3

  2
NDR
 70
     8
280
     0
  0
ATTDEF
  5
122
330
116
100
AcDbEntity
  8
AM_6
100
AcDbText
 10
0.5829124220331838
 20
-6.448175698355158
 30
0.0
 40
0.5
  1
0.337
100
AcDbAttributeDefinition
  3

  2
KDR
 70
     8
280
     0
  0
ATTDEF
  5
123
330
116
100
AcDbEntity
  8
AM_6
100
AcDbText
 10
0.5829124220331838
 20
-6.948175698355158
 30
0.0
 40
0.5
  1
0.1575
100
AcDbAttributeDefinition
  3

  2
BZE
 70
     8
280
     0
  0
ATTDEF
  5
124
330
116
100
AcDbEntity
  8
AM_6
100
AcDbText
 10
0.5829124220331838
 20
-7.448175698355158
 30
0.0
 40
0.5
  1
0.4375
100
AcDbAttributeDefinition
  3

  2
HEX
 70
     8
280
     0
  0
ATTDEF
  5
125
330
116
100
AcDbEntity
  8
AM_6
100
AcDbText
 10
0.5829124220331838
 20
-7.948175698355158
 30
0.0
 40
0.5
  1
0.281250
100
AcDbAttributeDefinition
  3

  2
HEX2
 70
     8
280
     0
  0
ATTDEF
  5
126
330
116
100
AcDbEntity
  8
AM_6
100
AcDbText
 10
0.5829124220331838
 20
-8.448175698355158
 30
0.0
 40
0.5
  1
baldor
100
AcDbAttributeDefinition
  3

  2
COMPANY
 70
     8
280
     0
  0
LINE
  5
127
330
116
100
AcDbEntity
  8
AM_9
100
AcDbLine
 10
-4.417087577966816
 20
-2.736879893480119
 30
0.0
 11
-4.57875130384404
 21
-2.45687010651988
 31
0.0
  0
LINE
  5
128
330
116
100
AcDbEntity
  8
AM_9
100
AcDbLine
 10
-4.57875130384404
 20
-2.45687010651988
 30
0.0
 11
-4.611199276856524
 21
-2.448175698355158
 31
0.0
  0
LINE
  5
129
330
116
100
AcDbEntity
  8
AM_9
100
AcDbLine
 10
-4.425781986131538
 20
-2.769327866492603
 30
0.0
 11
-4.417087577966816
 21
-2.736879893480119
 31
0.0
  0
ARC
  5
12A
330
116
100
AcDbEntity
  8
AM_9
100
AcDbCircle
 10
-4.968820754213217
 20
-2.86875
 30
0.0
 40
0.2
100
AcDbArc
 50
166.3822630091895
 51
253.9841288455219
  0
LINE
  5
12B
330
116
100
AcDbEntity
  8
AM_9
100
AcDbLine
 10
-4.425781986131538
 20
-2.769327866492603
 30
0.0
 11
-4.611199276856524
 21
-2.448175698355158
 31
0.0
  0
LINE
  5
12C
330
116
100
AcDbEntity
  8
AM_9
100
AcDbLine
 10
-4.611199276856524
 20
-2.448175698355158
 30
0.0
 11
-4.783118114908389
 21
-2.540396406375598
 31
0.0
  0
LINE
  5
12D
330
116
100
AcDbEntity
  8
AM_9
100
AcDbLine
 10
-4.591606881058159
 20
-2.872103593624401
 30
0.0
 11
-4.425781986131538
 21
-2.769327866492603
 31
0.0
  0
LINE
  5
12E
330
116
100
AcDbEntity
  8
AM_9
100
AcDbLine
 10
-5.114230395797358
 20
-3.04645229571137
 30
0.0
 11
-5.125551969021234
 21
-3.052988809059826
 31
0.0
  0
LINE
  5
12F
330
116
100
AcDbEntity
  8
AM_9
100
AcDbLine
 10
-5.195420277402148
 20
-2.90582729571137
 30
0.0
 11
-5.206741850626026
 21
-2.912363809059825
 31
0.0
  0
LWPOLYLINE
  5
130
330
116
100
AcDbEntity
  8
AM_9
100
AcDbPolyline
 90
        7
 70
     0
 43
0.0
 10
-5.195420277402148
 20
-2.90582729571137
 10
-5.178804435414619
 20
-2.929760622598913
 10
-5.162749822759487
 20
-2.954617212109331
 10
-5.147266156695803
 20
-2.980816312422038
 10
-5.132777241581053
 20
-3.007845324422914
 10
-5.12325936728246
 20
-3.02708829813727
 10
-5.114230395797358
 20
-3.04645229571137
  0
LINE
  5
131
330
116
100
AcDbEntity
  8
AM_9
100
AcDbLine
 10
-4.909831875293811
 20
-2.970921735369939
 30
0.0
 11
-5.024548831034922
 21
-2.772226139536705
 31
0.0
  0
ELLIPSE
  5
132
330
116
100
AcDbEntity
  8
AM_9
100
AcDbEllipse
 10
-5.039436889708513
 20
-2.90952024483734
 30
0.0
 11
-0.07031250000000089
 21
0.1217848224071867
 31
0.0
210
0.0
220
0.0
230
1.0
 40
0.9063077870366498
 41
5.859216366485148
 42
9.848746901463818
  0
LWPOLYLINE
  5
133
330
116
100
AcDbEntity
  8
AM_9
100
AcDbPolyline
 90
        3
 70
     0
 43
0.0
 10
-5.009865096494469
 20
-3.04890193828977
 10
-4.999674807423203
 20
-3.049613121169831
 10
-4.96305554975886
 20
-3.052921457656343
  0
LINE
  5
134
330
116
100
AcDbEntity
  8
AM_9
100
AcDbLine
 10
-5.114230395797358
 20
-3.04645229571137
 30
0.0
 11
-5.093971206908198
 21
-3.046366667991457
 31
0.0
  0
LWPOLYLINE
  5
135
330
116
100
AcDbEntity
  8
AM_9
100
AcDbPolyline
 90
        7
 70
     0
 43
0.0
 10
-5.125435312968443
 20
-2.771671457656343
 10
-5.135744449325771
 20
-2.794242854288234
 10
-5.147088276159983
 20
-2.817706884363537
 10
-5.15980225073679
 20
-2.842460167846305
 10
-5.173698176926481
 20
-2.868018689712644
 10
-5.184371516567125
 20
-2.886857171961478
 10
-5.195420277402148
 20
-2.90582729571137
  0
LWPOLYLINE
  5
136
330
116
100
AcDbEntity
  8
AM_9
100
AcDbPolyline
 90
        5
 70
     0
 43
0.0
 10
-4.924251654029257
 20
-2.945945945966246
 10
-4.93221911910545
 20
-2.961459976006311
 10
-4.942975192539631
 20
-2.97560797563067
 10
-4.955618244062075
 20
-2.987205943415792
 10
-4.966027769682127
 20
-2.994154528105156
  0
LWPOLYLINE
  5
137
330
116
100
AcDbEntity
  8
AM_9
100
AcDbPolyline
 90
        7
 70
     0
 43
0.0
 10
-4.942462323656417
 20
-2.835364245622768
 10
-4.946127469300249
 20
-2.830727046299115
 10
-4.95852579101423
 20
-2.817797828583382
 10
-4.972949221380222
 20
-2.806745849846331
 10
-4.988462201241041
 20
-2.798476804053057
 10
-5.005555605028011
 20
-2.792953487144151
 10
-5.013389854397177
 20
-2.791554054033754
  0
LWPOLYLINE
  5
138
330
116
100
AcDbEntity
  8
AM_9
100
AcDbPolyline
 90
        4
 70
     0
 43
0.0
 10
-4.923562894944089
 20
-2.870855281922438
 10
-4.926902781003752
 20
-2.862207633207592
 10
-4.935253868823499
 20
-2.845997492794571
 10
-4.942462323656417
 20
-2.835364245622768
  0
LWPOLYLINE
  5
139
330
116
100
AcDbEntity
  8
AM_9
100
AcDbPolyline
 90
        6
 70
     0
 43
0.0
 10
-4.924251654029257
 20
-2.945945945966246
 10
-4.919296993557189
 20
-2.929951216295605
 10
-4.917189109090446
 20
-2.913894458256412
 10
-4.917668880808332
 20
-2.897127825105295
 10
-4.920884417760971
 20
-2.879679808725254
 10
-4.923562894944089
 20
-2.870855281922438
  0
LINE
  5
13A
330
116
100
AcDbEntity
  8
AM_9
100
AcDbLine
 10
-5.076017980322558
 20
-2.803623288128891
 30
0.0
 11
-5.094436889708514
 21
-2.814257450421052
 31
0.0
  0
LINE
  5
13B
330
116
100
AcDbEntity
  8
AM_9
100
AcDbLine
 10
-4.984436889708514
 20
-3.004783039253629
 30
0.0
 11
-4.966018051681402
 21
-2.994148918160516
 31
0.0
  0
LWPOLYLINE
  5
13C
330
116
100
AcDbEntity
  8
AM_9
100
AcDbPolyline
 90
        3
 70
     0
 43
0.0
 10
-5.090647438984448
 20
-2.81400044547313
 10
-5.0808873178894
 20
-2.806631372029879
 10
-5.076025670725148
 20
-2.803627728641494
  0
LWPOLYLINE
  5
13D
330
116
100
AcDbEntity
  8
AM_9
100
AcDbPolyline
 90
       20
 70
     0
 43
0.0
 10
-4.966027769682127
 20
-2.994154528105156
 10
-4.970508667207916
 20
-2.996584802540261
 10
-4.986410544014796
 20
-3.002962011960484
 10
-5.003771513836515
 20
-3.00651170963818
 10
-5.02112699096676
 20
-3.006934256104104
 10
-5.038984702551048
 20
-3.004240967168627
 10
-5.055814464051123
 20
-2.998667196040507
 10
-5.072131207951827
 20
-2.990047239076489
 10
-5.086530258811661
 20
-2.979130991490921
 10
-5.099462611677408
 20
-2.965586212655023
 10
-5.109822339837109
 20
-2.950580271317741
 10
-5.117932514653805
 20
-2.933658286749774
 10
-5.123109155844648
 20
-2.916254703027538
 10
-5.125509092288796
 20
-2.897857393511457
 10
-5.124931508331669
 20
-2.879997455120002
 10
-5.121359804522545
 20
-2.862172481606625
 10
-5.115082257254882
 20
-2.8458460564441
 10
-5.105924658192161
 20
-2.83057887276463
 10
-5.09462846903015
 20
-2.817620478489193
 10
-5.090647438984448
 20
-2.81400044547313
  0
LWPOLYLINE
  5
13E
330
116
100
AcDbEntity
  8
AM_9
100
AcDbPolyline
 90
        5
 70
     0
 43
0.0
 10
-5.076025670725148
 20
-2.803627728641494
 10
-5.065825828149919
 20
-2.798518942862664
 10
-5.049032405330259
 20
-2.793070477436415
 10
-5.031633069176263
 20
-2.790730939756072
 10
-5.013389854397159
 20
-2.791554054033761
  0
ELLIPSE
  5
13F
330
116
100
AcDbEntity
  8
AM_9
100
AcDbEllipse
 10
-5.039436889708517
 20
-2.909520244837342
 30
0.0
 11
-0.07031250000000357
 21
0.1217848224071876
 31
0.0
210
0.0
220
0.0
230
1.0
 40
0.9063077870366513
 41
3.764821264091944
 42
4.571432719802686
  0
ELLIPSE
  5
140
330
116
100
AcDbEntity
  8
AM_9
100
AcDbEllipse
 10
-5.039436889708514
 20
-2.90952024483734
 30
0.0
 11
-0.07031250000001421
 21
0.1217848224071774
 31
0.0
210
0.0
220
0.0
230
1.0
 40
0.9063077870366908
 41
4.853345240966594
 42
5.659956696677332
  0
LWPOLYLINE
  5
141
330
116
100
AcDbEntity
  8
AM_9
100
AcDbPolyline
 90
        5
 70
     0
 43
0.0
 10
-5.125551969021234
 20
-3.052988809059826
 10
-5.14741435751986
 20
-3.019920119967151
 10
-5.168310444449853
 20
-2.985562409178914
 10
-5.188228064004763
 20
-2.949376446285356
 10
-5.206741850626026
 20
-2.912363809059825
  0
LWPOLYLINE
  5
142
330
116
100
AcDbEntity
  8
AM_9
100
AcDbPolyline
 90
        4
 70
     0
 43
0.0
 10
-5.023321570257265
 20
-3.059026223610543
 10
-5.051719131377753
 20
-3.058052555641742
 10
-5.089337925738936
 20
-3.055926787031713
 10
-5.125551969021234
 20
-3.052988809059826
  0
LWPOLYLINE
  5
143
330
116
100
AcDbEntity
  8
AM_9
100
AcDbPolyline
 90
        4
 70
     0
 43
0.0
 10
-5.206741850626026
 20
-2.912363809059825
 10
-5.19186473258295
 20
-2.88093851773661
 10
-5.175435460340275
 20
-2.848247724328327
 10
-5.161028947406212
 20
-2.821130554956154
  0
ELLIPSE
  5
144
330
116
100
AcDbEntity
  8
AM_9
100
AcDbEllipse
 10
-5.057736797247048
 20
-2.920085701380858
 30
0.0
 11
-0.07031249999999913
 21
0.1217848224071862
 31
0.0
210
0.0
220
0.0
230
1.0
 40
0.9063077870366478
 41
0.2210922916173192
 42
2.920435329561188
  0
LWPOLYLINE
  5
145
330
116
100
AcDbEntity
  8
AM_9
100
AcDbPolyline
 90
       12
 70
     0
 43
0.0
 10
-4.997697442269908
 20
-2.924113964023656
 10
-4.99452100292967
 20
-2.94421945394131
 10
-4.996008496141063
 20
-2.970369174618698
 10
-5.003603571417678
 20
-2.993436687414594
 10
-5.016500789177282
 20
-3.012220008862002
 10
-5.034399901844265
 20
-3.026033307209298
 10
-5.057639938586904
 20
-3.03369724808982
 10
-5.080646694820526
 20
-3.033713244074636
 10
-5.10394002353175
 20
-3.027197138658839
 10
-5.128077290734474
 20
-3.01295438725276
 10
-5.148494644859033
 20
-2.992568882690006
 10
-5.158260156052701
 20
-2.978122889647148
  0
LWPOLYLINE
  5
146
330
116
100
AcDbEntity
  8
AM_9
100
AcDbPolyline
 90
       12
 70
     0
 43
0.0
 10
-5.158260156052701
 20
-2.978122889647148
 10
-5.163908235838602
 20
-2.96709502146522
 10
-5.172437260151736
 20
-2.940058303553867
 10
-5.174199777603256
 20
-2.913050661341773
 10
-5.16949607813238
 20
-2.888276211981541
 10
-5.159111779423966
 20
-2.867287357636565
 10
-5.14368458767545
 20
-2.85095493437181
 10
-5.123085023084703
 20
-2.840042230547334
 10
-5.100656719052036
 20
-2.836355383723009
 10
-5.07737545833653
 20
-2.83933750408162
 10
-5.052016999190745
 20
-2.850121042816164
 10
-5.036996539479304
 20
-2.860841675946843
  0
ELLIPSE
  5
147
330
116
100
AcDbEntity
  8
AM_9
100
AcDbEllipse
 10
-5.108737700511032
 20
-2.949531086609233
 30
0.0
 11
0.06659694825923347
 21
-0.1153492980140274
 31
0.0
210
0.0
220
0.0
230
1.0
 40
0.906307787036649
 41
0.0
 42
6.283185307179586
  0
LINE
  5
148
330
116
100
AcDbEntity
  8
AM_5
100
AcDbLine
 10
-4.567278789837734
 20
-2.829966103579453
 30
0.0
 11
-4.417087577966817
 21
-2.736879893480119
 31
0.0
  0
LINE
  5
149
330
116
100
AcDbEntity
  8
AM_5
100
AcDbLine
 10
-4.591606881058159
 20
-2.8721035936244
 30
0.0
 11
-4.567278789837734
 21
-2.829966103579453
 31
0.0
  0
LINE
  5
14A
330
116
100
AcDbEntity
  8
AM_5
100
AcDbLine
 10
-4.555773175412619
 20
-2.849894412336047
 30
0.0
 11
-4.745967546892651
 21
-2.520468097619004
 31
0.0
  0
LINE
  5
14B
330
116
100
AcDbEntity
  8
AM_5
100
AcDbLine
 10
-4.734461932467537
 20
-2.540396406375599
 30
0.0
 11
-4.57875130384404
 21
-2.45687010651988
 31
0.0
  0
LINE
  5
14C
330
116
100
AcDbEntity
  8
AM_5
100
AcDbLine
 10
-4.783118114908388
 20
-2.540396406375598
 30
0.0
 11
-4.734461932467537
 21
-2.540396406375598
 31
0.0
  0
ELLIPSE
  5
14D
330
116
100
AcDbEntity
  8
AM_9
100
AcDbEllipse
 10
-5.039436889708514
 20
-2.90952024483734
 30
0.0
 11
-0.05500000000000059
 21
0.09526279441628827
 31
0.0
210
0.0
220
0.0
230
1.0
 40
0.9063077870366504
 41
0.0
 42
6.283185307179586
  0
LINE
  5
14E
330
116
100
AcDbEntity
  8
AM_7
100
AcDbLine
 10
-5.178820754213216
 20
-2.868749999999999
 30
0.0
 11
-4.758820754213216
 21
-2.868749999999999
 31
0.0
  0
LINE
  5
14F
330
116
100
AcDbEntity
  8
AM_7
100
AcDbLine
 10
-4.968820754213216
 20
-3.078749999999999
 30
0.0
 11
-4.968820754213216
 21
-2.65875
 31
0.0
  0
LINE
  5
150
330
116
100
AcDbEntity
  8
AM_4
100
AcDbLine
 10
-4.732248273032377
 20
-2.984755557077846
 30
0.0
 11
-4.707475129958531
 21
-3.009528700151692
 31
0.0
  0
LINE
  5
151
330
116
100
AcDbEntity
  8
AM_4
100
AcDbLine
 10
-4.732248273032377
 20
-2.984755557077846
 30
0.0
 11
-4.950998273032378
 21
-2.605869442922153
 31
0.0
  0
LINE
  5
152
330
116
100
AcDbEntity
  8
AM_4
100
AcDbLine
 10
-4.960065872728992
 20
-2.572028700151692
 30
0.0
 11
-4.950998273032378
 21
-2.605869442922153
 31
0.0
  0
LINE
  5
153
330
116
100
AcDbEntity
  8
AM_4
100
AcDbLine
 10
-4.645645732653934
 20
-2.934755557077845
 30
0.0
 11
-4.864395732653934
 21
-2.555869442922154
 31
0.0
  0
LINE
  5
154
330
116
100
AcDbEntity
  8
AM_4
100
AcDbLine
 10
-4.864395732653934
 20
-2.555869442922154
 30
0.0
 11
-4.889168875727781
 21
-2.531096299848307
 31
0.0
  0
LINE
  5
155
330
116
100
AcDbEntity
  8
AM_4
100
AcDbLine
 10
-4.636578132957319
 20
-2.968596299848307
 30
0.0
 11
-4.645645732653934
 21
-2.934755557077845
 31
0.0
  0
ARC
  5
156
330
116
100
AcDbEntity
  8
AM_4
100
AcDbCircle
 10
-4.968820754213218
 20
-2.868749999999997
 30
0.0
 40
0.2000000000000027
100
AcDbArc
 50
253.9841288455224
 51
300.0
  0
ARC
  5
157
330
116
100
AcDbEntity
  8
AM_4
100
AcDbCircle
 10
-4.96882075421321
 20
-2.868750000000005
 30
0.0
 40
0.2000000000000079
100
AcDbArc
 50
120.0000000000009
 51
166.3822630091885
  0
LINE
  5
158
330
116
100
AcDbEntity
  8
AM_4
100
AcDbLine
 10
-4.787362497983274
 20
-2.533044919243112
 30
0.0
 11
-4.855020732653934
 21
-2.572107419243112
 31
0.0
  0
LINE
  5
159
330
116
100
AcDbEntity
  8
AM_4
100
AcDbLine
 10
-4.655020732653933
 20
-2.918517580756887
 30
0.0
 11
-4.587362497983274
 21
-2.879455080756887
 31
0.0
  0
LINE
  5
15A
330
116
100
AcDbEntity
  8
AM_4
100
AcDbLine
 10
-5.024548831034922
 20
-2.772226139536705
 30
0.0
 11
-5.068820754213217
 21
-2.695544919243111
 31
0.0
  0
LINE
  5
15B
330
116
100
AcDbEntity
  8
AM_4
100
AcDbLine
 10
-4.941623273032378
 20
-2.622107419243112
 30
0.0
 11
-5.068820754213217
 21
-2.695544919243111
 31
0.0
  0
LINE
  5
15C
330
116
100
AcDbEntity
  8
AM_4
100
AcDbLine
 10
-4.868820754213217
 20
-3.041955080756887
 30
0.0
 11
-4.741623273032378
 21
-2.968517580756887
 31
0.0
  0
LINE
  5
15D
330
116
100
AcDbEntity
  8
AM_4
100
AcDbLine
 10
-4.868820754213217
 20
-3.041955080756887
 30
0.0
 11
-4.909831875293811
 21
-2.970921735369939
 31
0.0
  0
LWPOLYLINE
  5
15E
330
116
100
AcDbEntity
  8
AM_4
100
AcDbPolyline
 90
        4
 70
     0
 43
0.0
 10
-4.826021190035165
 20
-2.640471299848307
 10
-4.808168457224311
 20
-2.664222765773117
 10
-4.780526756757745
 20
-2.703986426839267
 10
-4.755020732653933
 20
-2.7453125
  0
LWPOLYLINE
  5
15F
330
116
100
AcDbEntity
  8
AM_4
100
AcDbPolyline
 90
        4
 70
     0
 43
0.0
 10
-4.770622815651146
 20
-2.900153700151693
 10
-4.807816425742217
 20
-2.84903862725104
 10
-4.825211028364754
 20
-2.822510218002121
 10
-4.841623273032377
 20
-2.7953125
  0
LWPOLYLINE
  5
160
330
116
100
AcDbEntity
  8
AM_4
100
AcDbPolyline
 90
        4
 70
     0
 43
0.0
 10
-4.841623273032377
 20
-2.7953125
 10
-4.86459553746788
 20
-2.752688249398529
 10
-4.885275180573798
 20
-2.708740353255273
 10
-4.896918187036376
 20
-2.681403700151693
  0
LINE
  5
161
330
116
100
AcDbEntity
  8
AM_4
100
AcDbLine
 10
-4.770622815651146
 20
-2.900153700151693
 30
0.0
 11
-4.699725818649934
 21
-2.859221299848307
 31
0.0
  0
LWPOLYLINE
  5
162
330
116
100
AcDbEntity
  8
AM_4
100
AcDbPolyline
 90
        4
 70
     0
 43
0.0
 10
-4.746901744493455
 20
-2.959375
 10
-4.754269169246954
 20
-2.945399417998
 10
-4.760615937355839
 20
-2.930834559607483
 10
-4.770622815651146
 20
-2.900153700151693
  0
LWPOLYLINE
  5
163
330
116
100
AcDbEntity
  8
AM_4
100
AcDbPolyline
 90
        4
 70
     0
 43
0.0
 10
-4.707475129958531
 20
-3.009528700151692
 10
-4.728952800876153
 20
-2.985634432388115
 10
-4.738429509087984
 20
-2.972820218547503
 10
-4.746901744493455
 20
-2.959375
  0
LINE
  5
164
330
116
100
AcDbEntity
  8
AM_4
100
AcDbLine
 10
-4.707475129958531
 20
-3.009528700151692
 30
0.0
 11
-4.636578132957319
 21
-2.968596299848307
 31
0.0
  0
LWPOLYLINE
  5
165
330
116
100
AcDbEntity
  8
AM_4
100
AcDbPolyline
 90
        4
 70
     0
 43
0.0
 10
-4.66029920411501
 20
-2.909374999999999
 10
-4.652931779361512
 20
-2.923350582001999
 10
-4.646585011252626
 20
-2.937915440392517
 10
-4.636578132957319
 20
-2.968596299848307
  0
LINE
  5
166
330
116
100
AcDbEntity
  8
AM_4
100
AcDbLine
 10
-4.960065872728992
 20
-2.572028700151692
 30
0.0
 11
-4.889168875727781
 21
-2.531096299848307
 31
0.0
  0
LWPOLYLINE
  5
167
330
116
100
AcDbEntity
  8
AM_4
100
AcDbPolyline
 90
        4
 70
     0
 43
0.0
 10
-4.936344801571301
 20
-2.63125
 10
-4.943712226324799
 20
-2.617274417998
 10
-4.950058994433685
 20
-2.602709559607483
 10
-4.960065872728992
 20
-2.572028700151692
  0
LWPOLYLINE
  5
168
330
116
100
AcDbEntity
  8
AM_4
100
AcDbPolyline
 90
        4
 70
     0
 43
0.0
 10
-4.896918187036376
 20
-2.681403700151693
 10
-4.918395857953999
 20
-2.657509432388115
 10
-4.92787256616583
 20
-2.644695218547503
 10
-4.936344801571301
 20
-2.63125
  0
LINE
  5
169
330
116
100
AcDbEntity
  8
AM_4
100
AcDbLine
 10
-4.896918187036376
 20
-2.681403700151693
 30
0.0
 11
-4.826021190035165
 21
-2.640471299848307
 31
0.0
  0
LWPOLYLINE
  5
16A
330
116
100
AcDbEntity
  8
AM_4
100
AcDbPolyline
 90
        4
 70
     0
 43
0.0
 10
-4.849742261192857
 20
-2.58125
 10
-4.842374836439357
 20
-2.595225582001999
 10
-4.836028068330472
 20
-2.609790440392517
 10
-4.826021190035165
 20
-2.640471299848307
  0
LWPOLYLINE
  5
16B
330
116
100
AcDbEntity
  8
AM_4
100
AcDbPolyline
 90
        4
 70
     0
 43
0.0
 10
-4.889168875727781
 20
-2.531096299848307
 10
-4.867691204810158
 20
-2.554990567611885
 10
-4.858214496598327
 20
-2.567804781452496
 10
-4.849742261192857
 20
-2.58125
  0
LWPOLYLINE
  5
16C
330
116
100
AcDbEntity
  8
AM_4
100
AcDbPolyline
 90
        4
 70
     0
 43
0.0
 10
-4.755020732653933
 20
-2.7453125
 10
-4.739759847188857
 20
-2.772959957001999
 10
-4.725519618368396
 20
-2.801196690392517
 10
-4.699725818649934
 20
-2.859221299848307
  0
LWPOLYLINE
  5
16D
330
116
100
AcDbEntity
  8
AM_4
100
AcDbPolyline
 90
        4
 70
     0
 43
0.0
 10
-4.699725818649934
 20
-2.859221299848307
 10
-4.678248147732313
 20
-2.883115567611884
 10
-4.668771439520481
 20
-2.895929781452496
 10
-4.66029920411501
 20
-2.909374999999999
  0
LINE
  5
16E
330
116
100
AcDbEntity
  8
AM_4
100
AcDbLine
 10
-4.974742795978406
 20
-3.059669092407283
 30
0.0
 11
-5.023321570257265
 21
-3.059026223610543
 31
0.0
  0
LINE
  5
16F
330
116
100
AcDbEntity
  8
AM_4
100
AcDbLine
 10
-5.161028947406212
 20
-2.821130554956154
 30
0.0
 11
-5.137122559187988
 21
-2.778419092407284
 31
0.0
  0
LWPOLYLINE
  5
170
330
116
100
AcDbEntity
  8
AM_4
100
AcDbPolyline
 90
        3
 70
     0
 43
0.0
 10
-4.974258933630583
 20
-2.778139734350517
 10
-5.002321233599427
 20
-2.775488843014547
 10
-5.032109338437413
 20
-2.773437592413266
  0
LINE
  5
171
330
116
100
AcDbEntity
  8
AM_4
100
AcDbLine
 10
-5.032109338437413
 20
-2.773437592413266
 30
0.0
 11
-5.058118147463398
 21
-2.772302666893888
 31
0.0
  0
LWPOLYLINE
  5
172
330
116
100
AcDbEntity
  8
AM_4
100
AcDbPolyline
 90
        4
 70
     0
 43
0.0
 10
-5.058118147463398
 20
-2.772302666893888
 10
-5.081108182155637
 20
-2.771760369847583
 10
-5.103114052016323
 20
-2.771580911862199
 10
-5.125435312968443
 20
-2.771671457656343
  0
LINE
  5
173
330
116
100
AcDbEntity
  8
AM_4
100
AcDbLine
 10
-5.125435312968443
 20
-2.771671457656343
 30
0.0
 11
-5.137122559187988
 21
-2.778419092407284
 31
0.0
  0
LWPOLYLINE
  5
174
330
116
100
AcDbEntity
  8
AM_4
100
AcDbPolyline
 90
        3
 70
     0
 43
0.0
 10
-5.137122559187988
 20
-2.778419092407284
 10
-5.107442737954186
 20
-2.780898491521736
 10
-5.07641805500193
 20
-2.782868123437405
  0
LWPOLYLINE
  5
175
330
116
100
AcDbEntity
  8
AM_4
100
AcDbPolyline
 90
        3
 70
     0
 43
0.0
 10
-4.96305554975886
 20
-3.052921457656343
 10
-4.946081867425337
 20
-3.023589189975665
 10
-4.929943610241154
 20
-2.99430747759944
  0
LINE
  5
176
330
116
100
AcDbEntity
  8
AM_4
100
AcDbLine
 10
-4.929943610241154
 20
-2.99430747759944
 30
0.0
 11
-4.917922080059347
 21
-2.971215725501071
 31
0.0
  0
LWPOLYLINE
  5
177
330
116
100
AcDbEntity
  8
AM_4
100
AcDbPolyline
 90
        4
 70
     0
 43
0.0
 10
-4.917922080059347
 20
-2.971215725501071
 10
-4.908757093482789
 20
-2.952671611213501
 10
-4.900665822703803
 20
-2.935534690571682
 10
-4.893069052025792
 20
-2.918764734350518
  0
LWPOLYLINE
  5
178
330
116
100
AcDbEntity
  8
AM_4
100
AcDbPolyline
 90
        3
 70
     0
 43
0.0
 10
-4.948243517779687
 20
-3.004872934142957
 10
-4.961978695544261
 20
-3.032577936735335
 10
-4.974742795978406
 20
-3.059669092407283
  0
LINE
  5
179
330
116
100
AcDbEntity
  8
AM_4
100
AcDbLine
 10
-4.96305554975886
 20
-3.052921457656343
 30
0.0
 11
-4.974742795978406
 21
-3.059669092407283
 31
0.0
  0
LWPOLYLINE
  5
17A
330
116
100
AcDbEntity
  8
AM_4
100
AcDbPolyline
 90
        3
 70
     0
 43
0.0
 10
-5.050409245975947
 20
-2.784003048956784
 10
-5.018758695121923
 20
-2.78480559349426
 10
-4.986314582941562
 20
-2.785100066725466
  0
LWPOLYLINE
  5
17B
330
116
100
AcDbEntity
  8
AM_4
100
AcDbPolyline
 90
        3
 70
     0
 43
0.0
 10
-4.90512470133677
 20
-2.925725066725466
 10
-4.921011985899867
 20
-2.953826183495197
 10
-4.936221987597881
 20
-2.981781182044589
  0
LWPOLYLINE
  5
17C
330
116
100
AcDbEntity
  8
AM_4
100
AcDbPolyline
 90
        3
 70
     0
 43
0.0
 10
-4.893069052025792
 20
-2.918764734350518
 10
-4.906064939875403
 20
-2.891140958955647
 10
-4.920278839989644
 20
-2.863537038418516
  0
LINE
  5
17D
330
116
100
AcDbEntity
  8
AM_4
100
AcDbLine
 10
-4.920278839989644
 20
-2.863537038418516
 30
0.0
 11
-4.940035239942912
 21
-2.829317949924796
 31
0.0
  0
LWPOLYLINE
  5
17E
330
116
100
AcDbEntity
  8
AM_4
100
AcDbPolyline
 90
        4
 70
     0
 43
0.0
 10
-4.940035239942912
 20
-2.829317949924796
 10
-4.949283875356805
 20
-2.8146612730526
 10
-4.96158139280644
 20
-2.79620477011276
 10
-4.974258933630583
 20
-2.778139734350517
  0
LINE
  5
17F
330
116
100
AcDbEntity
  8
AM_4
100
AcDbLine
 10
-4.974258933630583
 20
-2.778139734350517
 30
0.0
 11
-4.986314582941562
 21
-2.785100066725466
 31
0.0
  0
LWPOLYLINE
  5
180
330
116
100
AcDbEntity
  8
AM_4
100
AcDbPolyline
 90
        3
 70
     0
 43
0.0
 10
-4.986314582941562
 20
-2.785100066725466
 10
-4.972781317441171
 20
-2.812544122408011
 10
-4.958335147481447
 20
-2.839883406468319
  0
LWPOLYLINE
  5
181
330
116
100
AcDbEntity
  8
AM_4
100
AcDbPolyline
 90
        3
 70
     0
 43
0.0
 10
-4.938578747528177
 20
-2.874102494962034
 10
-4.922196792909199
 20
-2.900172855181632
 10
-4.90512470133677
 20
-2.925725066725466
  0
LINE
  5
182
330
116
100
AcDbEntity
  8
AM_4
100
AcDbLine
 10
-4.893069052025792
 20
-2.918764734350518
 30
0.0
 11
-4.90512470133677
 21
-2.925725066725466
 31
0.0
  0
LINE
  5
183
330
116
100
AcDbEntity
  8
AM_4
100
AcDbLine
 10
-5.07641805500193
 20
-2.782868123437405
 30
0.0
 11
-5.050409245975947
 21
-2.784003048956784
 31
0.0
  0
ELLIPSE
  5
184
330
116
100
AcDbEntity
  8
AM_4
100
AcDbEllipse
 10
-5.057736797247049
 20
-2.920085701380856
 30
0.0
 11
-0.07031250000000444
 21
0.1217848224071867
 31
0.0
210
0.0
220
0.0
230
1.0
 40
0.906307787036651
 41
2.920435329561154
 42
3.56556159428421
  0
ELLIPSE
  5
185
330
116
100
AcDbEntity
  8
AM_4
100
AcDbEllipse
 10
-5.057736797247046
 20
-2.920085701380852
 30
0.0
 11
-0.07031250000001246
 21
0.1217848224071742
 31
0.0
210
0.0
220
0.0
230
1.0
 40
0.9063077870366489
 41
5.859216366485025
 42
6.504277598796818
  0
LINE
  5
186
330
116
100
AcDbEntity
  8
AM_4
100
AcDbLine
 10
-4.936221987597881
 20
-2.981781182044589
 30
0.0
 11
-4.948243517779687
 21
-3.004872934142957
 31
0.0
  0
ELLIPSE
  5
187
330
116
100
AcDbEntity
  8
AM_4
100
AcDbEllipse
 10
-5.057736797247053
 20
-2.920085701380857
 30
0.0
 11
-0.07031249999999999
 21
0.1217848224071933
 31
0.0
210
0.0
220
0.0
230
1.0
 40
0.9063077870366435
 41
3.764821264091983
 42
4.571432719802708
  0
LWPOLYLINE
  5
188
330
116
100
AcDbEntity
  8
AM_4
100
AcDbPolyline
 90
        3
 70
     0
 43
0.0
 10
-4.958335147481447
 20
-2.839883406468319
 10
-4.948884948595138
 20
-2.857119806845231
 10
-4.938578747528177
 20
-2.874102494962034
  0
ELLIPSE
  5
189
330
116
100
AcDbEntity
  8
AM_4
100
AcDbEllipse
 10
-5.057736797247046
 20
-2.920085701380857
 30
0.0
 11
-0.07031249999999735
 21
0.1217848224071858
 31
0.0
210
0.0
220
0.0
230
1.0
 40
0.9063077870366566
 41
4.853345240966682
 42
5.659956696677466
  0
LWPOLYLINE
  5
18A
330
116
100
AcDbEntity
  8
AM_4
100
AcDbPolyline
 90
        4
 70
     0
 43
0.0
 10
-5.234306958520373
 20
-2.881773316449361
 10
-5.241041677435595
 20
-2.897383851970207
 10
-5.248296507192312
 20
-2.930099143628641
 10
-5.248565569215229
 20
-2.933251113085963
  0
LWPOLYLINE
  5
18B
330
116
100
AcDbEntity
  8
AM_4
100
AcDbPolyline
 90
       23
 70
     0
 43
0.0
 10
-5.228628375348548
 20
-3.018749999999999
 10
-5.217658807859075
 20
-3.035201381660066
 10
-5.193281302732771
 20
-3.060415166254161
 10
-5.163930088436594
 20
-3.07906420681716
 10
-5.131470249684973
 20
-3.089852390030436
 10
-5.097999037534414
 20
-3.092048562690051
 10
-5.065716492289821
 20
-3.08554637832075
 10
-5.036692576515122
 20
-3.070875563186466
 10
-5.012671276774476
 20
-3.049077395403614
 10
-4.995020590248021
 20
-3.021565112752118
 10
-4.984700928322828
 20
-2.989968043505844
 10
-4.982309327087632
 20
-2.956105103507879
 10
-4.988040702090624
 20
-2.921971909981871
 10
-5.001622608187869
 20
-2.889647986441049
 10
-5.022297227049038
 20
-2.861153188212374
 10
-5.048848867567432
 20
-2.838312293892236
 10
-5.079657362022967
 20
-2.822629025920518
 10
-5.112775116019057
 20
-2.815162706975479
 10
-5.146039874205046
 20
-2.816408414368962
 10
-5.17727389863531
 20
-2.826215946227332
 10
-5.204518372836782
 20
-2.843833947159388
 10
-5.226177646857693
 20
-2.868062077334133
 10
-5.234306958520373
 20
-2.881773316449361
  0
ELLIPSE
  5
18C
330
116
100
AcDbEntity
  8
AM_4
100
AcDbEllipse
 10
-5.119412681988366
 20
-2.95569429003877
 30
0.0
 11
-0.06957427803572623
 21
0.1205061844578035
 31
0.0
210
0.0
220
0.0
230
1.0
 40
0.906307787036645
 41
0.9256626472396059
 42
1.570796326794897
  0
ELLIPSE
  5
18D
330
116
100
AcDbEntity
  8
AM_4
100
AcDbEllipse
 10
-5.119412681988379
 20
-2.955694290038771
 30
0.0
 11
-0.0695742780357342
 21
0.1205061844577764
 31
0.0
210
0.0
220
0.0
230
1.0
 40
0.9063077870366782
 41
1.570796326794897
 42
7.208847954419005
  0
ELLIPSE
  5
18E
330
116
100
AcDbEntity
  8
AM_4
100
AcDbEllipse
 10
-5.147406344185861
 20
-2.971856438444093
 30
0.0
 11
0.05174132036229469
 21
-0.08961859571819322
 31
0.0
210
0.0
220
0.0
230
1.0
 40
0.9063077870366519
 41
0.0
 42
6.283185307179586
  0
ENDBLK
  5
119
330
116
100
AcDbEntity
  8
0
100
AcDbBlockEnd
  0
BLOCK
  5
191
330
18F
100
AcDbEntity
  8
0
100
AcDbBlockBegin
  2
6_070774H_0_in_070774_0
 70
     2
 10
0.0
 20
0.0
 30
0.0
  3
6_070774H_0_in_070774_0
  1

  0
ATTDEF
  5
193
330
18F
100
AcDbEntity
  8
AM_6
100
AcDbText
 10
15.44375
 20
5.625
 30
0.0
 40
0.5
  1
WSTU-S2 -(Contact Seal)-Housing
100
AcDbAttributeDefinition
  3

  2
NN
 70
     8
280
     0
  0
ATTDEF
  5
194
330
18F
100
AcDbEntity
  8
AM_6
100
AcDbText
 10
15.44375
 20
5.125
 30
0.0
 40
0.5
  1
S-2000 Wide Slot Take-Up Bearing -Inch
100
AcDbAttributeDefinition
  3

  2
NT
 70
     8
280
     0
  0
ATTDEF
  5
195
330
18F
100
AcDbEntity
  8
AM_6
100
AcDbText
 10
15.44375
 20
4.625
 30
0.0
 40
0.5
  1
070774H
100
AcDbAttributeDefinition
  3

  2
NB
 70
     8
280
     0
  0
ATTDEF
  5
196
330
18F
100
AcDbEntity
  8
AM_6
100
AcDbText
 10
15.44375
 20
4.125
 30
0.0
 40
0.5
  1
$PN.H
100
AcDbAttributeDefinition
  3

  2
NBSYN
 70
     8
280
     0
  0
ATTDEF
  5
197
330
18F
100
AcDbEntity
  8
AM_6
100
AcDbText
 10
15.44375
 20
3.625
 30
0.0
 40
0.5
  1
070774
100
AcDbAttributeDefinition
  3

  2
LINA
 70
     8
280
     0
  0
ATTDEF
  5
198
330
18F
100
AcDbEntity
  8
AM_6
100
AcDbText
 10
15.44375
 20
3.125
 30
0.0
 40
0.5
  1
4-15/16
100
AcDbAttributeDefinition
  3

  2
SS
 70
     8
280
     0
  0
ATTDEF
  5
199
330
18F
100
AcDbEntity
  8
AM_6
100
AcDbText
 10
15.44375
 20
2.625
 30
0.0
 40
0.5
  1
070774
100
AcDbAttributeDefinition
  3

  2
PN
 70
     8
280
     0
  0
ATTDEF
  5
19A
330
18F
100
AcDbEntity
  8
AM_6
100
AcDbText
 10
15.44375
 20
2.125
 30
0.0
 40
0.5
  1
WSTU-S2-415R
100
AcDbAttributeDefinition
  3

  2
DESCRIPTION
 70
     8
280
     0
  0
ATTDEF
  5
19B
330
18F
100
AcDbEntity
  8
AM_6
100
AcDbText
 10
15.44375
 20
1.625
 30
0.0
 40
0.5
  1
Non-Expansion Type
100
AcDbAttributeDefinition
  3

  2
EF
 70
     8
280
     0
  0
ATTDEF
  5
19C
330
18F
100
AcDbEntity
  8
AM_6
100
AcDbText
 10
15.44375
 20
1.125
 30
0.0
 40
0.5
  1
6-29/32
100
AcDbAttributeDefinition
  3

  2
A
 70
     8
280
     0
  0
ATTDEF
  5
19D
330
18F
100
AcDbEntity
  8
AM_6
100
AcDbText
 10
15.44375
 20
0.625
 30
0.0
 40
0.5
  1
15-5/8
100
AcDbAttributeDefinition
  3

  2
B
 70
     8
280
     0
  0
ATTDEF
  5
19E
330
18F
100
AcDbEntity
  8
AM_6
100
AcDbText
 10
15.44375
 20
0.125
 30
0.0
 40
0.5
  1
2-1/16
100
AcDbAttributeDefinition
  3

  2
C
 70
     8
280
     0
  0
ATTDEF
  5
19F
330
18F
100
AcDbEntity
  8
AM_6
100
AcDbText
 10
15.44375
 20
-0.375
 30
0.0
 40
0.5
  1
10-5/16
100
AcDbAttributeDefinition
  3

  2
E
 70
     8
280
     0
  0
ATTDEF
  5
1A0
330
18F
100
AcDbEntity
  8
AM_6
100
AcDbText
 10
15.44375
 20
-0.875
 30
0.0
 40
0.5
  1
2-3/8
100
AcDbAttributeDefinition
  3

  2
F
 70
     8
280
     0
  0
ATTDEF
  5
1A1
330
18F
100
AcDbEntity
  8
AM_6
100
AcDbText
 10
15.44375
 20
-1.375
 30
0.0
 40
0.5
  1
2-1/2
100
AcDbAttributeDefinition
  3

  2
G
 70
     8
280
     0
  0
ATTDEF
  5
1A2
330
18F
100
AcDbEntity
  8
AM_6
100
AcDbText
 10
15.44375
 20
-1.875
 30
0.0
 40
0.5
  1
2-1/2
100
AcDbAttributeDefinition
  3

  2
H
 70
     8
280
     0
  0
ATTDEF
  5
1A3
330
18F
100
AcDbEntity
  8
AM_6
100
AcDbText
 10
15.44375
 20
-2.375
 30
0.0
 40
0.5
  1
7
100
AcDbAttributeDefinition
  3

  2
J
 70
     8
280
     0
  0
ATTDEF
  5
1A4
330
18F
100
AcDbEntity
  8
AM_6
100
AcDbText
 10
15.44375
 20
-2.875
 30
0.0
 40
0.5
  1
3-3/4
100
AcDbAttributeDefinition
  3

  2
K
 70
     8
280
     0
  0
ATTDEF
  5
1A5
330
18F
100
AcDbEntity
  8
AM_6
100
AcDbText
 10
15.44375
 20
-3.375
 30
0.0
 40
0.5
  1
3.750000
100
AcDbAttributeDefinition
  3

  2
K1
 70
     8
280
     0
  0
ATTDEF
  5
1A6
330
18F
100
AcDbEntity
  8
AM_6
100
AcDbText
 10
15.44375
 20
-3.875
 30
0.0
 40
0.5
  1
7-29/64
100
AcDbAttributeDefinition
  3

  2
L
 70
     8
280
     0
  0
ATTDEF
  5
1A7
330
18F
100
AcDbEntity
  8
AM_6
100
AcDbText
 10
15.44375
 20
-4.375
 30
0.0
 40
0.5
  1
10-1/4
100
AcDbAttributeDefinition
  3

  2
M
 70
     8
280
     0
  0
ATTDEF
  5
1A8
330
18F
100
AcDbEntity
  8
AM_6
100
AcDbText
 10
15.44375
 20
-4.875
 30
0.0
 40
0.5
  1
11-1/4
100
AcDbAttributeDefinition
  3

  2
N
 70
     8
280
     0
  0
ATTDEF
  5
1A9
330
18F
100
AcDbEntity
  8
AM_6
100
AcDbText
 10
15.44375
 20
-5.375
 30
0.0
 40
0.5
  1
5-47/64
100
AcDbAttributeDefinition
  3

  2
R
 70
     8
280
     0
  0
ATTDEF
  5
1AA
330
18F
100
AcDbEntity
  8
AM_6
100
AcDbText
 10
15.44375
 20
-5.875
 30
0.0
 40
0.5
  1
3-41/64
100
AcDbAttributeDefinition
  3

  2
S
 70
     8
280
     0
  0
ATTDEF
  5
1AB
330
18F
100
AcDbEntity
  8
AM_6
100
AcDbText
 10
15.44375
 20
-6.375
 30
0.0
 40
0.5
  1
4-3/16
100
AcDbAttributeDefinition
  3

  2
T
 70
     8
280
     0
  0
ATTDEF
  5
1AC
330
18F
100
AcDbEntity
  8
AM_6
100
AcDbText
 10
15.44375
 20
-6.875
 30
0.0
 40
0.5
  1
4.187500
100
AcDbAttributeDefinition
  3

  2
T1
 70
     8
280
     0
  0
ATTDEF
  5
1AD
330
18F
100
AcDbEntity
  8
AM_6
100
AcDbText
 10
15.44375
 20
-7.375
 30
0.0
 40
0.5
  1
3/8
100
AcDbAttributeDefinition
  3

  2
X
 70
     8
280
     0
  0
ATTDEF
  5
1AE
330
18F
100
AcDbEntity
  8
AM_6
100
AcDbText
 10
15.44375
 20
-7.875
 30
0.0
 40
0.5
  1
0.036
100
AcDbAttributeDefinition
  3

  2
Y
 70
     8
280
     0
  0
ATTDEF
  5
1AF
330
18F
100
AcDbEntity
  8
AM_6
100
AcDbText
 10
15.44375
 20
-8.375
 30
0.0
 40
0.5
  1
5-27/32
100
AcDbAttributeDefinition
  3

  2
Z
 70
     8
280
     0
  0
ATTDEF
  5
1B0
330
18F
100
AcDbEntity
  8
AM_6
100
AcDbText
 10
15.44375
 20
-8.875
 30
0.0
 40
0.5
  1
baldor
100
AcDbAttributeDefinition
  3

  2
COMPANY
 70
     8
280
     0
  0
LINE
  5
1B1
330
18F
100
AcDbEntity
  8
AM_9
100
AcDbLine
 10
4.5
 20
-5.125
 30
0.0
 11
-4.5
 21
-5.125
 31
0.0
  0
LINE
  5
1B2
330
18F
100
AcDbEntity
  8
AM_9
100
AcDbLine
 10
4.5
 20
5.125
 30
0.0
 11
-4.5
 21
5.125
 31
0.0
  0
LINE
  5
1B3
330
18F
100
AcDbEntity
  8
AM_9
100
AcDbLine
 10
7.8125
 20
-1.1875
 30
0.0
 11
10.3125
 21
-1.1875
 31
0.0
  0
LINE
  5
1B4
330
18F
100
AcDbEntity
  8
AM_9
100
AcDbLine
 10
10.3125
 20
1.1875
 30
0.0
 11
7.8125
 21
1.1875
 31
0.0
  0
LINE
  5
1B5
330
18F
100
AcDbEntity
  8
AM_7
100
AcDbLine
 10
-4.928732137494046
 20
0.0
 30
0.0
 11
4.928732137494046
 21
0.0
 31
0.0
  0
LINE
  5
1B6
330
18F
100
AcDbEntity
  8
AM_7
100
AcDbLine
 10
0.0
 20
-4.928732137494046
 30
0.0
 11
0.0
 21
4.928732137494046
 31
0.0
  0
LINE
  5
1B7
330
18F
100
AcDbEntity
  8
AM_7
100
AcDbLine
 10
10.44375
 20
0.0
 30
0.0
 11
7.55625
 21
0.0
 31
0.0
  0
LINE
  5
1B8
330
18F
100
AcDbEntity
  8
AM_7
100
AcDbLine
 10
-5.174231154673339
 20
-2.987343749999999
 30
0.0
 11
-2.414045813049123
 21
-1.39375
 31
0.0
  0
LINE
  5
1B9
330
18F
100
AcDbEntity
  8
AM_4
100
AcDbLine
 10
-4.830457912083225
 20
-2.211515906660781
 30
0.0
 11
-4.85075995760483
 21
-2.223237298107779
 31
0.0
  0
LINE
  5
1BA
330
18F
100
AcDbEntity
  8
AM_4
100
AcDbLine
 10
-4.85075995760483
 20
-2.223237298107779
 30
0.0
 11
-4.5
 21
-2.830771365940051
 31
0.0
  0
LINE
  5
1BB
330
18F
100
AcDbEntity
  8
AM_4
100
AcDbLine
 10
-4.887362497983274
 20
-2.359839838486223
 30
0.0
 11
-4.5
 21
-3.030771365940049
 31
0.0
  0
ARC
  5
1BC
330
18F
100
AcDbEntity
  8
AM_4
100
AcDbCircle
 10
-4.800759957604833
 20
-2.309839838486222
 30
0.0
 40
0.0999999999999978
100
AcDbArc
 50
119.9999999999988
 51
210.0000000000013
  0
ARC
  5
1BD
330
18F
100
AcDbEntity
  8
AM_4
100
AcDbCircle
 10
7.740500000000003
 20
-1.803000000000003
 30
0.0
 40
0.0719999999999965
100
AcDbArc
 50
270.0
 51
0.0
  0
LINE
  5
1BE
330
18F
100
AcDbEntity
  8
AM_4
100
AcDbLine
 10
5.312499999999998
 20
1.802999999999999
 30
0.0
 11
5.3125
 21
-1.803000000000001
 31
0.0
  0
ARC
  5
1BF
330
18F
100
AcDbEntity
  8
AM_4
100
AcDbCircle
 10
10.2405
 20
-3.428000000000001
 30
0.0
 40
0.0719999999999987
100
AcDbArc
 50
270.0
 51
0.0
  0
LINE
  5
1C0
330
18F
100
AcDbEntity
  8
AM_4
100
AcDbLine
 10
4.5
 20
-3.5
 30
0.0
 11
10.2405
 21
-3.5
 31
0.0
  0
LINE
  5
1C1
330
18F
100
AcDbEntity
  8
AM_4
100
AcDbLine
 10
5.384499999999998
 20
-1.875
 30
0.0
 11
7.7405
 21
-1.875
 31
0.0
  0
ARC
  5
1C2
330
18F
100
AcDbEntity
  8
AM_4
100
AcDbCircle
 10
5.384499999999997
 20
-1.803000000000002
 30
0.0
 40
0.0719999999999974
100
AcDbArc
 50
180.0
 51
270.0
  0
LINE
  5
1C3
330
18F
100
AcDbEntity
  8
AM_4
100
AcDbLine
 10
10.3125
 20
-3.428000000000002
 30
0.0
 11
10.3125
 21
3.428
 31
0.0
  0
LINE
  5
1C4
330
18F
100
AcDbEntity
  8
AM_4
100
AcDbLine
 10
7.8125
 20
-1.803000000000001
 30
0.0
 11
7.8125
 21
1.803
 31
0.0
  0
ARC
  5
1C5
330
18F
100
AcDbEntity
  8
AM_4
100
AcDbCircle
 10
10.2405
 20
3.428000000000002
 30
0.0
 40
0.0719999999999974
100
AcDbArc
 50
0.0
 51
90.0
  0
LINE
  5
1C6
330
18F
100
AcDbEntity
  8
AM_4
100
AcDbLine
 10
10.2405
 20
3.499999999999999
 30
0.0
 11
4.5
 21
3.5
 31
0.0
  0
ARC
  5
1C7
330
18F
100
AcDbEntity
  8
AM_4
100
AcDbCircle
 10
5.384500000000001
 20
1.802999999999997
 30
0.0
 40
0.0720000000000027
100
AcDbArc
 50
90.0
 51
179.9999991462263
  0
LINE
  5
1C8
330
18F
100
AcDbEntity
  8
AM_4
100
AcDbLine
 10
7.740500000000001
 20
1.875
 30
0.0
 11
5.384499999999999
 21
1.875
 31
0.0
  0
ARC
  5
1C9
330
18F
100
AcDbEntity
  8
AM_4
100
AcDbCircle
 10
7.740500000000003
 20
1.803000000000002
 30
0.0
 40
0.0719999999999974
100
AcDbArc
 50
0.0
 51
90.0
  0
ARC
  5
1CA
330
18F
100
AcDbEntity
  8
AM_4
100
AcDbCircle
 10
0.0000000000000053
 20
-0.0000000000000004
 30
0.0
 40
5.312499999999995
100
AcDbArc
 50
327.8931973875884
 51
32.10680261241166
  0
LINE
  5
1CB
330
18F
100
AcDbEntity
  8
AM_4
100
AcDbLine
 10
4.428000000000002
 20
5.624999999999999
 30
0.0
 11
-4.428000000000002
 21
5.625
 31
0.0
  0
ARC
  5
1CC
330
18F
100
AcDbEntity
  8
AM_4
100
AcDbCircle
 10
-4.428000000000002
 20
-5.553000000000003
 30
0.0
 40
0.0719999999999983
100
AcDbArc
 50
180.0
 51
270.0
  0
ARC
  5
1CD
330
18F
100
AcDbEntity
  8
AM_4
100
AcDbCircle
 10
4.428000000000002
 20
5.553
 30
0.0
 40
0.0719999999999983
100
AcDbArc
 50
0.0
 51
90.0
  0
LINE
  5
1CE
330
18F
100
AcDbEntity
  8
AM_4
100
AcDbLine
 10
4.5
 20
2.68567314653142
 30
0.0
 11
4.5
 21
5.553000000000002
 31
0.0
  0
ARC
  5
1CF
330
18F
100
AcDbEntity
  8
AM_4
100
AcDbCircle
 10
4.428000000000002
 20
-5.553000000000003
 30
0.0
 40
0.0719999999999974
100
AcDbArc
 50
270.0
 51
0.0
  0
LINE
  5
1D0
330
18F
100
AcDbEntity
  8
AM_4
100
AcDbLine
 10
-4.428000000000001
 20
-5.625000000000001
 30
0.0
 11
4.428
 21
-5.625
 31
0.0
  0
LINE
  5
1D1
330
18F
100
AcDbEntity
  8
AM_4
100
AcDbLine
 10
-4.499999999999999
 20
5.553000001072886
 30
0.0
 11
-4.5
 21
2.68567314653142
 31
0.0
  0
LINE
  5
1D2
330
18F
100
AcDbEntity
  8
AM_4
100
AcDbLine
 10
4.499999999999999
 20
-5.552999998927119
 30
0.0
 11
4.5
 21
-2.68567314653142
 31
0.0
  0
ARC
  5
1D3
330
18F
100
AcDbEntity
  8
AM_4
100
AcDbCircle
 10
0.0000000000000071
 20
0.0
 30
0.0
 40
5.240499999999992
100
AcDbArc
 50
329.1705606802682
 51
30.82943931973177
  0
ARC
  5
1D4
330
18F
100
AcDbEntity
  8
AM_4
100
AcDbCircle
 10
-4.428000000000003
 20
5.553000000000003
 30
0.0
 40
0.0719999999999965
100
AcDbArc
 50
90.0
 51
179.9999987925817
  0
LINE
  5
1D5
330
18F
100
AcDbEntity
  8
AM_4
100
AcDbLine
 10
-4.5
 20
-2.68567314653142
 30
0.0
 11
-4.5
 21
-5.552999998927118
 31
0.0
  0
CIRCLE
  5
1D6
330
18F
100
AcDbEntity
  8
AM_4
100
AcDbCircle
 10
0.0
 20
0.0
 30
0.0
 40
4.52755
  0
CIRCLE
  5
1D7
330
18F
100
AcDbEntity
  8
AM_4
100
AcDbCircle
 10
0.0
 20
0.0
 30
0.0
 40
4.694030607137186
  0
ARC
  5
1D8
330
18F
100
AcDbEntity
  8
AM_4
100
AcDbCircle
 10
-0.0000000000000071
 20
0.0
 30
0.0
 40
5.240499999999992
100
AcDbArc
 50
149.1705606802682
 51
210.8294393197318
  0
ARC
  5
1D9
330
18F
100
AcDbEntity
  8
AM_4
100
AcDbCircle
 10
-0.0000000000000036
 20
-0.0000000000000002
 30
0.0
 40
5.312499999999996
100
AcDbArc
 50
147.8931973875883
 51
212.1068026124117
  0
LWPOLYLINE
  5
1DA
330
18F
100
AcDbEntity
  8
AM_4
100
AcDbPolyline
 90
        8
 70
     0
 43
0.0
 10
7.8125
 20
-1.706570019610653
 10
7.812670955959334
 20
-1.713511168708412
 10
7.823300917407633
 20
-1.759323227422273
 10
7.839183862216938
 20
-1.784122428205578
 10
7.857062422478456
 20
-1.798657173663222
 10
7.862931134737528
 20
-1.801561603304411
 10
7.880671185333934
 20
-1.805935002571648
 10
7.884500000000001
 20
-1.806073950364949
  0
LWPOLYLINE
  5
1DB
330
18F
100
AcDbEntity
  8
AM_4
100
AcDbPolyline
 90
        7
 70
     0
 43
0.0
 10
7.884500000000001
 20
1.806073950364949
 10
7.874317666183541
 20
1.80508688622296
 10
7.857580696848346
 20
1.798945854764399
 10
7.842238400263397
 20
1.787332918462926
 10
7.825148772867323
 20
1.76322980542862
 10
7.813732555666832
 20
1.725108177141708
 10
7.8125
 20
1.706570019610653
  0
LWPOLYLINE
  5
1DC
330
18F
100
AcDbEntity
  8
AM_4
100
AcDbPolyline
 90
        8
 70
     0
 43
0.0
 10
10.2405
 20
-1.806073950364949
 10
10.24851211159143
 20
-1.80546401117692
 10
10.25211945596486
 20
-1.804786570301231
 10
10.27191173400348
 20
-1.796223405558406
 10
10.28779288212205
 20
-1.78184399632679
 10
10.30393732825679
 20
-1.753968451831518
 10
10.31238986264222
 20
-1.712143588426218
 10
10.3125
 20
-1.706570019610657
  0
LWPOLYLINE
  5
1DD
330
18F
100
AcDbEntity
  8
AM_4
100
AcDbPolyline
 90
        7
 70
     0
 43
0.0
 10
10.3125
 20
1.706570019610657
 10
10.31243200934671
 20
1.710950567709173
 10
10.30278132522978
 20
1.756830783533511
 10
10.28710695096946
 20
1.782653650911481
 10
10.26931848790036
 20
1.797856224851685
 10
10.25139917546928
 20
1.804942155421464
 10
10.2405
 20
1.806073950364949
  0
LINE
  5
1DE
330
18F
100
AcDbEntity
  8
AM_4
100
AcDbLine
 10
10.2405
 20
-1.806073950364949
 30
0.0
 11
7.884500000000001
 21
-1.806073950364949
 31
0.0
  0
LINE
  5
1DF
330
18F
100
AcDbEntity
  8
AM_4
100
AcDbLine
 10
10.2405
 20
1.806073950364949
 30
0.0
 11
10.2405
 21
-1.806073950364949
 31
0.0
  0
LINE
  5
1E0
330
18F
100
AcDbEntity
  8
AM_4
100
AcDbLine
 10
7.884500000000001
 20
1.806073950364949
 30
0.0
 11
10.2405
 21
1.806073950364949
 31
0.0
  0
LINE
  5
1E1
330
18F
100
AcDbEntity
  8
AM_4
100
AcDbLine
 10
7.884500000000001
 20
1.806073950364949
 30
0.0
 11
7.884500000000001
 21
-1.806073950364949
 31
0.0
  0
ENDBLK
  5
192
330
18F
100
AcDbEntity
  8
0
100
AcDbBlockEnd
  0
ENDSEC
  0
SECTION
  2
ENTITIES
  0
INSERT
  5
6F
330
1F
100
AcDbEntity
  8
0
100
AcDbBlockReference
  2
1_070774_0
 10
0.0
 20
0.0
 30
0.0
  0
POINT
  5
1E3
330
1F
100
AcDbEntity
  8
ConnectionPoints
100
AcDbPoint
 10
0.0000000000000001
 20
0.0
 30
-3.265625
  0
POINT
  5
1E4
330
1F
100
AcDbEntity
  8
ConnectionPoints
100
AcDbPoint
 10
0.0
 20
0.0
 30
3.640625
  0
POINT
  5
1E5
330
1F
100
AcDbEntity
  8
ConnectionPoints
100
AcDbPoint
 10
0.0
 20
0.0
 30
-3.265625
  0
POINT
  5
1E6
330
1F
100
AcDbEntity
  8
ConnectionPoints
100
AcDbPoint
 10
0.0
 20
0.0
 30
3.640625
  0
POINT
  5
1E7
330
1F
100
AcDbEntity
  8
ConnectionPoints
100
AcDbPoint
 10
-4.687362497983274
 20
-2.706249999999999
 30
0.0
  0
POINT
  5
1E8
330
1F
100
AcDbEntity
  8
ConnectionPoints
100
AcDbPoint
 10
-4.687362497983274
 20
-2.706249999999999
 30
0.0
  0
POINT
  5
1E9
330
1F
100
AcDbEntity
  8
ConnectionPoints
100
AcDbPoint
 10
0.0
 20
0.0
 30
3.265625
  0
POINT
  5
1EA
330
1F
100
AcDbEntity
  8
ConnectionPoints
100
AcDbPoint
 10
0.0
 20
0.0
 30
3.640625
  0
ENDSEC
  0
SECTION
  2
OBJECTS
  0
DICTIONARY
  5
C
330
0
100
AcDbDictionary
281
     1
  3
ACAD_DETAILVIEWSTYLE
350
1F2
  3
ACAD_GROUP
350
D
  3
ACAD_LAYOUT
350
1A
  3
ACAD_MATERIAL
350
43
  3
ACAD_MLEADERSTYLE
350
6B
  3
ACAD_MLINESTYLE
350
17
  3
ACAD_PLOTSETTINGS
350
19
  3
ACAD_PLOTSTYLENAME
350
E
  3
ACAD_SCALELIST
350
47
  3
ACAD_SECTIONVIEWSTYLE
350
1F3
  3
ACAD_TABLESTYLE
350
69
  3
ACAD_VISUALSTYLE
350
2A
  3
ACDB_RECOMPOSE_DATA
350
1EF
  3
AcDbVariableDictionary
350
1EB
  0
SUN
  5
6D
330
29
100
AcDbSun
 90
        1
290
     0
 63
     7
421
 16777215
 40
1.0
291
     1
 91
  2455826
 92
 54000000
292
     0
 70
     2
 71
   256
280
     1
  0
DICTIONARY
  5
1F2
102
{ACAD_REACTORS
330
C
102
}
330
C
100
AcDbDictionary
281
     1
  0
DICTIONARY
  5
D
102
{ACAD_REACTORS
330
C
102
}
330
C
100
AcDbDictionary
281
     1
  0
DICTIONARY
  5
1A
102
{ACAD_REACTORS
330
C
102
}
330
C
100
AcDbDictionary
281
     1
  3
Layout1
350
1E
  3
Layout2
350
26
  3
Model
350
22
  0
DICTIONARY
  5
43
102
{ACAD_REACTORS
330
C
102
}
330
C
100
AcDbDictionary
281
     1
  3
ByBlock
350
45
  3
ByLayer
350
44
  3
Global
350
46
  0
DICTIONARY
  5
6B
102
{ACAD_REACTORS
330
C
102
}
330
C
100
AcDbDictionary
281
     1
  3
Standard
350
6C
  0
DICTIONARY
  5
17
102
{ACAD_REACTORS
330
C
102
}
330
C
100
AcDbDictionary
281
     1
  3
Standard
350
18
  0
DICTIONARY
  5
19
102
{ACAD_REACTORS
330
C
102
}
330
C
100
AcDbDictionary
281
     1
  0
ACDBDICTIONARYWDFLT
  5
E
102
{ACAD_REACTORS
330
C
102
}
330
C
100
AcDbDictionary
281
     1
  3
Normal
350
F
100
AcDbDictionaryWithDefault
340
F
  0
DICTIONARY
  5
47
102
{ACAD_REACTORS
330
C
102
}
330
C
100
AcDbDictionary
281
     1
  3
A0
350
48
  3
A1
350
49
  3
A2
350
4A
  3
A3
350
4B
  3
A4
350
4C
  3
A5
350
4D
  3
A6
350
4E
  3
A7
350
4F
  3
A8
350
50
  3
A9
350
51
  3
B0
350
52
  3
B1
350
53
  3
B2
350
54
  3
B3
350
55
  3
B4
350
56
  3
B5
350
57
  3
B6
350
58
  3
B7
350
59
  3
B8
350
5A
  3
B9
350
5B
  3
C0
350
5C
  3
C1
350
5D
  3
C2
350
5E
  3
C3
350
5F
  3
C4
350
60
  3
C5
350
61
  3
C6
350
62
  3
C7
350
63
  3
C8
350
64
  3
C9
350
65
  3
D0
350
66
  3
D1
350
67
  3
D2
350
68
  0
DICTIONARY
  5
1F3
102
{ACAD_REACTORS
330
C
102
}
330
C
100
AcDbDictionary
281
     1
  0
DICTIONARY
  5
69
102
{ACAD_REACTORS
330
C
102
}
330
C
100
AcDbDictionary
281
     1
  3
Standard
350
6A
  0
DICTIONARY
  5
2A
102
{ACAD_REACTORS
330
C
102
}
330
C
100
AcDbDictionary
281
     1
  3
2dWireframe
350
2F
  3
Basic
350
32
  3
Brighten
350
36
  3
ColorChange
350
3A
  3
Conceptual
350
34
  3
Dim
350
35
  3
EdgeColorOff
350
3D
  3
Facepattern
350
39
  3
Flat
350
2B
  3
FlatWithEdges
350
2C
  3
Gouraud
350
2D
  3
GouraudWithEdges
350
2E
  3
Hidden
350
31
  3
JitterOff
350
3B
  3
Linepattern
350
38
  3
OverhangOff
350
3C
  3
Realistic
350
33
  3
Shaded
350
42
  3
Shaded with edges
350
41
  3
Shades of Gray
350
3E
  3
Sketchy
350
3F
  3
Thicken
350
37
  3
Wireframe
350
30
  3
X-Ray
350
40
  0
XRECORD
  5
1EF
102
{ACAD_REACTORS
330
C
102
}
330
C
100
AcDbXrecord
280
     1
 90
        1
330
6A
  0
DICTIONARY
  5
1EB
102
{ACAD_REACTORS
330
C
102
}
330
C
100
AcDbDictionary
281
     1
  3
CANNOSCALE
350
1EC
  3
CMLEADERSTYLE
350
1F1
  3
CTABLESTYLE
350
1F0
  0
LAYOUT
  5
1E
102
{ACAD_REACTORS
330
1A
102
}
330
1A
100
AcDbPlotSettings
  1

  2
none_device
  4

  6

 40
0.0
 41
0.0
 42
0.0
 43
0.0
 44
0.0
 45
0.0
 46
0.0
 47
0.0
 48
0.0
 49
0.0
140
0.0
141
0.0
142
1.0
143
1.0
 70
   688
 72
     0
 73
     0
 74
     5
  7

 75
    16
 76
     0
 77
     2
 78
   300
147
1.0
148
0.0
149
0.0
100
AcDbLayout
  1
Layout1
 70
     1
 71
     1
 10
0.0
 20
0.0
 11
12.0
 21
9.0
 12
0.0
 22
0.0
 32
0.0
 14
1.000000000000000E+20
 24
1.000000000000000E+20
 34
1.000000000000000E+20
 15
-1.000000000000000E+20
 25
-1.000000000000000E+20
 35
-1.000000000000000E+20
146
0.0
 13
0.0
 23
0.0
 33
0.0
 16
1.0
 26
0.0
 36
0.0
 17
0.0
 27
1.0
 37
0.0
 76
     0
330
1B
  0
LAYOUT
  5
26
102
{ACAD_REACTORS
330
1A
102
}
330
1A
100
AcDbPlotSettings
  1

  2
none_device
  4

  6

 40
0.0
 41
0.0
 42
0.0
 43
0.0
 44
0.0
 45
0.0
 46
0.0
 47
0.0
 48
0.0
 49
0.0
140
0.0
141
0.0
142
1.0
143
1.0
 70
   688
 72
     0
 73
     0
 74
     5
  7

 75
    16
 76
     0
 77
     2
 78
   300
147
1.0
148
0.0
149
0.0
100
AcDbLayout
  1
Layout2
 70
     1
 71
     2
 10
0.0
 20
0.0
 11
0.0
 21
0.0
 12
0.0
 22
0.0
 32
0.0
 14
0.0
 24
0.0
 34
0.0
 15
0.0
 25
0.0
 35
0.0
146
0.0
 13
0.0
 23
0.0
 33
0.0
 16
1.0
 26
0.0
 36
0.0
 17
0.0
 27
1.0
 37
0.0
 76
     0
330
23
  0
LAYOUT
  5
22
102
{ACAD_REACTORS
330
1A
102
}
330
1A
100
AcDbPlotSettings
  1

  2
none_device
  4
Letter_(8.50_x_11.00_Inches)
  6

 40
6.35
 41
6.35
 42
6.35000508
 43
6.35000508
 44
215.9
 45
279.4
 46
0.0
 47
0.0
 48
0.0
 49
0.0
140
0.0
141
0.0
142
1.0
143
1.0
 70
  1712
 72
     0
 73
     0
 74
     0
  7

 75
     0
 76
     0
 77
     2
 78
   300
147
1.0
148
0.0
149
0.0
100
AcDbLayout
  1
Model
 70
     1
 71
     0
 10
0.0
 20
0.0
 11
12.0
 21
9.0
 12
0.0
 22
0.0
 32
0.0
 14
1.000000000000000E+20
 24
1.000000000000000E+20
 34
1.000000000000000E+20
 15
-1.000000000000000E+20
 25
-1.000000000000000E+20
 35
-1.000000000000000E+20
146
0.0
 13
0.0
 23
0.0
 33
0.0
 16
1.0
 26
0.0
 36
0.0
 17
0.0
 27
1.0
 37
0.0
 76
     0
330
1F
331
29
  0
MATERIAL
  5
45
102
{ACAD_REACTORS
330
43
102
}
330
43
100
AcDbMaterial
  1
ByBlock
 72
     1
 94
      127
  0
MATERIAL
  5
44
102
{ACAD_REACTORS
330
43
102
}
330
43
100
AcDbMaterial
  1
ByLayer
 72
     1
 94
      127
  0
MATERIAL
  5
46
102
{ACAD_REACTORS
330
43
102
}
330
43
100
AcDbMaterial
  1
Global
 72
     1
 94
      127
  0
MLEADERSTYLE
  5
6C
102
{ACAD_REACTORS
330
6B
102
}
330
6B
100
AcDbMLeaderStyle
179
     2
170
     2
171
     1
172
     0
 90
        2
 40
0.0
 41
0.0
173
     1
 91
-1056964608
340
14
 92
       -2
290
     1
 42
0.09
291
     1
 43
0.36
  3
Standard
341
0
 44
0.18
300

342
11
174
     1
178
     6
175
     1
176
     0
 93
-1056964608
 45
0.18
292
     0
297
     0
 46
0.18
343
0
 94
-1056964608
 47
1.0
 49
1.0
140
1.0
293
     1
141
0.0
294
     1
177
     0
142
1.0
295
     0
296
     0
143
0.125
271
     0
272
     9
273
     9
298
     0
  0
MLINESTYLE
  5
18
102
{ACAD_REACTORS
330
17
102
}
330
17
100
AcDbMlineStyle
  2
Standard
 70
     0
  3

 62
   256
 51
90.0
 52
90.0
 71
     2
 49
0.5
 62
   256
  6
BYLAYER
 49
-0.5
 62
   256
  6
BYLAYER
  0
ACDBPLACEHOLDER
  5
F
102
{ACAD_REACTORS
330
E
102
}
330
E
  0
SCALE
  5
48
102
{ACAD_REACTORS
330
47
102
}
330
47
100
AcDbScale
 70
     0
300
1:1
140
1.0
141
1.0
290
     1
  0
SCALE
  5
49
102
{ACAD_REACTORS
330
47
102
}
330
47
100
AcDbScale
 70
     0
300
1:2
140
1.0
141
2.0
290
     0
  0
SCALE
  5
4A
102
{ACAD_REACTORS
330
47
102
}
330
47
100
AcDbScale
 70
     0
300
1:4
140
1.0
141
4.0
290
     0
  0
SCALE
  5
4B
102
{ACAD_REACTORS
330
47
102
}
330
47
100
AcDbScale
 70
     0
300
1:5
140
1.0
141
5.0
290
     0
  0
SCALE
  5
4C
102
{ACAD_REACTORS
330
47
102
}
330
47
100
AcDbScale
 70
     0
300
1:8
140
1.0
141
8.0
290
     0
  0
SCALE
  5
4D
102
{ACAD_REACTORS
330
47
102
}
330
47
100
AcDbScale
 70
     0
300
1:10
140
1.0
141
10.0
290
     0
  0
SCALE
  5
4E
102
{ACAD_REACTORS
330
47
102
}
330
47
100
AcDbScale
 70
     0
300
1:16
140
1.0
141
16.0
290
     0
  0
SCALE
  5
4F
102
{ACAD_REACTORS
330
47
102
}
330
47
100
AcDbScale
 70
     0
300
1:20
140
1.0
141
20.0
290
     0
  0
SCALE
  5
50
102
{ACAD_REACTORS
330
47
102
}
330
47
100
AcDbScale
 70
     0
300
1:30
140
1.0
141
30.0
290
     0
  0
SCALE
  5
51
102
{ACAD_REACTORS
330
47
102
}
330
47
100
AcDbScale
 70
     0
300
1:40
140
1.0
141
40.0
290
     0
  0
SCALE
  5
52
102
{ACAD_REACTORS
330
47
102
}
330
47
100
AcDbScale
 70
     0
300
1:50
140
1.0
141
50.0
290
     0
  0
SCALE
  5
53
102
{ACAD_REACTORS
330
47
102
}
330
47
100
AcDbScale
 70
     0
300
1:100
140
1.0
141
100.0
290
     0
  0
SCALE
  5
54
102
{ACAD_REACTORS
330
47
102
}
330
47
100
AcDbScale
 70
     0
300
2:1
140
2.0
141
1.0
290
     0
  0
SCALE
  5
55
102
{ACAD_REACTORS
330
47
102
}
330
47
100
AcDbScale
 70
     0
300
4:1
140
4.0
141
1.0
290
     0
  0
SCALE
  5
56
102
{ACAD_REACTORS
330
47
102
}
330
47
100
AcDbScale
 70
     0
300
8:1
140
8.0
141
1.0
290
     0
  0
SCALE
  5
57
102
{ACAD_REACTORS
330
47
102
}
330
47
100
AcDbScale
 70
     0
300
10:1
140
10.0
141
1.0
290
     0
  0
SCALE
  5
58
102
{ACAD_REACTORS
330
47
102
}
330
47
100
AcDbScale
 70
     0
300
100:1
140
100.0
141
1.0
290
     0
  0
SCALE
  5
59
102
{ACAD_REACTORS
330
47
102
}
330
47
100
AcDbScale
 70
     0
300
1/128" = 1'-0"
140
0.0078125
141
12.0
290
     0
  0
SCALE
  5
5A
102
{ACAD_REACTORS
330
47
102
}
330
47
100
AcDbScale
 70
     0
300
1/64" = 1'-0"
140
0.015625
141
12.0
290
     0
  0
SCALE
  5
5B
102
{ACAD_REACTORS
330
47
102
}
330
47
100
AcDbScale
 70
     0
300
1/32" = 1'-0"
140
0.03125
141
12.0
290
     0
  0
SCALE
  5
5C
102
{ACAD_REACTORS
330
47
102
}
330
47
100
AcDbScale
 70
     0
300
1/16" = 1'-0"
140
0.0625
141
12.0
290
     0
  0
SCALE
  5
5D
102
{ACAD_REACTORS
330
47
102
}
330
47
100
AcDbScale
 70
     0
300
3/32" = 1'-0"
140
0.09375
141
12.0
290
     0
  0
SCALE
  5
5E
102
{ACAD_REACTORS
330
47
102
}
330
47
100
AcDbScale
 70
     0
300
1/8" = 1'-0"
140
0.125
141
12.0
290
     0
  0
SCALE
  5
5F
102
{ACAD_REACTORS
330
47
102
}
330
47
100
AcDbScale
 70
     0
300
3/16" = 1'-0"
140
0.1875
141
12.0
290
     0
  0
SCALE
  5
60
102
{ACAD_REACTORS
330
47
102
}
330
47
100
AcDbScale
 70
     0
300
1/4" = 1'-0"
140
0.25
141
12.0
290
     0
  0
SCALE
  5
61
102
{ACAD_REACTORS
330
47
102
}
330
47
100
AcDbScale
 70
     0
300
3/8" = 1'-0"
140
0.375
141
12.0
290
     0
  0
SCALE
  5
62
102
{ACAD_REACTORS
330
47
102
}
330
47
100
AcDbScale
 70
     0
300
1/2" = 1'-0"
140
0.5
141
12.0
290
     0
  0
SCALE
  5
63
102
{ACAD_REACTORS
330
47
102
}
330
47
100
AcDbScale
 70
     0
300
3/4" = 1'-0"
140
0.75
141
12.0
290
     0
  0
SCALE
  5
64
102
{ACAD_REACTORS
330
47
102
}
330
47
100
AcDbScale
 70
     0
300
1" = 1'-0"
140
1.0
141
12.0
290
     0
  0
SCALE
  5
65
102
{ACAD_REACTORS
330
47
102
}
330
47
100
AcDbScale
 70
     0
300
1-1/2" = 1'-0"
140
1.5
141
12.0
290
     0
  0
SCALE
  5
66
102
{ACAD_REACTORS
330
47
102
}
330
47
100
AcDbScale
 70
     0
300
3" = 1'-0"
140
3.0
141
12.0
290
     0
  0
SCALE
  5
67
102
{ACAD_REACTORS
330
47
102
}
330
47
100
AcDbScale
 70
     0
300
6" = 1'-0"
140
6.0
141
12.0
290
     0
  0
SCALE
  5
68
102
{ACAD_REACTORS
330
47
102
}
330
47
100
AcDbScale
 70
     0
300
1'-0" = 1'-0"
140
12.0
141
12.0
290
     0
  0
TABLESTYLE
  5
6A
102
{ACAD_REACTORS
330
69
102
}
102
{ACAD_XDICTIONARY
360
1ED
102
}
330
69
100
AcDbTableStyle
  3
Standard
 70
     0
 71
     0
 40
0.06
 41
0.06
280
     0
281
     0
  7
Standard
140
0.18
170
     2
 62
     0
 63
   257
283
     0
 90
        4
 91
        0
  1

274
    -2
284
     1
 64
     0
275
    -2
285
     1
 65
     0
276
    -2
286
     1
 66
     0
277
    -2
287
     1
 67
     0
278
    -2
288
     1
 68
     0
279
    -2
289
     1
 69
     0
  7
Standard
140
0.25
170
     5
 62
     0
 63
   257
283
     0
 90
        4
 91
        0
  1

274
    -2
284
     1
 64
     0
275
    -2
285
     1
 65
     0
276
    -2
286
     1
 66
     0
277
    -2
287
     1
 67
     0
278
    -2
288
     1
 68
     0
279
    -2
289
     1
 69
     0
  7
Standard
140
0.18
170
     5
 62
     0
 63
   257
283
     0
 90
        4
 91
        0
  1

274
    -2
284
     1
 64
     0
275
    -2
285
     1
 65
     0
276
    -2
286
     1
 66
     0
277
    -2
287
     1
 67
     0
278
    -2
288
     1
 68
     0
279
    -2
289
     1
 69
     0
  0
VISUALSTYLE
  5
2F
102
{ACAD_REACTORS
330
2A
102
}
330
2A
100
AcDbVisualStyle
  2
2dWireframe
 70
     4
177
     3
291
     0
 70
    58
 90
        0
176
     1
 90
        2
176
     1
 90
        0
176
     1
 90
        0
176
     1
 40
0.6
176
     1
 40
30.0
176
     1
 62
     7
420
 16777215
176
     1
 90
        1
176
     1
 90
        4
176
     1
 62
     7
176
     1
 62
   257
176
     1
 90
        1
176
     1
 90
        1
176
     1
 40
1.0
176
     1
 90
        0
176
     1
 62
   257
176
     1
 40
1.0
176
     1
 90
        1
176
     1
 90
        6
176
     1
 90
        2
176
     1
 62
     7
176
     1
 90
        5
176
     1
 90
        0
176
     1
 90
        0
176
     1
290
     0
176
     1
 90
        1
176
     1
 40
0.0
176
     1
 90
        0
176
     1
290
     1
176
     1
290
     1
176
     1
290
     0
176
     1
290
     0
176
     1
290
     0
176
     1
290
     0
176
     1
290
     0
176
     1
290
     0
176
     1
290
     0
176
     1
 90
       50
176
     1
 40
0.0
176
     1
 40
1.0
176
     1
 90
        0
176
     1
 62
    18
420
        0
176
     1
 90
       50
176
     1
 90
        3
176
     1
 62
     5
420
      255
176
     1
290
     0
176
     1
 90
       50
176
     1
 90
       50
176
     1
 90
       50
176
     1
290
     0
176
     1
 90
       50
176
     1
 62
   256
176
     0
 40
1.0
176
     0
 90
        2
176
     1
  1
strokes_ogs.tif
176
     1
290
     0
176
     1
 40
1.0
176
     1
 40
1.0
176
     1
  0
VISUALSTYLE
  5
32
102
{ACAD_REACTORS
330
2A
102
}
330
2A
100
AcDbVisualStyle
  2
Basic
 70
     7
177
     3
291
     1
 70
    58
 90
        1
176
     1
 90
        0
176
     1
 90
        1
176
     1
 90
        0
176
     1
 40
0.6
176
     1
 40
30.0
176
     1
 62
     7
420
 16777215
176
     1
 90
        0
176
     1
 90
        4
176
     1
 62
     7
176
     1
 62
   257
176
     1
 90
        1
176
     1
 90
        1
176
     1
 40
1.0
176
     1
 90
        8
176
     1
 62
     7
176
     1
 40
1.0
176
     1
 90
        1
176
     1
 90
        6
176
     1
 90
        2
176
     1
 62
     7
176
     1
 90
        5
176
     1
 90
        0
176
     1
 90
        0
176
     1
290
     0
176
     1
 90
        1
176
     1
 40
0.0
176
     1
 90
        0
176
     1
290
     0
176
     1
290
     1
176
     1
290
     1
176
     1
290
     0
176
     1
290
     0
176
     1
290
     0
176
     1
290
     0
176
     1
290
     0
176
     1
290
     0
176
     1
 90
       50
176
     1
 40
0.0
176
     1
 40
1.0
176
     1
 90
        0
176
     1
 62
    18
420
        0
176
     1
 90
       50
176
     1
 90
        3
176
     1
 62
     5
420
      255
176
     1
290
     0
176
     1
 90
       50
176
     1
 90
       50
176
     1
 90
       50
176
     1
290
     0
176
     1
 90
       50
176
     1
 62
   256
176
     0
 40
1.0
176
     0
 90
        2
176
     1
  1
strokes_ogs.tif
176
     1
290
     0
176
     1
 40
1.0
176
     1
 40
1.0
176
     1
  0
VISUALSTYLE
  5
36
102
{ACAD_REACTORS
330
2A
102
}
330
2A
100
AcDbVisualStyle
  2
Brighten
 70
    12
177
     3
291
     1
 70
    58
 90
        2
176
     1
 90
        2
176
     1
 90
        0
176
     1
 90
        0
176
     1
 40
0.6
176
     1
 40
30.0
176
     1
 62
     7
420
 16777215
176
     1
 90
        1
176
     1
 90
        4
176
     1
 62
     7
176
     1
 62
   257
176
     1
 90
        1
176
     1
 90
        1
176
     1
 40
1.0
176
     1
 90
        8
176
     1
 62
     7
176
     1
 40
1.0
176
     1
 90
        1
176
     1
 90
        6
176
     1
 90
        2
176
     1
 62
     7
176
     1
 90
        5
176
     1
 90
        0
176
     1
 90
        0
176
     1
290
     0
176
     1
 90
        1
176
     1
 40
50.0
176
     1
 90
        0
176
     1
290
     0
176
     1
290
     1
176
     1
290
     1
176
     1
290
     0
176
     1
290
     0
176
     1
290
     0
176
     1
290
     0
176
     1
290
     0
176
     1
290
     0
176
     1
 90
       50
176
     1
 40
0.0
176
     1
 40
1.0
176
     1
 90
        0
176
     1
 62
    18
420
        0
176
     1
 90
       50
176
     1
 90
        3
176
     1
 62
     5
420
      255
176
     1
290
     0
176
     1
 90
       50
176
     1
 90
       50
176
     1
 90
       50
176
     1
290
     0
176
     1
 90
       50
176
     1
 62
   256
176
     0
 40
1.0
176
     0
 90
        2
176
     1
  1
strokes_ogs.tif
176
     1
290
     0
176
     1
 40
1.0
176
     1
 40
1.0
176
     1
  0
VISUALSTYLE
  5
3A
102
{ACAD_REACTORS
330
2A
102
}
330
2A
100
AcDbVisualStyle
  2
ColorChange
 70
    16
177
     3
291
     1
 70
    58
 90
        2
176
     1
 90
        2
176
     1
 90
        3
176
     1
 90
        0
176
     1
 40
0.6
176
     1
 40
30.0
176
     1
 62
     8
420
  8421504
176
     1
 90
        1
176
     1
 90
        4
176
     1
 62
     7
176
     1
 62
   257
176
     1
 90
        1
176
     1
 90
        1
176
     1
 40
1.0
176
     1
 90
        8
176
     1
 62
     8
420
  8421504
176
     1
 40
1.0
176
     1
 90
        1
176
     1
 90
        6
176
     1
 90
        2
176
     1
 62
     7
176
     1
 90
        5
176
     1
 90
        0
176
     1
 90
        0
176
     1
290
     0
176
     1
 90
        1
176
     1
 40
0.0
176
     1
 90
        0
176
     1
290
     0
176
     1
290
     1
176
     1
290
     1
176
     1
290
     0
176
     1
290
     0
176
     1
290
     0
176
     1
290
     0
176
     1
290
     0
176
     1
290
     0
176
     1
 90
       50
176
     1
 40
0.0
176
     1
 40
1.0
176
     1
 90
        0
176
     1
 62
    18
420
        0
176
     1
 90
       50
176
     1
 90
        3
176
     1
 62
     5
420
      255
176
     1
290
     0
176
     1
 90
       50
176
     1
 90
       50
176
     1
 90
       50
176
     1
290
     0
176
     1
 90
       50
176
     1
 62
   256
176
     0
 40
1.0
176
     0
 90
        2
176
     1
  1
strokes_ogs.tif
176
     1
290
     0
176
     1
 40
1.0
176
     1
 40
1.0
176
     1
  0
VISUALSTYLE
  5
34
102
{ACAD_REACTORS
330
2A
102
}
330
2A
100
AcDbVisualStyle
  2
Conceptual
 70
     9
177
     3
291
     0
 70
    58
 90
        3
176
     1
 90
        2
176
     1
 90
        0
176
     1
 90
        0
176
     1
 40
0.6
176
     1
 40
30.0
176
     1
 62
     7
420
 16777215
176
     1
 90
        2
176
     1
 90
        2
176
     1
 62
     7
176
     1
 62
   257
176
     1
 90
        1
176
     1
 90
        1
176
     1
 40
179.0
176
     1
 90
        8
176
     1
 62
     7
176
     1
 40
1.0
176
     1
 90
        1
176
     1
 90
        6
176
     1
 90
        2
176
     1
 62
     7
176
     1
 90
        3
176
     1
 90
        0
176
     1
 90
        0
176
     1
290
     0
176
     1
 90
        1
176
     1
 40
0.0
176
     1
 90
        0
176
     1
290
     0
176
     1
290
     1
176
     1
290
     1
176
     1
290
     0
176
     1
290
     0
176
     1
290
     0
176
     1
290
     0
176
     1
290
     0
176
     1
290
     0
176
     1
 90
       50
176
     1
 40
0.0
176
     1
 40
1.0
176
     1
 90
        0
176
     1
 62
    18
420
        0
176
     1
 90
       50
176
     1
 90
        3
176
     1
 62
     5
420
      255
176
     1
290
     0
176
     1
 90
       50
176
     1
 90
       50
176
     1
 90
       50
176
     1
290
     0
176
     1
 90
       50
176
     1
 62
   256
176
     0
 40
1.0
176
     0
 90
        2
176
     1
  1
strokes_ogs.tif
176
     1
290
     0
176
     1
 40
1.0
176
     1
 40
1.0
176
     1
  0
VISUALSTYLE
  5
35
102
{ACAD_REACTORS
330
2A
102
}
330
2A
100
AcDbVisualStyle
  2
Dim
 70
    11
177
     3
291
     1
 70
    58
 90
        2
176
     1
 90
        2
176
     1
 90
        0
176
     1
 90
        0
176
     1
 40
0.6
176
     1
 40
30.0
176
     1
 62
     7
420
 16777215
176
     1
 90
        1
176
     1
 90
        4
176
     1
 62
     7
176
     1
 62
   257
176
     1
 90
        1
176
     1
 90
        1
176
     1
 40
1.0
176
     1
 90
        8
176
     1
 62
     7
176
     1
 40
1.0
176
     1
 90
        1
176
     1
 90
        6
176
     1
 90
        2
176
     1
 62
     7
176
     1
 90
        5
176
     1
 90
        0
176
     1
 90
        0
176
     1
290
     0
176
     1
 90
        1
176
     1
 40
-50.0
176
     1
 90
        0
176
     1
290
     0
176
     1
290
     1
176
     1
290
     1
176
     1
290
     0
176
     1
290
     0
176
     1
290
     0
176
     1
290
     0
176
     1
290
     0
176
     1
290
     0
176
     1
 90
       50
176
     1
 40
0.0
176
     1
 40
1.0
176
     1
 90
        0
176
     1
 62
    18
420
        0
176
     1
 90
       50
176
     1
 90
        3
176
     1
 62
     5
420
      255
176
     1
290
     0
176
     1
 90
       50
176
     1
 90
       50
176
     1
 90
       50
176
     1
290
     0
176
     1
 90
       50
176
     1
 62
   256
176
     0
 40
1.0
176
     0
 90
        2
176
     1
  1
strokes_ogs.tif
176
     1
290
     0
176
     1
 40
1.0
176
     1
 40
1.0
176
     1
  0
VISUALSTYLE
  5
3D
102
{ACAD_REACTORS
330
2A
102
}
330
2A
100
AcDbVisualStyle
  2
EdgeColorOff
 70
    22
177
     3
291
     1
 70
    58
 90
        2
176
     0
 90
        2
176
     0
 90
        0
176
     0
 90
        0
176
     0
 40
0.6
176
     0
 40
30.0
176
     0
 62
     7
420
 16777215
176
     0
 90
        1
176
     0
 90
        4
176
     0
 62
     7
176
     0
 62
   257
176
     0
 90
        1
176
     0
 90
        1
176
     0
 40
1.0
176
     0
 90
        8
176
     2
 62
     7
176
     0
 40
1.0
176
     0
 90
        1
176
     0
 90
        6
176
     0
 90
        2
176
     0
 62
     7
176
     0
 90
        5
176
     0
 90
        0
176
     0
 90
        0
176
     0
290
     0
176
     0
 90
        1
176
     0
 40
0.0
176
     0
 90
        0
176
     0
290
     0
176
     0
290
     1
176
     0
290
     1
176
     0
290
     0
176
     0
290
     0
176
     0
290
     0
176
     0
290
     0
176
     0
290
     0
176
     0
290
     0
176
     0
 90
       50
176
     0
 40
0.0
176
     0
 40
1.0
176
     0
 90
        0
176
     0
 62
    18
420
        0
176
     0
 90
       50
176
     0
 90
        3
176
     0
 62
     5
420
      255
176
     0
290
     0
176
     0
 90
       50
176
     0
 90
       50
176
     0
 90
       50
176
     0
290
     0
176
     0
 90
       50
176
     0
 62
   256
176
     0
 40
1.0
176
     0
 90
        2
176
     0
  1
strokes_ogs.tif
176
     0
290
     0
176
     0
 40
1.0
176
     0
 40
1.0
176
     0
  0
VISUALSTYLE
  5
39
102
{ACAD_REACTORS
330
2A
102
}
330
2A
100
AcDbVisualStyle
  2
Facepattern
 70
    15
177
     3
291
     1
 70
    58
 90
        2
176
     1
 90
        2
176
     1
 90
        0
176
     1
 90
        0
176
     1
 40
0.6
176
     1
 40
30.0
176
     1
 62
     7
420
 16777215
176
     1
 90
        1
176
     1
 90
        4
176
     1
 62
     7
176
     1
 62
   257
176
     1
 90
        1
176
     1
 90
        1
176
     1
 40
1.0
176
     1
 90
        8
176
     1
 62
     7
176
     1
 40
1.0
176
     1
 90
        1
176
     1
 90
        6
176
     1
 90
        2
176
     1
 62
     7
176
     1
 90
        5
176
     1
 90
        0
176
     1
 90
        0
176
     1
290
     0
176
     1
 90
        1
176
     1
 40
0.0
176
     1
 90
        0
176
     1
290
     0
176
     1
290
     1
176
     1
290
     1
176
     1
290
     0
176
     1
290
     0
176
     1
290
     0
176
     1
290
     0
176
     1
290
     0
176
     1
290
     0
176
     1
 90
       50
176
     1
 40
0.0
176
     1
 40
1.0
176
     1
 90
        0
176
     1
 62
    18
420
        0
176
     1
 90
       50
176
     1
 90
        3
176
     1
 62
     5
420
      255
176
     1
290
     0
176
     1
 90
       50
176
     1
 90
       50
176
     1
 90
       50
176
     1
290
     0
176
     1
 90
       50
176
     1
 62
   256
176
     0
 40
1.0
176
     0
 90
        2
176
     1
  1
strokes_ogs.tif
176
     1
290
     0
176
     1
 40
1.0
176
     1
 40
1.0
176
     1
  0
VISUALSTYLE
  5
2B
102
{ACAD_REACTORS
330
2A
102
}
330
2A
100
AcDbVisualStyle
  2
Flat
 70
     0
177
     3
291
     1
 70
    58
 90
        2
176
     1
 90
        1
176
     1
 90
        1
176
     1
 90
        2
176
     1
 40
0.6
176
     1
 40
30.0
176
     1
 62
     7
420
 16777215
176
     1
 90
        0
176
     1
 90
        0
176
     1
 62
     7
176
     1
 62
   257
176
     1
 90
        1
176
     1
 90
        1
176
     1
 40
1.0
176
     1
 90
        8
176
     1
 62
     7
176
     1
 40
1.0
176
     1
 90
        1
176
     1
 90
        6
176
     1
 90
        2
176
     1
 62
     7
176
     1
 90
        5
176
     1
 90
        0
176
     1
 90
        0
176
     1
290
     0
176
     1
 90
       13
176
     1
 40
0.0
176
     1
 90
        0
176
     1
290
     0
176
     1
290
     1
176
     1
290
     1
176
     1
290
     0
176
     1
290
     0
176
     1
290
     0
176
     1
290
     0
176
     1
290
     0
176
     1
290
     0
176
     1
 90
       50
176
     1
 40
0.0
176
     1
 40
1.0
176
     1
 90
        0
176
     1
 62
    18
420
        0
176
     1
 90
       50
176
     1
 90
        3
176
     1
 62
     5
420
      255
176
     1
290
     0
176
     1
 90
       50
176
     1
 90
       50
176
     1
 90
       50
176
     1
290
     0
176
     1
 90
       50
176
     1
 62
   256
176
     0
 40
1.0
176
     0
 90
        2
176
     1
  1
strokes_ogs.tif
176
     1
290
     0
176
     1
 40
1.0
176
     1
 40
1.0
176
     1
  0
VISUALSTYLE
  5
2C
102
{ACAD_REACTORS
330
2A
102
}
330
2A
100
AcDbVisualStyle
  2
FlatWithEdges
 70
     1
177
     3
291
     1
 70
    58
 90
        2
176
     1
 90
        1
176
     1
 90
        1
176
     1
 90
        2
176
     1
 40
0.6
176
     1
 40
30.0
176
     1
 62
     7
420
 16777215
176
     1
 90
        1
176
     1
 90
        0
176
     1
 62
     7
176
     1
 62
   257
176
     1
 90
        1
176
     1
 90
        1
176
     1
 40
1.0
176
     1
 90
        0
176
     1
 62
   257
176
     1
 40
1.0
176
     1
 90
        1
176
     1
 90
        6
176
     1
 90
        2
176
     1
 62
     7
176
     1
 90
        5
176
     1
 90
        0
176
     1
 90
        0
176
     1
290
     0
176
     1
 90
       13
176
     1
 40
0.0
176
     1
 90
        0
176
     1
290
     0
176
     1
290
     1
176
     1
290
     1
176
     1
290
     0
176
     1
290
     0
176
     1
290
     0
176
     1
290
     0
176
     1
290
     0
176
     1
290
     0
176
     1
 90
       50
176
     1
 40
0.0
176
     1
 40
1.0
176
     1
 90
        0
176
     1
 62
    18
420
        0
176
     1
 90
       50
176
     1
 90
        3
176
     1
 62
     5
420
      255
176
     1
290
     0
176
     1
 90
       50
176
     1
 90
       50
176
     1
 90
       50
176
     1
290
     0
176
     1
 90
       50
176
     1
 62
   256
176
     0
 40
1.0
176
     0
 90
        2
176
     1
  1
strokes_ogs.tif
176
     1
290
     0
176
     1
 40
1.0
176
     1
 40
1.0
176
     1
  0
VISUALSTYLE
  5
2D
102
{ACAD_REACTORS
330
2A
102
}
330
2A
100
AcDbVisualStyle
  2
Gouraud
 70
     2
177
     3
291
     1
 70
    58
 90
        2
176
     1
 90
        2
176
     1
 90
        1
176
     1
 90
        2
176
     1
 40
0.6
176
     1
 40
30.0
176
     1
 62
     7
420
 16777215
176
     1
 90
        0
176
     1
 90
        0
176
     1
 62
     7
176
     1
 62
   257
176
     1
 90
        1
176
     1
 90
        1
176
     1
 40
1.0
176
     1
 90
        0
176
     1
 62
     7
176
     1
 40
1.0
176
     1
 90
        1
176
     1
 90
        6
176
     1
 90
        2
176
     1
 62
     7
176
     1
 90
        5
176
     1
 90
        0
176
     1
 90
        0
176
     1
290
     0
176
     1
 90
       13
176
     1
 40
0.0
176
     1
 90
        0
176
     1
290
     0
176
     1
290
     1
176
     1
290
     1
176
     1
290
     0
176
     1
290
     0
176
     1
290
     0
176
     1
290
     0
176
     1
290
     0
176
     1
290
     0
176
     1
 90
       50
176
     1
 40
0.0
176
     1
 40
1.0
176
     1
 90
        0
176
     1
 62
    18
420
        0
176
     1
 90
       50
176
     1
 90
        3
176
     1
 62
     5
420
      255
176
     1
290
     0
176
     1
 90
       50
176
     1
 90
       50
176
     1
 90
       50
176
     1
290
     0
176
     1
 90
       50
176
     1
 62
   256
176
     0
 40
1.0
176
     0
 90
        2
176
     1
  1
strokes_ogs.tif
176
     1
290
     0
176
     1
 40
1.0
176
     1
 40
1.0
176
     1
  0
VISUALSTYLE
  5
2E
102
{ACAD_REACTORS
330
2A
102
}
330
2A
100
AcDbVisualStyle
  2
GouraudWithEdges
 70
     3
177
     3
291
     1
 70
    58
 90
        2
176
     1
 90
        2
176
     1
 90
        1
176
     1
 90
        2
176
     1
 40
0.6
176
     1
 40
30.0
176
     1
 62
     7
420
 16777215
176
     1
 90
        1
176
     1
 90
        0
176
     1
 62
     7
176
     1
 62
   257
176
     1
 90
        1
176
     1
 90
        1
176
     1
 40
1.0
176
     1
 90
        0
176
     1
 62
   257
176
     1
 40
1.0
176
     1
 90
        1
176
     1
 90
        6
176
     1
 90
        2
176
     1
 62
     7
176
     1
 90
        5
176
     1
 90
        0
176
     1
 90
        0
176
     1
290
     0
176
     1
 90
       13
176
     1
 40
0.0
176
     1
 90
        0
176
     1
290
     0
176
     1
290
     1
176
     1
290
     1
176
     1
290
     0
176
     1
290
     0
176
     1
290
     0
176
     1
290
     0
176
     1
290
     0
176
     1
290
     0
176
     1
 90
       50
176
     1
 40
0.0
176
     1
 40
1.0
176
     1
 90
        0
176
     1
 62
    18
420
        0
176
     1
 90
       50
176
     1
 90
        3
176
     1
 62
     5
420
      255
176
     1
290
     0
176
     1
 90
       50
176
     1
 90
       50
176
     1
 90
       50
176
     1
290
     0
176
     1
 90
       50
176
     1
 62
   256
176
     0
 40
1.0
176
     0
 90
        2
176
     1
  1
strokes_ogs.tif
176
     1
290
     0
176
     1
 40
1.0
176
     1
 40
1.0
176
     1
  0
VISUALSTYLE
  5
31
102
{ACAD_REACTORS
330
2A
102
}
330
2A
100
AcDbVisualStyle
  2
Hidden
 70
     6
177
     3
291
     0
 70
    58
 90
        1
176
     1
 90
        2
176
     1
 90
        2
176
     1
 90
        0
176
     1
 40
0.6
176
     1
 40
30.0
176
     1
 62
     7
420
 16777215
176
     1
 90
        2
176
     1
 90
        2
176
     1
 62
     7
176
     1
 62
   257
176
     1
 90
        2
176
     1
 90
        1
176
     1
 40
40.0
176
     1
 90
        0
176
     1
 62
   257
176
     1
 40
1.0
176
     1
 90
        1
176
     1
 90
        6
176
     1
 90
        2
176
     1
 62
     7
176
     1
 90
        3
176
     1
 90
        0
176
     1
 90
        0
176
     1
290
     0
176
     1
 90
        1
176
     1
 40
0.0
176
     1
 90
        0
176
     1
290
     0
176
     1
290
     1
176
     1
290
     1
176
     1
290
     0
176
     1
290
     0
176
     1
290
     0
176
     1
290
     0
176
     1
290
     0
176
     1
290
     0
176
     1
 90
       50
176
     1
 40
0.0
176
     1
 40
1.0
176
     1
 90
        0
176
     1
 62
    18
420
        0
176
     1
 90
       50
176
     1
 90
        3
176
     1
 62
     5
420
      255
176
     1
290
     0
176
     1
 90
       50
176
     1
 90
       50
176
     1
 90
       50
176
     1
290
     0
176
     1
 90
       50
176
     1
 62
   256
176
     0
 40
1.0
176
     0
 90
        2
176
     1
  1
strokes_ogs.tif
176
     1
290
     0
176
     1
 40
1.0
176
     1
 40
1.0
176
     1
  0
VISUALSTYLE
  5
3B
102
{ACAD_REACTORS
330
2A
102
}
330
2A
100
AcDbVisualStyle
  2
JitterOff
 70
    20
177
     3
291
     1
 70
    58
 90
        2
176
     0
 90
        2
176
     0
 90
        0
176
     0
 90
        0
176
     0
 40
0.6
176
     0
 40
30.0
176
     0
 62
     7
420
 16777215
176
     0
 90
        1
176
     0
 90
        4
176
     0
 62
     7
176
     0
 62
   257
176
     0
 90
        1
176
     0
 90
        1
176
     0
 40
1.0
176
     0
 90
       10
176
     2
 62
     7
176
     0
 40
1.0
176
     0
 90
        1
176
     0
 90
        6
176
     0
 90
        2
176
     0
 62
     7
176
     0
 90
        5
176
     0
 90
        0
176
     0
 90
        0
176
     0
290
     0
176
     0
 90
        1
176
     0
 40
0.0
176
     0
 90
        0
176
     0
290
     0
176
     0
290
     1
176
     0
290
     1
176
     0
290
     0
176
     0
290
     0
176
     0
290
     0
176
     0
290
     0
176
     0
290
     0
176
     0
290
     0
176
     0
 90
       50
176
     0
 40
0.0
176
     0
 40
1.0
176
     0
 90
        0
176
     0
 62
    18
420
        0
176
     0
 90
       50
176
     0
 90
        3
176
     0
 62
     5
420
      255
176
     0
290
     0
176
     0
 90
       50
176
     0
 90
       50
176
     0
 90
       50
176
     0
290
     0
176
     0
 90
       50
176
     0
 62
   256
176
     0
 40
1.0
176
     0
 90
        2
176
     0
  1
strokes_ogs.tif
176
     0
290
     0
176
     0
 40
1.0
176
     0
 40
1.0
176
     0
  0
VISUALSTYLE
  5
38
102
{ACAD_REACTORS
330
2A
102
}
330
2A
100
AcDbVisualStyle
  2
Linepattern
 70
    14
177
     3
291
     1
 70
    58
 90
        2
176
     1
 90
        2
176
     1
 90
        0
176
     1
 90
        0
176
     1
 40
0.6
176
     1
 40
30.0
176
     1
 62
     7
420
 16777215
176
     1
 90
        1
176
     1
 90
        4
176
     1
 62
     7
176
     1
 62
   257
176
     1
 90
        7
176
     1
 90
        7
176
     1
 40
1.0
176
     1
 90
        8
176
     1
 62
     7
176
     1
 40
1.0
176
     1
 90
        1
176
     1
 90
        6
176
     1
 90
        2
176
     1
 62
     7
176
     1
 90
        5
176
     1
 90
        0
176
     1
 90
        0
176
     1
290
     0
176
     1
 90
        1
176
     1
 40
0.0
176
     1
 90
        0
176
     1
290
     0
176
     1
290
     1
176
     1
290
     1
176
     1
290
     0
176
     1
290
     0
176
     1
290
     0
176
     1
290
     0
176
     1
290
     0
176
     1
290
     0
176
     1
 90
       50
176
     1
 40
0.0
176
     1
 40
1.0
176
     1
 90
        0
176
     1
 62
    18
420
        0
176
     1
 90
       50
176
     1
 90
        3
176
     1
 62
     5
420
      255
176
     1
290
     0
176
     1
 90
       50
176
     1
 90
       50
176
     1
 90
       50
176
     1
290
     0
176
     1
 90
       50
176
     1
 62
   256
176
     0
 40
1.0
176
     0
 90
        2
176
     1
  1
strokes_ogs.tif
176
     1
290
     0
176
     1
 40
1.0
176
     1
 40
1.0
176
     1
  0
VISUALSTYLE
  5
3C
102
{ACAD_REACTORS
330
2A
102
}
330
2A
100
AcDbVisualStyle
  2
OverhangOff
 70
    21
177
     3
291
     1
 70
    58
 90
        2
176
     0
 90
        2
176
     0
 90
        0
176
     0
 90
        0
176
     0
 40
0.6
176
     0
 40
30.0
176
     0
 62
     7
420
 16777215
176
     0
 90
        1
176
     0
 90
        4
176
     0
 62
     7
176
     0
 62
   257
176
     0
 90
        1
176
     0
 90
        1
176
     0
 40
1.0
176
     0
 90
        9
176
     2
 62
     7
176
     0
 40
1.0
176
     0
 90
        1
176
     0
 90
        6
176
     0
 90
        2
176
     0
 62
     7
176
     0
 90
        5
176
     0
 90
        0
176
     0
 90
        0
176
     0
290
     0
176
     0
 90
        1
176
     0
 40
0.0
176
     0
 90
        0
176
     0
290
     0
176
     0
290
     1
176
     0
290
     1
176
     0
290
     0
176
     0
290
     0
176
     0
290
     0
176
     0
290
     0
176
     0
290
     0
176
     0
290
     0
176
     0
 90
       50
176
     0
 40
0.0
176
     0
 40
1.0
176
     0
 90
        0
176
     0
 62
    18
420
        0
176
     0
 90
       50
176
     0
 90
        3
176
     0
 62
     5
420
      255
176
     0
290
     0
176
     0
 90
       50
176
     0
 90
       50
176
     0
 90
       50
176
     0
290
     0
176
     0
 90
       50
176
     0
 62
   256
176
     0
 40
1.0
176
     0
 90
        2
176
     0
  1
strokes_ogs.tif
176
     0
290
     0
176
     0
 40
1.0
176
     0
 40
1.0
176
     0
  0
VISUALSTYLE
  5
33
102
{ACAD_REACTORS
330
2A
102
}
330
2A
100
AcDbVisualStyle
  2
Realistic
 70
     8
177
     3
291
     0
 70
    58
 90
        2
176
     1
 90
        3
176
     1
 90
        0
176
     1
 90
        2
176
     1
 40
0.6
176
     1
 40
30.0
176
     1
 62
     7
420
 16777215
176
     1
 90
        0
176
     1
 90
        0
176
     1
 62
     7
176
     1
 62
   257
176
     1
 90
        1
176
     1
 90
        1
176
     1
 40
1.0
176
     1
 90
        8
176
     1
 62
   257
176
     1
 40
1.0
176
     1
 90
        1
176
     1
 90
        6
176
     1
 90
        2
176
     1
 62
     7
176
     1
 90
        3
176
     1
 90
        0
176
     1
 90
        0
176
     1
290
     0
176
     1
 90
       13
176
     1
 40
0.0
176
     1
 90
        0
176
     1
290
     0
176
     1
290
     1
176
     1
290
     1
176
     1
290
     0
176
     1
290
     0
176
     1
290
     0
176
     1
290
     0
176
     1
290
     0
176
     1
290
     0
176
     1
 90
       50
176
     1
 40
0.0
176
     1
 40
1.0
176
     1
 90
        0
176
     1
 62
    18
420
        0
176
     1
 90
       50
176
     1
 90
        3
176
     1
 62
     5
420
      255
176
     1
290
     0
176
     1
 90
       50
176
     1
 90
       50
176
     1
 90
       50
176
     1
290
     0
176
     1
 90
       50
176
     1
 62
   256
176
     0
 40
1.0
176
     0
 90
        2
176
     1
  1
strokes_ogs.tif
176
     1
290
     0
176
     1
 40
1.0
176
     1
 40
1.0
176
     1
  0
VISUALSTYLE
  5
42
102
{ACAD_REACTORS
330
2A
102
}
330
2A
100
AcDbVisualStyle
  2
Shaded
 70
    27
177
     3
291
     0
 70
    58
 90
        2
176
     1
 90
        2
176
     1
 90
        1
176
     1
 90
        2
176
     1
 40
0.6
176
     1
 40
30.0
176
     1
 62
     7
420
 16777215
176
     1
 90
        0
176
     1
 90
        4
176
     1
 62
     7
176
     1
 62
   257
176
     1
 90
        1
176
     1
 90
        1
176
     1
 40
1.0
176
     1
 90
        8
176
     1
 62
   257
176
     1
 40
1.0
176
     1
 90
        1
176
     1
 90
        6
176
     1
 90
        2
176
     1
 62
     8
420
  7895160
176
     1
 90
        3
176
     1
 90
        0
176
     1
 90
        0
176
     1
290
     0
176
     1
 90
        5
176
     1
 40
0.0
176
     1
 90
        0
176
     1
290
     0
176
     1
290
     1
176
     1
290
     1
176
     1
290
     0
176
     1
290
     0
176
     1
290
     0
176
     1
290
     0
176
     1
290
     0
176
     1
290
     0
176
     1
 90
       50
176
     1
 40
0.0
176
     1
 40
1.0
176
     1
 90
        0
176
     1
 62
    18
420
        0
176
     1
 90
       50
176
     1
 90
        3
176
     1
 62
     5
420
      255
176
     1
290
     0
176
     1
 90
       50
176
     1
 90
       50
176
     1
 90
       50
176
     1
290
     0
176
     1
 90
       50
176
     1
 62
   256
176
     0
 40
1.0
176
     0
 90
        2
176
     1
  1
strokes_ogs.tif
176
     1
290
     0
176
     1
 40
1.0
176
     1
 40
1.0
176
     1
  0
VISUALSTYLE
  5
41
102
{ACAD_REACTORS
330
2A
102
}
330
2A
100
AcDbVisualStyle
  2
Shaded with edges
 70
    26
177
     3
291
     0
 70
    58
 90
        2
176
     1
 90
        2
176
     1
 90
        1
176
     1
 90
        2
176
     1
 40
0.6
176
     1
 40
30.0
176
     1
 62
     7
420
 16777215
176
     1
 90
        1
176
     1
 90
       10
176
     1
 62
     7
176
     1
 62
   257
176
     1
 90
        2
176
     1
 90
        1
176
     1
 40
1.0
176
     1
 90
        8
176
     1
 62
   257
176
     1
 40
1.0
176
     1
 90
        1
176
     1
 90
        6
176
     1
 90
        2
176
     1
 62
     7
176
     1
 90
        3
176
     1
 90
        0
176
     1
 90
        0
176
     1
290
     0
176
     1
 90
        5
176
     1
 40
0.0
176
     1
 90
        0
176
     1
290
     0
176
     1
290
     1
176
     1
290
     1
176
     1
290
     0
176
     1
290
     0
176
     1
290
     0
176
     1
290
     0
176
     1
290
     0
176
     1
290
     0
176
     1
 90
       50
176
     1
 40
0.0
176
     1
 40
1.0
176
     1
 90
        0
176
     1
 62
    18
420
        0
176
     1
 90
       50
176
     1
 90
        3
176
     1
 62
     5
420
      255
176
     1
290
     0
176
     1
 90
       50
176
     1
 90
       50
176
     1
 90
       50
176
     1
290
     0
176
     1
 90
       50
176
     1
 62
   256
176
     0
 40
1.0
176
     0
 90
        2
176
     1
  1
strokes_ogs.tif
176
     1
290
     0
176
     1
 40
1.0
176
     1
 40
1.0
176
     1
  0
VISUALSTYLE
  5
3E
102
{ACAD_REACTORS
330
2A
102
}
330
2A
100
AcDbVisualStyle
  2
Shades of Gray
 70
    23
177
     3
291
     0
 70
    58
 90
        2
176
     1
 90
        2
176
     1
 90
        3
176
     1
 90
        0
176
     1
 40
0.6
176
     1
 40
30.0
176
     1
 62
     7
420
 16777215
176
     1
 90
        2
176
     1
 90
        2
176
     1
 62
     7
176
     1
 62
     7
176
     1
 90
        1
176
     1
 90
        1
176
     1
 40
40.0
176
     1
 90
        8
176
     1
 62
     7
176
     1
 40
1.0
176
     1
 90
        1
176
     1
 90
        6
176
     1
 90
        2
176
     1
 62
     7
176
     1
 90
        3
176
     1
 90
        0
176
     1
 90
        0
176
     1
290
     0
176
     1
 90
        1
176
     1
 40
0.0
176
     1
 90
        0
176
     1
290
     0
176
     1
290
     1
176
     1
290
     1
176
     1
290
     0
176
     1
290
     0
176
     1
290
     0
176
     1
290
     0
176
     1
290
     0
176
     1
290
     0
176
     1
 90
       50
176
     1
 40
0.0
176
     1
 40
1.0
176
     1
 90
        0
176
     1
 62
    18
420
        0
176
     1
 90
       50
176
     1
 90
        3
176
     1
 62
     5
420
      255
176
     1
290
     0
176
     1
 90
       50
176
     1
 90
       50
176
     1
 90
       50
176
     1
290
     0
176
     1
 90
       50
176
     1
 62
   256
176
     0
 40
1.0
176
     0
 90
        2
176
     1
  1
strokes_ogs.tif
176
     1
290
     0
176
     1
 40
1.0
176
     1
 40
1.0
176
     1
  0
VISUALSTYLE
  5
3F
102
{ACAD_REACTORS
330
2A
102
}
330
2A
100
AcDbVisualStyle
  2
Sketchy
 70
    24
177
     3
291
     0
 70
    58
 90
        1
176
     1
 90
        2
176
     1
 90
        2
176
     1
 90
        0
176
     1
 40
0.6
176
     1
 40
30.0
176
     1
 62
     7
420
 16777215
176
     1
 90
        2
176
     1
 90
        2
176
     1
 62
     7
176
     1
 62
     7
176
     1
 90
        1
176
     1
 90
        1
176
     1
 40
40.0
176
     1
 90
       11
176
     1
 62
     7
176
     1
 40
1.0
176
     1
 90
        1
176
     1
 90
        6
176
     1
 90
        2
176
     1
 62
     7
176
     1
 90
        6
176
     1
 90
        0
176
     1
 90
        0
176
     1
290
     0
176
     1
 90
        1
176
     1
 40
0.0
176
     1
 90
        0
176
     1
290
     0
176
     1
290
     1
176
     1
290
     1
176
     1
290
     0
176
     1
290
     0
176
     1
290
     0
176
     1
290
     0
176
     1
290
     0
176
     1
290
     0
176
     1
 90
       50
176
     1
 40
0.0
176
     1
 40
1.0
176
     1
 90
        0
176
     1
 62
    18
420
        0
176
     1
 90
       50
176
     1
 90
        3
176
     1
 62
     5
420
      255
176
     1
290
     0
176
     1
 90
       50
176
     1
 90
       50
176
     1
 90
       50
176
     1
290
     0
176
     1
 90
       50
176
     1
 62
   256
176
     0
 40
1.0
176
     0
 90
        2
176
     1
  1
strokes_ogs.tif
176
     1
290
     0
176
     1
 40
1.0
176
     1
 40
1.0
176
     1
  0
VISUALSTYLE
  5
37
102
{ACAD_REACTORS
330
2A
102
}
330
2A
100
AcDbVisualStyle
  2
Thicken
 70
    13
177
     3
291
     1
 70
    58
 90
        2
176
     1
 90
        2
176
     1
 90
        0
176
     1
 90
        0
176
     1
 40
0.6
176
     1
 40
30.0
176
     1
 62
     7
420
 16777215
176
     1
 90
        1
176
     1
 90
        4
176
     1
 62
     7
176
     1
 62
   257
176
     1
 90
        1
176
     1
 90
        1
176
     1
 40
1.0
176
     1
 90
       12
176
     1
 62
     7
176
     1
 40
1.0
176
     1
 90
        1
176
     1
 90
        6
176
     1
 90
        2
176
     1
 62
     7
176
     1
 90
        5
176
     1
 90
        0
176
     1
 90
        0
176
     1
290
     0
176
     1
 90
        1
176
     1
 40
0.0
176
     1
 90
        0
176
     1
290
     0
176
     1
290
     1
176
     1
290
     1
176
     1
290
     0
176
     1
290
     0
176
     1
290
     0
176
     1
290
     0
176
     1
290
     0
176
     1
290
     0
176
     1
 90
       50
176
     1
 40
0.0
176
     1
 40
1.0
176
     1
 90
        0
176
     1
 62
    18
420
        0
176
     1
 90
       50
176
     1
 90
        3
176
     1
 62
     5
420
      255
176
     1
290
     0
176
     1
 90
       50
176
     1
 90
       50
176
     1
 90
       50
176
     1
290
     0
176
     1
 90
       50
176
     1
 62
   256
176
     0
 40
1.0
176
     0
 90
        2
176
     1
  1
strokes_ogs.tif
176
     1
290
     0
176
     1
 40
1.0
176
     1
 40
1.0
176
     1
  0
VISUALSTYLE
  5
30
102
{ACAD_REACTORS
330
2A
102
}
330
2A
100
AcDbVisualStyle
  2
Wireframe
 70
     5
177
     3
291
     0
 70
    58
 90
        0
176
     1
 90
        2
176
     1
 90
        0
176
     1
 90
        0
176
     1
 40
0.6
176
     1
 40
30.0
176
     1
 62
     7
420
 16777215
176
     1
 90
        1
176
     1
 90
        4
176
     1
 62
     7
176
     1
 62
   257
176
     1
 90
        1
176
     1
 90
        1
176
     1
 40
1.0
176
     1
 90
        0
176
     1
 62
   257
176
     1
 40
1.0
176
     1
 90
        1
176
     1
 90
        6
176
     1
 90
        2
176
     1
 62
     7
176
     1
 90
        3
176
     1
 90
        0
176
     1
 90
        0
176
     1
290
     0
176
     1
 90
        1
176
     1
 40
0.0
176
     1
 90
        0
176
     1
290
     0
176
     1
290
     1
176
     1
290
     1
176
     1
290
     0
176
     1
290
     0
176
     1
290
     0
176
     1
290
     0
176
     1
290
     0
176
     1
290
     0
176
     1
 90
       50
176
     1
 40
0.0
176
     1
 40
1.0
176
     1
 90
        0
176
     1
 62
    18
420
        0
176
     1
 90
       50
176
     1
 90
        3
176
     1
 62
     5
420
      255
176
     1
290
     0
176
     1
 90
       50
176
     1
 90
       50
176
     1
 90
       50
176
     1
290
     0
176
     1
 90
       50
176
     1
 62
   256
176
     0
 40
1.0
176
     0
 90
        2
176
     1
  1
strokes_ogs.tif
176
     1
290
     0
176
     1
 40
1.0
176
     1
 40
1.0
176
     1
  0
VISUALSTYLE
  5
40
102
{ACAD_REACTORS
330
2A
102
}
330
2A
100
AcDbVisualStyle
  2
X-Ray
 70
    25
177
     3
291
     0
 70
    58
 90
        2
176
     1
 90
        2
176
     1
 90
        1
176
     1
 90
        1
176
     1
 40
0.5
176
     1
 40
30.0
176
     1
 62
     7
420
 16777215
176
     1
 90
        1
176
     1
 90
        0
176
     1
 62
     7
176
     1
 62
   257
176
     1
 90
        1
176
     1
 90
        1
176
     1
 40
1.0
176
     1
 90
        8
176
     1
 62
     7
176
     1
 40
1.0
176
     1
 90
        1
176
     1
 90
        6
176
     1
 90
        2
176
     1
 62
     7
176
     1
 90
        3
176
     1
 90
        0
176
     1
 90
        0
176
     1
290
     0
176
     1
 90
       13
176
     1
 40
0.0
176
     1
 90
        0
176
     1
290
     0
176
     1
290
     1
176
     1
290
     1
176
     1
290
     0
176
     1
290
     0
176
     1
290
     0
176
     1
290
     0
176
     1
290
     0
176
     1
290
     0
176
     1
 90
       50
176
     1
 40
0.0
176
     1
 40
1.0
176
     1
 90
        0
176
     1
 62
    18
420
        0
176
     1
 90
       50
176
     1
 90
        3
176
     1
 62
     5
420
      255
176
     1
290
     0
176
     1
 90
       50
176
     1
 90
       50
176
     1
 90
       50
176
     1
290
     0
176
     1
 90
       50
176
     1
 62
   256
176
     0
 40
1.0
176
     0
 90
        2
176
     1
  1
strokes_ogs.tif
176
     1
290
     0
176
     1
 40
1.0
176
     1
 40
1.0
176
     1
  0
DICTIONARYVAR
  5
1EC
102
{ACAD_REACTORS
330
1EB
102
}
330
1EB
100
DictionaryVariables
280
     0
  1
1:1
  0
DICTIONARYVAR
  5
1F1
102
{ACAD_REACTORS
330
1EB
102
}
330
1EB
100
DictionaryVariables
280
     0
  1
Standard
  0
DICTIONARYVAR
  5
1F0
102
{ACAD_REACTORS
330
1EB
102
}
330
1EB
100
DictionaryVariables
280
     0
  1
Standard
  0
DICTIONARY
  5
1ED
330
6A
100
AcDbDictionary
280
     1
281
     1
  3
ACAD_ROUNDTRIP_2008_TABLESTYLE_CELLSTYLEMAP
360
1EE
  0
CELLSTYLEMAP
  5
1EE
102
{ACAD_REACTORS
330
1ED
102
}
330
1ED
100
AcDbCellStyleMap
 90
        3
300
CELLSTYLE
  1
TABLEFORMAT_BEGIN
 90
        5
170
     1
 91
        0
 92
    32768
 62
   257
 93
        1
300
CONTENTFORMAT
  1
CONTENTFORMAT_BEGIN
 90
        0
 91
        0
 92
        4
 93
        0
300

 40
0.0
140
1.0
 94
        5
 62
     0
340
11
144
0.25
309
CONTENTFORMAT_END
171
     1
301
MARGIN
  1
CELLMARGIN_BEGIN
 40
0.06
 40
0.06
 40
0.06
 40
0.06
 40
0.06
 40
0.06
309
CELLMARGIN_END
 94
        6
 95
        1
302
GRIDFORMAT
  1
GRIDFORMAT_BEGIN
 90
        0
 91
        1
 62
     0
 92
       -2
340
14
 93
        0
 40
0.045
309
GRIDFORMAT_END
 95
        2
302
GRIDFORMAT
  1
GRIDFORMAT_BEGIN
 90
        0
 91
        1
 62
     0
 92
       -2
340
14
 93
        0
 40
0.045
309
GRIDFORMAT_END
 95
        4
302
GRIDFORMAT
  1
GRIDFORMAT_BEGIN
 90
        0
 91
        1
 62
     0
 92
       -2
340
14
 93
        0
 40
0.045
309
GRIDFORMAT_END
 95
        8
302
GRIDFORMAT
  1
GRIDFORMAT_BEGIN
 90
        0
 91
        1
 62
     0
 92
       -2
340
14
 93
        0
 40
0.045
309
GRIDFORMAT_END
 95
       16
302
GRIDFORMAT
  1
GRIDFORMAT_BEGIN
 90
        0
 91
        1
 62
     0
 92
       -2
340
14
 93
        0
 40
0.045
309
GRIDFORMAT_END
 95
       32
302
GRIDFORMAT
  1
GRIDFORMAT_BEGIN
 90
        0
 91
        1
 62
     0
 92
       -2
340
14
 93
        0
 40
0.045
309
GRIDFORMAT_END
309
TABLEFORMAT_END
  1
CELLSTYLE_BEGIN
 90
        1
 91
        1
300
_TITLE
309
CELLSTYLE_END
300
CELLSTYLE
  1
TABLEFORMAT_BEGIN
 90
        5
170
     1
 91
        0
 92
        0
 62
   257
 93
        1
300
CONTENTFORMAT
  1
CONTENTFORMAT_BEGIN
 90
        0
 91
        0
 92
        4
 93
        0
300

 40
0.0
140
1.0
 94
        5
 62
     0
340
11
144
0.18
309
CONTENTFORMAT_END
171
     1
301
MARGIN
  1
CELLMARGIN_BEGIN
 40
0.06
 40
0.06
 40
0.06
 40
0.06
 40
0.06
 40
0.06
309
CELLMARGIN_END
 94
        6
 95
        1
302
GRIDFORMAT
  1
GRIDFORMAT_BEGIN
 90
        0
 91
        1
 62
     0
 92
       -2
340
14
 93
        0
 40
0.045
309
GRIDFORMAT_END
 95
        2
302
GRIDFORMAT
  1
GRIDFORMAT_BEGIN
 90
        0
 91
        1
 62
     0
 92
       -2
340
14
 93
        0
 40
0.045
309
GRIDFORMAT_END
 95
        4
302
GRIDFORMAT
  1
GRIDFORMAT_BEGIN
 90
        0
 91
        1
 62
     0
 92
       -2
340
14
 93
        0
 40
0.045
309
GRIDFORMAT_END
 95
        8
302
GRIDFORMAT
  1
GRIDFORMAT_BEGIN
 90
        0
 91
        1
 62
     0
 92
       -2
340
14
 93
        0
 40
0.045
309
GRIDFORMAT_END
 95
       16
302
GRIDFORMAT
  1
GRIDFORMAT_BEGIN
 90
        0
 91
        1
 62
     0
 92
       -2
340
14
 93
        0
 40
0.045
309
GRIDFORMAT_END
 95
       32
302
GRIDFORMAT
  1
GRIDFORMAT_BEGIN
 90
        0
 91
        1
 62
     0
 92
       -2
340
14
 93
        0
 40
0.045
309
GRIDFORMAT_END
309
TABLEFORMAT_END
  1
CELLSTYLE_BEGIN
 90
        2
 91
        1
300
_HEADER
309
CELLSTYLE_END
300
CELLSTYLE
  1
TABLEFORMAT_BEGIN
 90
        5
170
     1
 91
        0
 92
        0
 62
   257
 93
        1
300
CONTENTFORMAT
  1
CONTENTFORMAT_BEGIN
 90
        0
 91
        0
 92
        4
 93
        0
300

 40
0.0
140
1.0
 94
        2
 62
     0
340
11
144
0.18
309
CONTENTFORMAT_END
171
     1
301
MARGIN
  1
CELLMARGIN_BEGIN
 40
0.06
 40
0.06
 40
0.06
 40
0.06
 40
0.06
 40
0.06
309
CELLMARGIN_END
 94
        6
 95
        1
302
GRIDFORMAT
  1
GRIDFORMAT_BEGIN
 90
        0
 91
        1
 62
     0
 92
       -2
340
14
 93
        0
 40
0.045
309
GRIDFORMAT_END
 95
        2
302
GRIDFORMAT
  1
GRIDFORMAT_BEGIN
 90
        0
 91
        1
 62
     0
 92
       -2
340
14
 93
        0
 40
0.045
309
GRIDFORMAT_END
 95
        4
302
GRIDFORMAT
  1
GRIDFORMAT_BEGIN
 90
        0
 91
        1
 62
     0
 92
       -2
340
14
 93
        0
 40
0.045
309
GRIDFORMAT_END
 95
        8
302
GRIDFORMAT
  1
GRIDFORMAT_BEGIN
 90
        0
 91
        1
 62
     0
 92
       -2
340
14
 93
        0
 40
0.045
309
GRIDFORMAT_END
 95
       16
302
GRIDFORMAT
  1
GRIDFORMAT_BEGIN
 90
        0
 91
        1
 62
     0
 92
       -2
340
14
 93
        0
 40
0.045
309
GRIDFORMAT_END
 95
       32
302
GRIDFORMAT
  1
GRIDFORMAT_BEGIN
 90
        0
 91
        1
 62
     0
 92
       -2
340
14
 93
        0
 40
0.045
309
GRIDFORMAT_END
309
TABLEFORMAT_END
  1
CELLSTYLE_BEGIN
 90
        3
 91
        2
300
_DATA
309
CELLSTYLE_END
  0
ENDSEC
  0
EOF