0
SECTION
  2
HEADER
  9
$ACADVER
  1
AC1027
  9
$ACADMAINTVER
 70
     8
  9
$DWGCODEPAGE
  3
ANSI_1252
  9
$REQUIREDVERSIONS
160
                 0
  9
$COMMENTS
  1
File was created by Cadenas
  9
$CUSTOMPROPERTYTAG
  1
NN
  9
$CUSTOMPROPERTY
  1
S-2000 Wide Slot Take-Up Trident Seal
  9
$CUSTOMPROPERTYTAG
  1
NT
  9
$CUSTOMPROPERTY
  1
S-2000 Wide Slot Take-Up Bearing -Inch
  9
$CUSTOMPROPERTYTAG
  1
NB
  9
$CUSTOMPROPERTY
  1
070760
  9
$CUSTOMPROPERTYTAG
  1
NBSYN
  9
$CUSTOMPROPERTY
  1
$PN.
  9
$CUSTOMPROPERTYTAG
  1
LINA
  9
$CUSTOMPROPERTY
  1
070760
  9
$CUSTOMPROPERTYTAG
  1
SS
  9
$CUSTOMPROPERTY
  1
2-3/16
  9
$CUSTOMPROPERTYTAG
  1
PN
  9
$CUSTOMPROPERTY
  1
070760
  9
$CUSTOMPROPERTYTAG
  1
DESCRIPTION
  9
$CUSTOMPROPERTY
  1
WSTU-S2-203R
  9
$CUSTOMPROPERTYTAG
  1
EF
  9
$CUSTOMPROPERTY
  1
Non-Expansion Type
  9
$CUSTOMPROPERTYTAG
  1
ST
  9
$CUSTOMPROPERTY
  1
Contact Seal
  9
$CUSTOMPROPERTYTAG
  1
A
  9
$CUSTOMPROPERTY
  1
2-15/16
  9
$CUSTOMPROPERTYTAG
  1
B
  9
$CUSTOMPROPERTY
  1
7-1/16
  9
$CUSTOMPROPERTYTAG
  1
C
  9
$CUSTOMPROPERTY
  1
13/16
  9
$CUSTOMPROPERTYTAG
  1
D
  9
$CUSTOMPROPERTY
  1
3-5/8
  9
$CUSTOMPROPERTYTAG
  1
E
  9
$CUSTOMPROPERTY
  1
4-5/8
  9
$CUSTOMPROPERTYTAG
  1
F
  9
$CUSTOMPROPERTY
  1
1-3/8
  9
$CUSTOMPROPERTYTAG
  1
G
  9
$CUSTOMPROPERTY
  1
15/16
  9
$CUSTOMPROPERTYTAG
  1
H
  9
$CUSTOMPROPERTY
  1
1-1/4
  9
$CUSTOMPROPERTYTAG
  1
J
  9
$CUSTOMPROPERTY
  1
3-7/8
  9
$CUSTOMPROPERTYTAG
  1
K
  9
$CUSTOMPROPERTY
  1
2-1/4
  9
$CUSTOMPROPERTYTAG
  1
L
  9
$CUSTOMPROPERTY
  1
3-3/4
  9
$CUSTOMPROPERTYTAG
  1
M
  9
$CUSTOMPROPERTY
  1
4-1/2
  9
$CUSTOMPROPERTYTAG
  1
N
  9
$CUSTOMPROPERTY
  1
5-1/4
  9
$CUSTOMPROPERTYTAG
  1
R
  9
$CUSTOMPROPERTY
  1
3-3/32
  9
$CUSTOMPROPERTYTAG
  1
S
  9
$CUSTOMPROPERTY
  1
1-63/64
  9
$CUSTOMPROPERTYTAG
  1
T
  9
$CUSTOMPROPERTY
  1
2-7/32
  9
$CUSTOMPROPERTYTAG
  1
X
  9
$CUSTOMPROPERTY
  1
1/4
  9
$CUSTOMPROPERTYTAG
  1
Y
  9
$CUSTOMPROPERTY
  1
0.025
  9
$CUSTOMPROPERTYTAG
  1
Z
  9
$CUSTOMPROPERTY
  1
2-19/32
  9
$CUSTOMPROPERTYTAG
  1
COMPANY
  9
$CUSTOMPROPERTY
  1
baldor
  9
$INSBASE
 10
0.0
 20
0.0
 30
0.0
  9
$EXTMIN
 10
1.000000000000000E+20
 20
1.000000000000000E+20
 30
1.000000000000000E+20
  9
$EXTMAX
 10
-1.000000000000000E+20
 20
-1.000000000000000E+20
 30
-1.000000000000000E+20
  9
$LIMMIN
 10
0.0
 20
0.0
  9
$LIMMAX
 10
12.0
 20
9.0
  9
$ORTHOMODE
 70
     0
  9
$REGENMODE
 70
     1
  9
$FILLMODE
 70
     1
  9
$QTEXTMODE
 70
     0
  9
$MIRRTEXT
 70
     1
  9
$LTSCALE
 40
1.0
  9
$ATTMODE
 70
     1
  9
$TEXTSIZE
 40
0.2
  9
$TRACEWID
 40
0.05
  9
$TEXTSTYLE
  7
Standard
  9
$CLAYER
  8
0
  9
$CELTYPE
  6
ByLayer
  9
$CECOLOR
 62
   256
  9
$CELTSCALE
 40
1.0
  9
$DISPSILH
 70
     0
  9
$DIMSCALE
 40
1.0
  9
$DIMASZ
 40
0.18
  9
$DIMEXO
 40
0.0625
  9
$DIMDLI
 40
0.38
  9
$DIMRND
 40
0.0
  9
$DIMDLE
 40
0.0
  9
$DIMEXE
 40
0.18
  9
$DIMTP
 40
0.0
  9
$DIMTM
 40
0.0
  9
$DIMTXT
 40
0.18
  9
$DIMCEN
 40
0.09
  9
$DIMTSZ
 40
0.0
  9
$DIMTOL
 70
     0
  9
$DIMLIM
 70
     0
  9
$DIMTIH
 70
     1
  9
$DIMTOH
 70
     1
  9
$DIMSE1
 70
     0
  9
$DIMSE2
 70
     0
  9
$DIMTAD
 70
     0
  9
$DIMZIN
 70
     0
  9
$DIMBLK
  1

  9
$DIMASO
 70
     1
  9
$DIMSHO
 70
     1
  9
$DIMPOST
  1

  9
$DIMAPOST
  1

  9
$DIMALT
 70
     0
  9
$DIMALTD
 70
     2
  9
$DIMALTF
 40
25.4
  9
$DIMLFAC
 40
1.0
  9
$DIMTOFL
 70
     0
  9
$DIMTVP
 40
0.0
  9
$DIMTIX
 70
     0
  9
$DIMSOXD
 70
     0
  9
$DIMSAH
 70
     0
  9
$DIMBLK1
  1

  9
$DIMBLK2
  1

  9
$DIMSTYLE
  2
Standard
  9
$DIMCLRD
 70
     0
  9
$DIMCLRE
 70
     0
  9
$DIMCLRT
 70
     0
  9
$DIMTFAC
 40
1.0
  9
$DIMGAP
 40
0.09
  9
$DIMJUST
 70
     0
  9
$DIMSD1
 70
     0
  9
$DIMSD2
 70
     0
  9
$DIMTOLJ
 70
     1
  9
$DIMTZIN
 70
     0
  9
$DIMALTZ
 70
     0
  9
$DIMALTTZ
 70
     0
  9
$DIMUPT
 70
     0
  9
$DIMDEC
 70
     4
  9
$DIMTDEC
 70
     4
  9
$DIMALTU
 70
     2
  9
$DIMALTTD
 70
     2
  9
$DIMTXSTY
  7
Standard
  9
$DIMAUNIT
 70
     0
  9
$DIMADEC
 70
     0
  9
$DIMALTRND
 40
0.0
  9
$DIMAZIN
 70
     0
  9
$DIMDSEP
 70
    46
  9
$DIMATFIT
 70
     3
  9
$DIMFRAC
 70
     0
  9
$DIMLDRBLK
  1

  9
$DIMLUNIT
 70
     2
  9
$DIMLWD
 70
    -2
  9
$DIMLWE
 70
    -2
  9
$DIMTMOVE
 70
     0
  9
$DIMFXL
 40
1.0
  9
$DIMFXLON
 70
     0
  9
$DIMJOGANG
 40
0.7853981633974483
  9
$DIMTFILL
 70
     0
  9
$DIMTFILLCLR
 70
     0
  9
$DIMARCSYM
 70
     0
  9
$DIMLTYPE
  6

  9
$DIMLTEX1
  6

  9
$DIMLTEX2
  6

  9
$DIMTXTDIRECTION
 70
     0
  9
$LUNITS
 70
     2
  9
$LUPREC
 70
     4
  9
$SKETCHINC
 40
0.1
  9
$FILLETRAD
 40
0.5
  9
$AUNITS
 70
     0
  9
$AUPREC
 70
     0
  9
$MENU
  1
.
  9
$ELEVATION
 40
0.0
  9
$PELEVATION
 40
0.0
  9
$THICKNESS
 40
0.0
  9
$LIMCHECK
 70
     0
  9
$CHAMFERA
 40
0.0
  9
$CHAMFERB
 40
0.0
  9
$CHAMFERC
 40
0.0
  9
$CHAMFERD
 40
0.0
  9
$SKPOLY
 70
     0
  9
$TDCREATE
 40
2458168.983902407
  9
$TDUCREATE
 40
2458168.942235741
  9
$TDUPDATE
 40
2458168.983902581
  9
$TDUUPDATE
 40
2458168.942235915
  9
$TDINDWG
 40
0.0000000116
  9
$TDUSRTIMER
 40
0.0000000116
  9
$USRTIMER
 70
     1
  9
$ANGBASE
 50
0.0
  9
$ANGDIR
 70
     0
  9
$PDMODE
 70
     0
  9
$PDSIZE
 40
0.0
  9
$PLINEWID
 40
0.0
  9
$SPLFRAME
 70
     0
  9
$SPLINETYPE
 70
     6
  9
$SPLINESEGS
 70
     8
  9
$HANDSEED
  5
21C
  9
$SURFTAB1
 70
     6
  9
$SURFTAB2
 70
     6
  9
$SURFTYPE
 70
     6
  9
$SURFU
 70
     6
  9
$SURFV
 70
     6
  9
$UCSBASE
  2

  9
$UCSNAME
  2

  9
$UCSORG
 10
0.0
 20
0.0
 30
0.0
  9
$UCSXDIR
 10
1.0
 20
0.0
 30
0.0
  9
$UCSYDIR
 10
0.0
 20
1.0
 30
0.0
  9
$UCSORTHOREF
  2

  9
$UCSORTHOVIEW
 70
     0
  9
$UCSORGTOP
 10
0.0
 20
0.0
 30
0.0
  9
$UCSORGBOTTOM
 10
0.0
 20
0.0
 30
0.0
  9
$UCSORGLEFT
 10
0.0
 20
0.0
 30
0.0
  9
$UCSORGRIGHT
 10
0.0
 20
0.0
 30
0.0
  9
$UCSORGFRONT
 10
0.0
 20
0.0
 30
0.0
  9
$UCSORGBACK
 10
0.0
 20
0.0
 30
0.0
  9
$PUCSBASE
  2

  9
$PUCSNAME
  2

  9
$PUCSORG
 10
0.0
 20
0.0
 30
0.0
  9
$PUCSXDIR
 10
1.0
 20
0.0
 30
0.0
  9
$PUCSYDIR
 10
0.0
 20
1.0
 30
0.0
  9
$PUCSORTHOREF
  2

  9
$PUCSORTHOVIEW
 70
     0
  9
$PUCSORGTOP
 10
0.0
 20
0.0
 30
0.0
  9
$PUCSORGBOTTOM
 10
0.0
 20
0.0
 30
0.0
  9
$PUCSORGLEFT
 10
0.0
 20
0.0
 30
0.0
  9
$PUCSORGRIGHT
 10
0.0
 20
0.0
 30
0.0
  9
$PUCSORGFRONT
 10
0.0
 20
0.0
 30
0.0
  9
$PUCSORGBACK
 10
0.0
 20
0.0
 30
0.0
  9
$USERI1
 70
     0
  9
$USERI2
 70
     0
  9
$USERI3
 70
     0
  9
$USERI4
 70
     0
  9
$USERI5
 70
     0
  9
$USERR1
 40
0.0
  9
$USERR2
 40
0.0
  9
$USERR3
 40
0.0
  9
$USERR4
 40
0.0
  9
$USERR5
 40
0.0
  9
$WORLDVIEW
 70
     1
  9
$SHADEDGE
 70
     3
  9
$SHADEDIF
 70
    70
  9
$TILEMODE
 70
     1
  9
$MAXACTVP
 70
    64
  9
$PINSBASE
 10
0.0
 20
0.0
 30
0.0
  9
$PLIMCHECK
 70
     0
  9
$PEXTMIN
 10
1.000000000000000E+20
 20
1.000000000000000E+20
 30
1.000000000000000E+20
  9
$PEXTMAX
 10
-1.000000000000000E+20
 20
-1.000000000000000E+20
 30
-1.000000000000000E+20
  9
$PLIMMIN
 10
0.0
 20
0.0
  9
$PLIMMAX
 10
12.0
 20
9.0
  9
$UNITMODE
 70
     0
  9
$VISRETAIN
 70
     1
  9
$PLINEGEN
 70
     0
  9
$PSLTSCALE
 70
     1
  9
$TREEDEPTH
 70
  3020
  9
$CMLSTYLE
  2
Standard
  9
$CMLJUST
 70
     0
  9
$CMLSCALE
 40
1.0
  9
$PROXYGRAPHICS
 70
     1
  9
$MEASUREMENT
 70
     0
  9
$CELWEIGHT
370
    -1
  9
$ENDCAPS
280
     0
  9
$JOINSTYLE
280
     0
  9
$LWDISPLAY
290
     0
  9
$INSUNITS
 70
     1
  9
$HYPERLINKBASE
  1

  9
$STYLESHEET
  1

  9
$XEDIT
290
     1
  9
$CEPSNTYPE
380
     0
  9
$PSTYLEMODE
290
     1
  9
$FINGERPRINTGUID
  2
{C6F2E6E6-6A45-41A5-A209-8CFB36F5567F}
  9
$VERSIONGUID
  2
{FAEB1C32-E019-11D5-929B-00C0DF256EC4}
  9
$EXTNAMES
290
     1
  9
$PSVPSCALE
 40
0.0
  9
$OLESTARTUP
290
     0
  9
$SORTENTS
280
   127
  9
$INDEXCTL
280
     0
  9
$HIDETEXT
280
     1
  9
$XCLIPFRAME
280
     2
  9
$HALOGAP
280
     0
  9
$OBSCOLOR
 70
   257
  9
$OBSLTYPE
280
     0
  9
$INTERSECTIONDISPLAY
280
     0
  9
$INTERSECTIONCOLOR
 70
   257
  9
$DIMASSOC
280
     2
  9
$PROJECTNAME
  1

  9
$CAMERADISPLAY
290
     0
  9
$LENSLENGTH
 40
50.0
  9
$CAMERAHEIGHT
 40
0.0
  9
$STEPSPERSEC
 40
2.0
  9
$STEPSIZE
 40
6.0
  9
$3DDWFPREC
 40
2.0
  9
$PSOLWIDTH
 40
0.25
  9
$PSOLHEIGHT
 40
4.0
  9
$LOFTANG1
 40
1.570796326794897
  9
$LOFTANG2
 40
1.570796326794897
  9
$LOFTMAG1
 40
0.0
  9
$LOFTMAG2
 40
0.0
  9
$LOFTPARAM
 70
     7
  9
$LOFTNORMALS
280
     1
  9
$LATITUDE
 40
37.795
  9
$LONGITUDE
 40
-122.394
  9
$NORTHDIRECTION
 40
0.0
  9
$TIMEZONE
 70
 -8000
  9
$LIGHTGLYPHDISPLAY
280
     1
  9
$TILEMODELIGHTSYNCH
280
     1
  9
$CMATERIAL
347
44
  9
$SOLIDHIST
280
     0
  9
$SHOWHIST
280
     1
  9
$DWFFRAME
280
     2
  9
$DGNFRAME
280
     2
  9
$REALWORLDSCALE
290
     1
  9
$INTERFERECOLOR
 62
   256
  9
$CSHADOW
280
     0
  9
$SHADOWPLANELOCATION
 40
0.0
  0
ENDSEC
  0
SECTION
  2
CLASSES
  0
CLASS
  1
ACDBDICTIONARYWDFLT
  2
AcDbDictionaryWithDefault
  3
ObjectDBX Classes
 90
        0
 91
        4
280
     0
281
     0
  0
CLASS
  1
VISUALSTYLE
  2
AcDbVisualStyle
  3
ObjectDBX Classes
 90
     4095
 91
        4
280
     0
281
     0
  0
CLASS
  1
MATERIAL
  2
AcDbMaterial
  3
ObjectDBX Classes
 90
     1153
 91
        4
280
     0
281
     0
  0
CLASS
  1
SCALE
  2
AcDbScale
  3
ObjectDBX Classes
 90
     1153
 91
        4
280
     0
281
     0
  0
CLASS
  1
TABLESTYLE
  2
AcDbTableStyle
  3
ObjectDBX Classes
 90
     4095
 91
        4
280
     0
281
     0
  0
CLASS
  1
MLEADERSTYLE
  2
AcDbMLeaderStyle
  3
ACDB_MLEADERSTYLE_CLASS
 90
     4095
 91
        4
280
     0
281
     0
  0
CLASS
  1
SUN
  2
AcDbSun
  3
SCENEOE
 90
     1153
 91
        4
280
     0
281
     0
  0
CLASS
  1
DICTIONARYVAR
  2
AcDbDictionaryVar
  3
ObjectDBX Classes
 90
        0
 91
        4
280
     0
281
     0
  0
CLASS
  1
CELLSTYLEMAP
  2
AcDbCellStyleMap
  3
ObjectDBX Classes
 90
     1152
 91
        4
280
     0
281
     0
  0
ENDSEC
  0
SECTION
  2
TABLES
  0
TABLE
  2
VPORT
  5
8
330
0
100
AcDbSymbolTable
 70
     1
  0
VPORT
  5
29
330
8
100
AcDbSymbolTableRecord
100
AcDbViewportTableRecord
  2
*Active
 70
     0
 10
0.0
 20
0.0
 11
1.0
 21
1.0
 12
0.9575757832665666
 22
-0.1703124999999996
 13
0.0
 23
0.0
 14
0.5
 24
0.5
 15
0.5
 25
0.5
 16
0.0
 26
0.0
 36
1.0
 17
0.0
 27
0.0
 37
0.0
 40
4.0003125
 41
1.895339839609081
 42
50.0
 43
0.0
 44
0.0
 50
0.0
 51
0.0
 71
     0
 72
   100
 73
     1
 74
     3
 75
     0
 76
     0
 77
     0
 78
     0
281
     0
 65
     1
110
0.0
120
0.0
130
0.0
111
1.0
121
0.0
131
0.0
112
0.0
122
1.0
132
0.0
 79
     0
146
0.0
348
2F
 60
     3
 61
     5
292
     1
282
     1
141
0.0
142
0.0
 63
   250
361
6D
  0
ENDTAB
  0
TABLE
  2
LTYPE
  5
5
330
0
100
AcDbSymbolTable
 70
     3
  0
LTYPE
  5
14
330
5
100
AcDbSymbolTableRecord
100
AcDbLinetypeTableRecord
  2
ByBlock
 70
     0
  3

 72
    65
 73
     0
 40
0.0
  0
LTYPE
  5
15
330
5
100
AcDbSymbolTableRecord
100
AcDbLinetypeTableRecord
  2
ByLayer
 70
     0
  3

 72
    65
 73
     0
 40
0.0
  0
LTYPE
  5
16
330
5
100
AcDbSymbolTableRecord
100
AcDbLinetypeTableRecord
  2
Continuous
 70
     0
  3
Solid line
 72
    65
 73
     0
 40
0.0
  0
LTYPE
  5
AA
330
5
100
AcDbSymbolTableRecord
100
AcDbLinetypeTableRecord
  2
Dashed
 70
     0
  3

 72
    65
 73
     2
 40
2.0
 49
1.0
 74
     0
 49
-1.0
 74
     0
  0
LTYPE
  5
C0
330
5
100
AcDbSymbolTableRecord
100
AcDbLinetypeTableRecord
  2
Center
 70
     0
  3

 72
    65
 73
     4
 40
1.5
 49
0.45
 74
     0
 49
-0.5
 74
     0
 49
0.05
 74
     0
 49
-0.5
 74
     0
  0
ENDTAB
  0
TABLE
  2
LAYER
  5
2
330
0
100
AcDbSymbolTable
 70
     7
  0
LAYER
  5
10
330
2
100
AcDbSymbolTableRecord
100
AcDbLayerTableRecord
  2
0
 70
     0
 62
     7
  6
Continuous
370
    -3
390
F
347
46
348
0
  0
LAYER
  5
72
330
2
100
AcDbSymbolTableRecord
100
AcDbLayerTableRecord
  2
AM_6
 70
     0
 62
    -2
  6
Continuous
370
    35
390
F
347
46
348
0
  0
LAYER
  5
AB
330
2
100
AcDbSymbolTableRecord
100
AcDbLayerTableRecord
  2
AM_9
 70
     0
 62
     6
  6
Dashed
370
    25
390
F
347
46
348
0
  0
LAYER
  5
BD
330
2
100
AcDbSymbolTableRecord
100
AcDbLayerTableRecord
  2
AM_5
 70
     0
 62
     3
  6
Continuous
370
    25
390
F
347
46
348
0
  0
LAYER
  5
C1
330
2
100
AcDbSymbolTableRecord
100
AcDbLayerTableRecord
  2
AM_7
 70
     0
 62
     7
  6
Center
370
    25
390
F
347
46
348
0
  0
LAYER
  5
C3
330
2
100
AcDbSymbolTableRecord
100
AcDbLayerTableRecord
  2
AM_4
 70
     0
 62
     7
  6
Continuous
370
    50
390
F
347
46
348
0
  0
LAYER
  5
20B
330
2
100
AcDbSymbolTableRecord
100
AcDbLayerTableRecord
  2
ConnectionPoints
 70
     0
 62
     7
  6
Continuous
370
    50
390
F
347
46
348
0
  0
ENDTAB
  0
TABLE
  2
STYLE
  5
3
330
0
100
AcDbSymbolTable
 70
     1
  0
STYLE
  5
11
330
3
100
AcDbSymbolTableRecord
100
AcDbTextStyleTableRecord
  2
Standard
 70
     0
 40
0.0
 41
1.0
 50
0.0
 71
     0
 42
0.2
  3
txt
  4

  0
ENDTAB
  0
TABLE
  2
VIEW
  5
6
330
0
100
AcDbSymbolTable
 70
     0
  0
ENDTAB
  0
TABLE
  2
UCS
  5
7
330
0
100
AcDbSymbolTable
 70
     0
  0
ENDTAB
  0
TABLE
  2
APPID
  5
9
330
0
100
AcDbSymbolTable
 70
     1
  0
APPID
  5
12
330
9
100
AcDbSymbolTableRecord
100
AcDbRegAppTableRecord
  2
ACAD
 70
     0
  0
ENDTAB
  0
TABLE
  2
DIMSTYLE
  5
A
330
0
100
AcDbSymbolTable
 70
     1
100
AcDbDimStyleTable
  0
DIMSTYLE
105
27
330
A
100
AcDbSymbolTableRecord
100
AcDbDimStyleTableRecord
  2
Standard
 70
     0
178
     0
340
11
  0
ENDTAB
  0
TABLE
  2
BLOCK_RECORD
  5
1
330
0
100
AcDbSymbolTable
 70
     6
  0
BLOCK_RECORD
  5
1F
330
1
100
AcDbSymbolTableRecord
100
AcDbBlockTableRecord
  2
*Model_Space
340
22
 70
     0
280
     1
281
     0
  0
BLOCK_RECORD
  5
1B
330
1
100
AcDbSymbolTableRecord
100
AcDbBlockTableRecord
  2
*Paper_Space
340
1E
 70
     0
280
     1
281
     0
  0
BLOCK_RECORD
  5
23
330
1
100
AcDbSymbolTableRecord
100
AcDbBlockTableRecord
  2
*Paper_Space0
340
26
 70
     0
280
     1
281
     0
  0
BLOCK_RECORD
  5
6E
330
1
100
AcDbSymbolTableRecord
100
AcDbBlockTableRecord
  2
1_070760_4
340
0
102
{BLKREFS
331
6F
102
}
 70
     0
280
     1
281
     0
  0
BLOCK_RECORD
  5
91
330
1
100
AcDbSymbolTableRecord
100
AcDbBlockTableRecord
  2
2_2_3_16CS2i_0_in_070760_4
340
0
102
{BLKREFS
331
92
102
}
 70
     0
280
     1
281
     0
  0
BLOCK_RECORD
  5
D9
330
1
100
AcDbSymbolTableRecord
100
AcDbBlockTableRecord
  2
3_070007i_0_in_070760_4
340
0
102
{BLKREFS
331
DA
102
}
 70
     0
280
     1
281
     0
  0
BLOCK_RECORD
  5
12B
330
1
100
AcDbSymbolTableRecord
100
AcDbBlockTableRecord
  2
4_405016_Inch_0_in_070760_4
340
0
102
{BLKREFS
331
12C
102
}
 70
     0
280
     1
281
     0
  0
BLOCK_RECORD
  5
1B3
330
1
100
AcDbSymbolTableRecord
100
AcDbBlockTableRecord
  2
5_070760H_0_in_070760_4
340
0
102
{BLKREFS
331
1B4
102
}
 70
     0
280
     1
281
     0
  0
ENDTAB
  0
ENDSEC
  0
SECTION
  2
BLOCKS
  0
BLOCK
  5
20
330
1F
100
AcDbEntity
  8
0
100
AcDbBlockBegin
  2
*Model_Space
 70
     0
 10
0.0
 20
0.0
 30
0.0
  3
*Model_Space
  1

  0
ENDBLK
  5
21
330
1F
100
AcDbEntity
  8
0
100
AcDbBlockEnd
  0
BLOCK
  5
1C
330
1B
100
AcDbEntity
 67
     1
  8
0
100
AcDbBlockBegin
  2
*Paper_Space
 70
     0
 10
0.0
 20
0.0
 30
0.0
  3
*Paper_Space
  1

  0
ENDBLK
  5
1D
330
1B
100
AcDbEntity
 67
     1
  8
0
100
AcDbBlockEnd
  0
BLOCK
  5
24
330
23
100
AcDbEntity
  8
0
100
AcDbBlockBegin
  2
*Paper_Space0
 70
     0
 10
0.0
 20
0.0
 30
0.0
  3
*Paper_Space0
  1

  0
ENDBLK
  5
25
330
23
100
AcDbEntity
  8
0
100
AcDbBlockEnd
  0
BLOCK
  5
70
330
6E
100
AcDbEntity
  8
0
100
AcDbBlockBegin
  2
1_070760_4
 70
     2
 10
0.0
 20
0.0
 30
0.0
  3
1_070760_4
  1

  0
ATTDEF
  5
73
330
6E
100
AcDbEntity
  8
AM_6
100
AcDbText
 10
9.67421875
 20
1.305147058823529
 30
0.0
 40
0.5
  1
S-2000 Wide Slot Take-Up Trident Seal
100
AcDbAttributeDefinition
  3

  2
NN
 70
     8
280
     0
  0
ATTDEF
  5
74
330
6E
100
AcDbEntity
  8
AM_6
100
AcDbText
 10
9.67421875
 20
0.8051470588235294
 30
0.0
 40
0.5
  1
S-2000 Wide Slot Take-Up Bearing -Inch
100
AcDbAttributeDefinition
  3

  2
NT
 70
     8
280
     0
  0
ATTDEF
  5
75
330
6E
100
AcDbEntity
  8
AM_6
100
AcDbText
 10
9.67421875
 20
0.3051470588235294
 30
0.0
 40
0.5
  1
070760
100
AcDbAttributeDefinition
  3

  2
NB
 70
     8
280
     0
  0
ATTDEF
  5
76
330
6E
100
AcDbEntity
  8
AM_6
100
AcDbText
 10
9.67421875
 20
-0.1948529411764706
 30
0.0
 40
0.5
  1
$PN.
100
AcDbAttributeDefinition
  3

  2
NBSYN
 70
     8
280
     0
  0
ATTDEF
  5
77
330
6E
100
AcDbEntity
  8
AM_6
100
AcDbText
 10
9.67421875
 20
-0.6948529411764706
 30
0.0
 40
0.5
  1
070760
100
AcDbAttributeDefinition
  3

  2
LINA
 70
     8
280
     0
  0
ATTDEF
  5
78
330
6E
100
AcDbEntity
  8
AM_6
100
AcDbText
 10
9.67421875
 20
-1.194852941176471
 30
0.0
 40
0.5
  1
2-3/16
100
AcDbAttributeDefinition
  3

  2
SS
 70
     8
280
     0
  0
ATTDEF
  5
79
330
6E
100
AcDbEntity
  8
AM_6
100
AcDbText
 10
9.67421875
 20
-1.694852941176471
 30
0.0
 40
0.5
  1
070760
100
AcDbAttributeDefinition
  3

  2
PN
 70
     8
280
     0
  0
ATTDEF
  5
7A
330
6E
100
AcDbEntity
  8
AM_6
100
AcDbText
 10
9.67421875
 20
-2.194852941176471
 30
0.0
 40
0.5
  1
WSTU-S2-203R
100
AcDbAttributeDefinition
  3

  2
DESCRIPTION
 70
     8
280
     0
  0
ATTDEF
  5
7B
330
6E
100
AcDbEntity
  8
AM_6
100
AcDbText
 10
9.67421875
 20
-2.694852941176471
 30
0.0
 40
0.5
  1
Non-Expansion Type
100
AcDbAttributeDefinition
  3

  2
EF
 70
     8
280
     0
  0
ATTDEF
  5
7C
330
6E
100
AcDbEntity
  8
AM_6
100
AcDbText
 10
9.67421875
 20
-3.194852941176471
 30
0.0
 40
0.5
  1
Contact Seal
100
AcDbAttributeDefinition
  3

  2
ST
 70
     8
280
     0
  0
ATTDEF
  5
7D
330
6E
100
AcDbEntity
  8
AM_6
100
AcDbText
 10
9.67421875
 20
-3.694852941176471
 30
0.0
 40
0.5
  1
2-15/16
100
AcDbAttributeDefinition
  3

  2
A
 70
     8
280
     0
  0
ATTDEF
  5
7E
330
6E
100
AcDbEntity
  8
AM_6
100
AcDbText
 10
9.67421875
 20
-4.194852941176471
 30
0.0
 40
0.5
  1
7-1/16
100
AcDbAttributeDefinition
  3

  2
B
 70
     8
280
     0
  0
ATTDEF
  5
7F
330
6E
100
AcDbEntity
  8
AM_6
100
AcDbText
 10
9.67421875
 20
-4.694852941176471
 30
0.0
 40
0.5
  1
13/16
100
AcDbAttributeDefinition
  3

  2
C
 70
     8
280
     0
  0
ATTDEF
  5
80
330
6E
100
AcDbEntity
  8
AM_6
100
AcDbText
 10
9.67421875
 20
-5.194852941176471
 30
0.0
 40
0.5
  1
3-5/8
100
AcDbAttributeDefinition
  3

  2
D
 70
     8
280
     0
  0
ATTDEF
  5
81
330
6E
100
AcDbEntity
  8
AM_6
100
AcDbText
 10
9.67421875
 20
-5.694852941176471
 30
0.0
 40
0.5
  1
4-5/8
100
AcDbAttributeDefinition
  3

  2
E
 70
     8
280
     0
  0
ATTDEF
  5
82
330
6E
100
AcDbEntity
  8
AM_6
100
AcDbText
 10
9.67421875
 20
-6.194852941176471
 30
0.0
 40
0.5
  1
1-3/8
100
AcDbAttributeDefinition
  3

  2
F
 70
     8
280
     0
  0
ATTDEF
  5
83
330
6E
100
AcDbEntity
  8
AM_6
100
AcDbText
 10
9.67421875
 20
-6.694852941176471
 30
0.0
 40
0.5
  1
15/16
100
AcDbAttributeDefinition
  3

  2
G
 70
     8
280
     0
  0
ATTDEF
  5
84
330
6E
100
AcDbEntity
  8
AM_6
100
AcDbText
 10
9.67421875
 20
-7.194852941176471
 30
0.0
 40
0.5
  1
1-1/4
100
AcDbAttributeDefinition
  3

  2
H
 70
     8
280
     0
  0
ATTDEF
  5
85
330
6E
100
AcDbEntity
  8
AM_6
100
AcDbText
 10
9.67421875
 20
-7.694852941176471
 30
0.0
 40
0.5
  1
3-7/8
100
AcDbAttributeDefinition
  3

  2
J
 70
     8
280
     0
  0
ATTDEF
  5
86
330
6E
100
AcDbEntity
  8
AM_6
100
AcDbText
 10
9.67421875
 20
-8.194852941176471
 30
0.0
 40
0.5
  1
2-1/4
100
AcDbAttributeDefinition
  3

  2
K
 70
     8
280
     0
  0
ATTDEF
  5
87
330
6E
100
AcDbEntity
  8
AM_6
100
AcDbText
 10
9.67421875
 20
-8.694852941176471
 30
0.0
 40
0.5
  1
3-3/4
100
AcDbAttributeDefinition
  3

  2
L
 70
     8
280
     0
  0
ATTDEF
  5
88
330
6E
100
AcDbEntity
  8
AM_6
100
AcDbText
 10
9.67421875
 20
-9.194852941176471
 30
0.0
 40
0.5
  1
4-1/2
100
AcDbAttributeDefinition
  3

  2
M
 70
     8
280
     0
  0
ATTDEF
  5
89
330
6E
100
AcDbEntity
  8
AM_6
100
AcDbText
 10
9.67421875
 20
-9.694852941176471
 30
0.0
 40
0.5
  1
5-1/4
100
AcDbAttributeDefinition
  3

  2
N
 70
     8
280
     0
  0
ATTDEF
  5
8A
330
6E
100
AcDbEntity
  8
AM_6
100
AcDbText
 10
9.67421875
 20
-10.19485294117647
 30
0.0
 40
0.5
  1
3-3/32
100
AcDbAttributeDefinition
  3

  2
R
 70
     8
280
     0
  0
ATTDEF
  5
8B
330
6E
100
AcDbEntity
  8
AM_6
100
AcDbText
 10
9.67421875
 20
-10.69485294117647
 30
0.0
 40
0.5
  1
1-63/64
100
AcDbAttributeDefinition
  3

  2
S
 70
     8
280
     0
  0
ATTDEF
  5
8C
330
6E
100
AcDbEntity
  8
AM_6
100
AcDbText
 10
9.67421875
 20
-11.19485294117647
 30
0.0
 40
0.5
  1
2-7/32
100
AcDbAttributeDefinition
  3

  2
T
 70
     8
280
     0
  0
ATTDEF
  5
8D
330
6E
100
AcDbEntity
  8
AM_6
100
AcDbText
 10
9.67421875
 20
-11.69485294117647
 30
0.0
 40
0.5
  1
1/4
100
AcDbAttributeDefinition
  3

  2
X
 70
     8
280
     0
  0
ATTDEF
  5
8E
330
6E
100
AcDbEntity
  8
AM_6
100
AcDbText
 10
9.67421875
 20
-12.19485294117647
 30
0.0
 40
0.5
  1
0.025
100
AcDbAttributeDefinition
  3

  2
Y
 70
     8
280
     0
  0
ATTDEF
  5
8F
330
6E
100
AcDbEntity
  8
AM_6
100
AcDbText
 10
9.67421875
 20
-12.69485294117647
 30
0.0
 40
0.5
  1
2-19/32
100
AcDbAttributeDefinition
  3

  2
Z
 70
     8
280
     0
  0
ATTDEF
  5
90
330
6E
100
AcDbEntity
  8
AM_6
100
AcDbText
 10
9.67421875
 20
-13.19485294117647
 30
0.0
 40
0.5
  1
baldor
100
AcDbAttributeDefinition
  3

  2
COMPANY
 70
     8
280
     0
  0
INSERT
  5
92
330
6E
100
AcDbEntity
  8
0
100
AcDbBlockReference
  2
2_2_3_16CS2i_0_in_070760_4
 10
0.0
 20
0.0
 30
0.0
  0
INSERT
  5
DA
330
6E
100
AcDbEntity
  8
0
100
AcDbBlockReference
  2
3_070007i_0_in_070760_4
 10
0.0
 20
0.0
 30
0.0
  0
INSERT
  5
12C
330
6E
100
AcDbEntity
  8
0
100
AcDbBlockReference
  2
4_405016_Inch_0_in_070760_4
 10
0.0
 20
0.0
 30
0.0
  0
INSERT
  5
1B4
330
6E
100
AcDbEntity
  8
0
100
AcDbBlockReference
  2
5_070760H_0_in_070760_4
 10
0.0
 20
0.0
 30
0.0
  0
ENDBLK
  5
71
330
6E
100
AcDbEntity
  8
0
100
AcDbBlockEnd
  0
BLOCK
  5
93
330
91
100
AcDbEntity
  8
0
100
AcDbBlockBegin
  2
2_2_3_16CS2i_0_in_070760_4
 70
     2
 10
0.0
 20
0.0
 30
0.0
  3
2_2_3_16CS2i_0_in_070760_4
  1

  0
ATTDEF
  5
95
330
91
100
AcDbEntity
  8
AM_6
100
AcDbText
 10
6.875
 20
-1.350375
 30
0.0
 40
0.5
  1
S-2000 Collar -Inch
100
AcDbAttributeDefinition
  3

  2
NN
 70
     8
280
     0
  0
ATTDEF
  5
96
330
91
100
AcDbEntity
  8
AM_6
100
AcDbText
 10
6.875
 20
-1.850375
 30
0.0
 40
0.5
  1
S-2000 Bearings
100
AcDbAttributeDefinition
  3

  2
NT
 70
     8
280
     0
  0
ATTDEF
  5
97
330
91
100
AcDbEntity
  8
AM_6
100
AcDbText
 10
6.875
 20
-2.350375
 30
0.0
 40
0.5
  1
2-3/16CS2i
100
AcDbAttributeDefinition
  3

  2
NB
 70
     8
280
     0
  0
ATTDEF
  5
98
330
91
100
AcDbEntity
  8
AM_6
100
AcDbText
 10
6.875
 20
-2.850375
 30
0.0
 40
0.5
  1
$BORE.CS2i
100
AcDbAttributeDefinition
  3

  2
NBSYN
 70
     8
280
     0
  0
ATTDEF
  5
99
330
91
100
AcDbEntity
  8
AM_6
100
AcDbText
 10
6.875
 20
-3.350375
 30
0.0
 40
0.5
  1
2-3/16CS2i
100
AcDbAttributeDefinition
  3

  2
LINA
 70
     8
280
     0
  0
ATTDEF
  5
9A
330
91
100
AcDbEntity
  8
AM_6
100
AcDbText
 10
6.875
 20
-3.850375
 30
0.0
 40
0.5
  1
2-3/16
100
AcDbAttributeDefinition
  3

  2
BORE
 70
     8
280
     0
  0
ATTDEF
  5
9B
330
91
100
AcDbEntity
  8
AM_6
100
AcDbText
 10
6.875
 20
-4.350375
 30
0.0
 40
0.5
  1
2.187500
100
AcDbAttributeDefinition
  3

  2
BORE1
 70
     8
280
     0
  0
ATTDEF
  5
9C
330
91
100
AcDbEntity
  8
AM_6
100
AcDbText
 10
6.875
 20
-4.850375
 30
0.0
 40
0.5
  1
3-3/4
100
AcDbAttributeDefinition
  3

  2
L1
 70
     8
280
     0
  0
ATTDEF
  5
9D
330
91
100
AcDbEntity
  8
AM_6
100
AcDbText
 10
6.875
 20
-5.350375
 30
0.0
 40
0.5
  1
3.75000
100
AcDbAttributeDefinition
  3

  2
L
 70
     8
280
     0
  0
ATTDEF
  5
9E
330
91
100
AcDbEntity
  8
AM_6
100
AcDbText
 10
6.875
 20
-5.850375
 30
0.0
 40
0.5
  1
3.65625
100
AcDbAttributeDefinition
  3

  2
L2
 70
     8
280
     0
  0
ATTDEF
  5
9F
330
91
100
AcDbEntity
  8
AM_6
100
AcDbText
 10
6.875
 20
-6.350375
 30
0.0
 40
0.5
  1
3.75
100
AcDbAttributeDefinition
  3

  2
A
 70
     8
280
     0
  0
ATTDEF
  5
A0
330
91
100
AcDbEntity
  8
AM_6
100
AcDbText
 10
6.875
 20
-6.850375
 30
0.0
 40
0.5
  1
1.66
100
AcDbAttributeDefinition
  3

  2
B
 70
     8
280
     0
  0
ATTDEF
  5
A1
330
91
100
AcDbEntity
  8
AM_6
100
AcDbText
 10
6.875
 20
-7.350375
 30
0.0
 40
0.5
  1
2.62
100
AcDbAttributeDefinition
  3

  2
C
 70
     8
280
     0
  0
ATTDEF
  5
A2
330
91
100
AcDbEntity
  8
AM_6
100
AcDbText
 10
6.875
 20
-7.850375
 30
0.0
 40
0.5
  1
3.81
100
AcDbAttributeDefinition
  3

  2
D
 70
     8
280
     0
  0
ATTDEF
  5
A3
330
91
100
AcDbEntity
  8
AM_6
100
AcDbText
 10
6.875
 20
-8.350375
 30
0.0
 40
0.5
  1
0.41
100
AcDbAttributeDefinition
  3

  2
E
 70
     8
280
     0
  0
ATTDEF
  5
A4
330
91
100
AcDbEntity
  8
AM_6
100
AcDbText
 10
6.875
 20
-8.850375
 30
0.0
 40
0.5
  1
0.317
100
AcDbAttributeDefinition
  3

  2
F
 70
     8
280
     0
  0
ATTDEF
  5
A5
330
91
100
AcDbEntity
  8
AM_6
100
AcDbText
 10
6.875
 20
-9.350375
 30
0.0
 40
0.5
  1
3/8-16
100
AcDbAttributeDefinition
  3

  2
CS
 70
     8
280
     0
  0
ATTDEF
  5
A6
330
91
100
AcDbEntity
  8
AM_6
100
AcDbText
 10
6.875
 20
-9.850375
 30
0.0
 40
0.5
  1
0.3750
100
AcDbAttributeDefinition
  3

  2
NDM
 70
     8
280
     0
  0
ATTDEF
  5
A7
330
91
100
AcDbEntity
  8
AM_6
100
AcDbText
 10
6.875
 20
-10.350375
 30
0.0
 40
0.5
  1
0.3070
100
AcDbAttributeDefinition
  3

  2
KDM
 70
     8
280
     0
  0
ATTDEF
  5
A8
330
91
100
AcDbEntity
  8
AM_6
100
AcDbText
 10
6.875
 20
-10.850375
 30
0.0
 40
0.5
  1
1
100
AcDbAttributeDefinition
  3

  2
DD
 70
     8
280
     0
  0
ATTDEF
  5
A9
330
91
100
AcDbEntity
  8
AM_6
100
AcDbText
 10
6.875
 20
-11.350375
 30
0.0
 40
0.5
  1
baldor
100
AcDbAttributeDefinition
  3

  2
COMPANY
 70
     8
280
     0
  0
LINE
  5
AC
330
91
100
AcDbEntity
  8
AM_9
100
AcDbLine
 10
1.225563850703691
 20
-1.531452735467822
 30
0.0
 11
1.217730804683094
 21
-1.521682682241181
 31
0.0
  0
LINE
  5
AD
330
91
100
AcDbEntity
  8
AM_9
100
AcDbLine
 10
1.217816328964345
 20
-1.812960644470063
 30
0.0
 11
1.225563850703691
 21
-1.803297264532178
 31
0.0
  0
LWPOLYLINE
  5
AE
330
91
100
AcDbEntity
  8
AM_9
100
AcDbPolyline
 90
       26
 70
     0
 43
0.0
 10
1.217684314164586
 20
-1.521624695645518
 10
1.216999396072269
 20
-1.520784692857071
 10
1.206362002735438
 20
-1.510956770622181
 10
1.19468364102338
 20
-1.505732915908209
 10
1.181775253773751
 20
-1.505336035959137
 10
1.16838690396558
 20
-1.509969424418918
 10
1.154820036961259
 20
-1.519705223445364
 10
1.141698668648096
 20
-1.534257177892986
 10
1.12979606196759
 20
-1.552986480547189
 10
1.119434091176485
 20
-1.575615600676215
 10
1.111592513900957
 20
-1.600174513172282
 10
1.106115373294208
 20
-1.627015596075073
 10
1.103518187254809
 20
-1.65318187905951
 10
1.103419024349801
 20
-1.679788312255015
 10
1.10569528589723
 20
-1.704733590402661
 10
1.110111606136304
 20
-1.728647864413716
 10
1.116550127683316
 20
-1.751146781918626
 10
1.124630728156065
 20
-1.771455400446549
 10
1.134619270852658
 20
-1.790103298023223
 10
1.145646884395766
 20
-1.805463966392303
 10
1.158137890744344
 20
-1.817899895961858
 10
1.170906775726575
 20
-1.826030558172998
 10
1.184122051604662
 20
-1.829712723902181
 10
1.196798082246531
 20
-1.828443765370068
 10
1.208773773828
 20
-1.822036891818041
 10
1.217685908410276
 20
-1.81312331614948
  0
LWPOLYLINE
  5
AF
330
91
100
AcDbEntity
  8
AM_9
100
AcDbPolyline
 90
        6
 70
     0
 43
0.0
 10
1.250316389556263
 20
-1.667375
 10
1.249881487022084
 20
-1.646659004110847
 10
1.248175629209625
 20
-1.621720489956255
 10
1.245216622848759
 20
-1.598295787962261
 10
1.241041179679522
 20
-1.576692549032613
 10
1.231937313881441
 20
-1.547114795400335
  0
LWPOLYLINE
  5
B0
330
91
100
AcDbEntity
  8
AM_9
100
AcDbPolyline
 90
        8
 70
     0
 43
0.0
 10
1.22271437298833
 20
-1.806029447636718
 10
1.22886418038631
 20
-1.79467049681806
 10
1.236632271926409
 20
-1.774388127851825
 10
1.242516554667284
 20
-1.751299217417115
 10
1.246803816034648
 20
-1.725329832298562
 10
1.24928127022974
 20
-1.699273493763943
 10
1.250293238592868
 20
-1.672189561680349
 10
1.250316389556263
 20
-1.667375
  0
LWPOLYLINE
  5
B1
330
91
100
AcDbEntity
  8
AM_9
100
AcDbPolyline
 90
        3
 70
     0
 43
0.0
 10
1.217685908410276
 20
-1.81312331614948
 10
1.219566981798516
 20
-1.810667117539707
 10
1.22271437298833
 20
-1.806029447636718
  0
LINE
  5
B2
330
91
100
AcDbEntity
  8
AM_9
100
AcDbLine
 10
1.195284024933284
 20
-1.821025
 30
0.0
 11
1.656806198120635
 21
-1.821025
 31
0.0
  0
LINE
  5
B3
330
91
100
AcDbEntity
  8
AM_9
100
AcDbLine
 10
1.668648582102528
 20
-1.513725
 30
0.0
 11
1.195284024933284
 21
-1.513725
 31
0.0
  0
ELLIPSE
  5
B4
330
91
100
AcDbEntity
  8
AM_9
100
AcDbEllipse
 10
1.668648582102576
 20
-1.667375000000029
 30
0.0
 11
-2.822504710335442E-17
 21
-0.1536500000000316
 31
0.0
210
0.0
220
0.0
230
1.0
 40
0.4226182617408116
 41
3.446657288031084
 42
4.71238898038469
  0
LINE
  5
B5
330
91
100
AcDbEntity
  8
AM_9
100
AcDbLine
 10
1.660719268649208
 20
-1.503575241271258
 30
0.0
 11
1.638368756332123
 21
-1.53145273546782
 31
0.0
  0
LWPOLYLINE
  5
B6
330
91
100
AcDbEntity
  8
AM_9
100
AcDbPolyline
 90
       39
 70
     0
 43
0.0
 10
-0.1210596296870884
 20
-1.550738459354553
 10
-0.1380706071265528
 20
-1.568545115771168
 10
-0.1525342706923626
 20
-1.589176959092454
 10
-0.1643967438447603
 20
-1.613961369756577
 10
-0.1718671759439518
 20
-1.641372189190409
 10
-0.1741232344449831
 20
-1.666986386332228
 10
-0.1718626982362593
 20
-1.693403432271583
 10
-0.1655966254627791
 20
-1.717472425947527
 10
-0.1552349511698023
 20
-1.74081454382495
 10
-0.1412573633607875
 20
-1.762208282325705
 10
-0.1236562657339956
 20
-1.781614242274473
 10
-0.1024002684883928
 20
-1.798673195922009
 10
-0.0781056686083398
 20
-1.812525268227061
 10
-0.0508998687165548
 20
-1.822738865708289
 10
-0.0216203839008335
 20
-1.828610321434017
 10
0.0085516278986318
 20
-1.82967777892769
 10
0.0393336208691112
 20
-1.82565141594891
 10
0.0684408241020605
 20
-1.81672944446062
 10
0.0963944229988956
 20
-1.802582843527011
 10
0.1203075545524224
 20
-1.784687488178497
 10
0.1413136064491949
 20
-1.762135408416193
 10
0.1565972625778261
 20
-1.738259898216065
 10
0.1676657698532875
 20
-1.711102222146959
 10
0.1730481175155231
 20
-1.685357440638728
 10
0.173844925862247
 20
-1.658209429079859
 10
0.1702736894798117
 20
-1.633486648408039
 10
0.1624509144122013
 20
-1.609027034726319
 10
0.150986632057124
 20
-1.586610988033972
 10
0.1357406240249631
 20
-1.565776601548725
 10
0.116822232929838
 20
-1.547032391076655
 10
0.0946425783032141
 20
-1.531091068578944
 10
0.0691608229352961
 20
-1.518310850865356
 10
0.0412292577860673
 20
-1.509521488292913
 10
0.0116219643831877
 20
-1.505239446203771
 10
-0.0191288069462426
 20
-1.505864163129056
 10
-0.0490551602363756
 20
-1.511492688413547
 10
-0.0784268920163274
 20
-1.522376183284307
 10
-0.10056079052441
 20
-1.534842052695837
 10
-0.1210596296870885
 20
-1.550738459354553
  0
LINE
  5
B7
330
91
100
AcDbEntity
  8
AM_9
100
AcDbLine
 10
1.223148360466238
 20
-1.529416068771473
 30
0.0
 11
1.217684314164586
 21
-1.521624695645518
 31
0.0
  0
LWPOLYLINE
  5
B8
330
91
100
AcDbEntity
  8
AM_9
100
AcDbPolyline
 90
        3
 70
     0
 43
0.0
 10
1.231937313881441
 20
-1.547114795400335
 10
1.224952589298932
 20
-1.532477157395507
 10
1.223148360466238
 20
-1.529416068771473
  0
LINE
  5
B9
330
91
100
AcDbEntity
  8
AM_9
100
AcDbLine
 10
1.31
 20
-1.984375
 30
0.0
 11
1.31
 21
-1.350375
 31
0.0
  0
LINE
  5
BA
330
91
100
AcDbEntity
  8
AM_9
100
AcDbLine
 10
-1.31
 20
-1.350375
 30
0.0
 11
-1.31
 21
-1.984375
 31
0.0
  0
LINE
  5
BB
330
91
100
AcDbEntity
  8
AM_9
100
AcDbLine
 10
0.15365
 20
-1.667375
 30
0.0
 11
-0.15365
 21
-1.667375
 31
0.0
  0
LINE
  5
BC
330
91
100
AcDbEntity
  8
AM_9
100
AcDbLine
 10
1.71591683909683
 20
-1.667375
 30
0.0
 11
1.615946645935733
 21
-1.667375
 31
0.0
  0
ARC
  5
BE
330
91
100
AcDbEntity
  8
AM_5
100
AcDbCircle
 10
0.0000000000000001
 20
-1.667375
 30
0.0
 40
0.1874999999999996
100
AcDbArc
 50
74.99999999999996
 51
14.99999999999987
  0
ELLIPSE
  5
BF
330
91
100
AcDbEntity
  8
AM_9
100
AcDbEllipse
 10
1.195284024933284
 20
-1.667375
 30
0.0
 11
-2.822504710334864E-17
 21
-0.1536500000000001
 31
0.0
210
0.0
220
0.0
230
1.0
 40
0.4226182617406989
 41
0.0
 42
6.283185307179586
  0
LINE
  5
C2
330
91
100
AcDbEntity
  8
AM_7
100
AcDbLine
 10
-0.1613325000000001
 20
-1.667375
 30
0.0
 11
0.1613325000000001
 21
-1.667375
 31
0.0
  0
LWPOLYLINE
  5
C4
330
91
100
AcDbEntity
  8
AM_4
100
AcDbPolyline
 90
       11
 70
     0
 43
0.0
 10
1.656849998542957
 20
-1.821024999327499
 10
1.64935923158306
 20
-1.820021716688784
 10
1.638291466109967
 20
-1.814922203614806
 10
1.627459803395313
 20
-1.805694800313571
 10
1.617214338916251
 20
-1.792528009545071
 10
1.607919774943726
 20
-1.775855178782846
 10
1.599910109475777
 20
-1.756033694300662
 10
1.593503412558469
 20
-1.733707860650557
 10
1.588981005999465
 20
-1.709473999109215
 10
1.586498691446531
 20
-1.684045305966226
 10
1.586046247263913
 20
-1.667375
  0
ELLIPSE
  5
C5
330
91
100
AcDbEntity
  8
AM_4
100
AcDbEllipse
 10
1.668648582102523
 20
-1.66737500000001
 30
0.0
 11
-2.822504710335051E-17
 21
-0.1536500000000103
 31
0.0
210
0.0
220
0.0
230
1.0
 40
0.4226182617406896
 41
1.570796326794897
 42
3.446657288030421
  0
LWPOLYLINE
  5
C6
330
91
100
AcDbEntity
  8
AM_4
100
AcDbPolyline
 90
       14
 70
     0
 43
0.0
 10
1.660952272291752
 20
-1.50328462023525
 10
1.665605381725764
 20
-1.497899472185907
 10
1.678711108023097
 20
-1.486611115849509
 10
1.69144615883847
 20
-1.4808971591861
 10
1.704009864618884
 20
-1.480240128966385
 10
1.715651105535827
 20
-1.484533322171802
 10
1.726477909908139
 20
-1.493451016102375
 10
1.736289552648598
 20
-1.506829347795305
 10
1.744878175070563
 20
-1.524137372346376
 10
1.752356864937151
 20
-1.545712160993076
 10
1.758342321238348
 20
-1.570314649917972
 10
1.76295676419834
 20
-1.598594315209771
 10
1.765894760625679
 20
-1.628668876256471
 10
1.76719475769525
 20
-1.667375
  0
LWPOLYLINE
  5
C7
330
91
100
AcDbEntity
  8
AM_4
100
AcDbPolyline
 90
       20
 70
     0
 43
0.0
 10
0.15365
 20
-1.667375
 10
0.1515395991881519
 20
-1.692753581085125
 10
0.1450242496564725
 20
-1.718132162170251
 10
0.1346546261703944
 20
-1.741378068523618
 10
0.1201353245703577
 20
-1.763165533406881
 10
0.1026378893883346
 20
-1.781715658393714
 10
0.081686283635517
 20
-1.797512133692954
 10
0.0589983462357651
 20
-1.809246482833742
 10
0.0339445512609399
 20
-1.817228561651679
 10
0.0086983723729996
 20
-1.820778588022121
 10
-0.0175300423312108
 20
-1.820021716688784
 10
-0.042468334342848
 20
-1.815039359539274
 10
-0.0669025809757279
 20
-1.805694800313571
 10
-0.0888176653901712
 20
-1.792753406492664
 10
-0.1088134794556346
 20
-1.775855178782846
 10
-0.1252698961683864
 20
-1.75634564467543
 10
-0.1385939179686963
 20
-1.733707860650558
 10
-0.1476659114004807
 20
-1.709837938078581
 10
-0.1527429978722181
 20
-1.684045305966226
 10
-0.15365
 20
-1.667375
  0
LWPOLYLINE
  5
C8
330
91
100
AcDbEntity
  8
AM_4
100
AcDbPolyline
 90
       11
 70
     0
 43
0.0
 10
1.71591683909683
 20
-1.667375
 10
1.715159463142617
 20
-1.693117001669665
 10
1.712912190944498
 20
-1.718132162170251
 10
1.709183101455433
 20
-1.741693464068365
 10
1.704033921022635
 20
-1.763165533406881
 10
1.697500187906907
 20
-1.78195107295949
 10
1.689711202061004
 20
-1.797512133692954
 10
1.680774652251414
 20
-1.809375155758631
 10
1.67090387148812
 20
-1.817228561651679
 10
1.660342766452992
 20
-1.820783641025082
 10
1.656849998542957
 20
-1.821024999327499
  0
LINE
  5
C9
330
91
100
AcDbEntity
  8
AM_4
100
AcDbLine
 10
1.828125
 20
-1.878708333333333
 30
0.0
 11
1.828125
 21
-1.667375
 31
0.0
  0
LINE
  5
CA
330
91
100
AcDbEntity
  8
AM_4
100
AcDbLine
 10
-1.828125
 20
-1.667375
 30
0.0
 11
-1.828125
 21
-1.878708333333333
 31
0.0
  0
LINE
  5
CB
330
91
100
AcDbEntity
  8
AM_4
100
AcDbLine
 10
-1.722458333333333
 20
-1.984375
 30
0.0
 11
1.722458333321029
 21
-1.984375
 31
0.0
  0
LINE
  5
CC
330
91
100
AcDbEntity
  8
AM_4
100
AcDbLine
 10
-1.828125
 20
-1.878708333333333
 30
0.0
 11
1.828125
 21
-1.878708333333333
 31
0.0
  0
ARC
  5
CD
330
91
100
AcDbEntity
  8
AM_4
100
AcDbCircle
 10
1.722458333333334
 20
-1.878708333333334
 30
0.0
 40
0.1056666666666659
100
AcDbArc
 50
270.0
 51
0.0000008537736463
  0
ARC
  5
CE
330
91
100
AcDbEntity
  8
AM_4
100
AcDbCircle
 10
-1.722458333333334
 20
-1.878708333333334
 30
0.0
 40
0.1056666666666659
100
AcDbArc
 50
179.9999991462263
 51
270.0
  0
LINE
  5
CF
330
91
100
AcDbEntity
  8
AM_4
100
AcDbLine
 10
-0.15365
 20
-1.667375
 30
0.0
 11
-1.875
 21
-1.667375
 31
0.0
  0
ARC
  5
D0
330
91
100
AcDbEntity
  8
AM_4
100
AcDbCircle
 10
0.0
 20
-1.667375
 30
0.0
 40
0.15365
100
AcDbArc
 50
0.0
 51
180.0
  0
LINE
  5
D1
330
91
100
AcDbEntity
  8
AM_4
100
AcDbLine
 10
1.615946645935733
 20
-1.667375
 30
0.0
 11
0.15365
 21
-1.667375
 31
0.0
  0
LINE
  5
D2
330
91
100
AcDbEntity
  8
AM_4
100
AcDbLine
 10
-1.875
 20
-1.350375
 30
0.0
 11
1.875
 21
-1.350375
 31
0.0
  0
LINE
  5
D3
330
91
100
AcDbEntity
  8
AM_4
100
AcDbLine
 10
1.71591683909683
 20
-1.667375
 30
0.0
 11
1.875
 21
-1.667375
 31
0.0
  0
LWPOLYLINE
  5
D4
330
91
100
AcDbEntity
  8
AM_4
100
AcDbPolyline
 90
       20
 70
     0
 43
0.0
 10
-0.1789417607470984
 20
-1.667375
 10
-0.1775544043661239
 20
-1.644093660586492
 10
-0.1733262199381616
 20
-1.620812321172984
 10
-0.1630273679391601
 20
-1.590135661351644
 10
-0.1471956902587711
 20
-1.560823797452762
 10
-0.1274859376883898
 20
-1.535863540448502
 10
-0.1029704093318451
 20
-1.514077054368458
 10
-0.0768952656293091
 20
-1.498099132260832
 10
-0.0474915673137428
 20
-1.486611115849509
 10
-0.0188980122079816
 20
-1.480925516730777
 10
0.0111514790280457
 20
-1.480240128966385
 10
0.0391341337019712
 20
-1.484422077974399
 10
0.0667966569708152
 20
-1.493451016102374
 10
0.092027384873843
 20
-1.506611501685282
 10
0.1154068158291718
 20
-1.524137372346376
 10
0.1358485487913043
 20
-1.545400438991017
 10
0.1530620304673608
 20
-1.570314649917972
 10
0.1662962895631634
 20
-1.598197784430437
 10
0.1750804621692249
 20
-1.62866887625647
 10
0.1789417607470981
 20
-1.667375
  0
LWPOLYLINE
  5
D5
330
91
100
AcDbEntity
  8
AM_4
100
AcDbPolyline
 90
        8
 70
     0
 43
0.0
 10
1.615946645935732
 20
-1.667375
 10
1.616666315552194
 20
-1.643923747672894
 10
1.618800089558374
 20
-1.620812321172984
 10
1.624100299772152
 20
-1.589696107221946
 10
1.631874999123903
 20
-1.560823797452761
 10
1.641690499171764
 20
-1.535511994364871
 10
1.653245458117283
 20
-1.514077054368457
 10
1.660952272291752
 20
-1.50328462023525
  0
LINE
  5
D6
330
91
100
AcDbEntity
  8
AM_4
100
AcDbLine
 10
1.875
 20
-1.667375
 30
0.0
 11
1.875
 21
-1.350375
 31
0.0
  0
LINE
  5
D7
330
91
100
AcDbEntity
  8
AM_4
100
AcDbLine
 10
-1.875
 20
-1.350375
 30
0.0
 11
-1.875
 21
-1.667375
 31
0.0
  0
CIRCLE
  5
D8
330
91
100
AcDbEntity
  8
AM_5
100
AcDbCircle
 10
0.0000000000000001
 20
-1.667375
 30
0.0
 40
0.1875
  0
ENDBLK
  5
94
330
91
100
AcDbEntity
  8
0
100
AcDbBlockEnd
  0
BLOCK
  5
DB
330
D9
100
AcDbEntity
  8
0
100
AcDbBlockBegin
  2
3_070007i_0_in_070760_4
 70
     2
 10
0.0
 20
0.0
 30
0.0
  3
3_070007i_0_in_070760_4
  1

  0
ATTDEF
  5
DD
330
D9
100
AcDbEntity
  8
AM_6
100
AcDbText
 10
6.9685
 20
0.953125
 30
0.0
 40
0.5
  1
S-2000 Insert -Inch
100
AcDbAttributeDefinition
  3

  2
NN
 70
     8
280
     0
  0
ATTDEF
  5
DE
330
D9
100
AcDbEntity
  8
AM_6
100
AcDbText
 10
6.9685
 20
0.453125
 30
0.0
 40
0.5
  1
S-2000 Bearings
100
AcDbAttributeDefinition
  3

  2
NT
 70
     8
280
     0
  0
ATTDEF
  5
DF
330
D9
100
AcDbEntity
  8
AM_6
100
AcDbText
 10
6.9685
 20
-0.046875
 30
0.0
 40
0.5
  1
070007i
100
AcDbAttributeDefinition
  3

  2
NB
 70
     8
280
     0
  0
ATTDEF
  5
E0
330
D9
100
AcDbEntity
  8
AM_6
100
AcDbText
 10
6.9685
 20
-0.546875
 30
0.0
 40
0.5
  1
$PN.i
100
AcDbAttributeDefinition
  3

  2
NBSYN
 70
     8
280
     0
  0
ATTDEF
  5
E1
330
D9
100
AcDbEntity
  8
AM_6
100
AcDbText
 10
6.9685
 20
-1.046875
 30
0.0
 40
0.5
  1
070007i
100
AcDbAttributeDefinition
  3

  2
LINA
 70
     8
280
     0
  0
ATTDEF
  5
E2
330
D9
100
AcDbEntity
  8
AM_6
100
AcDbText
 10
6.9685
 20
-1.546875
 30
0.0
 40
0.5
  1
2-3/16
100
AcDbAttributeDefinition
  3

  2
SS
 70
     8
280
     0
  0
ATTDEF
  5
E3
330
D9
100
AcDbEntity
  8
AM_6
100
AcDbText
 10
6.9685
 20
-2.046875
 30
0.0
 40
0.5
  1
2.62
100
AcDbAttributeDefinition
  3

  2
CC
 70
     8
280
     0
  0
ATTDEF
  5
E4
330
D9
100
AcDbEntity
  8
AM_6
100
AcDbText
 10
6.9685
 20
-2.546875
 30
0.0
 40
0.5
  1
2.187500
100
AcDbAttributeDefinition
  3

  2
SS1
 70
     8
280
     0
  0
ATTDEF
  5
E5
330
D9
100
AcDbEntity
  8
AM_6
100
AcDbText
 10
6.9685
 20
-3.046875
 30
0.0
 40
0.5
  1
070007
100
AcDbAttributeDefinition
  3

  2
PN
 70
     8
280
     0
  0
ATTDEF
  5
E6
330
D9
100
AcDbEntity
  8
AM_6
100
AcDbText
 10
6.9685
 20
-3.546875
 30
0.0
 40
0.5
  1
INS-S2-203R
100
AcDbAttributeDefinition
  3

  2
DESCRIPTION
 70
     8
280
     0
  0
ATTDEF
  5
E7
330
D9
100
AcDbEntity
  8
AM_6
100
AcDbText
 10
6.9685
 20
-4.046875
 30
0.0
 40
0.5
  1
Contact Seal
100
AcDbAttributeDefinition
  3

  2
ST
 70
     8
280
     0
  0
ATTDEF
  5
E8
330
D9
100
AcDbEntity
  8
AM_6
100
AcDbText
 10
6.9685
 20
-4.546875
 30
0.0
 40
0.5
  1
1
100
AcDbAttributeDefinition
  3

  2
ST1
 70
     8
280
     0
  0
ATTDEF
  5
E9
330
D9
100
AcDbEntity
  8
AM_6
100
AcDbText
 10
6.9685
 20
-5.046875
 30
0.0
 40
0.5
  1
3.9370
100
AcDbAttributeDefinition
  3

  2
A
 70
     8
280
     0
  0
ATTDEF
  5
EA
330
D9
100
AcDbEntity
  8
AM_6
100
AcDbText
 10
6.9685
 20
-5.546875
 30
0.0
 40
0.5
  1
1-3/64
100
AcDbAttributeDefinition
  3

  2
B
 70
     8
280
     0
  0
ATTDEF
  5
EB
330
D9
100
AcDbEntity
  8
AM_6
100
AcDbText
 10
6.9685
 20
-6.046875
 30
0.0
 40
0.5
  1
2-15/16
100
AcDbAttributeDefinition
  3

  2
C
 70
     8
280
     0
  0
ATTDEF
  5
EC
330
D9
100
AcDbEntity
  8
AM_6
100
AcDbText
 10
6.9685
 20
-6.546875
 30
0.0
 40
0.5
  1
1.050
100
AcDbAttributeDefinition
  3

  2
D
 70
     8
280
     0
  0
ATTDEF
  5
ED
330
D9
100
AcDbEntity
  8
AM_6
100
AcDbText
 10
6.9685
 20
-7.046875
 30
0.0
 40
0.5
  1
3-21/32
100
AcDbAttributeDefinition
  3

  2
E
 70
     8
280
     0
  0
ATTDEF
  5
EE
330
D9
100
AcDbEntity
  8
AM_6
100
AcDbText
 10
6.9685
 20
-7.546875
 30
0.0
 40
0.5
  1
0.40625
100
AcDbAttributeDefinition
  3

  2
F
 70
     8
280
     0
  0
ATTDEF
  5
EF
330
D9
100
AcDbEntity
  8
AM_6
100
AcDbText
 10
6.9685
 20
-8.046875
 30
0.0
 40
0.5
  1
1
100
AcDbAttributeDefinition
  3

  2
DD
 70
     8
280
     0
  0
ATTDEF
  5
F0
330
D9
100
AcDbEntity
  8
AM_6
100
AcDbText
 10
6.9685
 20
-8.546875
 30
0.0
 40
0.5
  1
baldor
100
AcDbAttributeDefinition
  3

  2
COMPANY
 70
     8
280
     0
  0
LINE
  5
F1
330
D9
100
AcDbEntity
  8
AM_9
100
AcDbLine
 10
1.187263201018011
 20
-1.462375
 30
0.0
 11
0.991156738268439
 21
-1.462375
 31
0.0
  0
LINE
  5
F2
330
D9
100
AcDbEntity
  8
AM_9
100
AcDbLine
 10
0.991230190518359
 20
-1.872375
 30
0.0
 11
1.187263201018011
 21
-1.872375
 31
0.0
  0
LWPOLYLINE
  5
F3
330
D9
100
AcDbEntity
  8
AM_9
100
AcDbPolyline
 90
       21
 70
     0
 43
0.0
 10
0.9912807621024943
 20
-1.462375000598485
 10
0.9817677725008773
 20
-1.463560919992238
 10
0.9665998142692884
 20
-1.470013227981815
 10
0.9512845801542088
 20
-1.481828382857473
 10
0.9363041615986458
 20
-1.498841311747424
 10
0.9223478978037626
 20
-1.520456848137522
 10
0.9098607191976659
 20
-1.546571050986026
 10
0.8996338345651546
 20
-1.576119082465577
 10
0.8922170350969668
 20
-1.608386661326747
 10
0.8879804805530923
 20
-1.642375272164696
 10
0.8872097125363625
 20
-1.676585247936746
 10
0.8897971433870957
 20
-1.710531960913158
 10
0.8955967158644388
 20
-1.742967788977798
 10
0.9042565973765444
 20
-1.773310554185032
 10
0.9155249208420962
 20
-1.801010862579423
 10
0.9287415117412195
 20
-1.82500519505583
 10
0.9435329512696529
 20
-1.84482281651697
 10
0.959080215576122
 20
-1.859612562367084
 10
0.9746693329036318
 20
-1.868824829596604
 10
0.9898184761551077
 20
-1.872346255466082
 10
0.9912667978224846
 20
-1.872374999263455
  0
LWPOLYLINE
  5
F4
330
D9
100
AcDbEntity
  8
AM_9
100
AcDbPolyline
 90
       11
 70
     0
 43
0.0
 10
0.9912667978224846
 20
-1.872374999263455
 10
1.003802918371051
 20
-1.870060776092236
 10
1.016521393800403
 20
-1.86221902015236
 10
1.027673597480799
 20
-1.849010464307554
 10
1.037179259771529
 20
-1.830877689581855
 10
1.045069455505341
 20
-1.807902891358673
 10
1.051248706954836
 20
-1.780998733254016
 10
1.055800005746392
 20
-1.750562443334288
 10
1.058759614214757
 20
-1.717710312723606
 10
1.059948640093625
 20
-1.69274313203633
 10
1.060343758159011
 20
-1.667375
  0
LWPOLYLINE
  5
F5
330
D9
100
AcDbEntity
  8
AM_9
100
AcDbPolyline
 90
       12
 70
     0
 43
0.0
 10
1.085999105122733
 20
-1.667375
 10
1.08616176233639
 20
-1.657031547522722
 10
1.088739689646789
 20
-1.623023783836642
 10
1.094409877144046
 20
-1.590468384884041
 10
1.102847170245061
 20
-1.560053600926211
 10
1.113789093062649
 20
-1.532432946768477
 10
1.126645538598998
 20
-1.50857403062212
 10
1.141018527423363
 20
-1.489031766026592
 10
1.156192642157241
 20
-1.474535917379447
 10
1.171520680293251
 20
-1.465612237715455
 10
1.186529515648283
 20
-1.462382330194224
 10
1.187258774405259
 20
-1.462375000267581
  0
LWPOLYLINE
  5
F6
330
D9
100
AcDbEntity
  8
AM_9
100
AcDbPolyline
 90
       11
 70
     0
 43
0.0
 10
1.187270413385766
 20
-1.872374999289625
 10
1.177563519845764
 20
-1.871132559447961
 10
1.16249332011631
 20
-1.864548984341719
 10
1.147413980184277
 20
-1.852548897281876
 10
1.13281099579651
 20
-1.8353271331698
 10
1.1193126935682
 20
-1.81347348665385
 10
1.107383045598463
 20
-1.787230437236501
 10
1.097685640642459
 20
-1.757587331163462
 10
1.09071833186564
 20
-1.725296540617336
 10
1.086793840225052
 20
-1.691333571218725
 10
1.085999105122733
 20
-1.667375
  0
LINE
  5
F7
330
D9
100
AcDbEntity
  8
AM_9
100
AcDbLine
 10
1.258873224605711
 20
-1.643214704711779
 30
0.0
 11
1.259272592436419
 21
-1.667375
 31
0.0
  0
LWPOLYLINE
  5
F8
330
D9
100
AcDbEntity
  8
AM_9
100
AcDbPolyline
 90
       11
 70
     0
 43
0.0
 10
1.187258774405259
 20
-1.462375000267581
 10
1.200580534138511
 20
-1.4649697362227
 10
1.213491982702566
 20
-1.473149543775759
 10
1.2249567819925
 20
-1.486741491030943
 10
1.234844940827152
 20
-1.505289395415116
 10
1.243118787522108
 20
-1.528599482383055
 10
1.249669078492284
 20
-1.555803635743626
 10
1.25451480876272
 20
-1.586386909521858
 10
1.257665892774119
 20
-1.619302054067791
 10
1.258870822737971
 20
-1.643165928435694
 10
1.258873224605711
 20
-1.643214704711779
  0
LWPOLYLINE
  5
F9
330
D9
100
AcDbEntity
  8
AM_9
100
AcDbPolyline
 90
       11
 70
     0
 43
0.0
 10
1.060343758159011
 20
-1.667375
 10
1.059626033961841
 20
-1.633301809952118
 10
1.057461561710305
 20
-1.600197377970733
 10
1.053789698130665
 20
-1.569033066171018
 10
1.048547038566564
 20
-1.540603904633593
 10
1.041552926499962
 20
-1.515456647604525
 10
1.032824503607823
 20
-1.494556480916717
 10
1.022247645105918
 20
-1.478444561302902
 10
1.01000597544279
 20
-1.467704080184507
 10
0.9964392565428248
 20
-1.462771399590419
 10
0.9912807621024943
 20
-1.462375000598485
  0
LINE
  5
FA
330
D9
100
AcDbEntity
  8
AM_9
100
AcDbLine
 10
-1.09375
 20
0.953125
 30
0.0
 11
-1.09375
 21
-1.984375
 31
0.0
  0
LINE
  5
FB
330
D9
100
AcDbEntity
  8
AM_9
100
AcDbLine
 10
1.09375
 20
-1.984375
 30
0.0
 11
1.09375
 21
0.953125
 31
0.0
  0
LWPOLYLINE
  5
FC
330
D9
100
AcDbEntity
  8
AM_9
100
AcDbPolyline
 90
       11
 70
     0
 43
0.0
 10
1.258663751904963
 20
-1.697164398337008
 10
1.258465837888455
 20
-1.701551491401275
 10
1.25604770321035
 20
-1.734758885282032
 10
1.251978988272666
 20
-1.766026355867768
 10
1.246239731656208
 20
-1.794538968963368
 10
1.238719545099824
 20
-1.819655176973312
 10
1.22948190780081
 20
-1.840503295183939
 10
1.218495110255592
 20
-1.856506762130507
 10
1.205971968495443
 20
-1.86714706533389
 10
1.192238957187316
 20
-1.872007720287751
 10
1.187270413385766
 20
-1.872374999289625
  0
LINE
  5
FD
330
D9
100
AcDbEntity
  8
AM_9
100
AcDbLine
 10
1.259272592436419
 20
-1.667375
 30
0.0
 11
1.258663751904963
 21
-1.697164398337008
 31
0.0
  0
LWPOLYLINE
  5
FE
330
D9
100
AcDbEntity
  8
AM_9
100
AcDbPolyline
 90
       21
 70
     0
 43
0.0
 10
-0.2050000000000001
 20
-1.667375
 10
-0.2047633457483493
 20
-1.657527551704021
 10
-0.2001448715926319
 20
-1.623023783836642
 10
-0.1902039849299882
 20
-1.590906417452964
 10
-0.1746628675501592
 20
-1.560053600926211
 10
-0.1546295751160205
 20
-1.532784158931824
 10
-0.1296427866278933
 20
-1.50857403062212
 10
-0.1014919388188296
 20
-1.489261591311056
 10
-0.0695563671712618
 20
-1.474535917379447
 10
-0.0366688362279888
 20
-1.465681181429165
 10
-0.0017335875807116
 20
-1.462382330194224
 10
0.0319009665459805
 20
-1.46487233746582
 10
0.0655856093551429
 20
-1.473149543775759
 10
0.0964814979249858
 20
-1.486498465982591
 10
0.12551197865683
 20
-1.505289395415116
 10
0.1505419316099102
 20
-1.528227140414748
 10
0.1719791576847949
 20
-1.555803635743626
 10
0.1881198969557809
 20
-1.585913939551793
 10
0.1992836969483429
 20
-1.619302054067791
 10
0.203544767014277
 20
-1.642992058809412
 10
0.2050000000000001
 20
-1.667375
  0
LWPOLYLINE
  5
FF
330
D9
100
AcDbEntity
  8
AM_9
100
AcDbPolyline
 90
       20
 70
     0
 43
0.0
 10
0.2050000000000001
 20
-1.667375
 10
0.2022123957651323
 20
-1.701066942641016
 10
0.1936089150950906
 20
-1.734758885282032
 10
0.1799288980105058
 20
-1.765612424949583
 10
0.1607928014479619
 20
-1.794538968963368
 10
0.1375900678653783
 20
-1.819342013607561
 10
0.1097797495292406
 20
-1.840503295183939
 10
0.0795037556076581
 20
-1.856330425548667
 10
0.0460013251138731
 20
-1.86714706533389
 10
0.0124067901828451
 20
-1.871999220358585
 10
-0.0225356821021837
 20
-1.871132559447961
 10
-0.0555671354045747
 20
-1.864700349265952
 10
-0.0879524176213551
 20
-1.852548897281876
 10
-0.1171300288064872
 20
-1.835617552143599
 10
-0.1438062314277615
 20
-1.81347348665385
 10
-0.1660134283604555
 20
-1.787643622691074
 10
-0.1840835009066647
 20
-1.757587331163461
 10
-0.1965010689564304
 20
-1.725790151279272
 10
-0.2035951543263181
 20
-1.691333571218725
 10
-0.2050000000000001
 20
-1.667375
  0
LINE
  5
100
330
D9
100
AcDbEntity
  8
AM_9
100
AcDbLine
 10
-1.31
 20
-1.350375
 30
0.0
 11
-1.31
 21
-1.984375
 31
0.0
  0
LINE
  5
101
330
D9
100
AcDbEntity
  8
AM_9
100
AcDbLine
 10
-1.31
 20
-0.944125
 30
0.0
 11
-1.31
 21
-1.109375
 31
0.0
  0
LINE
  5
102
330
D9
100
AcDbEntity
  8
AM_9
100
AcDbLine
 10
1.31
 20
-1.109375
 30
0.0
 11
1.31
 21
-0.944125
 31
0.0
  0
LINE
  5
103
330
D9
100
AcDbEntity
  8
AM_9
100
AcDbLine
 10
1.31
 20
-1.984375
 30
0.0
 11
1.31
 21
-1.350375
 31
0.0
  0
LINE
  5
104
330
D9
100
AcDbEntity
  8
AM_9
100
AcDbLine
 10
-1.31
 20
0.953125
 30
0.0
 11
-1.31
 21
0.750375
 31
0.0
  0
LINE
  5
105
330
D9
100
AcDbEntity
  8
AM_9
100
AcDbLine
 10
1.31
 20
0.750375
 30
0.0
 11
1.31
 21
0.953125
 31
0.0
  0
LINE
  5
106
330
D9
100
AcDbEntity
  8
AM_9
100
AcDbLine
 10
1.31
 20
0.953125
 30
0.0
 11
-1.31
 21
0.953125
 31
0.0
  0
LINE
  5
107
330
D9
100
AcDbEntity
  8
AM_9
100
AcDbLine
 10
1.470112500000001
 20
0.750375
 30
0.0
 11
-1.470112500000001
 21
0.750375
 31
0.0
  0
ARC
  5
108
330
D9
100
AcDbEntity
  8
AM_9
100
AcDbCircle
 10
-1.4701125
 20
0.6456875000000001
 30
0.0
 40
0.1046874999999999
100
AcDbArc
 50
90.0
 51
180.0
  0
ARC
  5
109
330
D9
100
AcDbEntity
  8
AM_9
100
AcDbCircle
 10
1.4701125
 20
0.6456875000000001
 30
0.0
 40
0.1046875
100
AcDbArc
 50
0.0
 51
90.0
  0
LINE
  5
10A
330
D9
100
AcDbEntity
  8
AM_9
100
AcDbLine
 10
-1.5748
 20
-0.6203125000000002
 30
0.0
 11
-1.5748
 21
-0.8394375000000002
 31
0.0
  0
LINE
  5
10B
330
D9
100
AcDbEntity
  8
AM_9
100
AcDbLine
 10
1.5748
 20
-0.8394375000000002
 30
0.0
 11
1.5748
 21
-0.6203125000000002
 31
0.0
  0
LINE
  5
10C
330
D9
100
AcDbEntity
  8
AM_9
100
AcDbLine
 10
1.4701125
 20
-0.9441250000000001
 30
0.0
 11
-1.4701125
 21
-0.9441250000000001
 31
0.0
  0
ARC
  5
10D
330
D9
100
AcDbEntity
  8
AM_9
100
AcDbCircle
 10
-1.470112499999999
 20
-0.8394374999999997
 30
0.0
 40
0.1046875000000005
100
AcDbArc
 50
179.9999991462263
 51
270.0
  0
ARC
  5
10E
330
D9
100
AcDbEntity
  8
AM_9
100
AcDbCircle
 10
1.470112499999999
 20
-0.8394375000000001
 30
0.0
 40
0.1046875
100
AcDbArc
 50
270.0
 51
0.0
  0
LINE
  5
10F
330
D9
100
AcDbEntity
  8
AM_9
100
AcDbLine
 10
1.5748
 20
-0.8394375000000002
 30
0.0
 11
-1.5748
 21
-0.8394375000000002
 31
0.0
  0
LINE
  5
110
330
D9
100
AcDbEntity
  8
AM_9
100
AcDbLine
 10
-1.5748
 20
0.6456874999999999
 30
0.0
 11
-1.5748
 21
0.4265625000000001
 31
0.0
  0
LINE
  5
111
330
D9
100
AcDbEntity
  8
AM_9
100
AcDbLine
 10
1.5748
 20
0.4265625000000001
 30
0.0
 11
1.5748
 21
0.6456874999999999
 31
0.0
  0
LINE
  5
112
330
D9
100
AcDbEntity
  8
AM_9
100
AcDbLine
 10
1.5748
 20
0.6456874999999999
 30
0.0
 11
-1.5748
 21
0.6456874999999999
 31
0.0
  0
LINE
  5
113
330
D9
100
AcDbEntity
  8
AM_9
100
AcDbLine
 10
-1.88976
 20
-0.0445312499999975
 30
0.0
 11
-1.88976
 21
-0.1492187500000026
 31
0.0
  0
LINE
  5
114
330
D9
100
AcDbEntity
  8
AM_9
100
AcDbLine
 10
1.88976
 20
-0.1492187500000026
 30
0.0
 11
1.88976
 21
-0.0445312499999975
 31
0.0
  0
LINE
  5
115
330
D9
100
AcDbEntity
  8
AM_9
100
AcDbLine
 10
1.88976
 20
-0.0445312499999975
 30
0.0
 11
1.9685
 21
0.0009293101959935
 31
0.0
  0
LINE
  5
116
330
D9
100
AcDbEntity
  8
AM_9
100
AcDbLine
 10
-1.968499999999999
 20
0.0009293101959935
 30
0.0
 11
-1.88976
 21
-0.0445312499999975
 31
0.0
  0
LINE
  5
117
330
D9
100
AcDbEntity
  8
AM_9
100
AcDbLine
 10
1.88976
 20
-0.0445312499999975
 30
0.0
 11
-1.88976
 21
-0.0445312499999975
 31
0.0
  0
LINE
  5
118
330
D9
100
AcDbEntity
  8
AM_9
100
AcDbLine
 10
1.8638125
 20
-0.6203125000000002
 30
0.0
 11
-1.8638125
 21
-0.6203125000000002
 31
0.0
  0
ARC
  5
119
330
D9
100
AcDbEntity
  8
AM_9
100
AcDbCircle
 10
-1.8638125
 20
-0.5156250000000009
 30
0.0
 40
0.1046874999999994
100
AcDbArc
 50
179.9999991462263
 51
270.0
  0
ARC
  5
11A
330
D9
100
AcDbEntity
  8
AM_9
100
AcDbCircle
 10
1.8638125
 20
-0.515625000000001
 30
0.0
 40
0.1046874999999992
100
AcDbArc
 50
270.0
 51
0.0
  0
LINE
  5
11B
330
D9
100
AcDbEntity
  8
AM_9
100
AcDbLine
 10
1.863812501559965
 20
0.4265624999999998
 30
0.0
 11
-1.863812501559965
 21
0.4265624999999998
 31
0.0
  0
ARC
  5
11C
330
D9
100
AcDbEntity
  8
AM_9
100
AcDbCircle
 10
-1.863812500000001
 20
0.3218750000000007
 30
0.0
 40
0.1046874999999992
100
AcDbArc
 50
90.0
 51
180.0
  0
ARC
  5
11D
330
D9
100
AcDbEntity
  8
AM_9
100
AcDbCircle
 10
1.863812500000001
 20
0.3218750000000007
 30
0.0
 40
0.1046874999999992
100
AcDbArc
 50
0.0
 51
90.0
  0
LINE
  5
11E
330
D9
100
AcDbEntity
  8
AM_9
100
AcDbLine
 10
-1.88976
 20
-0.1492187500000026
 30
0.0
 11
-1.9685
 21
-0.1946793101959936
 31
0.0
  0
LINE
  5
11F
330
D9
100
AcDbEntity
  8
AM_9
100
AcDbLine
 10
1.968499999999999
 20
-0.1946793101959936
 30
0.0
 11
1.88976
 21
-0.1492187500000026
 31
0.0
  0
LINE
  5
120
330
D9
100
AcDbEntity
  8
AM_9
100
AcDbLine
 10
1.88976
 20
-0.1492187500000026
 30
0.0
 11
-1.88976
 21
-0.1492187500000026
 31
0.0
  0
LINE
  5
121
330
D9
100
AcDbEntity
  8
AM_9
100
AcDbLine
 10
-1.9685
 20
0.321875
 30
0.0
 11
-1.9685
 21
0.0009293101959935
 31
0.0
  0
LINE
  5
122
330
D9
100
AcDbEntity
  8
AM_9
100
AcDbLine
 10
1.9685
 20
0.0009293101959935
 30
0.0
 11
1.9685
 21
0.321875
 31
0.0
  0
LINE
  5
123
330
D9
100
AcDbEntity
  8
AM_9
100
AcDbLine
 10
1.9685
 20
0.321875
 30
0.0
 11
-1.9685
 21
0.321875
 31
0.0
  0
LINE
  5
124
330
D9
100
AcDbEntity
  8
AM_9
100
AcDbLine
 10
1.9685
 20
0.0009293101959935
 30
0.0
 11
-1.9685
 21
0.0009293101959935
 31
0.0
  0
LINE
  5
125
330
D9
100
AcDbEntity
  8
AM_9
100
AcDbLine
 10
-1.9685
 20
-0.1946793101959936
 30
0.0
 11
-1.9685
 21
-0.5156250000000006
 31
0.0
  0
LINE
  5
126
330
D9
100
AcDbEntity
  8
AM_9
100
AcDbLine
 10
1.9685
 20
-0.5156250000000006
 30
0.0
 11
1.9685
 21
-0.1946793101959936
 31
0.0
  0
LINE
  5
127
330
D9
100
AcDbEntity
  8
AM_9
100
AcDbLine
 10
1.9685
 20
-0.1946793101959936
 30
0.0
 11
-1.9685
 21
-0.1946793101959936
 31
0.0
  0
LINE
  5
128
330
D9
100
AcDbEntity
  8
AM_9
100
AcDbLine
 10
1.9685
 20
-0.5156250000000006
 30
0.0
 11
-1.9685
 21
-0.5156250000000006
 31
0.0
  0
LINE
  5
129
330
D9
100
AcDbEntity
  8
AM_4
100
AcDbLine
 10
-1.31
 20
-1.109375
 30
0.0
 11
-1.31
 21
-1.350375
 31
0.0
  0
LINE
  5
12A
330
D9
100
AcDbEntity
  8
AM_4
100
AcDbLine
 10
1.31
 20
-1.350375
 30
0.0
 11
1.31
 21
-1.109375
 31
0.0
  0
ENDBLK
  5
DC
330
D9
100
AcDbEntity
  8
0
100
AcDbBlockEnd
  0
BLOCK
  5
12D
330
12B
100
AcDbEntity
  8
0
100
AcDbBlockBegin
  2
4_405016_Inch_0_in_070760_4
 70
     2
 10
0.0
 20
0.0
 30
0.0
  3
4_405016_Inch_0_in_070760_4
  1

  0
ATTDEF
  5
12F
330
12B
100
AcDbEntity
  8
AM_6
100
AcDbText
 10
3.072735457913469
 20
0.2187500000000009
 30
0.0
 40
0.5
  1
405016 -Inch
100
AcDbAttributeDefinition
  3

  2
NN
 70
     8
280
     0
  0
ATTDEF
  5
130
330
12B
100
AcDbEntity
  8
AM_6
100
AcDbText
 10
3.072735457913469
 20
-0.2812499999999991
 30
0.0
 40
0.5
  1
Grease Fitting
100
AcDbAttributeDefinition
  3

  2
NT
 70
     8
280
     0
  0
ATTDEF
  5
131
330
12B
100
AcDbEntity
  8
AM_6
100
AcDbText
 10
3.072735457913469
 20
-0.7812499999999991
 30
0.0
 40
0.5
  1
405016-Inch
100
AcDbAttributeDefinition
  3

  2
NB
 70
     8
280
     0
  0
ATTDEF
  5
132
330
12B
100
AcDbEntity
  8
AM_6
100
AcDbText
 10
3.072735457913469
 20
-1.281249999999999
 30
0.0
 40
0.5
  1
$MN.-Inch
100
AcDbAttributeDefinition
  3

  2
NBSYN
 70
     8
280
     0
  0
ATTDEF
  5
133
330
12B
100
AcDbEntity
  8
AM_6
100
AcDbText
 10
3.072735457913469
 20
-1.781249999999999
 30
0.0
 40
0.5
  1
405016
100
AcDbAttributeDefinition
  3

  2
LINA
 70
     8
280
     0
  0
ATTDEF
  5
134
330
12B
100
AcDbEntity
  8
AM_6
100
AcDbText
 10
3.072735457913469
 20
-2.281249999999999
 30
0.0
 40
0.5
  1
405016
100
AcDbAttributeDefinition
  3

  2
MN
 70
     8
280
     0
  0
ATTDEF
  5
135
330
12B
100
AcDbEntity
  8
AM_6
100
AcDbText
 10
3.072735457913469
 20
-2.781249999999999
 30
0.0
 40
0.5
  1
7/16 HEX
100
AcDbAttributeDefinition
  3

  2
H
 70
     8
280
     0
  0
ATTDEF
  5
136
330
12B
100
AcDbEntity
  8
AM_6
100
AcDbText
 10
3.072735457913469
 20
-3.281249999999999
 30
0.0
 40
0.5
  1
0.383
100
AcDbAttributeDefinition
  3

  2
NDR
 70
     8
280
     0
  0
ATTDEF
  5
137
330
12B
100
AcDbEntity
  8
AM_6
100
AcDbText
 10
3.072735457913469
 20
-3.781249999999999
 30
0.0
 40
0.5
  1
0.337
100
AcDbAttributeDefinition
  3

  2
KDR
 70
     8
280
     0
  0
ATTDEF
  5
138
330
12B
100
AcDbEntity
  8
AM_6
100
AcDbText
 10
3.072735457913469
 20
-4.281249999999999
 30
0.0
 40
0.5
  1
0.1575
100
AcDbAttributeDefinition
  3

  2
BZE
 70
     8
280
     0
  0
ATTDEF
  5
139
330
12B
100
AcDbEntity
  8
AM_6
100
AcDbText
 10
3.072735457913469
 20
-4.781249999999999
 30
0.0
 40
0.5
  1
0.4375
100
AcDbAttributeDefinition
  3

  2
HEX
 70
     8
280
     0
  0
ATTDEF
  5
13A
330
12B
100
AcDbEntity
  8
AM_6
100
AcDbText
 10
3.072735457913469
 20
-5.281249999999999
 30
0.0
 40
0.5
  1
0.281250
100
AcDbAttributeDefinition
  3

  2
HEX2
 70
     8
280
     0
  0
ATTDEF
  5
13B
330
12B
100
AcDbEntity
  8
AM_6
100
AcDbText
 10
3.072735457913469
 20
-5.781249999999999
 30
0.0
 40
0.5
  1
baldor
100
AcDbAttributeDefinition
  3

  2
COMPANY
 70
     8
280
     0
  0
LINE
  5
13C
330
12B
100
AcDbEntity
  8
AM_9
100
AcDbLine
 10
-2.624407359917096
 20
-0.151074129835757
 30
0.0
 11
-2.635728933140973
 21
-0.1791093260592887
 31
0.0
  0
LINE
  5
13D
330
12B
100
AcDbEntity
  8
AM_9
100
AcDbLine
 10
-2.473232513878599
 20
-0.2099962668917053
 30
0.0
 11
-2.484919760098144
 21
-0.2389369657326276
 31
0.0
  0
LWPOLYLINE
  5
13E
330
12B
100
AcDbEntity
  8
AM_9
100
AcDbPolyline
 90
        3
 70
     0
 43
0.0
 10
-2.257078708613193
 20
0.1093749999999999
 10
-2.23921905862927
 20
0.0546874999999999
 10
-2.21765209407827
 20
-0.0000000000000001
  0
LWPOLYLINE
  5
13F
330
12B
100
AcDbEntity
  8
AM_9
100
AcDbPolyline
 90
        3
 70
     0
 43
0.0
 10
-2.21765209407827
 20
-0.0000000000000001
 10
-2.239129764995892
 20
-0.0544416102741497
 10
-2.257078708613193
 20
-0.109375
  0
LWPOLYLINE
  5
140
330
12B
100
AcDbEntity
  8
AM_9
100
AcDbPolyline
 90
        3
 70
     0
 43
0.0
 10
-2.415301665456509
 20
-0.2987675689889718
 10
-2.431188950019605
 20
-0.2912216284034024
 10
-2.44639895171762
 20
-0.2813919000363599
  0
LWPOLYLINE
  5
141
330
12B
100
AcDbEntity
  8
AM_9
100
AcDbPolyline
 90
        3
 70
     0
 43
0.0
 10
-2.146755097077058
 20
-0.0000000000000001
 10
-2.156709304506333
 20
0.0544416102741495
 10
-2.17047616823475
 20
0.1093749999999999
  0
LWPOLYLINE
  5
142
330
12B
100
AcDbEntity
  8
AM_9
100
AcDbPolyline
 90
        3
 70
     0
 43
0.0
 10
-2.17047616823475
 20
-0.1093750000000001
 10
-2.156761975372365
 20
-0.0546875000000001
 10
-2.146755097077058
 20
-0.0000000000000001
  0
LWPOLYLINE
  5
143
330
12B
100
AcDbEntity
  8
AM_9
100
AcDbPolyline
 90
        3
 70
     0
 43
0.0
 10
-2.428099044179086
 20
-0.2360765106845277
 10
-2.418934057602528
 20
-0.2462091938631851
 10
-2.40324601614553
 20
-0.2689146070947222
  0
LWPOLYLINE
  5
144
330
12B
100
AcDbEntity
  8
AM_9
100
AcDbPolyline
 90
        3
 70
     0
 43
0.0
 10
-2.257078708613193
 20
-0.109375
 10
-2.270792901475577
 20
-0.1640625
 10
-2.280799779770885
 20
-0.2187500000000001
  0
LINE
  5
145
330
12B
100
AcDbEntity
  8
AM_9
100
AcDbLine
 10
-2.21765209407827
 20
-0.0000000000000001
 30
0.0
 11
-2.146755097077058
 21
-0.0000000000000001
 31
0.0
  0
LWPOLYLINE
  5
146
330
12B
100
AcDbEntity
  8
AM_9
100
AcDbPolyline
 90
        3
 70
     0
 43
0.0
 10
-2.280799779770885
 20
0.2187499999999999
 10
-2.27084557234161
 20
0.1643083897258503
 10
-2.257078708613193
 20
0.1093749999999999
  0
LWPOLYLINE
  5
147
330
12B
100
AcDbEntity
  8
AM_9
100
AcDbPolyline
 90
        3
 70
     0
 43
0.0
 10
-2.40324601614553
 20
-0.2689146070947222
 10
-2.416241903995142
 20
-0.2634308483997528
 10
-2.430455804109382
 20
-0.2602304684431305
  0
LINE
  5
148
330
12B
100
AcDbEntity
  8
AM_9
100
AcDbLine
 10
-2.437790427076468
 20
-0.3041005041876644
 30
0.0
 11
-2.415301665456509
 21
-0.2987675689889718
 31
0.0
  0
LINE
  5
149
330
12B
100
AcDbEntity
  8
AM_9
100
AcDbLine
 10
-2.40324601614553
 20
-0.2689146070947222
 30
0.0
 11
-2.415301665456509
 21
-0.2987675689889718
 31
0.0
  0
ELLIPSE
  5
14A
330
12B
100
AcDbEntity
  8
AM_9
100
AcDbEllipse
 10
-2.657583308305599
 20
-0.4687499999999999
 30
0.0
 11
-0.09595382955731725
 21
0.0387494454749971
 31
0.0
210
0.0
220
0.0
230
1.0
 40
0.2113091308703484
 41
3.040609649696536
 42
6.384168311072852
  0
ELLIPSE
  5
14B
330
12B
100
AcDbEntity
  8
AM_9
100
AcDbEllipse
 10
-2.629589646108116
 20
-0.3994303217889761
 30
0.0
 11
-0.1290248947933272
 21
0.05210467522533584
 31
0.0
210
0.0
220
0.0
230
1.0
 40
0.211309130870352
 41
3.039124093273572
 42
5.80110563949218
  0
ELLIPSE
  5
14C
330
12B
100
AcDbEntity
  8
AM_9
100
AcDbEllipse
 10
-2.618914664630752
 20
-0.3729962569746798
 30
0.0
 11
-0.1235034625626174
 21
0.04987493162724994
 31
0.0
210
0.0
220
0.0
230
1.0
 40
0.2113091308703644
 41
3.407343723725305
 42
6.018427430217733
  0
LWPOLYLINE
  5
14D
330
12B
100
AcDbEntity
  8
AM_9
100
AcDbPolyline
 90
        5
 70
     0
 43
0.0
 10
-2.635728933140973
 20
-0.1791093260592887
 10
-2.657591321639599
 20
-0.1842540823997054
 10
-2.678487408569592
 20
-0.1862220679364951
 10
-2.698405028124501
 20
-0.1844124966919381
 10
-2.716918814745764
 20
-0.1791093260592887
  0
LWPOLYLINE
  5
14E
330
12B
100
AcDbEntity
  8
AM_9
100
AcDbPolyline
 90
        5
 70
     0
 43
0.0
 10
-2.484919760098144
 20
-0.2389369657326276
 10
-2.523761048785573
 20
-0.2295338871417796
 10
-2.561896095497492
 20
-0.216687117104632
 10
-2.599514889858675
 20
-0.1996402057054678
 10
-2.635728933140973
 20
-0.1791093260592887
  0
LWPOLYLINE
  5
14F
330
12B
100
AcDbEntity
  8
AM_9
100
AcDbPolyline
 90
        3
 70
     0
 43
0.0
 10
-2.458420481899426
 20
-0.2711532636537956
 10
-2.472155659663999
 20
-0.2561815527589921
 10
-2.484919760098144
 20
-0.2389369657326276
  0
ELLIPSE
  5
150
330
12B
100
AcDbEntity
  8
AM_9
100
AcDbEllipse
 10
-2.567913761366802
 20
-0.2467045921760151
 30
0.0
 11
-0.1303939210191576
 21
0.052657534942726
 31
0.0
210
0.0
220
0.0
230
1.0
 40
0.2113091308703521
 41
3.806340372002749
 42
6.919181903097295
  0
LWPOLYLINE
  5
151
330
12B
100
AcDbEntity
  8
AM_9
100
AcDbPolyline
 90
        3
 70
     0
 43
0.0
 10
-2.202163142681023
 20
-0.2000409996967265
 10
-2.188425111852051
 20
-0.1643083897258505
 10
-2.17047616823475
 20
-0.1093750000000001
  0
LINE
  5
152
330
12B
100
AcDbEntity
  8
AM_9
100
AcDbLine
 10
-2.209902782769673
 20
-0.2187500000000001
 30
0.0
 11
-2.202163142681023
 21
-0.2000409996967265
 31
0.0
  0
LINE
  5
153
330
12B
100
AcDbEntity
  8
AM_9
100
AcDbLine
 10
-2.200748009856099
 20
0.1965252337839778
 30
0.0
 11
-2.209902782769673
 21
0.2187499999999999
 31
0.0
  0
LWPOLYLINE
  5
154
330
12B
100
AcDbEntity
  8
AM_9
100
AcDbPolyline
 90
        3
 70
     0
 43
0.0
 10
-2.17047616823475
 20
0.1093749999999999
 10
-2.188335818218673
 20
0.1640624999999999
 10
-2.200748009856099
 20
0.1965252337839778
  0
LINE
  5
155
330
12B
100
AcDbEntity
  8
AM_9
100
AcDbLine
 10
-2.635542160768986
 20
-0.1204089378707286
 30
0.0
 11
-2.636627605758698
 21
-0.1230967854582223
 31
0.0
  0
LINE
  5
156
330
12B
100
AcDbEntity
  8
AM_9
100
AcDbLine
 10
-2.4375
 20
-0.2175271591430255
 30
0.0
 11
-2.427753452998408
 21
-0.193392142543456
 31
0.0
  0
ELLIPSE
  5
157
330
12B
100
AcDbEntity
  8
AM_9
100
AcDbEllipse
 10
-2.549613853828264
 20
-0.2013892028241789
 30
0.0
 11
-0.101997022663876
 21
0.04118989399964107
 31
0.0
210
0.0
220
0.0
230
1.0
 40
0.21130913087034
 41
3.141592653589793
 42
6.283185307179586
  0
LWPOLYLINE
  5
158
330
12B
100
AcDbEntity
  8
AM_9
100
AcDbPolyline
 90
        4
 70
     0
 43
0.0
 10
-2.635546890424006
 20
-0.1204206514110939
 10
-2.635686056408535
 20
-0.1208367673933812
 10
-2.635108472451408
 20
-0.1245107513506023
 10
-2.633198889955715
 20
-0.127365563003237
  0
LWPOLYLINE
  5
159
330
12B
100
AcDbEntity
  8
AM_9
100
AcDbPolyline
 90
        5
 70
     0
 43
0.0
 10
-2.42775250879692
 20
-0.1933898041312626
 10
-2.427845844928071
 20
-0.1936098952159724
 10
-2.431061381880709
 20
-0.1971856748420371
 10
-2.437079745123492
 20
-0.1994144431868155
 10
-2.443943715703934
 20
-0.1999999999699529
  0
LWPOLYLINE
  5
15A
330
12B
100
AcDbEntity
  8
AM_9
100
AcDbPolyline
 90
        3
 70
     0
 43
0.0
 10
-2.537240846916374
 20
-0.1745741884610184
 10
-2.509851771542942
 20
-0.1876759562813858
 10
-2.473232513878599
 20
-0.2099962668917053
  0
LWPOLYLINE
  5
15B
330
12B
100
AcDbEntity
  8
AM_9
100
AcDbPolyline
 90
        3
 70
     0
 43
0.0
 10
-2.624407359917096
 20
-0.151074129835757
 10
-2.595202752417573
 20
-0.1564222384464442
 10
-2.566532253475277
 20
-0.1639312493177435
  0
LWPOLYLINE
  5
15C
330
12B
100
AcDbEntity
  8
AM_9
100
AcDbPolyline
 90
        3
 70
     0
 43
0.0
 10
-2.473232513878599
 20
-0.2099962668917053
 10
-2.456258831545076
 20
-0.2163479371246913
 10
-2.440120574360893
 20
-0.2258378743019629
  0
LWPOLYLINE
  5
15D
330
12B
100
AcDbEntity
  8
AM_9
100
AcDbPolyline
 90
        4
 70
     0
 43
0.0
 10
-2.661318240261591
 20
-0.141958509815605
 10
-2.657443120815542
 20
-0.1420496512545706
 10
-2.642954205700792
 20
-0.1441228263802215
 10
-2.624407359917096
 20
-0.151074129835757
  0
ELLIPSE
  5
15E
330
12B
100
AcDbEntity
  8
AM_9
100
AcDbEllipse
 10
-2.549613853828254
 20
-0.2013892028241863
 30
0.0
 11
-0.1303939210191776
 21
0.05265753494273612
 31
0.0
210
0.0
220
0.0
230
1.0
 40
0.2113091308703346
 41
3.806340372002841
 42
4.701510441493242
  0
ELLIPSE
  5
15F
330
12B
100
AcDbEntity
  8
AM_9
100
AcDbEllipse
 10
-2.549613853828251
 20
-0.201389202824188
 30
0.0
 11
-0.1303939210191776
 21
0.05265753494273416
 31
0.0
210
0.0
220
0.0
230
1.0
 40
0.2113091308703406
 41
-1.286213434418357
 42
-0.672571481380289
  0
LINE
  5
160
330
12B
100
AcDbEntity
  8
AM_9
100
AcDbLine
 10
-2.44639895171762
 20
-0.2813919000363599
 30
0.0
 11
-2.458420481899426
 21
-0.2711532636537956
 31
0.0
  0
ELLIPSE
  5
161
330
12B
100
AcDbEntity
  8
AM_9
100
AcDbEllipse
 10
-2.567913761366782
 20
-0.2467045921760224
 30
0.0
 11
-0.1303939210191704
 21
0.05265753494273215
 31
0.0
210
0.0
220
0.0
230
1.0
 40
0.2113091308703487
 41
2.800469246484342
 42
3.607080702195145
  0
ELLIPSE
  5
162
330
12B
100
AcDbEntity
  8
AM_9
100
AcDbEllipse
 10
-2.567913761363002
 20
-0.2467045921787357
 30
0.0
 11
-0.1303939210141216
 21
0.05265753494031711
 31
0.0
210
0.0
220
0.0
230
1.0
 40
0.211309130868687
 41
-3.777589249508338
 42
-3.764628581859534
  0
LINE
  5
163
330
12B
100
AcDbEntity
  8
AM_9
100
AcDbLine
 10
-2.430455804109382
 20
-0.2602304684431305
 30
0.0
 11
-2.4375
 21
-0.2602304684431271
 31
0.0
  0
ELLIPSE
  5
164
330
12B
100
AcDbEntity
  8
AM_9
100
AcDbEllipse
 10
-2.549613853828252
 20
-0.2013892028241897
 30
0.0
 11
-0.1303939210191744
 21
0.05265753494273215
 31
0.0
210
0.0
220
0.0
230
1.0
 40
0.2113091308703515
 41
2.800469246484358
 42
3.607080702195122
  0
LINE
  5
165
330
12B
100
AcDbEntity
  8
AM_9
100
AcDbLine
 10
-2.4375
 20
-0.2280697954957609
 30
0.0
 11
-2.428099044179086
 21
-0.2360765106845277
 31
0.0
  0
LWPOLYLINE
  5
166
330
12B
100
AcDbEntity
  8
AM_9
100
AcDbPolyline
 90
       17
 70
     0
 43
0.0
 10
-2.434428618148996
 20
-0.1790373738501779
 10
-2.442396083225188
 20
-0.1733931390117467
 10
-2.45315215665937
 20
-0.1670729780242511
 10
-2.465795208181814
 20
-0.1606047421316795
 10
-2.480685631327654
 20
-0.1538031670974777
 10
-2.496587508134535
 20
-0.1472336073736393
 10
-2.513948477956254
 20
-0.1407130262602577
 10
-2.531303955086499
 20
-0.1347930597680667
 10
-2.549161666670787
 20
-0.1293028157827817
 10
-2.565991428170861
 20
-0.1247141396218193
 10
-2.582308172071567
 20
-0.1208880884981781
 10
-2.5967072229314
 20
-0.1181545989145989
 10
-2.609639575797147
 20
-0.1164278875396128
 10
-2.619999303956848
 20
-0.1158549073091554
 10
-2.628109478773545
 20
-0.1164156227038168
 10
-2.633286119964386
 20
-0.1180609686233502
 10
-2.635546890424006
 20
-0.1204206514110939
  0
LWPOLYLINE
  5
167
330
12B
100
AcDbEntity
  8
AM_9
100
AcDbPolyline
 90
        4
 70
     0
 43
0.0
 10
-2.434428618148996
 20
-0.1790373738501784
 10
-2.429473957676928
 20
-0.1842628795203941
 10
-2.427366073210185
 20
-0.1891729979031393
 10
-2.42775250879692
 20
-0.1933898041312626
  0
LINE
  5
168
330
12B
100
AcDbEntity
  8
AM_9
100
AcDbLine
 10
-2.351800237152116
 20
0.1999999999999999
 30
0.0
 11
-2.4375
 21
0.1999999999999999
 31
0.0
  0
LINE
  5
169
330
12B
100
AcDbEntity
  8
AM_9
100
AcDbLine
 10
-2.4375
 20
-0.2
 30
0.0
 11
-2.351800237152116
 21
-0.2
 31
0.0
  0
LINE
  5
16A
330
12B
100
AcDbEntity
  8
AM_9
100
AcDbLine
 10
-2.197539462103013
 20
0.1999999999999999
 30
0.0
 11
-2.265197696773672
 21
0.1999999999999999
 31
0.0
  0
LINE
  5
16B
330
12B
100
AcDbEntity
  8
AM_9
100
AcDbLine
 10
-2.265197696773672
 20
-0.2
 30
0.0
 11
-2.197539462103013
 21
-0.2
 31
0.0
  0
LINE
  5
16C
330
12B
100
AcDbEntity
  8
AM_9
100
AcDbLine
 10
-2.407095151156116
 20
0.2187499999999999
 30
0.0
 11
-2.209902782769673
 21
0.2187499999999999
 31
0.0
  0
LWPOLYLINE
  5
16D
330
12B
100
AcDbEntity
  8
AM_9
100
AcDbPolyline
 90
        3
 70
     0
 43
0.0
 10
-2.438003715811484
 20
0.137019988482754
 10
-2.428662115707116
 20
0.1640624999999999
 10
-2.407095151156116
 20
0.2187499999999999
  0
LINE
  5
16E
330
12B
100
AcDbEntity
  8
AM_9
100
AcDbLine
 10
-2.346735252569667
 20
0.1616066964860833
 30
0.0
 11
-2.359919225312595
 21
0.1093749999999999
 31
0.0
  0
LINE
  5
16F
330
12B
100
AcDbEntity
  8
AM_9
100
AcDbLine
 10
-2.336198154154904
 20
0.2187499999999999
 30
0.0
 11
-2.338389342772965
 21
0.2051521258855433
 31
0.0
  0
LWPOLYLINE
  5
170
330
12B
100
AcDbEntity
  8
AM_9
100
AcDbPolyline
 90
        3
 70
     0
 43
0.0
 10
-2.359919225312595
 20
0.1093749999999999
 10
-2.377778875296519
 20
0.0546874999999999
 10
-2.399345839847519
 20
-0.0000000000000001
  0
LINE
  5
171
330
12B
100
AcDbEntity
  8
AM_9
100
AcDbLine
 10
-2.4375
 20
-0.0000000000000001
 30
0.0
 11
-2.399345839847519
 21
-0.0000000000000001
 31
0.0
  0
LWPOLYLINE
  5
172
330
12B
100
AcDbEntity
  8
AM_9
100
AcDbPolyline
 90
        3
 70
     0
 43
0.0
 10
-2.407095151156116
 20
-0.2187500000000001
 10
-2.428572822073738
 20
-0.1643083897258504
 10
-2.438008192079663
 20
-0.1370063145251489
  0
LINE
  5
173
330
12B
100
AcDbEntity
  8
AM_9
100
AcDbLine
 10
-2.407095151156116
 20
-0.2187500000000001
 30
0.0
 11
-2.209902782769673
 21
-0.2187500000000001
 31
0.0
  0
LINE
  5
174
330
12B
100
AcDbEntity
  8
AM_9
100
AcDbLine
 10
-2.340923997940625
 20
-0.1906908546595257
 30
0.0
 11
-2.336198154154904
 21
-0.2187500000000001
 31
0.0
  0
LINE
  5
175
330
12B
100
AcDbEntity
  8
AM_9
100
AcDbLine
 10
-2.359919225312595
 20
-0.109375
 30
0.0
 11
-2.348429630320127
 21
-0.1539857917963098
 31
0.0
  0
LWPOLYLINE
  5
176
330
12B
100
AcDbEntity
  8
AM_9
100
AcDbPolyline
 90
        3
 70
     0
 43
0.0
 10
-2.399345839847519
 20
-0.0000000000000001
 10
-2.377868168929897
 20
-0.0544416102741496
 10
-2.359919225312595
 20
-0.109375
  0
LINE
  5
177
330
12B
100
AcDbEntity
  8
AM_9
100
AcDbLine
 10
-2.02699484448061
 20
0.1853871066562612
 30
0.0
 11
-2.195811734164679
 21
0.1914800577488989
 31
0.0
  0
LINE
  5
178
330
12B
100
AcDbEntity
  8
AM_9
100
AcDbLine
 10
-2.195811734164679
 20
-0.191480057748899
 30
0.0
 11
-2.02699484448061
 21
-0.1853871066562613
 31
0.0
  0
LINE
  5
179
330
12B
100
AcDbEntity
  8
AM_9
100
AcDbLine
 10
-1.96142810719846
 20
0.1319978794387896
 30
0.0
 11
-1.975142234257529
 21
0.1513925839218323
 31
0.0
  0
LINE
  5
17A
330
12B
100
AcDbEntity
  8
AM_9
100
AcDbLine
 10
-1.975142234257529
 20
-0.1513925839218325
 30
0.0
 11
-1.96142810719846
 21
-0.1319978794387898
 31
0.0
  0
ELLIPSE
  5
17B
330
12B
100
AcDbEntity
  8
AM_9
100
AcDbEllipse
 10
-2.351800237152117
 20
0.0000000000000003
 30
0.0
 11
1.339457436567415E-17
 21
0.2187499999999996
 31
0.0
210
0.0
220
0.0
230
1.0
 40
0.4999999999999988
 41
0.0
 42
6.283185307179586
  0
ELLIPSE
  5
17C
330
12B
100
AcDbEntity
  8
AM_9
100
AcDbEllipse
 10
-2.351800237152116
 20
0.0000000000000003
 30
0.0
 11
1.224646799147355E-17
 21
0.2000000000000004
 31
0.0
210
0.0
220
0.0
230
1.0
 40
0.4999999999999996
 41
0.0
 42
6.283185307179586
  0
ELLIPSE
  5
17D
330
12B
100
AcDbEntity
  8
AM_9
100
AcDbEllipse
 10
-2.265197696773672
 20
0.0000000000000004
 30
0.0
 11
1.339457436567420E-17
 21
0.2187500000000004
 31
0.0
210
0.0
220
0.0
230
1.0
 40
0.500000000000001
 41
0.0
 42
6.283185307179586
  0
ELLIPSE
  5
17E
330
12B
100
AcDbEntity
  8
AM_9
100
AcDbEllipse
 10
-2.265197696773672
 20
-0.0000000000000004
 30
0.0
 11
1.224646799147350E-17
 21
0.1999999999999995
 31
0.0
210
0.0
220
0.0
230
1.0
 40
0.4999999999999996
 41
0.0
 42
6.283185307179586
  0
ELLIPSE
  5
17F
330
12B
100
AcDbEntity
  8
AM_9
100
AcDbEllipse
 10
-2.197539462103008
 20
-0.000000000000002
 30
0.0
 11
1.224646799147365E-17
 21
0.2000000000000019
 31
0.0
210
0.0
220
0.0
230
1.0
 40
0.4999999999999936
 41
0.0
 42
6.283185307179586
  0
ELLIPSE
  5
180
330
12B
100
AcDbEntity
  8
AM_9
100
AcDbEllipse
 10
-2.197539462103014
 20
0.0
 30
0.0
 11
1.172668097677219E-17
 21
0.1915112338502296
 31
0.0
210
0.0
220
0.0
230
1.0
 40
0.5000000000000012
 41
0.0
 42
6.283185307179586
  0
ELLIPSE
  5
181
330
12B
100
AcDbEntity
  8
AM_9
100
AcDbEllipse
 10
-2.02866759561377
 20
-0.0000000000000003
 30
0.0
 11
1.135353457964640E-17
 21
0.1854172907249858
 31
0.0
210
0.0
220
0.0
230
1.0
 40
0.500000000000002
 41
0.0
 42
6.283185307179586
  0
ELLIPSE
  5
182
330
12B
100
AcDbEntity
  8
AM_9
100
AcDbEllipse
 10
-2.008096405025154
 20
-0.0000000000000407
 30
0.0
 11
9.899048221691803E-18
 21
0.1616637258772718
 31
0.0
210
0.0
220
0.0
230
1.0
 40
0.4999999999999181
 41
0.0
 42
6.283185307179586
  0
LINE
  5
183
330
12B
100
AcDbEntity
  8
AM_4
100
AcDbLine
 10
-2.448755711647916
 20
-0.3055458577949631
 30
0.0
 11
-2.437790427076468
 21
-0.3041005041876644
 31
0.0
  0
LINE
  5
184
330
12B
100
AcDbEntity
  8
AM_4
100
AcDbLine
 10
-2.562943766434254
 20
-0.5093460834378319
 30
0.0
 11
-2.50233201616699
 21
-0.4540180898723598
 31
0.0
  0
LINE
  5
185
330
12B
100
AcDbEntity
  8
AM_4
100
AcDbLine
 10
-2.759067183466865
 20
-0.3503396289636352
 30
0.0
 11
-2.753873761176134
 21
-0.4322420068738781
 31
0.0
  0
ELLIPSE
  5
186
330
12B
100
AcDbEntity
  8
AM_4
100
AcDbEllipse
 10
-2.6575833083056
 20
-0.46875
 30
0.0
 11
-0.0959538295573177
 21
0.03874944547499708
 31
0.0
210
0.0
220
0.0
230
1.0
 40
0.211309130870353
 41
0.1009830038932504
 42
3.040609649696535
  0
LINE
  5
187
330
12B
100
AcDbEntity
  8
AM_4
100
AcDbLine
 10
-2.705597241521887
 20
-0.151074129835757
 30
0.0
 11
-2.716918814745764
 21
-0.1791093260592887
 31
0.0
  0
LWPOLYLINE
  5
188
330
12B
100
AcDbEntity
  8
AM_4
100
AcDbPolyline
 90
        7
 70
     0
 43
0.0
 10
-2.734392500057822
 20
-0.3177326005706416
 10
-2.739820886833102
 20
-0.3196854102375955
 10
-2.746393183898781
 20
-0.3234666366084514
 10
-2.752062509706025
 20
-0.3287731365884343
 10
-2.756327529998195
 20
-0.3355053276299941
 10
-2.758785946787842
 20
-0.3437110445466969
 10
-2.759036755682465
 20
-0.350772943748394
  0
LWPOLYLINE
  5
189
330
12B
100
AcDbEntity
  8
AM_4
100
AcDbPolyline
 90
        8
 70
     0
 43
0.0
 10
-2.502477597029409
 20
-0.4541501626697447
 10
-2.501635611346272
 20
-0.45336299019721
 10
-2.496710075621393
 20
-0.4471953002164248
 10
-2.493268556981563
 20
-0.4390042890551729
 10
-2.492316935326764
 20
-0.4309848291958012
 10
-2.493251865688254
 20
-0.4236614581577529
 10
-2.495594319902402
 20
-0.4169786656809632
 10
-2.497488093424398
 20
-0.4133449081814153
  0
ELLIPSE
  5
18A
330
12B
100
AcDbEntity
  8
AM_4
100
AcDbEllipse
 10
-2.629589646108117
 20
-0.399430321788976
 30
0.0
 11
-0.1290248947933272
 21
0.05210467522533585
 31
0.0
210
0.0
220
0.0
230
1.0
 40
0.2113091308703474
 41
0.1043485216949467
 42
3.03912409327357
  0
LINE
  5
18B
330
12B
100
AcDbEntity
  8
AM_4
100
AcDbLine
 10
-2.4964915470613
 20
-0.2987675689889718
 30
0.0
 11
-2.46939795066522
 21
-0.3054565065673809
 31
0.0
  0
ELLIPSE
  5
18C
330
12B
100
AcDbEntity
  8
AM_4
100
AcDbEllipse
 10
-2.567913761366786
 20
-0.2467045921760221
 30
0.0
 11
-0.1303939210191731
 21
0.05265753494273282
 31
0.0
210
0.0
220
0.0
230
1.0
 40
0.2113091308703447
 41
1.711945269609627
 42
2.505596057672113
  0
LWPOLYLINE
  5
18D
330
12B
100
AcDbEntity
  8
AM_4
100
AcDbPolyline
 90
        4
 70
     0
 43
0.0
 10
-2.716918814745764
 20
-0.1791093260592887
 10
-2.702041696702688
 20
-0.1988355121406939
 10
-2.685612424460014
 20
-0.2156330920108724
 10
-2.680115405848671
 20
-0.2201680623457971
  0
LWPOLYLINE
  5
18E
330
12B
100
AcDbEntity
  8
AM_4
100
AcDbPolyline
 90
        3
 70
     0
 43
0.0
 10
-2.680115405848671
 20
-0.2201680623457971
 10
-2.667174884250043
 20
-0.2290462109660021
 10
-2.647299523307727
 20
-0.2389369657326275
  0
LWPOLYLINE
  5
18F
330
12B
100
AcDbEntity
  8
AM_4
100
AcDbPolyline
 90
        3
 70
     0
 43
0.0
 10
-2.45021220406265
 20
-0.2602304684431209
 10
-2.459460839476544
 20
-0.2616913382589203
 10
-2.484435897750322
 20
-0.2689146070947222
  0
LINE
  5
190
330
12B
100
AcDbEntity
  8
AM_4
100
AcDbLine
 10
-2.636627605758698
 20
-0.1230967854582223
 30
0.0
 11
-2.65161087649214
 21
-0.1601993088245384
 31
0.0
  0
LINE
  5
191
330
12B
100
AcDbEntity
  8
AM_4
100
AcDbLine
 10
-2.447616831164365
 20
-0.2425790968238377
 30
0.0
 11
-2.4375
 21
-0.2175271591430255
 31
0.0
  0
ELLIPSE
  5
192
330
12B
100
AcDbEntity
  8
AM_4
100
AcDbEllipse
 10
-2.549613853828252
 20
-0.2013892028241881
 30
0.0
 11
-0.101997022663888
 21
0.04118989399964969
 31
0.0
210
0.0
220
0.0
230
1.0
 40
0.2113091308703511
 41
0.0
 42
3.141592653589793
  0
LWPOLYLINE
  5
193
330
12B
100
AcDbEntity
  8
AM_4
100
AcDbPolyline
 90
        4
 70
     0
 43
0.0
 10
-2.705597241521887
 20
-0.1510741298357571
 10
-2.688981399534359
 20
-0.145877822676052
 10
-2.672926786879226
 20
-0.1427138007556462
 10
-2.661318240261591
 20
-0.141958509815605
  0
LWPOLYLINE
  5
194
330
12B
100
AcDbEntity
  8
AM_4
100
AcDbPolyline
 90
        6
 70
     0
 43
0.0
 10
-2.635612277088181
 20
-0.2099962668917053
 10
-2.645921413445511
 20
-0.1943573015029059
 10
-2.657265240279721
 20
-0.1805491420332303
 10
-2.669979214856528
 20
-0.1688997677199809
 10
-2.68387514104622
 20
-0.1598729403210871
 10
-2.705597241521887
 20
-0.151074129835757
  0
LINE
  5
195
330
12B
100
AcDbEntity
  8
AM_4
100
AcDbLine
 10
-2.659988386718762
 20
-0.1419585097669024
 30
0.0
 11
-2.661426863366915
 21
-0.1419585097669024
 31
0.0
  0
ELLIPSE
  5
196
330
12B
100
AcDbEntity
  8
AM_4
100
AcDbEllipse
 10
-2.54961385382827
 20
-0.2013892028241701
 30
0.0
 11
-0.1303939210191509
 21
0.05265753494271808
 31
0.0
210
0.0
220
0.0
230
1.0
 40
0.2113091308703186
 41
5.610613825799282
 42
7.795870906981698
  0
ELLIPSE
  5
197
330
12B
100
AcDbEntity
  8
AM_4
100
AcDbEllipse
 10
-2.567913761366786
 20
-0.2467045921760208
 30
0.0
 11
-0.1303939210191749
 21
0.05265753494273422
 31
0.0
210
0.0
220
0.0
230
1.0
 40
0.211309130870349
 41
0.6359965959176899
 42
1.512685599801935
  0
LINE
  5
198
330
12B
100
AcDbEntity
  8
AM_4
100
AcDbLine
 10
-2.468512111601185
 20
-0.3055458577949631
 30
0.0
 11
-2.448755711647916
 21
-0.3055458577949631
 31
0.0
  0
LWPOLYLINE
  5
199
330
12B
100
AcDbEntity
  8
AM_4
100
AcDbPolyline
 90
       15
 70
     0
 43
0.0
 10
-2.496758054799389
 20
-0.4146344785860286
 10
-2.499354985861687
 20
-0.4088669358981584
 10
-2.502167598858264
 20
-0.4000819753497356
 10
-2.504050483103837
 20
-0.3893278765884623
 10
-2.504344759782194
 20
-0.3772265464041197
 10
-2.502656082084622
 20
-0.364556358248242
 10
-2.498373585921251
 20
-0.350785341719793
 10
-2.492044714371913
 20
-0.3385128932841733
 10
-2.484293214584135
 20
-0.3281530534330228
 10
-2.475748748802205
 20
-0.31984030050798
 10
-2.467105154775068
 20
-0.3136001394737596
 10
-2.45911251974159
 20
-0.3093223922932478
 10
-2.452407716102395
 20
-0.306703714449871
 10
-2.447336791634608
 20
-0.3053055587215054
 10
-2.447068790370799
 20
-0.305246646846622
  0
LWPOLYLINE
  5
19A
330
12B
100
AcDbEntity
  8
AM_4
100
AcDbPolyline
 90
       15
 70
     0
 43
0.0
 10
-2.695371794923847
 20
-0.2051395865864105
 10
-2.694956924105716
 20
-0.2057780569200184
 10
-2.692145413183016
 20
-0.2107252763032722
 10
-2.689101357704534
 20
-0.2177442339920407
 10
-2.686406925891309
 20
-0.2269276178462957
 10
-2.684777792682352
 20
-0.2379912409698101
 10
-2.684834617310859
 20
-0.2502579852618394
 10
-2.686914974634412
 20
-0.2629527584357804
 10
-2.691576360121916
 20
-0.2765101894298355
 10
-2.698185228839483
 20
-0.2884805551743376
 10
-2.706113414190221
 20
-0.2985050735899802
 10
-2.714724969007671
 20
-0.3064715630245792
 10
-2.723312074621603
 20
-0.3123723534046974
 10
-2.731127771366699
 20
-0.3163474083281348
 10
-2.735767002958697
 20
-0.318142681562369
  0
ELLIPSE
  5
19B
330
12B
100
AcDbEntity
  8
AM_4
100
AcDbEllipse
 10
-2.618914664630771
 20
-0.3729962569746642
 30
0.0
 11
-0.1235034625625957
 21
0.04987493162723568
 31
0.0
210
0.0
220
0.0
230
1.0
 40
0.2113091308703464
 41
6.043389458091799
 42
9.664101215796247
  0
ELLIPSE
  5
19C
330
12B
100
AcDbEntity
  8
AM_4
100
AcDbEllipse
 10
-2.618914664628609
 20
-0.372996256974356
 30
0.0
 11
-0.1235034625648619
 21
0.04987493162683847
 31
0.0
210
0.0
220
0.0
230
1.0
 40
0.2113091308681153
 41
-0.2647578769636487
 42
-0.2397958490899468
  0
ELLIPSE
  5
19D
330
12B
100
AcDbEntity
  8
AM_4
100
AcDbEllipse
 10
-2.549613853828254
 20
-0.2013892028241866
 30
0.0
 11
-0.1303939210191842
 21
0.05265753494272167
 31
0.0
210
0.0
220
0.0
230
1.0
 40
0.2113091308703642
 41
1.711945269609619
 42
2.518556725320323
  0
LINE
  5
19E
330
12B
100
AcDbEntity
  8
AM_4
100
AcDbLine
 10
-2.4375
 20
-0.2602304684431271
 30
0.0
 11
-2.45021220406265
 21
-0.2602304684431209
 31
0.0
  0
LINE
  5
19F
330
12B
100
AcDbEntity
  8
AM_4
100
AcDbLine
 10
-2.440120574360893
 20
-0.2258378743019629
 30
0.0
 11
-2.4375
 21
-0.2280697954957609
 31
0.0
  0
LWPOLYLINE
  5
1A0
330
12B
100
AcDbEntity
  8
AM_4
100
AcDbPolyline
 90
        3
 70
     0
 43
0.0
 10
-2.484435897750322
 20
-0.2689146070947222
 10
-2.512498197719166
 20
-0.251275593729576
 10
-2.542286302557152
 20
-0.2360765106845275
  0
LINE
  5
1A1
330
12B
100
AcDbEntity
  8
AM_4
100
AcDbLine
 10
-2.542286302557152
 20
-0.2360765106845275
 30
0.0
 11
-2.568295111583136
 21
-0.2258378743019627
 31
0.0
  0
LWPOLYLINE
  5
1A2
330
12B
100
AcDbEntity
  8
AM_4
100
AcDbPolyline
 90
        3
 70
     0
 43
0.0
 10
-2.568295111583136
 20
-0.2258378743019627
 10
-2.591285146275376
 20
-0.2189176876709014
 10
-2.635612277088181
 20
-0.2099962668917053
  0
LINE
  5
1A3
330
12B
100
AcDbEntity
  8
AM_4
100
AcDbLine
 10
-2.635612277088181
 20
-0.2099962668917053
 30
0.0
 11
-2.647299523307726
 21
-0.2389369657326276
 31
0.0
  0
LWPOLYLINE
  5
1A4
330
12B
100
AcDbEntity
  8
AM_4
100
AcDbPolyline
 90
        3
 70
     0
 43
0.0
 10
-2.647299523307726
 20
-0.2389369657326276
 10
-2.617619702073925
 20
-0.2560939713202353
 10
-2.586595019121669
 20
-0.2711532636537956
  0
LINE
  5
1A5
330
12B
100
AcDbEntity
  8
AM_4
100
AcDbLine
 10
-2.586595019121669
 20
-0.2711532636537956
 30
0.0
 11
-2.560586210095686
 21
-0.2813919000363599
 31
0.0
  0
LWPOLYLINE
  5
1A6
330
12B
100
AcDbEntity
  8
AM_4
100
AcDbPolyline
 90
        3
 70
     0
 43
0.0
 10
-2.560586210095686
 20
-0.2813919000363599
 10
-2.528935659241662
 20
-0.2911775952746243
 10
-2.4964915470613
 20
-0.2987675689889718
  0
LINE
  5
1A7
330
12B
100
AcDbEntity
  8
AM_4
100
AcDbLine
 10
-2.484435897750322
 20
-0.2689146070947222
 30
0.0
 11
-2.4964915470613
 21
-0.2987675689889718
 31
0.0
  0
ARC
  5
1A8
330
12B
100
AcDbEntity
  8
AM_4
100
AcDbCircle
 10
-2.478997718332959
 20
0.0000000000000017
 30
0.0
 40
0.1999999999999983
100
AcDbArc
 50
90.0
 51
219.6457493060368
  0
LWPOLYLINE
  5
1A9
330
12B
100
AcDbEntity
  8
AM_4
100
AcDbPolyline
 90
       10
 70
     0
 43
0.0
 10
-2.633198889955715
 20
-0.127365563003237
 10
-2.631536768642285
 20
-0.1291842652280563
 10
-2.625259221374621
 20
-0.134472979061152
 10
-2.6161016223119
 20
-0.1405186270901959
 10
-2.604805433149889
 20
-0.1468270783017121
 10
-2.591064282009139
 20
-0.1535654953592165
 10
-2.576002792269657
 20
-0.1601799433259583
 10
-2.559209369449997
 20
-0.1668493358980661
 10
-2.541810033296001
 20
-0.1731116383367606
 10
-2.523566818516898
 20
-0.1790373738502114
  0
ELLIPSE
  5
1AA
330
12B
100
AcDbEntity
  8
AM_4
100
AcDbEllipse
 10
-2.478997718332956
 20
-0.0000000000000001
 30
0.0
 11
1.224646799147352E-17
 21
0.1999999999999998
 31
0.0
210
0.0
220
0.0
230
1.0
 40
0.4999999999999987
 41
0.0
 42
2.679646633022827
  0
LINE
  5
1AB
330
12B
100
AcDbEntity
  8
AM_4
100
AcDbLine
 10
-2.4375
 20
0.1999999999999999
 30
0.0
 11
-2.478997718332956
 21
0.1999999999999999
 31
0.0
  0
LINE
  5
1AC
330
12B
100
AcDbEntity
  8
AM_4
100
AcDbLine
 10
-2.444091499930842
 20
-0.2
 30
0.0
 11
-2.4375
 21
-0.2
 31
0.0
  0
LWPOLYLINE
  5
1AD
330
12B
100
AcDbEntity
  8
AM_4
100
AcDbPolyline
 90
        8
 70
     0
 43
0.0
 10
-2.443943715703934
 20
-0.1999999999699529
 10
-2.445430832943238
 20
-0.1999786710855128
 10
-2.456304433419987
 20
-0.1988321115509053
 10
-2.46870275513397
 20
-0.1961649429984259
 10
-2.483126185499962
 20
-0.1920694300574958
 10
-2.498639165360779
 20
-0.1870948030566195
 10
-2.51573256914775
 20
-0.181500594761393
 10
-2.523566818516916
 20
-0.1790373738501783
  0
LINE
  5
1AE
330
12B
100
AcDbEntity
  8
AM_4
100
AcDbLine
 10
-2.446521765691039
 20
0.1093749999999999
 30
0.0
 11
-2.438003715811484
 21
0.137019988482754
 31
0.0
  0
LWPOLYLINE
  5
1AF
330
12B
100
AcDbEntity
  8
AM_4
100
AcDbPolyline
 90
        3
 70
     0
 43
0.0
 10
-2.470242836848731
 20
-0.0000000000000001
 10
-2.460288629419456
 20
0.0544416102741495
 10
-2.446521765691039
 20
0.1093749999999999
  0
LINE
  5
1B0
330
12B
100
AcDbEntity
  8
AM_4
100
AcDbLine
 10
-2.470242836848731
 20
-0.0000000000000001
 30
0.0
 11
-2.4375
 21
-0.0000000000000001
 31
0.0
  0
LWPOLYLINE
  5
1B1
330
12B
100
AcDbEntity
  8
AM_4
100
AcDbPolyline
 90
        3
 70
     0
 43
0.0
 10
-2.446521765691039
 20
-0.109375
 10
-2.460235958553423
 20
-0.0546875
 10
-2.470242836848731
 20
-0.0000000000000001
  0
LINE
  5
1B2
330
12B
100
AcDbEntity
  8
AM_4
100
AcDbLine
 10
-2.438008192079663
 20
-0.1370063145251489
 30
0.0
 11
-2.446521765691039
 21
-0.109375
 31
0.0
  0
ENDBLK
  5
12E
330
12B
100
AcDbEntity
  8
0
100
AcDbBlockEnd
  0
BLOCK
  5
1B5
330
1B3
100
AcDbEntity
  8
0
100
AcDbBlockBegin
  2
5_070760H_0_in_070760_4
 70
     2
 10
0.0
 20
0.0
 30
0.0
  3
5_070760H_0_in_070760_4
  1

  0
ATTDEF
  5
1B7
330
1B3
100
AcDbEntity
  8
AM_6
100
AcDbText
 10
9.67421875
 20
1.305147058823529
 30
0.0
 40
0.5
  1
WSTU-S2 -(Contact Seal)-Housing
100
AcDbAttributeDefinition
  3

  2
NN
 70
     8
280
     0
  0
ATTDEF
  5
1B8
330
1B3
100
AcDbEntity
  8
AM_6
100
AcDbText
 10
9.67421875
 20
0.8051470588235294
 30
0.0
 40
0.5
  1
S-2000 Wide Slot Take-Up Bearing -Inch
100
AcDbAttributeDefinition
  3

  2
NT
 70
     8
280
     0
  0
ATTDEF
  5
1B9
330
1B3
100
AcDbEntity
  8
AM_6
100
AcDbText
 10
9.67421875
 20
0.3051470588235294
 30
0.0
 40
0.5
  1
070760H
100
AcDbAttributeDefinition
  3

  2
NB
 70
     8
280
     0
  0
ATTDEF
  5
1BA
330
1B3
100
AcDbEntity
  8
AM_6
100
AcDbText
 10
9.67421875
 20
-0.1948529411764706
 30
0.0
 40
0.5
  1
$PN.H
100
AcDbAttributeDefinition
  3

  2
NBSYN
 70
     8
280
     0
  0
ATTDEF
  5
1BB
330
1B3
100
AcDbEntity
  8
AM_6
100
AcDbText
 10
9.67421875
 20
-0.6948529411764706
 30
0.0
 40
0.5
  1
070760
100
AcDbAttributeDefinition
  3

  2
LINA
 70
     8
280
     0
  0
ATTDEF
  5
1BC
330
1B3
100
AcDbEntity
  8
AM_6
100
AcDbText
 10
9.67421875
 20
-1.194852941176471
 30
0.0
 40
0.5
  1
2-3/16
100
AcDbAttributeDefinition
  3

  2
SS
 70
     8
280
     0
  0
ATTDEF
  5
1BD
330
1B3
100
AcDbEntity
  8
AM_6
100
AcDbText
 10
9.67421875
 20
-1.694852941176471
 30
0.0
 40
0.5
  1
070760
100
AcDbAttributeDefinition
  3

  2
PN
 70
     8
280
     0
  0
ATTDEF
  5
1BE
330
1B3
100
AcDbEntity
  8
AM_6
100
AcDbText
 10
9.67421875
 20
-2.194852941176471
 30
0.0
 40
0.5
  1
WSTU-S2-203R
100
AcDbAttributeDefinition
  3

  2
DESCRIPTION
 70
     8
280
     0
  0
ATTDEF
  5
1BF
330
1B3
100
AcDbEntity
  8
AM_6
100
AcDbText
 10
9.67421875
 20
-2.694852941176471
 30
0.0
 40
0.5
  1
Non-Expansion Type
100
AcDbAttributeDefinition
  3

  2
EF
 70
     8
280
     0
  0
ATTDEF
  5
1C0
330
1B3
100
AcDbEntity
  8
AM_6
100
AcDbText
 10
9.67421875
 20
-3.194852941176471
 30
0.0
 40
0.5
  1
2-15/16
100
AcDbAttributeDefinition
  3

  2
A
 70
     8
280
     0
  0
ATTDEF
  5
1C1
330
1B3
100
AcDbEntity
  8
AM_6
100
AcDbText
 10
9.67421875
 20
-3.694852941176471
 30
0.0
 40
0.5
  1
7-1/16
100
AcDbAttributeDefinition
  3

  2
B
 70
     8
280
     0
  0
ATTDEF
  5
1C2
330
1B3
100
AcDbEntity
  8
AM_6
100
AcDbText
 10
9.67421875
 20
-4.194852941176471
 30
0.0
 40
0.5
  1
13/16
100
AcDbAttributeDefinition
  3

  2
C
 70
     8
280
     0
  0
ATTDEF
  5
1C3
330
1B3
100
AcDbEntity
  8
AM_6
100
AcDbText
 10
9.67421875
 20
-4.694852941176471
 30
0.0
 40
0.5
  1
4-5/8
100
AcDbAttributeDefinition
  3

  2
E
 70
     8
280
     0
  0
ATTDEF
  5
1C4
330
1B3
100
AcDbEntity
  8
AM_6
100
AcDbText
 10
9.67421875
 20
-5.194852941176471
 30
0.0
 40
0.5
  1
1-3/8
100
AcDbAttributeDefinition
  3

  2
F
 70
     8
280
     0
  0
ATTDEF
  5
1C5
330
1B3
100
AcDbEntity
  8
AM_6
100
AcDbText
 10
9.67421875
 20
-5.694852941176471
 30
0.0
 40
0.5
  1
15/16
100
AcDbAttributeDefinition
  3

  2
G
 70
     8
280
     0
  0
ATTDEF
  5
1C6
330
1B3
100
AcDbEntity
  8
AM_6
100
AcDbText
 10
9.67421875
 20
-6.194852941176471
 30
0.0
 40
0.5
  1
1-1/4
100
AcDbAttributeDefinition
  3

  2
H
 70
     8
280
     0
  0
ATTDEF
  5
1C7
330
1B3
100
AcDbEntity
  8
AM_6
100
AcDbText
 10
9.67421875
 20
-6.694852941176471
 30
0.0
 40
0.5
  1
3-7/8
100
AcDbAttributeDefinition
  3

  2
J
 70
     8
280
     0
  0
ATTDEF
  5
1C8
330
1B3
100
AcDbEntity
  8
AM_6
100
AcDbText
 10
9.67421875
 20
-7.194852941176471
 30
0.0
 40
0.5
  1
2-1/4
100
AcDbAttributeDefinition
  3

  2
K
 70
     8
280
     0
  0
ATTDEF
  5
1C9
330
1B3
100
AcDbEntity
  8
AM_6
100
AcDbText
 10
9.67421875
 20
-7.694852941176471
 30
0.0
 40
0.5
  1
2.250000
100
AcDbAttributeDefinition
  3

  2
K1
 70
     8
280
     0
  0
ATTDEF
  5
1CA
330
1B3
100
AcDbEntity
  8
AM_6
100
AcDbText
 10
9.67421875
 20
-8.194852941176471
 30
0.0
 40
0.5
  1
3-3/4
100
AcDbAttributeDefinition
  3

  2
L
 70
     8
280
     0
  0
ATTDEF
  5
1CB
330
1B3
100
AcDbEntity
  8
AM_6
100
AcDbText
 10
9.67421875
 20
-8.694852941176471
 30
0.0
 40
0.5
  1
4-1/2
100
AcDbAttributeDefinition
  3

  2
M
 70
     8
280
     0
  0
ATTDEF
  5
1CC
330
1B3
100
AcDbEntity
  8
AM_6
100
AcDbText
 10
9.67421875
 20
-9.194852941176471
 30
0.0
 40
0.5
  1
5-1/4
100
AcDbAttributeDefinition
  3

  2
N
 70
     8
280
     0
  0
ATTDEF
  5
1CD
330
1B3
100
AcDbEntity
  8
AM_6
100
AcDbText
 10
9.67421875
 20
-9.694852941176471
 30
0.0
 40
0.5
  1
3-3/32
100
AcDbAttributeDefinition
  3

  2
R
 70
     8
280
     0
  0
ATTDEF
  5
1CE
330
1B3
100
AcDbEntity
  8
AM_6
100
AcDbText
 10
9.67421875
 20
-10.19485294117647
 30
0.0
 40
0.5
  1
1-63/64
100
AcDbAttributeDefinition
  3

  2
S
 70
     8
280
     0
  0
ATTDEF
  5
1CF
330
1B3
100
AcDbEntity
  8
AM_6
100
AcDbText
 10
9.67421875
 20
-10.69485294117647
 30
0.0
 40
0.5
  1
2-7/32
100
AcDbAttributeDefinition
  3

  2
T
 70
     8
280
     0
  0
ATTDEF
  5
1D0
330
1B3
100
AcDbEntity
  8
AM_6
100
AcDbText
 10
9.67421875
 20
-11.19485294117647
 30
0.0
 40
0.5
  1
2.218750
100
AcDbAttributeDefinition
  3

  2
T1
 70
     8
280
     0
  0
ATTDEF
  5
1D1
330
1B3
100
AcDbEntity
  8
AM_6
100
AcDbText
 10
9.67421875
 20
-11.69485294117647
 30
0.0
 40
0.5
  1
1/4
100
AcDbAttributeDefinition
  3

  2
X
 70
     8
280
     0
  0
ATTDEF
  5
1D2
330
1B3
100
AcDbEntity
  8
AM_6
100
AcDbText
 10
9.67421875
 20
-12.19485294117647
 30
0.0
 40
0.5
  1
0.025
100
AcDbAttributeDefinition
  3

  2
Y
 70
     8
280
     0
  0
ATTDEF
  5
1D3
330
1B3
100
AcDbEntity
  8
AM_6
100
AcDbText
 10
9.67421875
 20
-12.69485294117647
 30
0.0
 40
0.5
  1
2-19/32
100
AcDbAttributeDefinition
  3

  2
Z
 70
     8
280
     0
  0
ATTDEF
  5
1D4
330
1B3
100
AcDbEntity
  8
AM_6
100
AcDbText
 10
9.67421875
 20
-13.19485294117647
 30
0.0
 40
0.5
  1
baldor
100
AcDbAttributeDefinition
  3

  2
COMPANY
 70
     8
280
     0
  0
ELLIPSE
  5
1D5
330
1B3
100
AcDbEntity
  8
AM_9
100
AcDbEllipse
 10
-2.197539462103013
 20
-0.0000000000000001
 30
0.0
 11
2.449293598294707E-17
 21
0.4
 31
0.0
210
0.0
220
0.0
230
1.0
 40
0.4999999999999999
 41
0.0
 42
6.283185307179586
  0
LINE
  5
1D6
330
1B3
100
AcDbEntity
  8
AM_9
100
AcDbLine
 10
-2.114301186475893
 20
-0.4999717030556269
 30
0.0
 11
-2.110794479040375
 21
-0.4999999492752002
 31
0.0
  0
LWPOLYLINE
  5
1D7
330
1B3
100
AcDbEntity
  8
AM_9
100
AcDbPolyline
 90
       24
 70
     0
 43
0.0
 10
-2.410936921724569
 20
-0.0000000000000001
 10
-2.410752196713084
 20
-0.0182312892584421
 10
-2.409414307228896
 20
-0.0522705362108167
 10
-2.406784182086333
 20
-0.0860916381822548
 10
-2.402863467529162
 20
-0.1195564759083212
 10
-2.397652713610206
 20
-0.1525349202913594
 10
-2.39115051950541
 20
-0.1849000051073975
 10
-2.383352264430837
 20
-0.2165280689823945
 10
-2.374248627623504
 20
-0.2472981543897849
 10
-2.363824153112957
 20
-0.2770901964049677
 10
-2.352056441497396
 20
-0.305781339517664
 10
-2.338917145416274
 20
-0.3332395782344014
 10
-2.324376851955861
 20
-0.3593141428592856
 10
-2.308416816644257
 20
-0.383823401944313
 10
-2.291080734836502
 20
-0.4065075681773059
 10
-2.272466791553915
 20
-0.4270961864417754
 10
-2.252742271332743
 20
-0.4453300213066377
 10
-2.232128015049606
 20
-0.4610064689365173
 10
-2.210857559481679
 20
-0.4740147467834538
 10
-2.189142717756126
 20
-0.4843327695264412
 10
-2.167163306918907
 20
-0.4919973118329937
 10
-2.145074028695812
 20
-0.4970733051220194
 10
-2.123013566310246
 20
-0.4996351787639958
 10
-2.114301186475893
 20
-0.4999717030556269
  0
LWPOLYLINE
  5
1D8
330
1B3
100
AcDbEntity
  8
AM_9
100
AcDbPolyline
 90
       25
 70
     0
 43
0.0
 10
-2.113070947075301
 20
0.4999886146369671
 10
-2.124580175644778
 20
0.4995343153865033
 10
-2.146155064663634
 20
0.4968840889063031
 10
-2.167305451145127
 20
0.491956285204329
 10
-2.187969277377757
 20
0.484810626172642
 10
-2.208105173374354
 20
0.4754818994225657
 10
-2.227685968448788
 20
0.4639758937292586
 10
-2.246687314351416
 20
0.4502714687372246
 10
-2.265072410900099
 20
0.4343328692078741
 10
-2.282776538479157
 20
0.4161346123338804
 10
-2.299698514927397
 20
0.3956949972614185
 10
-2.315707081372083
 20
0.3731042602345698
 10
-2.330663491934534
 20
0.3485289933796677
 10
-2.344449179770156
 20
0.3221871959533685
 10
-2.356973349628745
 20
0.29433243525499
 10
-2.368193739862916
 20
0.265185889763319
 10
-2.378100709800283
 20
0.2349240789544313
 10
-2.38669540174566
 20
0.2037028748219497
 10
-2.393982538679363
 20
0.1716650811876962
 10
-2.399966851367854
 20
0.1389467777395447
 10
-2.404651823704789
 20
0.1056815156632916
 10
-2.408039624053065
 20
0.0720026441220001
 10
-2.41013150693686
 20
0.0380442977841731
 10
-2.410918588350507
 20
0.0057444617593869
 10
-2.410936921724569
 20
-0.0000000000000001
  0
LINE
  5
1D9
330
1B3
100
AcDbEntity
  8
AM_9
100
AcDbLine
 10
-2.111054945512737
 20
0.4999999651759615
 30
0.0
 11
-2.113070947075301
 21
0.4999886146369671
 31
0.0
  0
LINE
  5
1DA
330
1B3
100
AcDbEntity
  8
AM_9
100
AcDbLine
 10
3.6875
 20
-0.6875
 30
0.0
 11
4.625
 21
-0.6875
 31
0.0
  0
LINE
  5
1DB
330
1B3
100
AcDbEntity
  8
AM_9
100
AcDbLine
 10
4.625
 20
0.6875
 30
0.0
 11
3.6875
 21
0.6875
 31
0.0
  0
LINE
  5
1DC
330
1B3
100
AcDbEntity
  8
AM_9
100
AcDbLine
 10
3.6375
 20
-1.008522727272727
 30
0.0
 11
3.6375
 21
1.008522727272728
 31
0.0
  0
LINE
  5
1DD
330
1B3
100
AcDbEntity
  8
AM_9
100
AcDbLine
 10
3.6875
 20
-1.008522727272727
 30
0.0
 11
3.6875
 21
1.008522727272727
 31
0.0
  0
LINE
  5
1DE
330
1B3
100
AcDbEntity
  8
AM_9
100
AcDbLine
 10
2.487500000000001
 20
-1.008522727272727
 30
0.0
 11
2.487500000000001
 21
1.008522727272728
 31
0.0
  0
LINE
  5
1DF
330
1B3
100
AcDbEntity
  8
AM_9
100
AcDbLine
 10
2.4375
 20
-1.008522727272727
 30
0.0
 11
2.4375
 21
1.008522727272727
 31
0.0
  0
LINE
  5
1E0
330
1B3
100
AcDbEntity
  8
AM_9
100
AcDbLine
 10
1.9685
 20
-0.6878205224919874
 30
0.0
 11
1.9685
 21
1.109375
 31
0.0
  0
LINE
  5
1E1
330
1B3
100
AcDbEntity
  8
AM_9
100
AcDbLine
 10
-1.9685
 20
1.109375
 30
0.0
 11
-1.9685
 21
-0.6878205224919874
 31
0.0
  0
LINE
  5
1E2
330
1B3
100
AcDbEntity
  8
AM_9
100
AcDbLine
 10
-1.9685
 20
-0.6878205224919874
 30
0.0
 11
1.9685
 21
-0.6878205224919874
 31
0.0
  0
LINE
  5
1E3
330
1B3
100
AcDbEntity
  8
AM_9
100
AcDbLine
 10
-1.9685
 20
-0.6878205224919874
 30
0.0
 11
-2.081455181813996
 21
-1.109375
 31
0.0
  0
LINE
  5
1E4
330
1B3
100
AcDbEntity
  8
AM_9
100
AcDbLine
 10
2.081455181813996
 20
-1.109375
 30
0.0
 11
1.9685
 21
-0.6878205224919874
 31
0.0
  0
LWPOLYLINE
  5
1E5
330
1B3
100
AcDbEntity
  8
AM_9
100
AcDbPolyline
 90
       29
 70
     0
 43
0.0
 10
-2.11093692172457
 20
0.4999999999999998
 10
-2.082680064242709
 20
0.4968810919219155
 10
-2.053631267519851
 20
0.487649045298544
 10
-2.024398340634083
 20
0.4724908765462086
 10
-1.995353498706814
 20
0.4515002463659736
 10
-1.966874133246947
 20
0.4249587473135777
 10
-1.939618332616554
 20
0.3933616570970576
 10
-1.913690697422104
 20
0.356442167409019
 10
-1.889841298691773
 20
0.3149658177281291
 10
-1.868687938063149
 20
0.2696803378669617
 10
-1.850496143750483
 20
0.2204532308952575
 10
-1.835780018903275
 20
0.1681994508406291
 10
-1.824976222988419
 20
0.1139110567732895
 10
-1.818451729256552
 20
0.0588659757832933
 10
-1.816089781547278
 20
0.002878878408105
 10
-1.817963746318316
 20
-0.0529642390572788
 10
-1.823983642978107
 20
-0.107238192720833
 10
-1.83394423846411
 20
-0.1603400556875949
 10
-1.847556098582431
 20
-0.2112970918992113
 10
-1.864749442118627
 20
-0.259955198555576
 10
-1.885067191368777
 20
-0.3055547783001208
 10
-1.907972629337223
 20
-0.3472927748768554
 10
-1.933612664809174
 20
-0.3854238794942608
 10
-1.961130615179801
 20
-0.418827751477153
 10
-1.989845545070203
 20
-0.4468793826050398
 10
-2.019385835015981
 20
-0.4692590532200296
 10
-2.049292302403809
 20
-0.4857626900891861
 10
-2.078883470053582
 20
-0.4960519324487218
 10
-2.110936921724569
 20
-0.5
  0
LWPOLYLINE
  5
1E6
330
1B3
100
AcDbEntity
  8
AM_9
100
AcDbPolyline
 90
       29
 70
     0
 43
0.0
 10
-2.110936921724569
 20
-0.5
 10
-2.136430194568991
 20
-0.4972858752297227
 10
-2.160699223350827
 20
-0.4892087350615298
 10
-2.184768687720272
 20
-0.4748764603038257
 10
-2.207085575983641
 20
-0.4547933554814595
 10
-2.227365806613034
 20
-0.4293417595737496
 10
-2.245758923546086
 20
-0.3982691889055535
 10
-2.262035007704764
 20
-0.3622238995532051
 10
-2.27608311974296
 20
-0.3218545885104949
 10
-2.288108259967087
 20
-0.2767148159534601
 10
-2.297964453321372
 20
-0.22787904547913
 10
-2.30563131321262
 20
-0.1762529217758935
 10
-2.311136350624242
 20
-0.1225801594054332
 10
-2.314595221529236
 20
-0.0671300948036229
 10
-2.316009674048315
 20
-0.0109807579742734
 10
-2.315416498022027
 20
0.0442397616835642
 10
-2.312865185739021
 20
0.0990739558923106
 10
-2.308354079056619
 20
0.1524898677007912
 10
-2.301847590632812
 20
0.2038319320902158
 10
-2.293291762852272
 20
0.2528158030555428
 10
-2.282698489573426
 20
0.2985743870668917
 10
-2.269728225252696
 20
0.3413907871545542
 10
-2.254510322104337
 20
0.380084582119102
 10
-2.237134663228646
 20
0.4139560875008809
 10
-2.217315507422678
 20
0.4429056871018255
 10
-2.195281136108703
 20
0.4663270193648775
 10
-2.171306255894616
 20
0.4837538281851864
 10
-2.142082901457896
 20
0.4959015862532934
 10
-2.110936921724569
 20
0.4999999999999998
  0
ELLIPSE
  5
1E7
330
1B3
100
AcDbEntity
  8
AM_9
100
AcDbEllipse
 10
-2.110936921724569
 20
-0.0000000000000002
 30
0.0
 11
-9.184850993605142E-17
 21
-0.4999999999999997
 31
0.0
210
0.0
220
0.0
230
1.0
 40
0.4999999999999994
 41
0.0
 42
6.283185307179586
  0
LINE
  5
1E8
330
1B3
100
AcDbEntity
  8
AM_7
100
AcDbLine
 10
4.67421875
 20
0.0
 30
0.0
 11
3.59140625
 21
0.0
 31
0.0
  0
LINE
  5
1E9
330
1B3
100
AcDbEntity
  8
AM_7
100
AcDbLine
 10
0.0
 20
-2.13125
 30
0.0
 11
0.0
 21
1.251602564586138
 31
0.0
  0
LINE
  5
1EA
330
1B3
100
AcDbEntity
  8
AM_4
100
AcDbLine
 10
4.575
 20
1.305147058823529
 30
0.0
 11
3.737499999999999
 21
1.305147058823529
 31
0.0
  0
LINE
  5
1EB
330
1B3
100
AcDbEntity
  8
AM_4
100
AcDbLine
 10
3.737499999999999
 20
-1.305147058823529
 30
0.0
 11
4.575
 21
-1.305147058823529
 31
0.0
  0
LINE
  5
1EC
330
1B3
100
AcDbEntity
  8
AM_4
100
AcDbLine
 10
3.6875
 20
1.255147058823529
 30
0.0
 11
3.6875
 21
1.008522727272727
 31
0.0
  0
ARC
  5
1ED
330
1B3
100
AcDbEntity
  8
AM_4
100
AcDbCircle
 10
3.737499999999998
 20
1.255147058823531
 30
0.0
 40
0.0499999999999989
100
AcDbArc
 50
90.0
 51
180.0
  0
LINE
  5
1EE
330
1B3
100
AcDbEntity
  8
AM_4
100
AcDbLine
 10
3.737499999999999
 20
1.305147058823529
 30
0.0
 11
3.737499999999999
 21
1.008522727272727
 31
0.0
  0
LINE
  5
1EF
330
1B3
100
AcDbEntity
  8
AM_4
100
AcDbLine
 10
3.6875
 20
-1.008522727272727
 30
0.0
 11
3.6875
 21
-1.255147058823529
 31
0.0
  0
LINE
  5
1F0
330
1B3
100
AcDbEntity
  8
AM_4
100
AcDbLine
 10
3.737499999999999
 20
-1.008522727272727
 30
0.0
 11
3.737499999999999
 21
-1.305147058823529
 31
0.0
  0
ARC
  5
1F1
330
1B3
100
AcDbEntity
  8
AM_4
100
AcDbCircle
 10
3.737499999999998
 20
-1.255147058823531
 30
0.0
 40
0.0499999999999985
100
AcDbArc
 50
180.0
 51
270.0
  0
ARC
  5
1F2
330
1B3
100
AcDbEntity
  8
AM_4
100
AcDbCircle
 10
4.574999999999998
 20
1.255147058823528
 30
0.0
 40
0.0500000000000016
100
AcDbArc
 50
0.0
 51
90.0
  0
LINE
  5
1F3
330
1B3
100
AcDbEntity
  8
AM_4
100
AcDbLine
 10
4.625
 20
1.255147058823528
 30
0.0
 11
4.625
 21
-1.255147058823528
 31
0.0
  0
LINE
  5
1F4
330
1B3
100
AcDbEntity
  8
AM_4
100
AcDbLine
 10
4.575
 20
1.305147058823529
 30
0.0
 11
4.575
 21
-1.305147058823529
 31
0.0
  0
ARC
  5
1F5
330
1B3
100
AcDbEntity
  8
AM_4
100
AcDbCircle
 10
4.574999999999998
 20
-1.255147058823528
 30
0.0
 40
0.0500000000000016
100
AcDbArc
 50
270.0
 51
0.0
  0
LINE
  5
1F6
330
1B3
100
AcDbEntity
  8
AM_4
100
AcDbLine
 10
-2.3875
 20
1.109375
 30
0.0
 11
2.38749999999533
 21
1.109375
 31
0.0
  0
ARC
  5
1F7
330
1B3
100
AcDbEntity
  8
AM_4
100
AcDbCircle
 10
2.3875
 20
1.059375
 30
0.0
 40
0.0499999999999998
100
AcDbArc
 50
0.0
 51
90.0
  0
ARC
  5
1F8
330
1B3
100
AcDbEntity
  8
AM_4
100
AcDbCircle
 10
-2.3875
 20
1.059375
 30
0.0
 40
0.0499999999999998
100
AcDbArc
 50
90.0
 51
180.0
  0
LINE
  5
1F9
330
1B3
100
AcDbEntity
  8
AM_4
100
AcDbLine
 10
-2.3875
 20
-1.109375
 30
0.0
 11
2.38749999999533
 21
-1.109375
 31
0.0
  0
ARC
  5
1FA
330
1B3
100
AcDbEntity
  8
AM_4
100
AcDbCircle
 10
2.3875
 20
-1.059375
 30
0.0
 40
0.0499999999999996
100
AcDbArc
 50
270.0
 51
0.0
  0
ARC
  5
1FB
330
1B3
100
AcDbEntity
  8
AM_4
100
AcDbCircle
 10
-2.3875
 20
-1.059375
 30
0.0
 40
0.0499999999999998
100
AcDbArc
 50
180.0
 51
270.0
  0
LINE
  5
1FC
330
1B3
100
AcDbEntity
  8
AM_4
100
AcDbLine
 10
-2.4375
 20
1.059375
 30
0.0
 11
2.4375
 21
1.059375
 31
0.0
  0
LINE
  5
1FD
330
1B3
100
AcDbEntity
  8
AM_4
100
AcDbLine
 10
-2.4375
 20
-1.059375
 30
0.0
 11
2.4375
 21
-1.059375
 31
0.0
  0
LINE
  5
1FE
330
1B3
100
AcDbEntity
  8
AM_4
100
AcDbLine
 10
2.4375
 20
-1.059375
 30
0.0
 11
2.4375
 21
-1.008522727272727
 31
0.0
  0
LINE
  5
1FF
330
1B3
100
AcDbEntity
  8
AM_4
100
AcDbLine
 10
2.4375
 20
1.008522727272727
 30
0.0
 11
2.4375
 21
1.059375
 31
0.0
  0
LINE
  5
200
330
1B3
100
AcDbEntity
  8
AM_4
100
AcDbLine
 10
-2.4375
 20
1.059375
 30
0.0
 11
-2.4375
 21
-1.059375
 31
0.0
  0
LINE
  5
201
330
1B3
100
AcDbEntity
  8
AM_4
100
AcDbLine
 10
1.8125
 20
-1.008522727272727
 30
0.0
 11
1.8125
 21
1.008522727272728
 31
0.0
  0
LINE
  5
202
330
1B3
100
AcDbEntity
  8
AM_4
100
AcDbLine
 10
4.625
 20
-1.008522727272727
 30
0.0
 11
-1.8125
 21
-1.008522727272727
 31
0.0
  0
LINE
  5
203
330
1B3
100
AcDbEntity
  8
AM_4
100
AcDbLine
 10
1.8125
 20
-0.4062499999999999
 30
0.0
 11
-1.8125
 21
-0.4062499999999999
 31
0.0
  0
LINE
  5
204
330
1B3
100
AcDbEntity
  8
AM_4
100
AcDbLine
 10
1.7625
 20
-1.008522727272727
 30
0.0
 11
1.7625
 21
-0.4062499999999999
 31
0.0
  0
LINE
  5
205
330
1B3
100
AcDbEntity
  8
AM_4
100
AcDbLine
 10
-1.762500000000001
 20
-1.008522727272727
 30
0.0
 11
-1.762500000000001
 21
-0.4062499999999999
 31
0.0
  0
LINE
  5
206
330
1B3
100
AcDbEntity
  8
AM_4
100
AcDbLine
 10
-1.8125
 20
-1.008522727272727
 30
0.0
 11
-1.8125
 21
1.008522727272728
 31
0.0
  0
LINE
  5
207
330
1B3
100
AcDbEntity
  8
AM_4
100
AcDbLine
 10
-1.8125
 20
0.4062500000000001
 30
0.0
 11
1.8125
 21
0.4062500000000001
 31
0.0
  0
LINE
  5
208
330
1B3
100
AcDbEntity
  8
AM_4
100
AcDbLine
 10
4.625
 20
1.008522727272728
 30
0.0
 11
-1.8125
 21
1.008522727272728
 31
0.0
  0
LINE
  5
209
330
1B3
100
AcDbEntity
  8
AM_4
100
AcDbLine
 10
-1.762500000000001
 20
0.4062500000000001
 30
0.0
 11
-1.762500000000001
 21
1.008522727272728
 31
0.0
  0
LINE
  5
20A
330
1B3
100
AcDbEntity
  8
AM_4
100
AcDbLine
 10
1.7625
 20
0.4062500000000001
 30
0.0
 11
1.7625
 21
1.008522727272728
 31
0.0
  0
ENDBLK
  5
1B6
330
1B3
100
AcDbEntity
  8
0
100
AcDbBlockEnd
  0
ENDSEC
  0
SECTION
  2
ENTITIES
  0
INSERT
  5
6F
330
1F
100
AcDbEntity
  8
0
100
AcDbBlockReference
  2
1_070760_4
 10
0.0
 20
0.0
 30
0.0
  0
POINT
  5
20C
330
1F
100
AcDbEntity
  8
ConnectionPoints
100
AcDbPoint
 10
0.0
 20
-1.984375
 30
0.0000000000000001
  0
POINT
  5
20D
330
1F
100
AcDbEntity
  8
ConnectionPoints
100
AcDbPoint
 10
0.0
 20
1.790625
 30
-0.0000000000000001
  0
POINT
  5
20E
330
1F
100
AcDbEntity
  8
ConnectionPoints
100
AcDbPoint
 10
0.0
 20
-1.984375
 30
0.0000000000000001
  0
POINT
  5
20F
330
1F
100
AcDbEntity
  8
ConnectionPoints
100
AcDbPoint
 10
-2.197539462103013
 20
-0.0000000000000001
 30
-1.26875
  0
POINT
  5
210
330
1F
100
AcDbEntity
  8
ConnectionPoints
100
AcDbPoint
 10
-2.197539462103013
 20
-0.0000000000000001
 30
-1.26875
  0
POINT
  5
211
330
1F
100
AcDbEntity
  8
ConnectionPoints
100
AcDbPoint
 10
0.0
 20
-1.734375
 30
0.0000000000000001
  0
POINT
  5
212
330
1F
100
AcDbEntity
  8
ConnectionPoints
100
AcDbPoint
 10
0.0
 20
-1.984375
 30
0.0000000000000001
  0
ENDSEC
  0
SECTION
  2
OBJECTS
  0
DICTIONARY
  5
C
330
0
100
AcDbDictionary
281
     1
  3
ACAD_DETAILVIEWSTYLE
350
21A
  3
ACAD_GROUP
350
D
  3
ACAD_LAYOUT
350
1A
  3
ACAD_MATERIAL
350
43
  3
ACAD_MLEADERSTYLE
350
6B
  3
ACAD_MLINESTYLE
350
17
  3
ACAD_PLOTSETTINGS
350
19
  3
ACAD_PLOTSTYLENAME
350
E
  3
ACAD_SCALELIST
350
47
  3
ACAD_SECTIONVIEWSTYLE
350
21B
  3
ACAD_TABLESTYLE
350
69
  3
ACAD_VISUALSTYLE
350
2A
  3
ACDB_RECOMPOSE_DATA
350
217
  3
AcDbVariableDictionary
350
213
  0
SUN
  5
6D
330
29
100
AcDbSun
 90
        1
290
     0
 63
     7
421
 16777215
 40
1.0
291
     1
 91
  2455826
 92
 54000000
292
     0
 70
     2
 71
   256
280
     1
  0
DICTIONARY
  5
21A
102
{ACAD_REACTORS
330
C
102
}
330
C
100
AcDbDictionary
281
     1
  0
DICTIONARY
  5
D
102
{ACAD_REACTORS
330
C
102
}
330
C
100
AcDbDictionary
281
     1
  0
DICTIONARY
  5
1A
102
{ACAD_REACTORS
330
C
102
}
330
C
100
AcDbDictionary
281
     1
  3
Layout1
350
1E
  3
Layout2
350
26
  3
Model
350
22
  0
DICTIONARY
  5
43
102
{ACAD_REACTORS
330
C
102
}
330
C
100
AcDbDictionary
281
     1
  3
ByBlock
350
45
  3
ByLayer
350
44
  3
Global
350
46
  0
DICTIONARY
  5
6B
102
{ACAD_REACTORS
330
C
102
}
330
C
100
AcDbDictionary
281
     1
  3
Standard
350
6C
  0
DICTIONARY
  5
17
102
{ACAD_REACTORS
330
C
102
}
330
C
100
AcDbDictionary
281
     1
  3
Standard
350
18
  0
DICTIONARY
  5
19
102
{ACAD_REACTORS
330
C
102
}
330
C
100
AcDbDictionary
281
     1
  0
ACDBDICTIONARYWDFLT
  5
E
102
{ACAD_REACTORS
330
C
102
}
330
C
100
AcDbDictionary
281
     1
  3
Normal
350
F
100
AcDbDictionaryWithDefault
340
F
  0
DICTIONARY
  5
47
102
{ACAD_REACTORS
330
C
102
}
330
C
100
AcDbDictionary
281
     1
  3
A0
350
48
  3
A1
350
49
  3
A2
350
4A
  3
A3
350
4B
  3
A4
350
4C
  3
A5
350
4D
  3
A6
350
4E
  3
A7
350
4F
  3
A8
350
50
  3
A9
350
51
  3
B0
350
52
  3
B1
350
53
  3
B2
350
54
  3
B3
350
55
  3
B4
350
56
  3
B5
350
57
  3
B6
350
58
  3
B7
350
59
  3
B8
350
5A
  3
B9
350
5B
  3
C0
350
5C
  3
C1
350
5D
  3
C2
350
5E
  3
C3
350
5F
  3
C4
350
60
  3
C5
350
61
  3
C6
350
62
  3
C7
350
63
  3
C8
350
64
  3
C9
350
65
  3
D0
350
66
  3
D1
350
67
  3
D2
350
68
  0
DICTIONARY
  5
21B
102
{ACAD_REACTORS
330
C
102
}
330
C
100
AcDbDictionary
281
     1
  0
DICTIONARY
  5
69
102
{ACAD_REACTORS
330
C
102
}
330
C
100
AcDbDictionary
281
     1
  3
Standard
350
6A
  0
DICTIONARY
  5
2A
102
{ACAD_REACTORS
330
C
102
}
330
C
100
AcDbDictionary
281
     1
  3
2dWireframe
350
2F
  3
Basic
350
32
  3
Brighten
350
36
  3
ColorChange
350
3A
  3
Conceptual
350
34
  3
Dim
350
35
  3
EdgeColorOff
350
3D
  3
Facepattern
350
39
  3
Flat
350
2B
  3
FlatWithEdges
350
2C
  3
Gouraud
350
2D
  3
GouraudWithEdges
350
2E
  3
Hidden
350
31
  3
JitterOff
350
3B
  3
Linepattern
350
38
  3
OverhangOff
350
3C
  3
Realistic
350
33
  3
Shaded
350
42
  3
Shaded with edges
350
41
  3
Shades of Gray
350
3E
  3
Sketchy
350
3F
  3
Thicken
350
37
  3
Wireframe
350
30
  3
X-Ray
350
40
  0
XRECORD
  5
217
102
{ACAD_REACTORS
330
C
102
}
330
C
100
AcDbXrecord
280
     1
 90
        1
330
6A
  0
DICTIONARY
  5
213
102
{ACAD_REACTORS
330
C
102
}
330
C
100
AcDbDictionary
281
     1
  3
CANNOSCALE
350
214
  3
CMLEADERSTYLE
350
219
  3
CTABLESTYLE
350
218
  0
LAYOUT
  5
1E
102
{ACAD_REACTORS
330
1A
102
}
330
1A
100
AcDbPlotSettings
  1

  2
none_device
  4

  6

 40
0.0
 41
0.0
 42
0.0
 43
0.0
 44
0.0
 45
0.0
 46
0.0
 47
0.0
 48
0.0
 49
0.0
140
0.0
141
0.0
142
1.0
143
1.0
 70
   688
 72
     0
 73
     0
 74
     5
  7

 75
    16
 76
     0
 77
     2
 78
   300
147
1.0
148
0.0
149
0.0
100
AcDbLayout
  1
Layout1
 70
     1
 71
     1
 10
0.0
 20
0.0
 11
12.0
 21
9.0
 12
0.0
 22
0.0
 32
0.0
 14
1.000000000000000E+20
 24
1.000000000000000E+20
 34
1.000000000000000E+20
 15
-1.000000000000000E+20
 25
-1.000000000000000E+20
 35
-1.000000000000000E+20
146
0.0
 13
0.0
 23
0.0
 33
0.0
 16
1.0
 26
0.0
 36
0.0
 17
0.0
 27
1.0
 37
0.0
 76
     0
330
1B
  0
LAYOUT
  5
26
102
{ACAD_REACTORS
330
1A
102
}
330
1A
100
AcDbPlotSettings
  1

  2
none_device
  4

  6

 40
0.0
 41
0.0
 42
0.0
 43
0.0
 44
0.0
 45
0.0
 46
0.0
 47
0.0
 48
0.0
 49
0.0
140
0.0
141
0.0
142
1.0
143
1.0
 70
   688
 72
     0
 73
     0
 74
     5
  7

 75
    16
 76
     0
 77
     2
 78
   300
147
1.0
148
0.0
149
0.0
100
AcDbLayout
  1
Layout2
 70
     1
 71
     2
 10
0.0
 20
0.0
 11
0.0
 21
0.0
 12
0.0
 22
0.0
 32
0.0
 14
0.0
 24
0.0
 34
0.0
 15
0.0
 25
0.0
 35
0.0
146
0.0
 13
0.0
 23
0.0
 33
0.0
 16
1.0
 26
0.0
 36
0.0
 17
0.0
 27
1.0
 37
0.0
 76
     0
330
23
  0
LAYOUT
  5
22
102
{ACAD_REACTORS
330
1A
102
}
330
1A
100
AcDbPlotSettings
  1

  2
none_device
  4
Letter_(8.50_x_11.00_Inches)
  6

 40
6.35
 41
6.35
 42
6.35000508
 43
6.35000508
 44
215.9
 45
279.4
 46
0.0
 47
0.0
 48
0.0
 49
0.0
140
0.0
141
0.0
142
1.0
143
1.0
 70
  1712
 72
     0
 73
     0
 74
     0
  7

 75
     0
 76
     0
 77
     2
 78
   300
147
1.0
148
0.0
149
0.0
100
AcDbLayout
  1
Model
 70
     1
 71
     0
 10
0.0
 20
0.0
 11
12.0
 21
9.0
 12
0.0
 22
0.0
 32
0.0
 14
1.000000000000000E+20
 24
1.000000000000000E+20
 34
1.000000000000000E+20
 15
-1.000000000000000E+20
 25
-1.000000000000000E+20
 35
-1.000000000000000E+20
146
0.0
 13
0.0
 23
0.0
 33
0.0
 16
1.0
 26
0.0
 36
0.0
 17
0.0
 27
1.0
 37
0.0
 76
     0
330
1F
331
29
  0
MATERIAL
  5
45
102
{ACAD_REACTORS
330
43
102
}
330
43
100
AcDbMaterial
  1
ByBlock
 72
     1
 94
      127
  0
MATERIAL
  5
44
102
{ACAD_REACTORS
330
43
102
}
330
43
100
AcDbMaterial
  1
ByLayer
 72
     1
 94
      127
  0
MATERIAL
  5
46
102
{ACAD_REACTORS
330
43
102
}
330
43
100
AcDbMaterial
  1
Global
 72
     1
 94
      127
  0
MLEADERSTYLE
  5
6C
102
{ACAD_REACTORS
330
6B
102
}
330
6B
100
AcDbMLeaderStyle
179
     2
170
     2
171
     1
172
     0
 90
        2
 40
0.0
 41
0.0
173
     1
 91
-1056964608
340
14
 92
       -2
290
     1
 42
0.09
291
     1
 43
0.36
  3
Standard
341
0
 44
0.18
300

342
11
174
     1
178
     6
175
     1
176
     0
 93
-1056964608
 45
0.18
292
     0
297
     0
 46
0.18
343
0
 94
-1056964608
 47
1.0
 49
1.0
140
1.0
293
     1
141
0.0
294
     1
177
     0
142
1.0
295
     0
296
     0
143
0.125
271
     0
272
     9
273
     9
298
     0
  0
MLINESTYLE
  5
18
102
{ACAD_REACTORS
330
17
102
}
330
17
100
AcDbMlineStyle
  2
Standard
 70
     0
  3

 62
   256
 51
90.0
 52
90.0
 71
     2
 49
0.5
 62
   256
  6
BYLAYER
 49
-0.5
 62
   256
  6
BYLAYER
  0
ACDBPLACEHOLDER
  5
F
102
{ACAD_REACTORS
330
E
102
}
330
E
  0
SCALE
  5
48
102
{ACAD_REACTORS
330
47
102
}
330
47
100
AcDbScale
 70
     0
300
1:1
140
1.0
141
1.0
290
     1
  0
SCALE
  5
49
102
{ACAD_REACTORS
330
47
102
}
330
47
100
AcDbScale
 70
     0
300
1:2
140
1.0
141
2.0
290
     0
  0
SCALE
  5
4A
102
{ACAD_REACTORS
330
47
102
}
330
47
100
AcDbScale
 70
     0
300
1:4
140
1.0
141
4.0
290
     0
  0
SCALE
  5
4B
102
{ACAD_REACTORS
330
47
102
}
330
47
100
AcDbScale
 70
     0
300
1:5
140
1.0
141
5.0
290
     0
  0
SCALE
  5
4C
102
{ACAD_REACTORS
330
47
102
}
330
47
100
AcDbScale
 70
     0
300
1:8
140
1.0
141
8.0
290
     0
  0
SCALE
  5
4D
102
{ACAD_REACTORS
330
47
102
}
330
47
100
AcDbScale
 70
     0
300
1:10
140
1.0
141
10.0
290
     0
  0
SCALE
  5
4E
102
{ACAD_REACTORS
330
47
102
}
330
47
100
AcDbScale
 70
     0
300
1:16
140
1.0
141
16.0
290
     0
  0
SCALE
  5
4F
102
{ACAD_REACTORS
330
47
102
}
330
47
100
AcDbScale
 70
     0
300
1:20
140
1.0
141
20.0
290
     0
  0
SCALE
  5
50
102
{ACAD_REACTORS
330
47
102
}
330
47
100
AcDbScale
 70
     0
300
1:30
140
1.0
141
30.0
290
     0
  0
SCALE
  5
51
102
{ACAD_REACTORS
330
47
102
}
330
47
100
AcDbScale
 70
     0
300
1:40
140
1.0
141
40.0
290
     0
  0
SCALE
  5
52
102
{ACAD_REACTORS
330
47
102
}
330
47
100
AcDbScale
 70
     0
300
1:50
140
1.0
141
50.0
290
     0
  0
SCALE
  5
53
102
{ACAD_REACTORS
330
47
102
}
330
47
100
AcDbScale
 70
     0
300
1:100
140
1.0
141
100.0
290
     0
  0
SCALE
  5
54
102
{ACAD_REACTORS
330
47
102
}
330
47
100
AcDbScale
 70
     0
300
2:1
140
2.0
141
1.0
290
     0
  0
SCALE
  5
55
102
{ACAD_REACTORS
330
47
102
}
330
47
100
AcDbScale
 70
     0
300
4:1
140
4.0
141
1.0
290
     0
  0
SCALE
  5
56
102
{ACAD_REACTORS
330
47
102
}
330
47
100
AcDbScale
 70
     0
300
8:1
140
8.0
141
1.0
290
     0
  0
SCALE
  5
57
102
{ACAD_REACTORS
330
47
102
}
330
47
100
AcDbScale
 70
     0
300
10:1
140
10.0
141
1.0
290
     0
  0
SCALE
  5
58
102
{ACAD_REACTORS
330
47
102
}
330
47
100
AcDbScale
 70
     0
300
100:1
140
100.0
141
1.0
290
     0
  0
SCALE
  5
59
102
{ACAD_REACTORS
330
47
102
}
330
47
100
AcDbScale
 70
     0
300
1/128" = 1'-0"
140
0.0078125
141
12.0
290
     0
  0
SCALE
  5
5A
102
{ACAD_REACTORS
330
47
102
}
330
47
100
AcDbScale
 70
     0
300
1/64" = 1'-0"
140
0.015625
141
12.0
290
     0
  0
SCALE
  5
5B
102
{ACAD_REACTORS
330
47
102
}
330
47
100
AcDbScale
 70
     0
300
1/32" = 1'-0"
140
0.03125
141
12.0
290
     0
  0
SCALE
  5
5C
102
{ACAD_REACTORS
330
47
102
}
330
47
100
AcDbScale
 70
     0
300
1/16" = 1'-0"
140
0.0625
141
12.0
290
     0
  0
SCALE
  5
5D
102
{ACAD_REACTORS
330
47
102
}
330
47
100
AcDbScale
 70
     0
300
3/32" = 1'-0"
140
0.09375
141
12.0
290
     0
  0
SCALE
  5
5E
102
{ACAD_REACTORS
330
47
102
}
330
47
100
AcDbScale
 70
     0
300
1/8" = 1'-0"
140
0.125
141
12.0
290
     0
  0
SCALE
  5
5F
102
{ACAD_REACTORS
330
47
102
}
330
47
100
AcDbScale
 70
     0
300
3/16" = 1'-0"
140
0.1875
141
12.0
290
     0
  0
SCALE
  5
60
102
{ACAD_REACTORS
330
47
102
}
330
47
100
AcDbScale
 70
     0
300
1/4" = 1'-0"
140
0.25
141
12.0
290
     0
  0
SCALE
  5
61
102
{ACAD_REACTORS
330
47
102
}
330
47
100
AcDbScale
 70
     0
300
3/8" = 1'-0"
140
0.375
141
12.0
290
     0
  0
SCALE
  5
62
102
{ACAD_REACTORS
330
47
102
}
330
47
100
AcDbScale
 70
     0
300
1/2" = 1'-0"
140
0.5
141
12.0
290
     0
  0
SCALE
  5
63
102
{ACAD_REACTORS
330
47
102
}
330
47
100
AcDbScale
 70
     0
300
3/4" = 1'-0"
140
0.75
141
12.0
290
     0
  0
SCALE
  5
64
102
{ACAD_REACTORS
330
47
102
}
330
47
100
AcDbScale
 70
     0
300
1" = 1'-0"
140
1.0
141
12.0
290
     0
  0
SCALE
  5
65
102
{ACAD_REACTORS
330
47
102
}
330
47
100
AcDbScale
 70
     0
300
1-1/2" = 1'-0"
140
1.5
141
12.0
290
     0
  0
SCALE
  5
66
102
{ACAD_REACTORS
330
47
102
}
330
47
100
AcDbScale
 70
     0
300
3" = 1'-0"
140
3.0
141
12.0
290
     0
  0
SCALE
  5
67
102
{ACAD_REACTORS
330
47
102
}
330
47
100
AcDbScale
 70
     0
300
6" = 1'-0"
140
6.0
141
12.0
290
     0
  0
SCALE
  5
68
102
{ACAD_REACTORS
330
47
102
}
330
47
100
AcDbScale
 70
     0
300
1'-0" = 1'-0"
140
12.0
141
12.0
290
     0
  0
TABLESTYLE
  5
6A
102
{ACAD_REACTORS
330
69
102
}
102
{ACAD_XDICTIONARY
360
215
102
}
330
69
100
AcDbTableStyle
  3
Standard
 70
     0
 71
     0
 40
0.06
 41
0.06
280
     0
281
     0
  7
Standard
140
0.18
170
     2
 62
     0
 63
   257
283
     0
 90
        4
 91
        0
  1

274
    -2
284
     1
 64
     0
275
    -2
285
     1
 65
     0
276
    -2
286
     1
 66
     0
277
    -2
287
     1
 67
     0
278
    -2
288
     1
 68
     0
279
    -2
289
     1
 69
     0
  7
Standard
140
0.25
170
     5
 62
     0
 63
   257
283
     0
 90
        4
 91
        0
  1

274
    -2
284
     1
 64
     0
275
    -2
285
     1
 65
     0
276
    -2
286
     1
 66
     0
277
    -2
287
     1
 67
     0
278
    -2
288
     1
 68
     0
279
    -2
289
     1
 69
     0
  7
Standard
140
0.18
170
     5
 62
     0
 63
   257
283
     0
 90
        4
 91
        0
  1

274
    -2
284
     1
 64
     0
275
    -2
285
     1
 65
     0
276
    -2
286
     1
 66
     0
277
    -2
287
     1
 67
     0
278
    -2
288
     1
 68
     0
279
    -2
289
     1
 69
     0
  0
VISUALSTYLE
  5
2F
102
{ACAD_REACTORS
330
2A
102
}
330
2A
100
AcDbVisualStyle
  2
2dWireframe
 70
     4
177
     3
291
     0
 70
    58
 90
        0
176
     1
 90
        2
176
     1
 90
        0
176
     1
 90
        0
176
     1
 40
0.6
176
     1
 40
30.0
176
     1
 62
     7
420
 16777215
176
     1
 90
        1
176
     1
 90
        4
176
     1
 62
     7
176
     1
 62
   257
176
     1
 90
        1
176
     1
 90
        1
176
     1
 40
1.0
176
     1
 90
        0
176
     1
 62
   257
176
     1
 40
1.0
176
     1
 90
        1
176
     1
 90
        6
176
     1
 90
        2
176
     1
 62
     7
176
     1
 90
        5
176
     1
 90
        0
176
     1
 90
        0
176
     1
290
     0
176
     1
 90
        1
176
     1
 40
0.0
176
     1
 90
        0
176
     1
290
     1
176
     1
290
     1
176
     1
290
     0
176
     1
290
     0
176
     1
290
     0
176
     1
290
     0
176
     1
290
     0
176
     1
290
     0
176
     1
290
     0
176
     1
 90
       50
176
     1
 40
0.0
176
     1
 40
1.0
176
     1
 90
        0
176
     1
 62
    18
420
        0
176
     1
 90
       50
176
     1
 90
        3
176
     1
 62
     5
420
      255
176
     1
290
     0
176
     1
 90
       50
176
     1
 90
       50
176
     1
 90
       50
176
     1
290
     0
176
     1
 90
       50
176
     1
 62
   256
176
     0
 40
1.0
176
     0
 90
        2
176
     1
  1
strokes_ogs.tif
176
     1
290
     0
176
     1
 40
1.0
176
     1
 40
1.0
176
     1
  0
VISUALSTYLE
  5
32
102
{ACAD_REACTORS
330
2A
102
}
330
2A
100
AcDbVisualStyle
  2
Basic
 70
     7
177
     3
291
     1
 70
    58
 90
        1
176
     1
 90
        0
176
     1
 90
        1
176
     1
 90
        0
176
     1
 40
0.6
176
     1
 40
30.0
176
     1
 62
     7
420
 16777215
176
     1
 90
        0
176
     1
 90
        4
176
     1
 62
     7
176
     1
 62
   257
176
     1
 90
        1
176
     1
 90
        1
176
     1
 40
1.0
176
     1
 90
        8
176
     1
 62
     7
176
     1
 40
1.0
176
     1
 90
        1
176
     1
 90
        6
176
     1
 90
        2
176
     1
 62
     7
176
     1
 90
        5
176
     1
 90
        0
176
     1
 90
        0
176
     1
290
     0
176
     1
 90
        1
176
     1
 40
0.0
176
     1
 90
        0
176
     1
290
     0
176
     1
290
     1
176
     1
290
     1
176
     1
290
     0
176
     1
290
     0
176
     1
290
     0
176
     1
290
     0
176
     1
290
     0
176
     1
290
     0
176
     1
 90
       50
176
     1
 40
0.0
176
     1
 40
1.0
176
     1
 90
        0
176
     1
 62
    18
420
        0
176
     1
 90
       50
176
     1
 90
        3
176
     1
 62
     5
420
      255
176
     1
290
     0
176
     1
 90
       50
176
     1
 90
       50
176
     1
 90
       50
176
     1
290
     0
176
     1
 90
       50
176
     1
 62
   256
176
     0
 40
1.0
176
     0
 90
        2
176
     1
  1
strokes_ogs.tif
176
     1
290
     0
176
     1
 40
1.0
176
     1
 40
1.0
176
     1
  0
VISUALSTYLE
  5
36
102
{ACAD_REACTORS
330
2A
102
}
330
2A
100
AcDbVisualStyle
  2
Brighten
 70
    12
177
     3
291
     1
 70
    58
 90
        2
176
     1
 90
        2
176
     1
 90
        0
176
     1
 90
        0
176
     1
 40
0.6
176
     1
 40
30.0
176
     1
 62
     7
420
 16777215
176
     1
 90
        1
176
     1
 90
        4
176
     1
 62
     7
176
     1
 62
   257
176
     1
 90
        1
176
     1
 90
        1
176
     1
 40
1.0
176
     1
 90
        8
176
     1
 62
     7
176
     1
 40
1.0
176
     1
 90
        1
176
     1
 90
        6
176
     1
 90
        2
176
     1
 62
     7
176
     1
 90
        5
176
     1
 90
        0
176
     1
 90
        0
176
     1
290
     0
176
     1
 90
        1
176
     1
 40
50.0
176
     1
 90
        0
176
     1
290
     0
176
     1
290
     1
176
     1
290
     1
176
     1
290
     0
176
     1
290
     0
176
     1
290
     0
176
     1
290
     0
176
     1
290
     0
176
     1
290
     0
176
     1
 90
       50
176
     1
 40
0.0
176
     1
 40
1.0
176
     1
 90
        0
176
     1
 62
    18
420
        0
176
     1
 90
       50
176
     1
 90
        3
176
     1
 62
     5
420
      255
176
     1
290
     0
176
     1
 90
       50
176
     1
 90
       50
176
     1
 90
       50
176
     1
290
     0
176
     1
 90
       50
176
     1
 62
   256
176
     0
 40
1.0
176
     0
 90
        2
176
     1
  1
strokes_ogs.tif
176
     1
290
     0
176
     1
 40
1.0
176
     1
 40
1.0
176
     1
  0
VISUALSTYLE
  5
3A
102
{ACAD_REACTORS
330
2A
102
}
330
2A
100
AcDbVisualStyle
  2
ColorChange
 70
    16
177
     3
291
     1
 70
    58
 90
        2
176
     1
 90
        2
176
     1
 90
        3
176
     1
 90
        0
176
     1
 40
0.6
176
     1
 40
30.0
176
     1
 62
     8
420
  8421504
176
     1
 90
        1
176
     1
 90
        4
176
     1
 62
     7
176
     1
 62
   257
176
     1
 90
        1
176
     1
 90
        1
176
     1
 40
1.0
176
     1
 90
        8
176
     1
 62
     8
420
  8421504
176
     1
 40
1.0
176
     1
 90
        1
176
     1
 90
        6
176
     1
 90
        2
176
     1
 62
     7
176
     1
 90
        5
176
     1
 90
        0
176
     1
 90
        0
176
     1
290
     0
176
     1
 90
        1
176
     1
 40
0.0
176
     1
 90
        0
176
     1
290
     0
176
     1
290
     1
176
     1
290
     1
176
     1
290
     0
176
     1
290
     0
176
     1
290
     0
176
     1
290
     0
176
     1
290
     0
176
     1
290
     0
176
     1
 90
       50
176
     1
 40
0.0
176
     1
 40
1.0
176
     1
 90
        0
176
     1
 62
    18
420
        0
176
     1
 90
       50
176
     1
 90
        3
176
     1
 62
     5
420
      255
176
     1
290
     0
176
     1
 90
       50
176
     1
 90
       50
176
     1
 90
       50
176
     1
290
     0
176
     1
 90
       50
176
     1
 62
   256
176
     0
 40
1.0
176
     0
 90
        2
176
     1
  1
strokes_ogs.tif
176
     1
290
     0
176
     1
 40
1.0
176
     1
 40
1.0
176
     1
  0
VISUALSTYLE
  5
34
102
{ACAD_REACTORS
330
2A
102
}
330
2A
100
AcDbVisualStyle
  2
Conceptual
 70
     9
177
     3
291
     0
 70
    58
 90
        3
176
     1
 90
        2
176
     1
 90
        0
176
     1
 90
        0
176
     1
 40
0.6
176
     1
 40
30.0
176
     1
 62
     7
420
 16777215
176
     1
 90
        2
176
     1
 90
        2
176
     1
 62
     7
176
     1
 62
   257
176
     1
 90
        1
176
     1
 90
        1
176
     1
 40
179.0
176
     1
 90
        8
176
     1
 62
     7
176
     1
 40
1.0
176
     1
 90
        1
176
     1
 90
        6
176
     1
 90
        2
176
     1
 62
     7
176
     1
 90
        3
176
     1
 90
        0
176
     1
 90
        0
176
     1
290
     0
176
     1
 90
        1
176
     1
 40
0.0
176
     1
 90
        0
176
     1
290
     0
176
     1
290
     1
176
     1
290
     1
176
     1
290
     0
176
     1
290
     0
176
     1
290
     0
176
     1
290
     0
176
     1
290
     0
176
     1
290
     0
176
     1
 90
       50
176
     1
 40
0.0
176
     1
 40
1.0
176
     1
 90
        0
176
     1
 62
    18
420
        0
176
     1
 90
       50
176
     1
 90
        3
176
     1
 62
     5
420
      255
176
     1
290
     0
176
     1
 90
       50
176
     1
 90
       50
176
     1
 90
       50
176
     1
290
     0
176
     1
 90
       50
176
     1
 62
   256
176
     0
 40
1.0
176
     0
 90
        2
176
     1
  1
strokes_ogs.tif
176
     1
290
     0
176
     1
 40
1.0
176
     1
 40
1.0
176
     1
  0
VISUALSTYLE
  5
35
102
{ACAD_REACTORS
330
2A
102
}
330
2A
100
AcDbVisualStyle
  2
Dim
 70
    11
177
     3
291
     1
 70
    58
 90
        2
176
     1
 90
        2
176
     1
 90
        0
176
     1
 90
        0
176
     1
 40
0.6
176
     1
 40
30.0
176
     1
 62
     7
420
 16777215
176
     1
 90
        1
176
     1
 90
        4
176
     1
 62
     7
176
     1
 62
   257
176
     1
 90
        1
176
     1
 90
        1
176
     1
 40
1.0
176
     1
 90
        8
176
     1
 62
     7
176
     1
 40
1.0
176
     1
 90
        1
176
     1
 90
        6
176
     1
 90
        2
176
     1
 62
     7
176
     1
 90
        5
176
     1
 90
        0
176
     1
 90
        0
176
     1
290
     0
176
     1
 90
        1
176
     1
 40
-50.0
176
     1
 90
        0
176
     1
290
     0
176
     1
290
     1
176
     1
290
     1
176
     1
290
     0
176
     1
290
     0
176
     1
290
     0
176
     1
290
     0
176
     1
290
     0
176
     1
290
     0
176
     1
 90
       50
176
     1
 40
0.0
176
     1
 40
1.0
176
     1
 90
        0
176
     1
 62
    18
420
        0
176
     1
 90
       50
176
     1
 90
        3
176
     1
 62
     5
420
      255
176
     1
290
     0
176
     1
 90
       50
176
     1
 90
       50
176
     1
 90
       50
176
     1
290
     0
176
     1
 90
       50
176
     1
 62
   256
176
     0
 40
1.0
176
     0
 90
        2
176
     1
  1
strokes_ogs.tif
176
     1
290
     0
176
     1
 40
1.0
176
     1
 40
1.0
176
     1
  0
VISUALSTYLE
  5
3D
102
{ACAD_REACTORS
330
2A
102
}
330
2A
100
AcDbVisualStyle
  2
EdgeColorOff
 70
    22
177
     3
291
     1
 70
    58
 90
        2
176
     0
 90
        2
176
     0
 90
        0
176
     0
 90
        0
176
     0
 40
0.6
176
     0
 40
30.0
176
     0
 62
     7
420
 16777215
176
     0
 90
        1
176
     0
 90
        4
176
     0
 62
     7
176
     0
 62
   257
176
     0
 90
        1
176
     0
 90
        1
176
     0
 40
1.0
176
     0
 90
        8
176
     2
 62
     7
176
     0
 40
1.0
176
     0
 90
        1
176
     0
 90
        6
176
     0
 90
        2
176
     0
 62
     7
176
     0
 90
        5
176
     0
 90
        0
176
     0
 90
        0
176
     0
290
     0
176
     0
 90
        1
176
     0
 40
0.0
176
     0
 90
        0
176
     0
290
     0
176
     0
290
     1
176
     0
290
     1
176
     0
290
     0
176
     0
290
     0
176
     0
290
     0
176
     0
290
     0
176
     0
290
     0
176
     0
290
     0
176
     0
 90
       50
176
     0
 40
0.0
176
     0
 40
1.0
176
     0
 90
        0
176
     0
 62
    18
420
        0
176
     0
 90
       50
176
     0
 90
        3
176
     0
 62
     5
420
      255
176
     0
290
     0
176
     0
 90
       50
176
     0
 90
       50
176
     0
 90
       50
176
     0
290
     0
176
     0
 90
       50
176
     0
 62
   256
176
     0
 40
1.0
176
     0
 90
        2
176
     0
  1
strokes_ogs.tif
176
     0
290
     0
176
     0
 40
1.0
176
     0
 40
1.0
176
     0
  0
VISUALSTYLE
  5
39
102
{ACAD_REACTORS
330
2A
102
}
330
2A
100
AcDbVisualStyle
  2
Facepattern
 70
    15
177
     3
291
     1
 70
    58
 90
        2
176
     1
 90
        2
176
     1
 90
        0
176
     1
 90
        0
176
     1
 40
0.6
176
     1
 40
30.0
176
     1
 62
     7
420
 16777215
176
     1
 90
        1
176
     1
 90
        4
176
     1
 62
     7
176
     1
 62
   257
176
     1
 90
        1
176
     1
 90
        1
176
     1
 40
1.0
176
     1
 90
        8
176
     1
 62
     7
176
     1
 40
1.0
176
     1
 90
        1
176
     1
 90
        6
176
     1
 90
        2
176
     1
 62
     7
176
     1
 90
        5
176
     1
 90
        0
176
     1
 90
        0
176
     1
290
     0
176
     1
 90
        1
176
     1
 40
0.0
176
     1
 90
        0
176
     1
290
     0
176
     1
290
     1
176
     1
290
     1
176
     1
290
     0
176
     1
290
     0
176
     1
290
     0
176
     1
290
     0
176
     1
290
     0
176
     1
290
     0
176
     1
 90
       50
176
     1
 40
0.0
176
     1
 40
1.0
176
     1
 90
        0
176
     1
 62
    18
420
        0
176
     1
 90
       50
176
     1
 90
        3
176
     1
 62
     5
420
      255
176
     1
290
     0
176
     1
 90
       50
176
     1
 90
       50
176
     1
 90
       50
176
     1
290
     0
176
     1
 90
       50
176
     1
 62
   256
176
     0
 40
1.0
176
     0
 90
        2
176
     1
  1
strokes_ogs.tif
176
     1
290
     0
176
     1
 40
1.0
176
     1
 40
1.0
176
     1
  0
VISUALSTYLE
  5
2B
102
{ACAD_REACTORS
330
2A
102
}
330
2A
100
AcDbVisualStyle
  2
Flat
 70
     0
177
     3
291
     1
 70
    58
 90
        2
176
     1
 90
        1
176
     1
 90
        1
176
     1
 90
        2
176
     1
 40
0.6
176
     1
 40
30.0
176
     1
 62
     7
420
 16777215
176
     1
 90
        0
176
     1
 90
        0
176
     1
 62
     7
176
     1
 62
   257
176
     1
 90
        1
176
     1
 90
        1
176
     1
 40
1.0
176
     1
 90
        8
176
     1
 62
     7
176
     1
 40
1.0
176
     1
 90
        1
176
     1
 90
        6
176
     1
 90
        2
176
     1
 62
     7
176
     1
 90
        5
176
     1
 90
        0
176
     1
 90
        0
176
     1
290
     0
176
     1
 90
       13
176
     1
 40
0.0
176
     1
 90
        0
176
     1
290
     0
176
     1
290
     1
176
     1
290
     1
176
     1
290
     0
176
     1
290
     0
176
     1
290
     0
176
     1
290
     0
176
     1
290
     0
176
     1
290
     0
176
     1
 90
       50
176
     1
 40
0.0
176
     1
 40
1.0
176
     1
 90
        0
176
     1
 62
    18
420
        0
176
     1
 90
       50
176
     1
 90
        3
176
     1
 62
     5
420
      255
176
     1
290
     0
176
     1
 90
       50
176
     1
 90
       50
176
     1
 90
       50
176
     1
290
     0
176
     1
 90
       50
176
     1
 62
   256
176
     0
 40
1.0
176
     0
 90
        2
176
     1
  1
strokes_ogs.tif
176
     1
290
     0
176
     1
 40
1.0
176
     1
 40
1.0
176
     1
  0
VISUALSTYLE
  5
2C
102
{ACAD_REACTORS
330
2A
102
}
330
2A
100
AcDbVisualStyle
  2
FlatWithEdges
 70
     1
177
     3
291
     1
 70
    58
 90
        2
176
     1
 90
        1
176
     1
 90
        1
176
     1
 90
        2
176
     1
 40
0.6
176
     1
 40
30.0
176
     1
 62
     7
420
 16777215
176
     1
 90
        1
176
     1
 90
        0
176
     1
 62
     7
176
     1
 62
   257
176
     1
 90
        1
176
     1
 90
        1
176
     1
 40
1.0
176
     1
 90
        0
176
     1
 62
   257
176
     1
 40
1.0
176
     1
 90
        1
176
     1
 90
        6
176
     1
 90
        2
176
     1
 62
     7
176
     1
 90
        5
176
     1
 90
        0
176
     1
 90
        0
176
     1
290
     0
176
     1
 90
       13
176
     1
 40
0.0
176
     1
 90
        0
176
     1
290
     0
176
     1
290
     1
176
     1
290
     1
176
     1
290
     0
176
     1
290
     0
176
     1
290
     0
176
     1
290
     0
176
     1
290
     0
176
     1
290
     0
176
     1
 90
       50
176
     1
 40
0.0
176
     1
 40
1.0
176
     1
 90
        0
176
     1
 62
    18
420
        0
176
     1
 90
       50
176
     1
 90
        3
176
     1
 62
     5
420
      255
176
     1
290
     0
176
     1
 90
       50
176
     1
 90
       50
176
     1
 90
       50
176
     1
290
     0
176
     1
 90
       50
176
     1
 62
   256
176
     0
 40
1.0
176
     0
 90
        2
176
     1
  1
strokes_ogs.tif
176
     1
290
     0
176
     1
 40
1.0
176
     1
 40
1.0
176
     1
  0
VISUALSTYLE
  5
2D
102
{ACAD_REACTORS
330
2A
102
}
330
2A
100
AcDbVisualStyle
  2
Gouraud
 70
     2
177
     3
291
     1
 70
    58
 90
        2
176
     1
 90
        2
176
     1
 90
        1
176
     1
 90
        2
176
     1
 40
0.6
176
     1
 40
30.0
176
     1
 62
     7
420
 16777215
176
     1
 90
        0
176
     1
 90
        0
176
     1
 62
     7
176
     1
 62
   257
176
     1
 90
        1
176
     1
 90
        1
176
     1
 40
1.0
176
     1
 90
        0
176
     1
 62
     7
176
     1
 40
1.0
176
     1
 90
        1
176
     1
 90
        6
176
     1
 90
        2
176
     1
 62
     7
176
     1
 90
        5
176
     1
 90
        0
176
     1
 90
        0
176
     1
290
     0
176
     1
 90
       13
176
     1
 40
0.0
176
     1
 90
        0
176
     1
290
     0
176
     1
290
     1
176
     1
290
     1
176
     1
290
     0
176
     1
290
     0
176
     1
290
     0
176
     1
290
     0
176
     1
290
     0
176
     1
290
     0
176
     1
 90
       50
176
     1
 40
0.0
176
     1
 40
1.0
176
     1
 90
        0
176
     1
 62
    18
420
        0
176
     1
 90
       50
176
     1
 90
        3
176
     1
 62
     5
420
      255
176
     1
290
     0
176
     1
 90
       50
176
     1
 90
       50
176
     1
 90
       50
176
     1
290
     0
176
     1
 90
       50
176
     1
 62
   256
176
     0
 40
1.0
176
     0
 90
        2
176
     1
  1
strokes_ogs.tif
176
     1
290
     0
176
     1
 40
1.0
176
     1
 40
1.0
176
     1
  0
VISUALSTYLE
  5
2E
102
{ACAD_REACTORS
330
2A
102
}
330
2A
100
AcDbVisualStyle
  2
GouraudWithEdges
 70
     3
177
     3
291
     1
 70
    58
 90
        2
176
     1
 90
        2
176
     1
 90
        1
176
     1
 90
        2
176
     1
 40
0.6
176
     1
 40
30.0
176
     1
 62
     7
420
 16777215
176
     1
 90
        1
176
     1
 90
        0
176
     1
 62
     7
176
     1
 62
   257
176
     1
 90
        1
176
     1
 90
        1
176
     1
 40
1.0
176
     1
 90
        0
176
     1
 62
   257
176
     1
 40
1.0
176
     1
 90
        1
176
     1
 90
        6
176
     1
 90
        2
176
     1
 62
     7
176
     1
 90
        5
176
     1
 90
        0
176
     1
 90
        0
176
     1
290
     0
176
     1
 90
       13
176
     1
 40
0.0
176
     1
 90
        0
176
     1
290
     0
176
     1
290
     1
176
     1
290
     1
176
     1
290
     0
176
     1
290
     0
176
     1
290
     0
176
     1
290
     0
176
     1
290
     0
176
     1
290
     0
176
     1
 90
       50
176
     1
 40
0.0
176
     1
 40
1.0
176
     1
 90
        0
176
     1
 62
    18
420
        0
176
     1
 90
       50
176
     1
 90
        3
176
     1
 62
     5
420
      255
176
     1
290
     0
176
     1
 90
       50
176
     1
 90
       50
176
     1
 90
       50
176
     1
290
     0
176
     1
 90
       50
176
     1
 62
   256
176
     0
 40
1.0
176
     0
 90
        2
176
     1
  1
strokes_ogs.tif
176
     1
290
     0
176
     1
 40
1.0
176
     1
 40
1.0
176
     1
  0
VISUALSTYLE
  5
31
102
{ACAD_REACTORS
330
2A
102
}
330
2A
100
AcDbVisualStyle
  2
Hidden
 70
     6
177
     3
291
     0
 70
    58
 90
        1
176
     1
 90
        2
176
     1
 90
        2
176
     1
 90
        0
176
     1
 40
0.6
176
     1
 40
30.0
176
     1
 62
     7
420
 16777215
176
     1
 90
        2
176
     1
 90
        2
176
     1
 62
     7
176
     1
 62
   257
176
     1
 90
        2
176
     1
 90
        1
176
     1
 40
40.0
176
     1
 90
        0
176
     1
 62
   257
176
     1
 40
1.0
176
     1
 90
        1
176
     1
 90
        6
176
     1
 90
        2
176
     1
 62
     7
176
     1
 90
        3
176
     1
 90
        0
176
     1
 90
        0
176
     1
290
     0
176
     1
 90
        1
176
     1
 40
0.0
176
     1
 90
        0
176
     1
290
     0
176
     1
290
     1
176
     1
290
     1
176
     1
290
     0
176
     1
290
     0
176
     1
290
     0
176
     1
290
     0
176
     1
290
     0
176
     1
290
     0
176
     1
 90
       50
176
     1
 40
0.0
176
     1
 40
1.0
176
     1
 90
        0
176
     1
 62
    18
420
        0
176
     1
 90
       50
176
     1
 90
        3
176
     1
 62
     5
420
      255
176
     1
290
     0
176
     1
 90
       50
176
     1
 90
       50
176
     1
 90
       50
176
     1
290
     0
176
     1
 90
       50
176
     1
 62
   256
176
     0
 40
1.0
176
     0
 90
        2
176
     1
  1
strokes_ogs.tif
176
     1
290
     0
176
     1
 40
1.0
176
     1
 40
1.0
176
     1
  0
VISUALSTYLE
  5
3B
102
{ACAD_REACTORS
330
2A
102
}
330
2A
100
AcDbVisualStyle
  2
JitterOff
 70
    20
177
     3
291
     1
 70
    58
 90
        2
176
     0
 90
        2
176
     0
 90
        0
176
     0
 90
        0
176
     0
 40
0.6
176
     0
 40
30.0
176
     0
 62
     7
420
 16777215
176
     0
 90
        1
176
     0
 90
        4
176
     0
 62
     7
176
     0
 62
   257
176
     0
 90
        1
176
     0
 90
        1
176
     0
 40
1.0
176
     0
 90
       10
176
     2
 62
     7
176
     0
 40
1.0
176
     0
 90
        1
176
     0
 90
        6
176
     0
 90
        2
176
     0
 62
     7
176
     0
 90
        5
176
     0
 90
        0
176
     0
 90
        0
176
     0
290
     0
176
     0
 90
        1
176
     0
 40
0.0
176
     0
 90
        0
176
     0
290
     0
176
     0
290
     1
176
     0
290
     1
176
     0
290
     0
176
     0
290
     0
176
     0
290
     0
176
     0
290
     0
176
     0
290
     0
176
     0
290
     0
176
     0
 90
       50
176
     0
 40
0.0
176
     0
 40
1.0
176
     0
 90
        0
176
     0
 62
    18
420
        0
176
     0
 90
       50
176
     0
 90
        3
176
     0
 62
     5
420
      255
176
     0
290
     0
176
     0
 90
       50
176
     0
 90
       50
176
     0
 90
       50
176
     0
290
     0
176
     0
 90
       50
176
     0
 62
   256
176
     0
 40
1.0
176
     0
 90
        2
176
     0
  1
strokes_ogs.tif
176
     0
290
     0
176
     0
 40
1.0
176
     0
 40
1.0
176
     0
  0
VISUALSTYLE
  5
38
102
{ACAD_REACTORS
330
2A
102
}
330
2A
100
AcDbVisualStyle
  2
Linepattern
 70
    14
177
     3
291
     1
 70
    58
 90
        2
176
     1
 90
        2
176
     1
 90
        0
176
     1
 90
        0
176
     1
 40
0.6
176
     1
 40
30.0
176
     1
 62
     7
420
 16777215
176
     1
 90
        1
176
     1
 90
        4
176
     1
 62
     7
176
     1
 62
   257
176
     1
 90
        7
176
     1
 90
        7
176
     1
 40
1.0
176
     1
 90
        8
176
     1
 62
     7
176
     1
 40
1.0
176
     1
 90
        1
176
     1
 90
        6
176
     1
 90
        2
176
     1
 62
     7
176
     1
 90
        5
176
     1
 90
        0
176
     1
 90
        0
176
     1
290
     0
176
     1
 90
        1
176
     1
 40
0.0
176
     1
 90
        0
176
     1
290
     0
176
     1
290
     1
176
     1
290
     1
176
     1
290
     0
176
     1
290
     0
176
     1
290
     0
176
     1
290
     0
176
     1
290
     0
176
     1
290
     0
176
     1
 90
       50
176
     1
 40
0.0
176
     1
 40
1.0
176
     1
 90
        0
176
     1
 62
    18
420
        0
176
     1
 90
       50
176
     1
 90
        3
176
     1
 62
     5
420
      255
176
     1
290
     0
176
     1
 90
       50
176
     1
 90
       50
176
     1
 90
       50
176
     1
290
     0
176
     1
 90
       50
176
     1
 62
   256
176
     0
 40
1.0
176
     0
 90
        2
176
     1
  1
strokes_ogs.tif
176
     1
290
     0
176
     1
 40
1.0
176
     1
 40
1.0
176
     1
  0
VISUALSTYLE
  5
3C
102
{ACAD_REACTORS
330
2A
102
}
330
2A
100
AcDbVisualStyle
  2
OverhangOff
 70
    21
177
     3
291
     1
 70
    58
 90
        2
176
     0
 90
        2
176
     0
 90
        0
176
     0
 90
        0
176
     0
 40
0.6
176
     0
 40
30.0
176
     0
 62
     7
420
 16777215
176
     0
 90
        1
176
     0
 90
        4
176
     0
 62
     7
176
     0
 62
   257
176
     0
 90
        1
176
     0
 90
        1
176
     0
 40
1.0
176
     0
 90
        9
176
     2
 62
     7
176
     0
 40
1.0
176
     0
 90
        1
176
     0
 90
        6
176
     0
 90
        2
176
     0
 62
     7
176
     0
 90
        5
176
     0
 90
        0
176
     0
 90
        0
176
     0
290
     0
176
     0
 90
        1
176
     0
 40
0.0
176
     0
 90
        0
176
     0
290
     0
176
     0
290
     1
176
     0
290
     1
176
     0
290
     0
176
     0
290
     0
176
     0
290
     0
176
     0
290
     0
176
     0
290
     0
176
     0
290
     0
176
     0
 90
       50
176
     0
 40
0.0
176
     0
 40
1.0
176
     0
 90
        0
176
     0
 62
    18
420
        0
176
     0
 90
       50
176
     0
 90
        3
176
     0
 62
     5
420
      255
176
     0
290
     0
176
     0
 90
       50
176
     0
 90
       50
176
     0
 90
       50
176
     0
290
     0
176
     0
 90
       50
176
     0
 62
   256
176
     0
 40
1.0
176
     0
 90
        2
176
     0
  1
strokes_ogs.tif
176
     0
290
     0
176
     0
 40
1.0
176
     0
 40
1.0
176
     0
  0
VISUALSTYLE
  5
33
102
{ACAD_REACTORS
330
2A
102
}
330
2A
100
AcDbVisualStyle
  2
Realistic
 70
     8
177
     3
291
     0
 70
    58
 90
        2
176
     1
 90
        3
176
     1
 90
        0
176
     1
 90
        2
176
     1
 40
0.6
176
     1
 40
30.0
176
     1
 62
     7
420
 16777215
176
     1
 90
        0
176
     1
 90
        0
176
     1
 62
     7
176
     1
 62
   257
176
     1
 90
        1
176
     1
 90
        1
176
     1
 40
1.0
176
     1
 90
        8
176
     1
 62
   257
176
     1
 40
1.0
176
     1
 90
        1
176
     1
 90
        6
176
     1
 90
        2
176
     1
 62
     7
176
     1
 90
        3
176
     1
 90
        0
176
     1
 90
        0
176
     1
290
     0
176
     1
 90
       13
176
     1
 40
0.0
176
     1
 90
        0
176
     1
290
     0
176
     1
290
     1
176
     1
290
     1
176
     1
290
     0
176
     1
290
     0
176
     1
290
     0
176
     1
290
     0
176
     1
290
     0
176
     1
290
     0
176
     1
 90
       50
176
     1
 40
0.0
176
     1
 40
1.0
176
     1
 90
        0
176
     1
 62
    18
420
        0
176
     1
 90
       50
176
     1
 90
        3
176
     1
 62
     5
420
      255
176
     1
290
     0
176
     1
 90
       50
176
     1
 90
       50
176
     1
 90
       50
176
     1
290
     0
176
     1
 90
       50
176
     1
 62
   256
176
     0
 40
1.0
176
     0
 90
        2
176
     1
  1
strokes_ogs.tif
176
     1
290
     0
176
     1
 40
1.0
176
     1
 40
1.0
176
     1
  0
VISUALSTYLE
  5
42
102
{ACAD_REACTORS
330
2A
102
}
330
2A
100
AcDbVisualStyle
  2
Shaded
 70
    27
177
     3
291
     0
 70
    58
 90
        2
176
     1
 90
        2
176
     1
 90
        1
176
     1
 90
        2
176
     1
 40
0.6
176
     1
 40
30.0
176
     1
 62
     7
420
 16777215
176
     1
 90
        0
176
     1
 90
        4
176
     1
 62
     7
176
     1
 62
   257
176
     1
 90
        1
176
     1
 90
        1
176
     1
 40
1.0
176
     1
 90
        8
176
     1
 62
   257
176
     1
 40
1.0
176
     1
 90
        1
176
     1
 90
        6
176
     1
 90
        2
176
     1
 62
     8
420
  7895160
176
     1
 90
        3
176
     1
 90
        0
176
     1
 90
        0
176
     1
290
     0
176
     1
 90
        5
176
     1
 40
0.0
176
     1
 90
        0
176
     1
290
     0
176
     1
290
     1
176
     1
290
     1
176
     1
290
     0
176
     1
290
     0
176
     1
290
     0
176
     1
290
     0
176
     1
290
     0
176
     1
290
     0
176
     1
 90
       50
176
     1
 40
0.0
176
     1
 40
1.0
176
     1
 90
        0
176
     1
 62
    18
420
        0
176
     1
 90
       50
176
     1
 90
        3
176
     1
 62
     5
420
      255
176
     1
290
     0
176
     1
 90
       50
176
     1
 90
       50
176
     1
 90
       50
176
     1
290
     0
176
     1
 90
       50
176
     1
 62
   256
176
     0
 40
1.0
176
     0
 90
        2
176
     1
  1
strokes_ogs.tif
176
     1
290
     0
176
     1
 40
1.0
176
     1
 40
1.0
176
     1
  0
VISUALSTYLE
  5
41
102
{ACAD_REACTORS
330
2A
102
}
330
2A
100
AcDbVisualStyle
  2
Shaded with edges
 70
    26
177
     3
291
     0
 70
    58
 90
        2
176
     1
 90
        2
176
     1
 90
        1
176
     1
 90
        2
176
     1
 40
0.6
176
     1
 40
30.0
176
     1
 62
     7
420
 16777215
176
     1
 90
        1
176
     1
 90
       10
176
     1
 62
     7
176
     1
 62
   257
176
     1
 90
        2
176
     1
 90
        1
176
     1
 40
1.0
176
     1
 90
        8
176
     1
 62
   257
176
     1
 40
1.0
176
     1
 90
        1
176
     1
 90
        6
176
     1
 90
        2
176
     1
 62
     7
176
     1
 90
        3
176
     1
 90
        0
176
     1
 90
        0
176
     1
290
     0
176
     1
 90
        5
176
     1
 40
0.0
176
     1
 90
        0
176
     1
290
     0
176
     1
290
     1
176
     1
290
     1
176
     1
290
     0
176
     1
290
     0
176
     1
290
     0
176
     1
290
     0
176
     1
290
     0
176
     1
290
     0
176
     1
 90
       50
176
     1
 40
0.0
176
     1
 40
1.0
176
     1
 90
        0
176
     1
 62
    18
420
        0
176
     1
 90
       50
176
     1
 90
        3
176
     1
 62
     5
420
      255
176
     1
290
     0
176
     1
 90
       50
176
     1
 90
       50
176
     1
 90
       50
176
     1
290
     0
176
     1
 90
       50
176
     1
 62
   256
176
     0
 40
1.0
176
     0
 90
        2
176
     1
  1
strokes_ogs.tif
176
     1
290
     0
176
     1
 40
1.0
176
     1
 40
1.0
176
     1
  0
VISUALSTYLE
  5
3E
102
{ACAD_REACTORS
330
2A
102
}
330
2A
100
AcDbVisualStyle
  2
Shades of Gray
 70
    23
177
     3
291
     0
 70
    58
 90
        2
176
     1
 90
        2
176
     1
 90
        3
176
     1
 90
        0
176
     1
 40
0.6
176
     1
 40
30.0
176
     1
 62
     7
420
 16777215
176
     1
 90
        2
176
     1
 90
        2
176
     1
 62
     7
176
     1
 62
     7
176
     1
 90
        1
176
     1
 90
        1
176
     1
 40
40.0
176
     1
 90
        8
176
     1
 62
     7
176
     1
 40
1.0
176
     1
 90
        1
176
     1
 90
        6
176
     1
 90
        2
176
     1
 62
     7
176
     1
 90
        3
176
     1
 90
        0
176
     1
 90
        0
176
     1
290
     0
176
     1
 90
        1
176
     1
 40
0.0
176
     1
 90
        0
176
     1
290
     0
176
     1
290
     1
176
     1
290
     1
176
     1
290
     0
176
     1
290
     0
176
     1
290
     0
176
     1
290
     0
176
     1
290
     0
176
     1
290
     0
176
     1
 90
       50
176
     1
 40
0.0
176
     1
 40
1.0
176
     1
 90
        0
176
     1
 62
    18
420
        0
176
     1
 90
       50
176
     1
 90
        3
176
     1
 62
     5
420
      255
176
     1
290
     0
176
     1
 90
       50
176
     1
 90
       50
176
     1
 90
       50
176
     1
290
     0
176
     1
 90
       50
176
     1
 62
   256
176
     0
 40
1.0
176
     0
 90
        2
176
     1
  1
strokes_ogs.tif
176
     1
290
     0
176
     1
 40
1.0
176
     1
 40
1.0
176
     1
  0
VISUALSTYLE
  5
3F
102
{ACAD_REACTORS
330
2A
102
}
330
2A
100
AcDbVisualStyle
  2
Sketchy
 70
    24
177
     3
291
     0
 70
    58
 90
        1
176
     1
 90
        2
176
     1
 90
        2
176
     1
 90
        0
176
     1
 40
0.6
176
     1
 40
30.0
176
     1
 62
     7
420
 16777215
176
     1
 90
        2
176
     1
 90
        2
176
     1
 62
     7
176
     1
 62
     7
176
     1
 90
        1
176
     1
 90
        1
176
     1
 40
40.0
176
     1
 90
       11
176
     1
 62
     7
176
     1
 40
1.0
176
     1
 90
        1
176
     1
 90
        6
176
     1
 90
        2
176
     1
 62
     7
176
     1
 90
        6
176
     1
 90
        0
176
     1
 90
        0
176
     1
290
     0
176
     1
 90
        1
176
     1
 40
0.0
176
     1
 90
        0
176
     1
290
     0
176
     1
290
     1
176
     1
290
     1
176
     1
290
     0
176
     1
290
     0
176
     1
290
     0
176
     1
290
     0
176
     1
290
     0
176
     1
290
     0
176
     1
 90
       50
176
     1
 40
0.0
176
     1
 40
1.0
176
     1
 90
        0
176
     1
 62
    18
420
        0
176
     1
 90
       50
176
     1
 90
        3
176
     1
 62
     5
420
      255
176
     1
290
     0
176
     1
 90
       50
176
     1
 90
       50
176
     1
 90
       50
176
     1
290
     0
176
     1
 90
       50
176
     1
 62
   256
176
     0
 40
1.0
176
     0
 90
        2
176
     1
  1
strokes_ogs.tif
176
     1
290
     0
176
     1
 40
1.0
176
     1
 40
1.0
176
     1
  0
VISUALSTYLE
  5
37
102
{ACAD_REACTORS
330
2A
102
}
330
2A
100
AcDbVisualStyle
  2
Thicken
 70
    13
177
     3
291
     1
 70
    58
 90
        2
176
     1
 90
        2
176
     1
 90
        0
176
     1
 90
        0
176
     1
 40
0.6
176
     1
 40
30.0
176
     1
 62
     7
420
 16777215
176
     1
 90
        1
176
     1
 90
        4
176
     1
 62
     7
176
     1
 62
   257
176
     1
 90
        1
176
     1
 90
        1
176
     1
 40
1.0
176
     1
 90
       12
176
     1
 62
     7
176
     1
 40
1.0
176
     1
 90
        1
176
     1
 90
        6
176
     1
 90
        2
176
     1
 62
     7
176
     1
 90
        5
176
     1
 90
        0
176
     1
 90
        0
176
     1
290
     0
176
     1
 90
        1
176
     1
 40
0.0
176
     1
 90
        0
176
     1
290
     0
176
     1
290
     1
176
     1
290
     1
176
     1
290
     0
176
     1
290
     0
176
     1
290
     0
176
     1
290
     0
176
     1
290
     0
176
     1
290
     0
176
     1
 90
       50
176
     1
 40
0.0
176
     1
 40
1.0
176
     1
 90
        0
176
     1
 62
    18
420
        0
176
     1
 90
       50
176
     1
 90
        3
176
     1
 62
     5
420
      255
176
     1
290
     0
176
     1
 90
       50
176
     1
 90
       50
176
     1
 90
       50
176
     1
290
     0
176
     1
 90
       50
176
     1
 62
   256
176
     0
 40
1.0
176
     0
 90
        2
176
     1
  1
strokes_ogs.tif
176
     1
290
     0
176
     1
 40
1.0
176
     1
 40
1.0
176
     1
  0
VISUALSTYLE
  5
30
102
{ACAD_REACTORS
330
2A
102
}
330
2A
100
AcDbVisualStyle
  2
Wireframe
 70
     5
177
     3
291
     0
 70
    58
 90
        0
176
     1
 90
        2
176
     1
 90
        0
176
     1
 90
        0
176
     1
 40
0.6
176
     1
 40
30.0
176
     1
 62
     7
420
 16777215
176
     1
 90
        1
176
     1
 90
        4
176
     1
 62
     7
176
     1
 62
   257
176
     1
 90
        1
176
     1
 90
        1
176
     1
 40
1.0
176
     1
 90
        0
176
     1
 62
   257
176
     1
 40
1.0
176
     1
 90
        1
176
     1
 90
        6
176
     1
 90
        2
176
     1
 62
     7
176
     1
 90
        3
176
     1
 90
        0
176
     1
 90
        0
176
     1
290
     0
176
     1
 90
        1
176
     1
 40
0.0
176
     1
 90
        0
176
     1
290
     0
176
     1
290
     1
176
     1
290
     1
176
     1
290
     0
176
     1
290
     0
176
     1
290
     0
176
     1
290
     0
176
     1
290
     0
176
     1
290
     0
176
     1
 90
       50
176
     1
 40
0.0
176
     1
 40
1.0
176
     1
 90
        0
176
     1
 62
    18
420
        0
176
     1
 90
       50
176
     1
 90
        3
176
     1
 62
     5
420
      255
176
     1
290
     0
176
     1
 90
       50
176
     1
 90
       50
176
     1
 90
       50
176
     1
290
     0
176
     1
 90
       50
176
     1
 62
   256
176
     0
 40
1.0
176
     0
 90
        2
176
     1
  1
strokes_ogs.tif
176
     1
290
     0
176
     1
 40
1.0
176
     1
 40
1.0
176
     1
  0
VISUALSTYLE
  5
40
102
{ACAD_REACTORS
330
2A
102
}
330
2A
100
AcDbVisualStyle
  2
X-Ray
 70
    25
177
     3
291
     0
 70
    58
 90
        2
176
     1
 90
        2
176
     1
 90
        1
176
     1
 90
        1
176
     1
 40
0.5
176
     1
 40
30.0
176
     1
 62
     7
420
 16777215
176
     1
 90
        1
176
     1
 90
        0
176
     1
 62
     7
176
     1
 62
   257
176
     1
 90
        1
176
     1
 90
        1
176
     1
 40
1.0
176
     1
 90
        8
176
     1
 62
     7
176
     1
 40
1.0
176
     1
 90
        1
176
     1
 90
        6
176
     1
 90
        2
176
     1
 62
     7
176
     1
 90
        3
176
     1
 90
        0
176
     1
 90
        0
176
     1
290
     0
176
     1
 90
       13
176
     1
 40
0.0
176
     1
 90
        0
176
     1
290
     0
176
     1
290
     1
176
     1
290
     1
176
     1
290
     0
176
     1
290
     0
176
     1
290
     0
176
     1
290
     0
176
     1
290
     0
176
     1
290
     0
176
     1
 90
       50
176
     1
 40
0.0
176
     1
 40
1.0
176
     1
 90
        0
176
     1
 62
    18
420
        0
176
     1
 90
       50
176
     1
 90
        3
176
     1
 62
     5
420
      255
176
     1
290
     0
176
     1
 90
       50
176
     1
 90
       50
176
     1
 90
       50
176
     1
290
     0
176
     1
 90
       50
176
     1
 62
   256
176
     0
 40
1.0
176
     0
 90
        2
176
     1
  1
strokes_ogs.tif
176
     1
290
     0
176
     1
 40
1.0
176
     1
 40
1.0
176
     1
  0
DICTIONARYVAR
  5
214
102
{ACAD_REACTORS
330
213
102
}
330
213
100
DictionaryVariables
280
     0
  1
1:1
  0
DICTIONARYVAR
  5
219
102
{ACAD_REACTORS
330
213
102
}
330
213
100
DictionaryVariables
280
     0
  1
Standard
  0
DICTIONARYVAR
  5
218
102
{ACAD_REACTORS
330
213
102
}
330
213
100
DictionaryVariables
280
     0
  1
Standard
  0
DICTIONARY
  5
215
330
6A
100
AcDbDictionary
280
     1
281
     1
  3
ACAD_ROUNDTRIP_2008_TABLESTYLE_CELLSTYLEMAP
360
216
  0
CELLSTYLEMAP
  5
216
102
{ACAD_REACTORS
330
215
102
}
330
215
100
AcDbCellStyleMap
 90
        3
300
CELLSTYLE
  1
TABLEFORMAT_BEGIN
 90
        5
170
     1
 91
        0
 92
    32768
 62
   257
 93
        1
300
CONTENTFORMAT
  1
CONTENTFORMAT_BEGIN
 90
        0
 91
        0
 92
        4
 93
        0
300

 40
0.0
140
1.0
 94
        5
 62
     0
340
11
144
0.25
309
CONTENTFORMAT_END
171
     1
301
MARGIN
  1
CELLMARGIN_BEGIN
 40
0.06
 40
0.06
 40
0.06
 40
0.06
 40
0.06
 40
0.06
309
CELLMARGIN_END
 94
        6
 95
        1
302
GRIDFORMAT
  1
GRIDFORMAT_BEGIN
 90
        0
 91
        1
 62
     0
 92
       -2
340
14
 93
        0
 40
0.045
309
GRIDFORMAT_END
 95
        2
302
GRIDFORMAT
  1
GRIDFORMAT_BEGIN
 90
        0
 91
        1
 62
     0
 92
       -2
340
14
 93
        0
 40
0.045
309
GRIDFORMAT_END
 95
        4
302
GRIDFORMAT
  1
GRIDFORMAT_BEGIN
 90
        0
 91
        1
 62
     0
 92
       -2
340
14
 93
        0
 40
0.045
309
GRIDFORMAT_END
 95
        8
302
GRIDFORMAT
  1
GRIDFORMAT_BEGIN
 90
        0
 91
        1
 62
     0
 92
       -2
340
14
 93
        0
 40
0.045
309
GRIDFORMAT_END
 95
       16
302
GRIDFORMAT
  1
GRIDFORMAT_BEGIN
 90
        0
 91
        1
 62
     0
 92
       -2
340
14
 93
        0
 40
0.045
309
GRIDFORMAT_END
 95
       32
302
GRIDFORMAT
  1
GRIDFORMAT_BEGIN
 90
        0
 91
        1
 62
     0
 92
       -2
340
14
 93
        0
 40
0.045
309
GRIDFORMAT_END
309
TABLEFORMAT_END
  1
CELLSTYLE_BEGIN
 90
        1
 91
        1
300
_TITLE
309
CELLSTYLE_END
300
CELLSTYLE
  1
TABLEFORMAT_BEGIN
 90
        5
170
     1
 91
        0
 92
        0
 62
   257
 93
        1
300
CONTENTFORMAT
  1
CONTENTFORMAT_BEGIN
 90
        0
 91
        0
 92
        4
 93
        0
300

 40
0.0
140
1.0
 94
        5
 62
     0
340
11
144
0.18
309
CONTENTFORMAT_END
171
     1
301
MARGIN
  1
CELLMARGIN_BEGIN
 40
0.06
 40
0.06
 40
0.06
 40
0.06
 40
0.06
 40
0.06
309
CELLMARGIN_END
 94
        6
 95
        1
302
GRIDFORMAT
  1
GRIDFORMAT_BEGIN
 90
        0
 91
        1
 62
     0
 92
       -2
340
14
 93
        0
 40
0.045
309
GRIDFORMAT_END
 95
        2
302
GRIDFORMAT
  1
GRIDFORMAT_BEGIN
 90
        0
 91
        1
 62
     0
 92
       -2
340
14
 93
        0
 40
0.045
309
GRIDFORMAT_END
 95
        4
302
GRIDFORMAT
  1
GRIDFORMAT_BEGIN
 90
        0
 91
        1
 62
     0
 92
       -2
340
14
 93
        0
 40
0.045
309
GRIDFORMAT_END
 95
        8
302
GRIDFORMAT
  1
GRIDFORMAT_BEGIN
 90
        0
 91
        1
 62
     0
 92
       -2
340
14
 93
        0
 40
0.045
309
GRIDFORMAT_END
 95
       16
302
GRIDFORMAT
  1
GRIDFORMAT_BEGIN
 90
        0
 91
        1
 62
     0
 92
       -2
340
14
 93
        0
 40
0.045
309
GRIDFORMAT_END
 95
       32
302
GRIDFORMAT
  1
GRIDFORMAT_BEGIN
 90
        0
 91
        1
 62
     0
 92
       -2
340
14
 93
        0
 40
0.045
309
GRIDFORMAT_END
309
TABLEFORMAT_END
  1
CELLSTYLE_BEGIN
 90
        2
 91
        1
300
_HEADER
309
CELLSTYLE_END
300
CELLSTYLE
  1
TABLEFORMAT_BEGIN
 90
        5
170
     1
 91
        0
 92
        0
 62
   257
 93
        1
300
CONTENTFORMAT
  1
CONTENTFORMAT_BEGIN
 90
        0
 91
        0
 92
        4
 93
        0
300

 40
0.0
140
1.0
 94
        2
 62
     0
340
11
144
0.18
309
CONTENTFORMAT_END
171
     1
301
MARGIN
  1
CELLMARGIN_BEGIN
 40
0.06
 40
0.06
 40
0.06
 40
0.06
 40
0.06
 40
0.06
309
CELLMARGIN_END
 94
        6
 95
        1
302
GRIDFORMAT
  1
GRIDFORMAT_BEGIN
 90
        0
 91
        1
 62
     0
 92
       -2
340
14
 93
        0
 40
0.045
309
GRIDFORMAT_END
 95
        2
302
GRIDFORMAT
  1
GRIDFORMAT_BEGIN
 90
        0
 91
        1
 62
     0
 92
       -2
340
14
 93
        0
 40
0.045
309
GRIDFORMAT_END
 95
        4
302
GRIDFORMAT
  1
GRIDFORMAT_BEGIN
 90
        0
 91
        1
 62
     0
 92
       -2
340
14
 93
        0
 40
0.045
309
GRIDFORMAT_END
 95
        8
302
GRIDFORMAT
  1
GRIDFORMAT_BEGIN
 90
        0
 91
        1
 62
     0
 92
       -2
340
14
 93
        0
 40
0.045
309
GRIDFORMAT_END
 95
       16
302
GRIDFORMAT
  1
GRIDFORMAT_BEGIN
 90
        0
 91
        1
 62
     0
 92
       -2
340
14
 93
        0
 40
0.045
309
GRIDFORMAT_END
 95
       32
302
GRIDFORMAT
  1
GRIDFORMAT_BEGIN
 90
        0
 91
        1
 62
     0
 92
       -2
340
14
 93
        0
 40
0.045
309
GRIDFORMAT_END
309
TABLEFORMAT_END
  1
CELLSTYLE_BEGIN
 90
        3
 91
        2
300
_DATA
309
CELLSTYLE_END
  0
ENDSEC
  0
EOF