0
SECTION
  2
HEADER
  9
$ACADVER
  1
AC1027
  9
$ACADMAINTVER
 70
     8
  9
$DWGCODEPAGE
  3
ANSI_1252
  9
$REQUIREDVERSIONS
160
                 0
  9
$COMMENTS
  1
File was created by Cadenas
  9
$CUSTOMPROPERTYTAG
  1
NN
  9
$CUSTOMPROPERTY
  1
S-2000 Wide Slot Take-Up Trident Seal
  9
$CUSTOMPROPERTYTAG
  1
NT
  9
$CUSTOMPROPERTY
  1
S-2000 Wide Slot Take-Up Bearing -Inch
  9
$CUSTOMPROPERTYTAG
  1
NB
  9
$CUSTOMPROPERTY
  1
070758
  9
$CUSTOMPROPERTYTAG
  1
NBSYN
  9
$CUSTOMPROPERTY
  1
$PN.
  9
$CUSTOMPROPERTYTAG
  1
LINA
  9
$CUSTOMPROPERTY
  1
070758
  9
$CUSTOMPROPERTYTAG
  1
SS
  9
$CUSTOMPROPERTY
  1
1-15/16
  9
$CUSTOMPROPERTYTAG
  1
PN
  9
$CUSTOMPROPERTY
  1
070758
  9
$CUSTOMPROPERTYTAG
  1
DESCRIPTION
  9
$CUSTOMPROPERTY
  1
WSTU-S2-115R
  9
$CUSTOMPROPERTYTAG
  1
EF
  9
$CUSTOMPROPERTY
  1
Non-Expansion Type
  9
$CUSTOMPROPERTYTAG
  1
ST
  9
$CUSTOMPROPERTY
  1
Contact Seal
  9
$CUSTOMPROPERTYTAG
  1
A
  9
$CUSTOMPROPERTY
  1
2-27/32
  9
$CUSTOMPROPERTYTAG
  1
B
  9
$CUSTOMPROPERTY
  1
6-3/16
  9
$CUSTOMPROPERTYTAG
  1
C
  9
$CUSTOMPROPERTY
  1
11/16
  9
$CUSTOMPROPERTYTAG
  1
D
  9
$CUSTOMPROPERTY
  1
3-5/8
  9
$CUSTOMPROPERTYTAG
  1
E
  9
$CUSTOMPROPERTY
  1
3-15/16
  9
$CUSTOMPROPERTYTAG
  1
F
  9
$CUSTOMPROPERTY
  1
1-1/8
  9
$CUSTOMPROPERTYTAG
  1
G
  9
$CUSTOMPROPERTY
  1
15/16
  9
$CUSTOMPROPERTYTAG
  1
H
  9
$CUSTOMPROPERTY
  1
3/4
  9
$CUSTOMPROPERTYTAG
  1
J
  9
$CUSTOMPROPERTY
  1
3-5/16
  9
$CUSTOMPROPERTYTAG
  1
K
  9
$CUSTOMPROPERTY
  1
1-15/16
  9
$CUSTOMPROPERTYTAG
  1
L
  9
$CUSTOMPROPERTY
  1
3-7/16
  9
$CUSTOMPROPERTYTAG
  1
M
  9
$CUSTOMPROPERTY
  1
4
  9
$CUSTOMPROPERTYTAG
  1
N
  9
$CUSTOMPROPERTY
  1
4-3/4
  9
$CUSTOMPROPERTYTAG
  1
R
  9
$CUSTOMPROPERTY
  1
2-15/16
  9
$CUSTOMPROPERTYTAG
  1
S
  9
$CUSTOMPROPERTY
  1
1-15/16
  9
$CUSTOMPROPERTYTAG
  1
T
  9
$CUSTOMPROPERTY
  1
2
  9
$CUSTOMPROPERTYTAG
  1
X
  9
$CUSTOMPROPERTY
  1
1/4
  9
$CUSTOMPROPERTYTAG
  1
Y
  9
$CUSTOMPROPERTY
  1
0.020
  9
$CUSTOMPROPERTYTAG
  1
Z
  9
$CUSTOMPROPERTY
  1
2-19/64
  9
$CUSTOMPROPERTYTAG
  1
COMPANY
  9
$CUSTOMPROPERTY
  1
baldor
  9
$INSBASE
 10
0.0
 20
0.0
 30
0.0
  9
$EXTMIN
 10
1.000000000000000E+20
 20
1.000000000000000E+20
 30
1.000000000000000E+20
  9
$EXTMAX
 10
-1.000000000000000E+20
 20
-1.000000000000000E+20
 30
-1.000000000000000E+20
  9
$LIMMIN
 10
0.0
 20
0.0
  9
$LIMMAX
 10
12.0
 20
9.0
  9
$ORTHOMODE
 70
     0
  9
$REGENMODE
 70
     1
  9
$FILLMODE
 70
     1
  9
$QTEXTMODE
 70
     0
  9
$MIRRTEXT
 70
     1
  9
$LTSCALE
 40
1.0
  9
$ATTMODE
 70
     1
  9
$TEXTSIZE
 40
0.2
  9
$TRACEWID
 40
0.05
  9
$TEXTSTYLE
  7
Standard
  9
$CLAYER
  8
0
  9
$CELTYPE
  6
ByLayer
  9
$CECOLOR
 62
   256
  9
$CELTSCALE
 40
1.0
  9
$DISPSILH
 70
     0
  9
$DIMSCALE
 40
1.0
  9
$DIMASZ
 40
0.18
  9
$DIMEXO
 40
0.0625
  9
$DIMDLI
 40
0.38
  9
$DIMRND
 40
0.0
  9
$DIMDLE
 40
0.0
  9
$DIMEXE
 40
0.18
  9
$DIMTP
 40
0.0
  9
$DIMTM
 40
0.0
  9
$DIMTXT
 40
0.18
  9
$DIMCEN
 40
0.09
  9
$DIMTSZ
 40
0.0
  9
$DIMTOL
 70
     0
  9
$DIMLIM
 70
     0
  9
$DIMTIH
 70
     1
  9
$DIMTOH
 70
     1
  9
$DIMSE1
 70
     0
  9
$DIMSE2
 70
     0
  9
$DIMTAD
 70
     0
  9
$DIMZIN
 70
     0
  9
$DIMBLK
  1

  9
$DIMASO
 70
     1
  9
$DIMSHO
 70
     1
  9
$DIMPOST
  1

  9
$DIMAPOST
  1

  9
$DIMALT
 70
     0
  9
$DIMALTD
 70
     2
  9
$DIMALTF
 40
25.4
  9
$DIMLFAC
 40
1.0
  9
$DIMTOFL
 70
     0
  9
$DIMTVP
 40
0.0
  9
$DIMTIX
 70
     0
  9
$DIMSOXD
 70
     0
  9
$DIMSAH
 70
     0
  9
$DIMBLK1
  1

  9
$DIMBLK2
  1

  9
$DIMSTYLE
  2
Standard
  9
$DIMCLRD
 70
     0
  9
$DIMCLRE
 70
     0
  9
$DIMCLRT
 70
     0
  9
$DIMTFAC
 40
1.0
  9
$DIMGAP
 40
0.09
  9
$DIMJUST
 70
     0
  9
$DIMSD1
 70
     0
  9
$DIMSD2
 70
     0
  9
$DIMTOLJ
 70
     1
  9
$DIMTZIN
 70
     0
  9
$DIMALTZ
 70
     0
  9
$DIMALTTZ
 70
     0
  9
$DIMUPT
 70
     0
  9
$DIMDEC
 70
     4
  9
$DIMTDEC
 70
     4
  9
$DIMALTU
 70
     2
  9
$DIMALTTD
 70
     2
  9
$DIMTXSTY
  7
Standard
  9
$DIMAUNIT
 70
     0
  9
$DIMADEC
 70
     0
  9
$DIMALTRND
 40
0.0
  9
$DIMAZIN
 70
     0
  9
$DIMDSEP
 70
    46
  9
$DIMATFIT
 70
     3
  9
$DIMFRAC
 70
     0
  9
$DIMLDRBLK
  1

  9
$DIMLUNIT
 70
     2
  9
$DIMLWD
 70
    -2
  9
$DIMLWE
 70
    -2
  9
$DIMTMOVE
 70
     0
  9
$DIMFXL
 40
1.0
  9
$DIMFXLON
 70
     0
  9
$DIMJOGANG
 40
0.7853981633974483
  9
$DIMTFILL
 70
     0
  9
$DIMTFILLCLR
 70
     0
  9
$DIMARCSYM
 70
     0
  9
$DIMLTYPE
  6

  9
$DIMLTEX1
  6

  9
$DIMLTEX2
  6

  9
$DIMTXTDIRECTION
 70
     0
  9
$LUNITS
 70
     2
  9
$LUPREC
 70
     4
  9
$SKETCHINC
 40
0.1
  9
$FILLETRAD
 40
0.5
  9
$AUNITS
 70
     0
  9
$AUPREC
 70
     0
  9
$MENU
  1
.
  9
$ELEVATION
 40
0.0
  9
$PELEVATION
 40
0.0
  9
$THICKNESS
 40
0.0
  9
$LIMCHECK
 70
     0
  9
$CHAMFERA
 40
0.0
  9
$CHAMFERB
 40
0.0
  9
$CHAMFERC
 40
0.0
  9
$CHAMFERD
 40
0.0
  9
$SKPOLY
 70
     0
  9
$TDCREATE
 40
2458168.983933692
  9
$TDUCREATE
 40
2458168.942267025
  9
$TDUPDATE
 40
2458168.983933866
  9
$TDUUPDATE
 40
2458168.942267199
  9
$TDINDWG
 40
0.0000000116
  9
$TDUSRTIMER
 40
0.0000000116
  9
$USRTIMER
 70
     1
  9
$ANGBASE
 50
0.0
  9
$ANGDIR
 70
     0
  9
$PDMODE
 70
     0
  9
$PDSIZE
 40
0.0
  9
$PLINEWID
 40
0.0
  9
$SPLFRAME
 70
     0
  9
$SPLINETYPE
 70
     6
  9
$SPLINESEGS
 70
     8
  9
$HANDSEED
  5
234
  9
$SURFTAB1
 70
     6
  9
$SURFTAB2
 70
     6
  9
$SURFTYPE
 70
     6
  9
$SURFU
 70
     6
  9
$SURFV
 70
     6
  9
$UCSBASE
  2

  9
$UCSNAME
  2

  9
$UCSORG
 10
0.0
 20
0.0
 30
0.0
  9
$UCSXDIR
 10
1.0
 20
0.0
 30
0.0
  9
$UCSYDIR
 10
0.0
 20
1.0
 30
0.0
  9
$UCSORTHOREF
  2

  9
$UCSORTHOVIEW
 70
     0
  9
$UCSORGTOP
 10
0.0
 20
0.0
 30
0.0
  9
$UCSORGBOTTOM
 10
0.0
 20
0.0
 30
0.0
  9
$UCSORGLEFT
 10
0.0
 20
0.0
 30
0.0
  9
$UCSORGRIGHT
 10
0.0
 20
0.0
 30
0.0
  9
$UCSORGFRONT
 10
0.0
 20
0.0
 30
0.0
  9
$UCSORGBACK
 10
0.0
 20
0.0
 30
0.0
  9
$PUCSBASE
  2

  9
$PUCSNAME
  2

  9
$PUCSORG
 10
0.0
 20
0.0
 30
0.0
  9
$PUCSXDIR
 10
1.0
 20
0.0
 30
0.0
  9
$PUCSYDIR
 10
0.0
 20
1.0
 30
0.0
  9
$PUCSORTHOREF
  2

  9
$PUCSORTHOVIEW
 70
     0
  9
$PUCSORGTOP
 10
0.0
 20
0.0
 30
0.0
  9
$PUCSORGBOTTOM
 10
0.0
 20
0.0
 30
0.0
  9
$PUCSORGLEFT
 10
0.0
 20
0.0
 30
0.0
  9
$PUCSORGRIGHT
 10
0.0
 20
0.0
 30
0.0
  9
$PUCSORGFRONT
 10
0.0
 20
0.0
 30
0.0
  9
$PUCSORGBACK
 10
0.0
 20
0.0
 30
0.0
  9
$USERI1
 70
     0
  9
$USERI2
 70
     0
  9
$USERI3
 70
     0
  9
$USERI4
 70
     0
  9
$USERI5
 70
     0
  9
$USERR1
 40
0.0
  9
$USERR2
 40
0.0
  9
$USERR3
 40
0.0
  9
$USERR4
 40
0.0
  9
$USERR5
 40
0.0
  9
$WORLDVIEW
 70
     1
  9
$SHADEDGE
 70
     3
  9
$SHADEDIF
 70
    70
  9
$TILEMODE
 70
     1
  9
$MAXACTVP
 70
    64
  9
$PINSBASE
 10
0.0
 20
0.0
 30
0.0
  9
$PLIMCHECK
 70
     0
  9
$PEXTMIN
 10
1.000000000000000E+20
 20
1.000000000000000E+20
 30
1.000000000000000E+20
  9
$PEXTMAX
 10
-1.000000000000000E+20
 20
-1.000000000000000E+20
 30
-1.000000000000000E+20
  9
$PLIMMIN
 10
0.0
 20
0.0
  9
$PLIMMAX
 10
12.0
 20
9.0
  9
$UNITMODE
 70
     0
  9
$VISRETAIN
 70
     1
  9
$PLINEGEN
 70
     0
  9
$PSLTSCALE
 70
     1
  9
$TREEDEPTH
 70
  3020
  9
$CMLSTYLE
  2
Standard
  9
$CMLJUST
 70
     0
  9
$CMLSCALE
 40
1.0
  9
$PROXYGRAPHICS
 70
     1
  9
$MEASUREMENT
 70
     0
  9
$CELWEIGHT
370
    -1
  9
$ENDCAPS
280
     0
  9
$JOINSTYLE
280
     0
  9
$LWDISPLAY
290
     0
  9
$INSUNITS
 70
     1
  9
$HYPERLINKBASE
  1

  9
$STYLESHEET
  1

  9
$XEDIT
290
     1
  9
$CEPSNTYPE
380
     0
  9
$PSTYLEMODE
290
     1
  9
$FINGERPRINTGUID
  2
{2F4EAB36-951D-4EEF-982E-1A36083DFD02}
  9
$VERSIONGUID
  2
{FAEB1C32-E019-11D5-929B-00C0DF256EC4}
  9
$EXTNAMES
290
     1
  9
$PSVPSCALE
 40
0.0
  9
$OLESTARTUP
290
     0
  9
$SORTENTS
280
   127
  9
$INDEXCTL
280
     0
  9
$HIDETEXT
280
     1
  9
$XCLIPFRAME
280
     2
  9
$HALOGAP
280
     0
  9
$OBSCOLOR
 70
   257
  9
$OBSLTYPE
280
     0
  9
$INTERSECTIONDISPLAY
280
     0
  9
$INTERSECTIONCOLOR
 70
   257
  9
$DIMASSOC
280
     2
  9
$PROJECTNAME
  1

  9
$CAMERADISPLAY
290
     0
  9
$LENSLENGTH
 40
50.0
  9
$CAMERAHEIGHT
 40
0.0
  9
$STEPSPERSEC
 40
2.0
  9
$STEPSIZE
 40
6.0
  9
$3DDWFPREC
 40
2.0
  9
$PSOLWIDTH
 40
0.25
  9
$PSOLHEIGHT
 40
4.0
  9
$LOFTANG1
 40
1.570796326794897
  9
$LOFTANG2
 40
1.570796326794897
  9
$LOFTMAG1
 40
0.0
  9
$LOFTMAG2
 40
0.0
  9
$LOFTPARAM
 70
     7
  9
$LOFTNORMALS
280
     1
  9
$LATITUDE
 40
37.795
  9
$LONGITUDE
 40
-122.394
  9
$NORTHDIRECTION
 40
0.0
  9
$TIMEZONE
 70
 -8000
  9
$LIGHTGLYPHDISPLAY
280
     1
  9
$TILEMODELIGHTSYNCH
280
     1
  9
$CMATERIAL
347
44
  9
$SOLIDHIST
280
     0
  9
$SHOWHIST
280
     1
  9
$DWFFRAME
280
     2
  9
$DGNFRAME
280
     2
  9
$REALWORLDSCALE
290
     1
  9
$INTERFERECOLOR
 62
   256
  9
$CSHADOW
280
     0
  9
$SHADOWPLANELOCATION
 40
0.0
  0
ENDSEC
  0
SECTION
  2
CLASSES
  0
CLASS
  1
ACDBDICTIONARYWDFLT
  2
AcDbDictionaryWithDefault
  3
ObjectDBX Classes
 90
        0
 91
        4
280
     0
281
     0
  0
CLASS
  1
VISUALSTYLE
  2
AcDbVisualStyle
  3
ObjectDBX Classes
 90
     4095
 91
        4
280
     0
281
     0
  0
CLASS
  1
MATERIAL
  2
AcDbMaterial
  3
ObjectDBX Classes
 90
     1153
 91
        4
280
     0
281
     0
  0
CLASS
  1
SCALE
  2
AcDbScale
  3
ObjectDBX Classes
 90
     1153
 91
        4
280
     0
281
     0
  0
CLASS
  1
TABLESTYLE
  2
AcDbTableStyle
  3
ObjectDBX Classes
 90
     4095
 91
        4
280
     0
281
     0
  0
CLASS
  1
MLEADERSTYLE
  2
AcDbMLeaderStyle
  3
ACDB_MLEADERSTYLE_CLASS
 90
     4095
 91
        4
280
     0
281
     0
  0
CLASS
  1
SUN
  2
AcDbSun
  3
SCENEOE
 90
     1153
 91
        4
280
     0
281
     0
  0
CLASS
  1
DICTIONARYVAR
  2
AcDbDictionaryVar
  3
ObjectDBX Classes
 90
        0
 91
        4
280
     0
281
     0
  0
CLASS
  1
CELLSTYLEMAP
  2
AcDbCellStyleMap
  3
ObjectDBX Classes
 90
     1152
 91
        4
280
     0
281
     0
  0
ENDSEC
  0
SECTION
  2
TABLES
  0
TABLE
  2
VPORT
  5
8
330
0
100
AcDbSymbolTable
 70
     1
  0
VPORT
  5
29
330
8
100
AcDbSymbolTableRecord
100
AcDbViewportTableRecord
  2
*Active
 70
     0
 10
0.0
 20
0.0
 11
1.0
 21
1.0
 12
-0.1418437499999996
 22
0.0
 13
0.0
 23
0.0
 14
0.5
 24
0.5
 15
0.5
 25
0.5
 16
0.0
 26
0.0
 36
1.0
 17
0.0
 27
0.0
 37
0.0
 40
4.845
 41
0.8159342105263162
 42
50.0
 43
0.0
 44
0.0
 50
0.0
 51
0.0
 71
     0
 72
   100
 73
     1
 74
     3
 75
     0
 76
     0
 77
     0
 78
     0
281
     0
 65
     1
110
0.0
120
0.0
130
0.0
111
1.0
121
0.0
131
0.0
112
0.0
122
1.0
132
0.0
 79
     0
146
0.0
348
2F
 60
     3
 61
     5
292
     1
282
     1
141
0.0
142
0.0
 63
   250
361
6D
  0
ENDTAB
  0
TABLE
  2
LTYPE
  5
5
330
0
100
AcDbSymbolTable
 70
     3
  0
LTYPE
  5
14
330
5
100
AcDbSymbolTableRecord
100
AcDbLinetypeTableRecord
  2
ByBlock
 70
     0
  3

 72
    65
 73
     0
 40
0.0
  0
LTYPE
  5
15
330
5
100
AcDbSymbolTableRecord
100
AcDbLinetypeTableRecord
  2
ByLayer
 70
     0
  3

 72
    65
 73
     0
 40
0.0
  0
LTYPE
  5
16
330
5
100
AcDbSymbolTableRecord
100
AcDbLinetypeTableRecord
  2
Continuous
 70
     0
  3
Solid line
 72
    65
 73
     0
 40
0.0
  0
LTYPE
  5
AA
330
5
100
AcDbSymbolTableRecord
100
AcDbLinetypeTableRecord
  2
Dashed
 70
     0
  3

 72
    65
 73
     2
 40
2.0
 49
1.0
 74
     0
 49
-1.0
 74
     0
  0
LTYPE
  5
135
330
5
100
AcDbSymbolTableRecord
100
AcDbLinetypeTableRecord
  2
Center
 70
     0
  3

 72
    65
 73
     4
 40
1.5
 49
0.45
 74
     0
 49
-0.5
 74
     0
 49
0.05
 74
     0
 49
-0.5
 74
     0
  0
ENDTAB
  0
TABLE
  2
LAYER
  5
2
330
0
100
AcDbSymbolTable
 70
     7
  0
LAYER
  5
10
330
2
100
AcDbSymbolTableRecord
100
AcDbLayerTableRecord
  2
0
 70
     0
 62
     7
  6
Continuous
370
    -3
390
F
347
46
348
0
  0
LAYER
  5
72
330
2
100
AcDbSymbolTableRecord
100
AcDbLayerTableRecord
  2
AM_6
 70
     0
 62
    -2
  6
Continuous
370
    35
390
F
347
46
348
0
  0
LAYER
  5
AB
330
2
100
AcDbSymbolTableRecord
100
AcDbLayerTableRecord
  2
AM_9
 70
     0
 62
     6
  6
Dashed
370
    25
390
F
347
46
348
0
  0
LAYER
  5
BD
330
2
100
AcDbSymbolTableRecord
100
AcDbLayerTableRecord
  2
AM_5
 70
     0
 62
     3
  6
Continuous
370
    25
390
F
347
46
348
0
  0
LAYER
  5
C2
330
2
100
AcDbSymbolTableRecord
100
AcDbLayerTableRecord
  2
AM_4
 70
     0
 62
     7
  6
Continuous
370
    50
390
F
347
46
348
0
  0
LAYER
  5
136
330
2
100
AcDbSymbolTableRecord
100
AcDbLayerTableRecord
  2
AM_7
 70
     0
 62
     7
  6
Center
370
    25
390
F
347
46
348
0
  0
LAYER
  5
223
330
2
100
AcDbSymbolTableRecord
100
AcDbLayerTableRecord
  2
ConnectionPoints
 70
     0
 62
     7
  6
Continuous
370
    50
390
F
347
46
348
0
  0
ENDTAB
  0
TABLE
  2
STYLE
  5
3
330
0
100
AcDbSymbolTable
 70
     1
  0
STYLE
  5
11
330
3
100
AcDbSymbolTableRecord
100
AcDbTextStyleTableRecord
  2
Standard
 70
     0
 40
0.0
 41
1.0
 50
0.0
 71
     0
 42
0.2
  3
txt
  4

  0
ENDTAB
  0
TABLE
  2
VIEW
  5
6
330
0
100
AcDbSymbolTable
 70
     0
  0
ENDTAB
  0
TABLE
  2
UCS
  5
7
330
0
100
AcDbSymbolTable
 70
     0
  0
ENDTAB
  0
TABLE
  2
APPID
  5
9
330
0
100
AcDbSymbolTable
 70
     1
  0
APPID
  5
12
330
9
100
AcDbSymbolTableRecord
100
AcDbRegAppTableRecord
  2
ACAD
 70
     0
  0
ENDTAB
  0
TABLE
  2
DIMSTYLE
  5
A
330
0
100
AcDbSymbolTable
 70
     1
100
AcDbDimStyleTable
  0
DIMSTYLE
105
27
330
A
100
AcDbSymbolTableRecord
100
AcDbDimStyleTableRecord
  2
Standard
 70
     0
178
     0
340
11
  0
ENDTAB
  0
TABLE
  2
BLOCK_RECORD
  5
1
330
0
100
AcDbSymbolTable
 70
     6
  0
BLOCK_RECORD
  5
1F
330
1
100
AcDbSymbolTableRecord
100
AcDbBlockTableRecord
  2
*Model_Space
340
22
 70
     0
280
     1
281
     0
  0
BLOCK_RECORD
  5
1B
330
1
100
AcDbSymbolTableRecord
100
AcDbBlockTableRecord
  2
*Paper_Space
340
1E
 70
     0
280
     1
281
     0
  0
BLOCK_RECORD
  5
23
330
1
100
AcDbSymbolTableRecord
100
AcDbBlockTableRecord
  2
*Paper_Space0
340
26
 70
     0
280
     1
281
     0
  0
BLOCK_RECORD
  5
6E
330
1
100
AcDbSymbolTableRecord
100
AcDbBlockTableRecord
  2
1_070758_2
340
0
102
{BLKREFS
331
6F
102
}
 70
     0
280
     1
281
     0
  0
BLOCK_RECORD
  5
91
330
1
100
AcDbSymbolTableRecord
100
AcDbBlockTableRecord
  2
2_1_15_16CS2i_0_in_070758_2
340
0
102
{BLKREFS
331
92
102
}
 70
     0
280
     1
281
     0
  0
BLOCK_RECORD
  5
D7
330
1
100
AcDbSymbolTableRecord
100
AcDbBlockTableRecord
  2
3_070005i_0_in_070758_2
340
0
102
{BLKREFS
331
D8
102
}
 70
     0
280
     1
281
     0
  0
BLOCK_RECORD
  5
13B
330
1
100
AcDbSymbolTableRecord
100
AcDbBlockTableRecord
  2
4_405016_Inch_0_in_070758_2
340
0
102
{BLKREFS
331
13C
102
}
 70
     0
280
     1
281
     0
  0
BLOCK_RECORD
  5
1B1
330
1
100
AcDbSymbolTableRecord
100
AcDbBlockTableRecord
  2
5_070758H_0_in_070758_2
340
0
102
{BLKREFS
331
1B2
102
}
 70
     0
280
     1
281
     0
  0
ENDTAB
  0
ENDSEC
  0
SECTION
  2
BLOCKS
  0
BLOCK
  5
20
330
1F
100
AcDbEntity
  8
0
100
AcDbBlockBegin
  2
*Model_Space
 70
     0
 10
0.0
 20
0.0
 30
0.0
  3
*Model_Space
  1

  0
ENDBLK
  5
21
330
1F
100
AcDbEntity
  8
0
100
AcDbBlockEnd
  0
BLOCK
  5
1C
330
1B
100
AcDbEntity
 67
     1
  8
0
100
AcDbBlockBegin
  2
*Paper_Space
 70
     0
 10
0.0
 20
0.0
 30
0.0
  3
*Paper_Space
  1

  0
ENDBLK
  5
1D
330
1B
100
AcDbEntity
 67
     1
  8
0
100
AcDbBlockEnd
  0
BLOCK
  5
24
330
23
100
AcDbEntity
  8
0
100
AcDbBlockBegin
  2
*Paper_Space0
 70
     0
 10
0.0
 20
0.0
 30
0.0
  3
*Paper_Space0
  1

  0
ENDBLK
  5
25
330
23
100
AcDbEntity
  8
0
100
AcDbBlockEnd
  0
BLOCK
  5
70
330
6E
100
AcDbEntity
  8
0
100
AcDbBlockBegin
  2
1_070758_2
 70
     2
 10
0.0
 20
0.0
 30
0.0
  3
1_070758_2
  1

  0
ATTDEF
  5
73
330
6E
100
AcDbEntity
  8
AM_6
100
AcDbText
 10
6.176470588235294
 20
2.375
 30
0.0
 40
0.5
  1
S-2000 Wide Slot Take-Up Trident Seal
100
AcDbAttributeDefinition
  3

  2
NN
 70
     8
280
     0
  0
ATTDEF
  5
74
330
6E
100
AcDbEntity
  8
AM_6
100
AcDbText
 10
6.176470588235294
 20
1.875
 30
0.0
 40
0.5
  1
S-2000 Wide Slot Take-Up Bearing -Inch
100
AcDbAttributeDefinition
  3

  2
NT
 70
     8
280
     0
  0
ATTDEF
  5
75
330
6E
100
AcDbEntity
  8
AM_6
100
AcDbText
 10
6.176470588235294
 20
1.375
 30
0.0
 40
0.5
  1
070758
100
AcDbAttributeDefinition
  3

  2
NB
 70
     8
280
     0
  0
ATTDEF
  5
76
330
6E
100
AcDbEntity
  8
AM_6
100
AcDbText
 10
6.176470588235294
 20
0.875
 30
0.0
 40
0.5
  1
$PN.
100
AcDbAttributeDefinition
  3

  2
NBSYN
 70
     8
280
     0
  0
ATTDEF
  5
77
330
6E
100
AcDbEntity
  8
AM_6
100
AcDbText
 10
6.176470588235294
 20
0.375
 30
0.0
 40
0.5
  1
070758
100
AcDbAttributeDefinition
  3

  2
LINA
 70
     8
280
     0
  0
ATTDEF
  5
78
330
6E
100
AcDbEntity
  8
AM_6
100
AcDbText
 10
6.176470588235294
 20
-0.125
 30
0.0
 40
0.5
  1
1-15/16
100
AcDbAttributeDefinition
  3

  2
SS
 70
     8
280
     0
  0
ATTDEF
  5
79
330
6E
100
AcDbEntity
  8
AM_6
100
AcDbText
 10
6.176470588235294
 20
-0.625
 30
0.0
 40
0.5
  1
070758
100
AcDbAttributeDefinition
  3

  2
PN
 70
     8
280
     0
  0
ATTDEF
  5
7A
330
6E
100
AcDbEntity
  8
AM_6
100
AcDbText
 10
6.176470588235294
 20
-1.125
 30
0.0
 40
0.5
  1
WSTU-S2-115R
100
AcDbAttributeDefinition
  3

  2
DESCRIPTION
 70
     8
280
     0
  0
ATTDEF
  5
7B
330
6E
100
AcDbEntity
  8
AM_6
100
AcDbText
 10
6.176470588235294
 20
-1.625
 30
0.0
 40
0.5
  1
Non-Expansion Type
100
AcDbAttributeDefinition
  3

  2
EF
 70
     8
280
     0
  0
ATTDEF
  5
7C
330
6E
100
AcDbEntity
  8
AM_6
100
AcDbText
 10
6.176470588235294
 20
-2.125
 30
0.0
 40
0.5
  1
Contact Seal
100
AcDbAttributeDefinition
  3

  2
ST
 70
     8
280
     0
  0
ATTDEF
  5
7D
330
6E
100
AcDbEntity
  8
AM_6
100
AcDbText
 10
6.176470588235294
 20
-2.625
 30
0.0
 40
0.5
  1
2-27/32
100
AcDbAttributeDefinition
  3

  2
A
 70
     8
280
     0
  0
ATTDEF
  5
7E
330
6E
100
AcDbEntity
  8
AM_6
100
AcDbText
 10
6.176470588235294
 20
-3.125
 30
0.0
 40
0.5
  1
6-3/16
100
AcDbAttributeDefinition
  3

  2
B
 70
     8
280
     0
  0
ATTDEF
  5
7F
330
6E
100
AcDbEntity
  8
AM_6
100
AcDbText
 10
6.176470588235294
 20
-3.625
 30
0.0
 40
0.5
  1
11/16
100
AcDbAttributeDefinition
  3

  2
C
 70
     8
280
     0
  0
ATTDEF
  5
80
330
6E
100
AcDbEntity
  8
AM_6
100
AcDbText
 10
6.176470588235294
 20
-4.125
 30
0.0
 40
0.5
  1
3-5/8
100
AcDbAttributeDefinition
  3

  2
D
 70
     8
280
     0
  0
ATTDEF
  5
81
330
6E
100
AcDbEntity
  8
AM_6
100
AcDbText
 10
6.176470588235294
 20
-4.625
 30
0.0
 40
0.5
  1
3-15/16
100
AcDbAttributeDefinition
  3

  2
E
 70
     8
280
     0
  0
ATTDEF
  5
82
330
6E
100
AcDbEntity
  8
AM_6
100
AcDbText
 10
6.176470588235294
 20
-5.125
 30
0.0
 40
0.5
  1
1-1/8
100
AcDbAttributeDefinition
  3

  2
F
 70
     8
280
     0
  0
ATTDEF
  5
83
330
6E
100
AcDbEntity
  8
AM_6
100
AcDbText
 10
6.176470588235294
 20
-5.625
 30
0.0
 40
0.5
  1
15/16
100
AcDbAttributeDefinition
  3

  2
G
 70
     8
280
     0
  0
ATTDEF
  5
84
330
6E
100
AcDbEntity
  8
AM_6
100
AcDbText
 10
6.176470588235294
 20
-6.125
 30
0.0
 40
0.5
  1
3/4
100
AcDbAttributeDefinition
  3

  2
H
 70
     8
280
     0
  0
ATTDEF
  5
85
330
6E
100
AcDbEntity
  8
AM_6
100
AcDbText
 10
6.176470588235294
 20
-6.625
 30
0.0
 40
0.5
  1
3-5/16
100
AcDbAttributeDefinition
  3

  2
J
 70
     8
280
     0
  0
ATTDEF
  5
86
330
6E
100
AcDbEntity
  8
AM_6
100
AcDbText
 10
6.176470588235294
 20
-7.125
 30
0.0
 40
0.5
  1
1-15/16
100
AcDbAttributeDefinition
  3

  2
K
 70
     8
280
     0
  0
ATTDEF
  5
87
330
6E
100
AcDbEntity
  8
AM_6
100
AcDbText
 10
6.176470588235294
 20
-7.625
 30
0.0
 40
0.5
  1
3-7/16
100
AcDbAttributeDefinition
  3

  2
L
 70
     8
280
     0
  0
ATTDEF
  5
88
330
6E
100
AcDbEntity
  8
AM_6
100
AcDbText
 10
6.176470588235294
 20
-8.125
 30
0.0
 40
0.5
  1
4
100
AcDbAttributeDefinition
  3

  2
M
 70
     8
280
     0
  0
ATTDEF
  5
89
330
6E
100
AcDbEntity
  8
AM_6
100
AcDbText
 10
6.176470588235294
 20
-8.625
 30
0.0
 40
0.5
  1
4-3/4
100
AcDbAttributeDefinition
  3

  2
N
 70
     8
280
     0
  0
ATTDEF
  5
8A
330
6E
100
AcDbEntity
  8
AM_6
100
AcDbText
 10
6.176470588235294
 20
-9.125
 30
0.0
 40
0.5
  1
2-15/16
100
AcDbAttributeDefinition
  3

  2
R
 70
     8
280
     0
  0
ATTDEF
  5
8B
330
6E
100
AcDbEntity
  8
AM_6
100
AcDbText
 10
6.176470588235294
 20
-9.625
 30
0.0
 40
0.5
  1
1-15/16
100
AcDbAttributeDefinition
  3

  2
S
 70
     8
280
     0
  0
ATTDEF
  5
8C
330
6E
100
AcDbEntity
  8
AM_6
100
AcDbText
 10
6.176470588235294
 20
-10.125
 30
0.0
 40
0.5
  1
2
100
AcDbAttributeDefinition
  3

  2
T
 70
     8
280
     0
  0
ATTDEF
  5
8D
330
6E
100
AcDbEntity
  8
AM_6
100
AcDbText
 10
6.176470588235294
 20
-10.625
 30
0.0
 40
0.5
  1
1/4
100
AcDbAttributeDefinition
  3

  2
X
 70
     8
280
     0
  0
ATTDEF
  5
8E
330
6E
100
AcDbEntity
  8
AM_6
100
AcDbText
 10
6.176470588235294
 20
-11.125
 30
0.0
 40
0.5
  1
0.020
100
AcDbAttributeDefinition
  3

  2
Y
 70
     8
280
     0
  0
ATTDEF
  5
8F
330
6E
100
AcDbEntity
  8
AM_6
100
AcDbText
 10
6.176470588235294
 20
-11.625
 30
0.0
 40
0.5
  1
2-19/64
100
AcDbAttributeDefinition
  3

  2
Z
 70
     8
280
     0
  0
ATTDEF
  5
90
330
6E
100
AcDbEntity
  8
AM_6
100
AcDbText
 10
6.176470588235294
 20
-12.125
 30
0.0
 40
0.5
  1
baldor
100
AcDbAttributeDefinition
  3

  2
COMPANY
 70
     8
280
     0
  0
INSERT
  5
92
330
6E
100
AcDbEntity
  8
0
100
AcDbBlockReference
  2
2_1_15_16CS2i_0_in_070758_2
 10
0.0
 20
0.0
 30
0.0
  0
INSERT
  5
D8
330
6E
100
AcDbEntity
  8
0
100
AcDbBlockReference
  2
3_070005i_0_in_070758_2
 10
0.0
 20
0.0
 30
0.0
  0
INSERT
  5
13C
330
6E
100
AcDbEntity
  8
0
100
AcDbBlockReference
  2
4_405016_Inch_0_in_070758_2
 10
0.0
 20
0.0
 30
0.0
  0
INSERT
  5
1B2
330
6E
100
AcDbEntity
  8
0
100
AcDbBlockReference
  2
5_070758H_0_in_070758_2
 10
0.0
 20
0.0
 30
0.0
  0
ENDBLK
  5
71
330
6E
100
AcDbEntity
  8
0
100
AcDbBlockEnd
  0
BLOCK
  5
93
330
91
100
AcDbEntity
  8
0
100
AcDbBlockBegin
  2
2_1_15_16CS2i_0_in_070758_2
 70
     2
 10
0.0
 20
0.0
 30
0.0
  3
2_1_15_16CS2i_0_in_070758_2
  1

  0
ATTDEF
  5
95
330
91
100
AcDbEntity
  8
AM_6
100
AcDbText
 10
3.6965
 20
1.71875
 30
0.0
 40
0.5
  1
S-2000 Collar -Inch
100
AcDbAttributeDefinition
  3

  2
NN
 70
     8
280
     0
  0
ATTDEF
  5
96
330
91
100
AcDbEntity
  8
AM_6
100
AcDbText
 10
3.6965
 20
1.21875
 30
0.0
 40
0.5
  1
S-2000 Bearings
100
AcDbAttributeDefinition
  3

  2
NT
 70
     8
280
     0
  0
ATTDEF
  5
97
330
91
100
AcDbEntity
  8
AM_6
100
AcDbText
 10
3.6965
 20
0.7187500000000004
 30
0.0
 40
0.5
  1
1-15/16CS2i
100
AcDbAttributeDefinition
  3

  2
NB
 70
     8
280
     0
  0
ATTDEF
  5
98
330
91
100
AcDbEntity
  8
AM_6
100
AcDbText
 10
3.6965
 20
0.2187500000000004
 30
0.0
 40
0.5
  1
$BORE.CS2i
100
AcDbAttributeDefinition
  3

  2
NBSYN
 70
     8
280
     0
  0
ATTDEF
  5
99
330
91
100
AcDbEntity
  8
AM_6
100
AcDbText
 10
3.6965
 20
-0.2812499999999996
 30
0.0
 40
0.5
  1
1-15/16CS2i
100
AcDbAttributeDefinition
  3

  2
LINA
 70
     8
280
     0
  0
ATTDEF
  5
9A
330
91
100
AcDbEntity
  8
AM_6
100
AcDbText
 10
3.6965
 20
-0.7812499999999996
 30
0.0
 40
0.5
  1
1-15/16
100
AcDbAttributeDefinition
  3

  2
BORE
 70
     8
280
     0
  0
ATTDEF
  5
9B
330
91
100
AcDbEntity
  8
AM_6
100
AcDbText
 10
3.6965
 20
-1.28125
 30
0.0
 40
0.5
  1
1.937500
100
AcDbAttributeDefinition
  3

  2
BORE1
 70
     8
280
     0
  0
ATTDEF
  5
9C
330
91
100
AcDbEntity
  8
AM_6
100
AcDbText
 10
3.6965
 20
-1.78125
 30
0.0
 40
0.5
  1
3-7/16
100
AcDbAttributeDefinition
  3

  2
L1
 70
     8
280
     0
  0
ATTDEF
  5
9D
330
91
100
AcDbEntity
  8
AM_6
100
AcDbText
 10
3.6965
 20
-2.28125
 30
0.0
 40
0.5
  1
3.43750
100
AcDbAttributeDefinition
  3

  2
L
 70
     8
280
     0
  0
ATTDEF
  5
9E
330
91
100
AcDbEntity
  8
AM_6
100
AcDbText
 10
3.6965
 20
-2.78125
 30
0.0
 40
0.5
  1
3.34375
100
AcDbAttributeDefinition
  3

  2
L2
 70
     8
280
     0
  0
ATTDEF
  5
9F
330
91
100
AcDbEntity
  8
AM_6
100
AcDbText
 10
3.6965
 20
-3.28125
 30
0.0
 40
0.5
  1
3.50
100
AcDbAttributeDefinition
  3

  2
A
 70
     8
280
     0
  0
ATTDEF
  5
A0
330
91
100
AcDbEntity
  8
AM_6
100
AcDbText
 10
3.6965
 20
-3.78125
 30
0.0
 40
0.5
  1
1.62
100
AcDbAttributeDefinition
  3

  2
B
 70
     8
280
     0
  0
ATTDEF
  5
A1
330
91
100
AcDbEntity
  8
AM_6
100
AcDbText
 10
3.6965
 20
-4.28125
 30
0.0
 40
0.5
  1
2.31
100
AcDbAttributeDefinition
  3

  2
C
 70
     8
280
     0
  0
ATTDEF
  5
A2
330
91
100
AcDbEntity
  8
AM_6
100
AcDbText
 10
3.6965
 20
-4.78125
 30
0.0
 40
0.5
  1
3.50
100
AcDbAttributeDefinition
  3

  2
D
 70
     8
280
     0
  0
ATTDEF
  5
A3
330
91
100
AcDbEntity
  8
AM_6
100
AcDbText
 10
3.6965
 20
-5.28125
 30
0.0
 40
0.5
  1
0.41
100
AcDbAttributeDefinition
  3

  2
E
 70
     8
280
     0
  0
ATTDEF
  5
A4
330
91
100
AcDbEntity
  8
AM_6
100
AcDbText
 10
3.6965
 20
-5.78125
 30
0.0
 40
0.5
  1
0.317
100
AcDbAttributeDefinition
  3

  2
F
 70
     8
280
     0
  0
ATTDEF
  5
A5
330
91
100
AcDbEntity
  8
AM_6
100
AcDbText
 10
3.6965
 20
-6.28125
 30
0.0
 40
0.5
  1
3/8-16
100
AcDbAttributeDefinition
  3

  2
CS
 70
     8
280
     0
  0
ATTDEF
  5
A6
330
91
100
AcDbEntity
  8
AM_6
100
AcDbText
 10
3.6965
 20
-6.78125
 30
0.0
 40
0.5
  1
0.3750
100
AcDbAttributeDefinition
  3

  2
NDM
 70
     8
280
     0
  0
ATTDEF
  5
A7
330
91
100
AcDbEntity
  8
AM_6
100
AcDbText
 10
3.6965
 20
-7.28125
 30
0.0
 40
0.5
  1
0.3070
100
AcDbAttributeDefinition
  3

  2
KDM
 70
     8
280
     0
  0
ATTDEF
  5
A8
330
91
100
AcDbEntity
  8
AM_6
100
AcDbText
 10
3.6965
 20
-7.78125
 30
0.0
 40
0.5
  1
1
100
AcDbAttributeDefinition
  3

  2
DD
 70
     8
280
     0
  0
ATTDEF
  5
A9
330
91
100
AcDbEntity
  8
AM_6
100
AcDbText
 10
3.6965
 20
-8.28125
 30
0.0
 40
0.5
  1
baldor
100
AcDbAttributeDefinition
  3

  2
COMPANY
 70
     8
280
     0
  0
LINE
  5
AC
330
91
100
AcDbEntity
  8
AM_9
100
AcDbLine
 10
-1.46685
 20
1.163849999999998
 30
0.0
 11
-1.46685
 21
1.6849
 31
0.0
  0
LINE
  5
AD
330
91
100
AcDbEntity
  8
AM_9
100
AcDbLine
 10
-1.77415
 20
1.671829317052831
 30
0.0
 11
-1.77415
 21
1.163849999999998
 31
0.0
  0
LINE
  5
AE
330
91
100
AcDbEntity
  8
AM_9
100
AcDbLine
 10
-1.77415
 20
1.163849999999998
 30
0.0
 11
-1.46685
 21
1.163849999999998
 31
0.0
  0
LINE
  5
AF
330
91
100
AcDbEntity
  8
AM_9
100
AcDbLine
 10
-1.77415
 20
1.163849999999998
 30
0.0
 11
-1.782833859590501
 21
1.155166140409497
 31
0.0
  0
LINE
  5
B0
330
91
100
AcDbEntity
  8
AM_9
100
AcDbLine
 10
-1.458268486589466
 20
1.155268486589464
 30
0.0
 11
-1.46685
 21
1.163849999999998
 31
0.0
  0
LINE
  5
B1
330
91
100
AcDbEntity
  8
AM_9
100
AcDbLine
 10
-1.6205
 20
1.6849
 30
0.0
 11
-1.46685
 21
1.6849
 31
0.0
  0
LINE
  5
B2
330
91
100
AcDbEntity
  8
AM_9
100
AcDbLine
 10
-1.46685
 20
1.6849
 30
0.0
 11
-1.433
 21
1.71875
 31
0.0
  0
LWPOLYLINE
  5
B3
330
91
100
AcDbEntity
  8
AM_9
100
AcDbPolyline
 90
       39
 70
     0
 43
0.0
 10
-1.500770700757612
 20
0.3779306153227044
 10
-1.486073278082185
 20
0.396982385124557
 10
-1.474308271443683
 20
0.4176293360648101
 10
-1.464301432537048
 20
0.4439182519710251
 10
-1.458931658753938
 20
0.4710708270096682
 10
-1.458422827735139
 20
0.4993266874148425
 10
-1.46300684088404
 20
0.5269257457283382
 10
-1.472764255474738
 20
0.5533184649773224
 10
-1.487416029846859
 20
0.5775465560041885
 10
-1.506328571350549
 20
0.5985069496908864
 10
-1.529240925088392
 20
0.6160441469379788
 10
-1.554009356111882
 20
0.6288048404677827
 10
-1.581115795223778
 20
0.6374696658014952
 10
-1.607171165229202
 20
0.6414014566813416
 10
-1.633647638067584
 20
0.6414329664232032
 10
-1.6581973154402
 20
0.6378349976865144
 10
-1.681712472618771
 20
0.630908090442375
 10
-1.70390029802289
 20
0.620674193172453
 10
-1.723937085965839
 20
0.6075673369347369
 10
-1.742564809653995
 20
0.5906952130942349
 10
-1.757945301954541
 20
0.5713661406842145
 10
-1.770580868890707
 20
0.548212272045049
 10
-1.778904421512373
 20
0.523295179199191
 10
-1.782792849706192
 20
0.4958213139565711
 10
-1.781676650013289
 20
0.4677970280308617
 10
-1.775358942332216
 20
0.4394979658413348
 10
-1.764004583658788
 20
0.4122797271984379
 10
-1.747932303738319
 20
0.3872468336572877
 10
-1.727472829888135
 20
0.3650564070238989
 10
-1.704178283758052
 20
0.3473968064820112
 10
-1.677911069580451
 20
0.3340073621827003
 10
-1.651836514347769
 20
0.3261834974355968
 10
-1.624724615848441
 20
0.3229852316942747
 10
-1.599521520915244
 20
0.324387128498041
 10
-1.574919242035971
 20
0.3298323777881113
 10
-1.551855322039371
 20
0.3390024523154564
 10
-1.530578384257335
 20
0.3514964254536935
 10
-1.514836269731259
 20
0.3638867207156672
 10
-1.500770700757613
 20
0.3779306153227044
  0
LINE
  5
B4
330
91
100
AcDbEntity
  8
AM_9
100
AcDbLine
 10
-1.9375
 20
-1.155
 30
0.0
 11
-1.3035
 21
-1.155
 31
0.0
  0
LINE
  5
B5
330
91
100
AcDbEntity
  8
AM_9
100
AcDbLine
 10
-1.3035
 20
1.155
 30
0.0
 11
-1.458641874627086
 21
1.155
 31
0.0
  0
LINE
  5
B6
330
91
100
AcDbEntity
  8
AM_9
100
AcDbLine
 10
-1.782602342789092
 20
1.155
 30
0.0
 11
-1.9375
 21
1.155
 31
0.0
  0
LWPOLYLINE
  5
B7
330
91
100
AcDbEntity
  8
AM_9
100
AcDbPolyline
 90
       21
 70
     0
 43
0.0
 10
-1.782999999999292
 20
1.154999999999884
 10
-1.782900986662971
 20
1.15498379342257
 10
-1.77925712012805
 20
1.154393873255462
 10
-1.770631994249787
 20
1.153048235227185
 10
-1.756698885410673
 20
1.151026350938733
 10
-1.738885052348584
 20
1.148717802829725
 10
-1.716271329989636
 20
1.146240524342773
 10
-1.692315148278001
 20
1.144177281125706
 10
-1.664923654001466
 20
1.142534733138016
 10
-1.639263695572541
 20
1.141696141547657
 10
-1.612141036554752
 20
1.1415500348332
 10
-1.587739733160896
 20
1.14206930960979
 10
-1.563578803751199
 20
1.143188797776558
 10
-1.541397546785491
 20
1.144743350316933
 10
-1.520742928870743
 20
1.146640022566709
 10
-1.501898942507809
 20
1.148743921308349
 10
-1.485787017588642
 20
1.150821876167579
 10
-1.472595250353041
 20
1.152712392277049
 10
-1.463358838042087
 20
1.154136323883433
 10
-1.458573151141624
 20
1.154906315782236
 10
-1.458000000000019
 20
1.154999999999997
  0
ELLIPSE
  5
B8
330
91
100
AcDbEntity
  8
AM_9
100
AcDbEllipse
 10
-1.620500000000001
 20
0.491864263926913
 30
0.0
 11
0.1536499999999985
 21
0.0
 31
0.0
210
0.0
220
0.0
230
1.0
 40
0.9063077870366503
 41
2.268281495005901
 42
6.283185307179586
  0
LINE
  5
B9
330
91
100
AcDbEntity
  8
AM_9
100
AcDbLine
 10
-1.46685
 20
0.4918642639269121
 30
0.0
 11
-1.46685
 21
0.7120695092069046
 31
0.0
  0
LINE
  5
BA
330
91
100
AcDbEntity
  8
AM_9
100
AcDbLine
 10
-1.77415
 20
0.7065456216338938
 30
0.0
 11
-1.77415
 21
0.4918642639269121
 31
0.0
  0
ELLIPSE
  5
BB
330
91
100
AcDbEntity
  8
AM_9
100
AcDbEllipse
 10
-1.620500000000001
 20
0.4918642639269118
 30
0.0
 11
0.153650000000001
 21
0.0
 31
0.0
210
0.0
220
0.0
230
1.0
 40
0.9063077870366499
 41
0.0
 42
0.9118850991120896
  0
LINE
  5
BC
330
91
100
AcDbEntity
  8
AM_9
100
AcDbLine
 10
-1.6205
 20
0.5728153177287234
 30
0.0
 11
-1.6205
 21
0.8428289026684154
 31
0.0
  0
LINE
  5
BE
330
91
100
AcDbEntity
  8
AM_5
100
AcDbLine
 10
-1.808
 20
1.671875
 30
0.0
 11
-1.808
 21
1.155
 31
0.0
  0
LINE
  5
BF
330
91
100
AcDbEntity
  8
AM_5
100
AcDbLine
 10
-1.71425
 20
1.13
 30
0.0
 11
-1.808
 21
1.13
 31
0.0
  0
LINE
  5
C0
330
91
100
AcDbEntity
  8
AM_5
100
AcDbLine
 10
-1.433
 20
1.71875
 30
0.0
 11
-1.433
 21
1.155
 31
0.0
  0
LINE
  5
C1
330
91
100
AcDbEntity
  8
AM_5
100
AcDbLine
 10
-1.52675
 20
1.13
 30
0.0
 11
-1.433
 21
1.13
 31
0.0
  0
ELLIPSE
  5
C3
330
91
100
AcDbEntity
  8
AM_4
100
AcDbEllipse
 10
-1.6205
 20
0.4918642639269104
 30
0.0
 11
0.1536500000000014
 21
0.0
 31
0.0
210
0.0
220
0.0
230
1.0
 40
0.906307787036652
 41
1.570796326794897
 42
2.268281495005899
  0
LWPOLYLINE
  5
C4
330
91
100
AcDbEntity
  8
AM_4
100
AcDbPolyline
 90
       11
 70
     0
 43
0.0
 10
-1.77414999933858
 20
0.7065519853387418
 10
-1.7731525561079
 20
0.7223677525029673
 10
-1.768066316752001
 20
0.7450798938133635
 10
-1.75885769827306
 20
0.7665635542834761
 10
-1.745711551078412
 20
0.7862473905750144
 10
-1.729062016143881
 20
0.8036135625653672
 10
-1.709252309063228
 20
0.8182307055177177
 10
-1.686934647229059
 20
0.829699244922787
 10
-1.662703436775501
 20
0.8376852193488313
 10
-1.63727282237596
 20
0.8420324150572488
 10
-1.6205
 20
0.8428289026684153
  0
ELLIPSE
  5
C5
330
91
100
AcDbEntity
  8
AM_4
100
AcDbEllipse
 10
-1.6205
 20
0.7120695092069047
 30
0.0
 11
0.1536500000000001
 21
0.0
 31
0.0
210
0.0
220
0.0
230
1.0
 40
0.9063077870366484
 41
0.0
 42
1.570796326794897
  0
ELLIPSE
  5
C6
330
91
100
AcDbEntity
  8
AM_4
100
AcDbEllipse
 10
-1.620500000000001
 20
0.4918642639269102
 30
0.0
 11
0.1536500000000016
 21
0.0
 31
0.0
210
0.0
220
0.0
230
1.0
 40
0.9063077870366526
 41
0.9118850991120961
 42
1.570796326794897
  0
LINE
  5
C7
330
91
100
AcDbEntity
  8
AM_4
100
AcDbLine
 10
-1.6205
 20
-1.71875
 30
0.0
 11
-1.6205
 21
0.5728153177287234
 31
0.0
  0
ELLIPSE
  5
C8
330
91
100
AcDbEntity
  8
AM_4
100
AcDbEllipse
 10
-1.6205
 20
0.7120695092069045
 30
0.0
 11
0.1536499999999998
 21
0.0
 31
0.0
210
0.0
220
0.0
230
1.0
 40
0.9063077870366489
 41
4.71238898038469
 42
6.283185307179586
  0
LWPOLYLINE
  5
C9
330
91
100
AcDbEntity
  8
AM_4
100
AcDbPolyline
 90
       11
 70
     0
 43
0.0
 10
-1.6205
 20
0.5643205197120527
 10
-1.646232005179207
 20
0.5663866780101692
 10
-1.671237211398877
 20
0.5724584470094645
 10
-1.694788552679179
 20
0.5823953811810795
 10
-1.716252610598775
 20
0.5958305184129878
 10
-1.735041329003416
 20
0.6124404091607075
 10
-1.750607577861147
 20
0.6316444970415929
 10
-1.762480991528923
 20
0.652934049888534
 10
-1.770343985596427
 20
0.6756163970244478
 10
-1.773906032941591
 20
0.6989667970565889
 10
-1.77414999933858
 20
0.7065519853387418
  0
LWPOLYLINE
  5
CA
330
91
100
AcDbEntity
  8
AM_4
100
AcDbPolyline
 90
       11
 70
     0
 43
0.0
 10
-1.6205
 20
1.664799595484393
 10
-1.645868605699439
 20
1.664992870639431
 10
-1.671237211398877
 20
1.665572561537183
 10
-1.694473567875275
 20
1.666442252785616
 10
-1.716252610598775
 20
1.667550975401196
 10
-1.734805966665376
 20
1.668719133689162
 10
-1.750607577861147
 20
1.6698759459738
 10
-1.762352043975835
 20
1.670832036892136
 10
-1.770343985596427
 20
1.671529513094047
 10
-1.773900876683712
 20
1.671852123272968
 10
-1.774149999999953
 20
1.671874999999996
  0
LINE
  5
CB
330
91
100
AcDbEntity
  8
AM_4
100
AcDbLine
 10
-1.831833333333333
 20
-1.671875
 30
0.0
 11
-1.6205
 21
-1.671875
 31
0.0
  0
LINE
  5
CC
330
91
100
AcDbEntity
  8
AM_4
100
AcDbLine
 10
-1.773651316279622
 20
1.671875
 30
0.0
 11
-1.831833333333333
 21
1.671875
 31
0.0
  0
LINE
  5
CD
330
91
100
AcDbEntity
  8
AM_4
100
AcDbLine
 10
-1.9375
 20
1.566208333333333
 30
0.0
 11
-1.9375
 21
-1.566208333333333
 31
0.0
  0
ARC
  5
CE
330
91
100
AcDbEntity
  8
AM_4
100
AcDbCircle
 10
-1.831833333333334
 20
-1.566208333333334
 30
0.0
 40
0.1056666666666661
100
AcDbArc
 50
180.0
 51
270.0
  0
ARC
  5
CF
330
91
100
AcDbEntity
  8
AM_4
100
AcDbCircle
 10
-1.831833333333333
 20
1.566208333333333
 30
0.0
 40
0.1056666666666668
100
AcDbArc
 50
90.0
 51
180.0
  0
LINE
  5
D0
330
91
100
AcDbEntity
  8
AM_4
100
AcDbLine
 10
-1.831833333333333
 20
1.671875
 30
0.0
 11
-1.831833333333333
 21
-1.671875
 31
0.0
  0
LINE
  5
D1
330
91
100
AcDbEntity
  8
AM_4
100
AcDbLine
 10
-1.6205
 20
1.709483644408685
 30
0.0
 11
-1.6205
 21
0.8428289026684154
 31
0.0
  0
LWPOLYLINE
  5
D2
330
91
100
AcDbEntity
  8
AM_4
100
AcDbPolyline
 90
       20
 70
     0
 43
0.0
 10
-1.6205
 20
0.8839935461136664
 10
-1.596956540255968
 20
0.8827704602397235
 10
-1.573755059594891
 20
0.8791269088512271
 10
-1.542997135914978
 20
0.870192284193473
 10
-1.513610789565219
 20
0.8564042619296152
 10
-1.488623123540388
 20
0.8391659542218922
 10
-1.466827849004654
 20
0.8175785154073791
 10
-1.450924811512154
 20
0.7945277981996288
 10
-1.439530813820807
 20
0.768327344412466
 10
-1.433976048069603
 20
0.7427777149904374
 10
-1.433407654116658
 20
0.7157236493827165
 10
-1.437661980617995
 20
0.6904235425830941
 10
-1.446711959468604
 20
0.6652448531997145
 10
-1.459851993982014
 20
0.6421061405004778
 10
-1.477299729506366
 20
0.6205387968669153
 10
-1.498513923217217
 20
0.601504255556413
 10
-1.523342373331685
 20
0.5853983471201033
 10
-1.551225531611539
 20
0.5729130873073736
 10
-1.58168570963239
 20
0.564599505893966
 10
-1.6205
 20
0.560924466434642
  0
LINE
  5
D3
330
91
100
AcDbEntity
  8
AM_4
100
AcDbLine
 10
-1.6205
 20
-1.71875
 30
0.0
 11
-1.3035
 21
-1.71875
 31
0.0
  0
LINE
  5
D4
330
91
100
AcDbEntity
  8
AM_4
100
AcDbLine
 10
-1.3035
 20
1.71875
 30
0.0
 11
-1.433
 21
1.71875
 31
0.0
  0
LWPOLYLINE
  5
D5
330
91
100
AcDbEntity
  8
AM_4
100
AcDbPolyline
 90
       11
 70
     0
 43
0.0
 10
-1.43300000000004
 20
1.718749999999996
 10
-1.433407654116658
 20
1.718709945620833
 10
-1.437661980617995
 20
1.718297037634551
 10
-1.446711959468604
 20
1.717449711877597
 10
-1.459851993982014
 20
1.716294780493615
 10
-1.477299729506366
 20
1.714899617463105
 10
-1.498513923217217
 20
1.713416876990633
 10
-1.523342373331685
 20
1.711980611192172
 10
-1.551225531611538
 20
1.710753888887781
 10
-1.58168570963239
 20
1.709882600018857
 10
-1.6205
 20
1.709483644408685
  0
LINE
  5
D6
330
91
100
AcDbEntity
  8
AM_4
100
AcDbLine
 10
-1.3035
 20
1.71875
 30
0.0
 11
-1.3035
 21
-1.71875
 31
0.0
  0
ENDBLK
  5
94
330
91
100
AcDbEntity
  8
0
100
AcDbBlockEnd
  0
BLOCK
  5
D9
330
D7
100
AcDbEntity
  8
0
100
AcDbBlockBegin
  2
3_070005i_0_in_070758_2
 70
     2
 10
0.0
 20
0.0
 30
0.0
  3
3_070005i_0_in_070758_2
  1

  0
ATTDEF
  5
DB
330
D7
100
AcDbEntity
  8
AM_6
100
AcDbText
 10
5.90625
 20
1.77165
 30
0.0
 40
0.5
  1
S-2000 Insert -Inch
100
AcDbAttributeDefinition
  3

  2
NN
 70
     8
280
     0
  0
ATTDEF
  5
DC
330
D7
100
AcDbEntity
  8
AM_6
100
AcDbText
 10
5.90625
 20
1.27165
 30
0.0
 40
0.5
  1
S-2000 Bearings
100
AcDbAttributeDefinition
  3

  2
NT
 70
     8
280
     0
  0
ATTDEF
  5
DD
330
D7
100
AcDbEntity
  8
AM_6
100
AcDbText
 10
5.90625
 20
0.77165
 30
0.0
 40
0.5
  1
070005i
100
AcDbAttributeDefinition
  3

  2
NB
 70
     8
280
     0
  0
ATTDEF
  5
DE
330
D7
100
AcDbEntity
  8
AM_6
100
AcDbText
 10
5.90625
 20
0.2716499999999999
 30
0.0
 40
0.5
  1
$PN.i
100
AcDbAttributeDefinition
  3

  2
NBSYN
 70
     8
280
     0
  0
ATTDEF
  5
DF
330
D7
100
AcDbEntity
  8
AM_6
100
AcDbText
 10
5.90625
 20
-0.2283500000000001
 30
0.0
 40
0.5
  1
070005i
100
AcDbAttributeDefinition
  3

  2
LINA
 70
     8
280
     0
  0
ATTDEF
  5
E0
330
D7
100
AcDbEntity
  8
AM_6
100
AcDbText
 10
5.90625
 20
-0.72835
 30
0.0
 40
0.5
  1
1-15/16
100
AcDbAttributeDefinition
  3

  2
SS
 70
     8
280
     0
  0
ATTDEF
  5
E1
330
D7
100
AcDbEntity
  8
AM_6
100
AcDbText
 10
5.90625
 20
-1.22835
 30
0.0
 40
0.5
  1
2.31
100
AcDbAttributeDefinition
  3

  2
CC
 70
     8
280
     0
  0
ATTDEF
  5
E2
330
D7
100
AcDbEntity
  8
AM_6
100
AcDbText
 10
5.90625
 20
-1.72835
 30
0.0
 40
0.5
  1
1.937500
100
AcDbAttributeDefinition
  3

  2
SS1
 70
     8
280
     0
  0
ATTDEF
  5
E3
330
D7
100
AcDbEntity
  8
AM_6
100
AcDbText
 10
5.90625
 20
-2.22835
 30
0.0
 40
0.5
  1
070005
100
AcDbAttributeDefinition
  3

  2
PN
 70
     8
280
     0
  0
ATTDEF
  5
E4
330
D7
100
AcDbEntity
  8
AM_6
100
AcDbText
 10
5.90625
 20
-2.72835
 30
0.0
 40
0.5
  1
INS-S2-115R
100
AcDbAttributeDefinition
  3

  2
DESCRIPTION
 70
     8
280
     0
  0
ATTDEF
  5
E5
330
D7
100
AcDbEntity
  8
AM_6
100
AcDbText
 10
5.90625
 20
-3.22835
 30
0.0
 40
0.5
  1
Contact Seal
100
AcDbAttributeDefinition
  3

  2
ST
 70
     8
280
     0
  0
ATTDEF
  5
E6
330
D7
100
AcDbEntity
  8
AM_6
100
AcDbText
 10
5.90625
 20
-3.72835
 30
0.0
 40
0.5
  1
1
100
AcDbAttributeDefinition
  3

  2
ST1
 70
     8
280
     0
  0
ATTDEF
  5
E7
330
D7
100
AcDbEntity
  8
AM_6
100
AcDbText
 10
5.90625
 20
-4.22835
 30
0.0
 40
0.5
  1
3.5433
100
AcDbAttributeDefinition
  3

  2
A
 70
     8
280
     0
  0
ATTDEF
  5
E8
330
D7
100
AcDbEntity
  8
AM_6
100
AcDbText
 10
5.90625
 20
-4.72835
 30
0.0
 40
0.5
  1
61/64
100
AcDbAttributeDefinition
  3

  2
B
 70
     8
280
     0
  0
ATTDEF
  5
E9
330
D7
100
AcDbEntity
  8
AM_6
100
AcDbText
 10
5.90625
 20
-5.22835
 30
0.0
 40
0.5
  1
2-27/32
100
AcDbAttributeDefinition
  3

  2
C
 70
     8
280
     0
  0
ATTDEF
  5
EA
330
D7
100
AcDbEntity
  8
AM_6
100
AcDbText
 10
5.90625
 20
-5.72835
 30
0.0
 40
0.5
  1
0.977
100
AcDbAttributeDefinition
  3

  2
D
 70
     8
280
     0
  0
ATTDEF
  5
EB
330
D7
100
AcDbEntity
  8
AM_6
100
AcDbText
 10
5.90625
 20
-6.22835
 30
0.0
 40
0.5
  1
3-11/32
100
AcDbAttributeDefinition
  3

  2
E
 70
     8
280
     0
  0
ATTDEF
  5
EC
330
D7
100
AcDbEntity
  8
AM_6
100
AcDbText
 10
5.90625
 20
-6.72835
 30
0.0
 40
0.5
  1
0.53125
100
AcDbAttributeDefinition
  3

  2
F
 70
     8
280
     0
  0
ATTDEF
  5
ED
330
D7
100
AcDbEntity
  8
AM_6
100
AcDbText
 10
5.90625
 20
-7.22835
 30
0.0
 40
0.5
  1
1
100
AcDbAttributeDefinition
  3

  2
DD
 70
     8
280
     0
  0
ATTDEF
  5
EE
330
D7
100
AcDbEntity
  8
AM_6
100
AcDbText
 10
5.90625
 20
-7.72835
 30
0.0
 40
0.5
  1
baldor
100
AcDbAttributeDefinition
  3

  2
COMPANY
 70
     8
280
     0
  0
LINE
  5
EF
330
D7
100
AcDbEntity
  8
AM_9
100
AcDbLine
 10
-1.8255
 20
1.154877756637566
 30
0.0
 11
-1.8255
 21
0.96875
 31
0.0
  0
LINE
  5
F0
330
D7
100
AcDbEntity
  8
AM_9
100
AcDbLine
 10
-1.4155
 20
0.96875
 30
0.0
 11
-1.4155
 21
1.154962221367664
 31
0.0
  0
LINE
  5
F1
330
D7
100
AcDbEntity
  8
AM_9
100
AcDbLine
 10
-1.8255
 20
0.4881240923105078
 30
0.0
 11
-1.8255
 21
0.4093796815139764
 31
0.0
  0
LINE
  5
F2
330
D7
100
AcDbEntity
  8
AM_9
100
AcDbLine
 10
-1.4155
 20
0.409348864830776
 30
0.0
 11
-1.4155
 21
0.4881240923105079
 31
0.0
  0
LWPOLYLINE
  5
F3
330
D7
100
AcDbEntity
  8
AM_9
100
AcDbPolyline
 90
        4
 70
     0
 43
0.0
 10
-1.820881691816198
 20
0.4482175976841645
 10
-1.821653715279822
 20
0.4447857261341431
 10
-1.825439807045839
 20
0.4139080907666526
 10
-1.825499998916321
 20
0.4094305446793951
  0
LWPOLYLINE
  5
F4
330
D7
100
AcDbEntity
  8
AM_9
100
AcDbPolyline
 90
        5
 70
     0
 43
0.0
 10
-1.767043208409999
 20
0.5348260881220972
 10
-1.777058288531906
 20
0.5255160061022681
 10
-1.797123180344151
 20
0.5013190575168165
 10
-1.812178285948385
 20
0.474140388213466
 10
-1.820881691816198
 20
0.4482175976841645
  0
LWPOLYLINE
  5
F5
330
D7
100
AcDbEntity
  8
AM_9
100
AcDbPolyline
 90
        5
 70
     0
 43
0.0
 10
-1.683156935710829
 20
0.5779171041027114
 10
-1.694910510139437
 20
0.5744793289699689
 10
-1.725184066716186
 20
0.5623204337713851
 10
-1.752948712124414
 20
0.5458236567720393
 10
-1.767043208409999
 20
0.5348260881220972
  0
LWPOLYLINE
  5
F6
330
D7
100
AcDbEntity
  8
AM_9
100
AcDbPolyline
 90
        5
 70
     0
 43
0.0
 10
-1.475502894712078
 20
0.5361438044891877
 10
-1.498841342376678
 20
0.552947421118201
 10
-1.528298434943482
 20
0.5679731851036358
 10
-1.560546348718526
 20
0.5785936452282089
 10
-1.572310050939817
 20
0.5812444310858786
  0
LWPOLYLINE
  5
F7
330
D7
100
AcDbEntity
  8
AM_9
100
AcDbPolyline
 90
        6
 70
     0
 43
0.0
 10
-1.420210454085149
 20
0.4485943149320416
 10
-1.42297134857059
 20
0.4583885309759159
 10
-1.434621992397568
 20
0.4861321433266658
 10
-1.45144696560148
 20
0.5115312804343691
 10
-1.472847258118033
 20
0.5338620959593247
 10
-1.475502894712078
 20
0.5361438044891877
  0
LWPOLYLINE
  5
F8
330
D7
100
AcDbEntity
  8
AM_9
100
AcDbPolyline
 90
        3
 70
     0
 43
0.0
 10
-1.415500000500865
 20
0.409398453444428
 10
-1.416636064059495
 20
0.4288430010579504
 10
-1.420210454085149
 20
0.4485943149320416
  0
LWPOLYLINE
  5
F9
330
D7
100
AcDbEntity
  8
AM_9
100
AcDbPolyline
 90
       11
 70
     0
 43
0.0
 10
-1.825499998916321
 20
0.4094305446793951
 10
-1.823424362693866
 20
0.3829860779201023
 10
-1.815883226411992
 20
0.3523329055112975
 10
-1.803017528997691
 20
0.3229483459410855
 10
-1.785257328877597
 20
0.2955979838589718
 10
-1.762592169532938
 20
0.2707236158708055
 10
-1.735969681517259
 20
0.2495882433293515
 10
-1.705672214352253
 20
0.2327810981844399
 10
-1.672882986684229
 20
0.221126527520521
 10
-1.646919867213706
 20
0.2160601660521318
 10
-1.6205
 20
0.2143466326527852
  0
LWPOLYLINE
  5
FA
330
D7
100
AcDbEntity
  8
AM_9
100
AcDbPolyline
 90
        8
 70
     0
 43
0.0
 10
-1.496627988046187
 20
0.631256604014281
 10
-1.486418559939227
 20
0.6242252158873672
 10
-1.462469404785717
 20
0.6033408369111423
 10
-1.442745335435469
 20
0.5787257344100865
 10
-1.428055624917102
 20
0.551232841494723
 10
-1.418941907098632
 20
0.5216613630812377
 10
-1.415519874684364
 20
0.4907096659398388
 10
-1.415500000576729
 20
0.4881380287629355
  0
LWPOLYLINE
  5
FB
330
D7
100
AcDbEntity
  8
AM_9
100
AcDbPolyline
 90
       10
 70
     0
 43
0.0
 10
-1.748257478856363
 20
0.6286995562887305
 10
-1.740981352391878
 20
0.6333634238699369
 10
-1.711400303144283
 20
0.648436972693003
 10
-1.67912500327932
 20
0.6590286972977397
 10
-1.645145425831918
 20
0.6649324833827778
 10
-1.610904582061244
 20
0.6659645037566182
 10
-1.576937555419073
 20
0.6622764730365414
 10
-1.544460575943977
 20
0.6539702262409812
 10
-1.514092745364521
 20
0.6412787325986631
 10
-1.496627988046187
 20
0.631256604014281
  0
LWPOLYLINE
  5
FC
330
D7
100
AcDbEntity
  8
AM_9
100
AcDbPolyline
 90
        7
 70
     0
 43
0.0
 10
-1.825499999363772
 20
0.4881094545278523
 10
-1.824294998115517
 20
0.5081490698992479
 10
-1.817798212665202
 20
0.5379371389228211
 10
-1.805920443226721
 20
0.565963361436172
 10
-1.78883651427101
 20
0.5916166019356104
 10
-1.767139899355452
 20
0.6141873703698317
 10
-1.748257478856363
 20
0.6286995562887305
  0
LWPOLYLINE
  5
FD
330
D7
100
AcDbEntity
  8
AM_9
100
AcDbPolyline
 90
       11
 70
     0
 43
0.0
 10
-1.415500000576729
 20
0.4881380287629355
 10
-1.417907761293978
 20
0.4596740657920109
 10
-1.425863953789169
 20
0.4290386003036939
 10
-1.439202571434621
 20
0.3997597701124795
 10
-1.457476360126783
 20
0.372643524411945
 10
-1.480566196985514
 20
0.3482500085262513
 10
-1.507573889191244
 20
0.3276763021680447
 10
-1.538060959345697
 20
0.3115511382649416
 10
-1.570935264890733
 20
0.3005496543899619
 10
-1.595526989680055
 20
0.296086952188345
 10
-1.6205
 20
0.2945809289154055
  0
LWPOLYLINE
  5
FE
330
D7
100
AcDbEntity
  8
AM_9
100
AcDbPolyline
 90
       11
 70
     0
 43
0.0
 10
-1.6205
 20
0.2143466326527852
 10
-1.586520758055889
 20
0.2171971026045974
 10
-1.553510007254815
 20
0.2255469264103231
 10
-1.522439613290677
 20
0.2391432046943243
 10
-1.494086626444858
 20
0.2574272711717
 10
-1.468911888553895
 20
0.2801846132755332
 10
-1.447965047962213
 20
0.3063918783944212
 10
-1.431754046756649
 20
0.3355575662992906
 10
-1.42092199397038
 20
0.3664847618072958
 10
-1.415923780560767
 20
0.3977455807645244
 10
-1.415500000500865
 20
0.409398453444428
  0
LWPOLYLINE
  5
FF
330
D7
100
AcDbEntity
  8
AM_9
100
AcDbPolyline
 90
       11
 70
     0
 43
0.0
 10
-1.6205
 20
0.9468112602308868
 10
-1.587005003627408
 20
0.9474035451073634
 10
-1.553510007254815
 20
0.9491781822334519
 10
-1.522845648858121
 20
0.9518339848928179
 10
-1.494086626444858
 20
0.9552130147321026
 10
-1.469223840198574
 20
0.9588201286082112
 10
-1.447965047962213
 20
0.9624031754803604
 10
-1.431935925789876
 20
0.965405600036959
 10
-1.42092199397038
 20
0.9676171469081968
 10
-1.415934388217628
 20
0.9686581708858375
 10
-1.415500000000972
 20
0.9687499999997943
  0
LINE
  5
100
330
D7
100
AcDbEntity
  8
AM_9
100
AcDbLine
 10
-0.9090909090909081
 20
0.96875
 30
0.0
 11
-1.4155
 21
0.96875
 31
0.0
  0
LINE
  5
101
330
D7
100
AcDbEntity
  8
AM_9
100
AcDbLine
 10
-1.8255
 20
0.96875
 30
0.0
 11
-1.9375
 21
0.96875
 31
0.0
  0
LINE
  5
102
330
D7
100
AcDbEntity
  8
AM_9
100
AcDbLine
 10
-1.9375
 20
-0.96875
 30
0.0
 11
-0.909090909090909
 21
-0.9687500000000001
 31
0.0
  0
LINE
  5
103
330
D7
100
AcDbEntity
  8
AM_9
100
AcDbLine
 10
-1.820077267387654
 20
0.9676169945582412
 30
0.0
 11
-1.82549999999808
 21
0.9687499999995938
 31
0.0
  0
LINE
  5
104
330
D7
100
AcDbEntity
  8
AM_9
100
AcDbLine
 10
-1.607366960491782
 20
0.9469023388009459
 30
0.0
 11
-1.624949217936017
 21
0.9468217139674409
 31
0.0
  0
LWPOLYLINE
  5
105
330
D7
100
AcDbEntity
  8
AM_9
100
AcDbPolyline
 90
       11
 70
     0
 43
0.0
 10
-1.82549999999808
 20
0.9687499999995938
 10
-1.823513454135101
 20
0.9683315677286707
 10
-1.815883226411992
 20
0.9667606568655759
 10
-1.803245862267386
 20
0.9642860637154571
 10
-1.785257328877597
 20
0.9610393019637028
 10
-1.762951064148255
 20
0.9574674240813472
 10
-1.735969681517259
 20
0.9538264044624145
 10
-1.706147955376678
 20
0.950677197980579
 10
-1.67288298668423
 20
0.9482592155070048
 10
-1.647150336268896
 20
0.9471862556663526
 10
-1.6205
 20
0.9468112602308868
  0
LWPOLYLINE
  5
106
330
D7
100
AcDbEntity
  8
AM_9
100
AcDbPolyline
 90
       11
 70
     0
 43
0.0
 10
-1.6205
 20
0.2945809289154055
 10
-1.65460843538501
 20
0.2974090635686094
 10
-1.687748002252064
 20
0.3057019191665715
 10
-1.718947523479572
 20
0.3192274373077653
 10
-1.747405193923415
 20
0.3374457705877584
 10
-1.77254195531181
 20
0.360055348193841
 10
-1.793424449120014
 20
0.3861162654203096
 10
-1.809499307750009
 20
0.4150579676835031
 10
-1.820205549264893
 20
0.4457796282625968
 10
-1.825113652474625
 20
0.4770156832445993
 10
-1.825499999363772
 20
0.4881094545278523
  0
LWPOLYLINE
  5
107
330
D7
100
AcDbEntity
  8
AM_9
100
AcDbPolyline
 90
       11
 70
     0
 43
0.0
 10
-1.6205
 20
1.136661779070626
 10
-1.654124001126032
 20
1.137158992160605
 10
-1.687748002252064
 20
1.138649328725439
 10
-1.71853633428095
 20
1.140881730434512
 10
-1.747405193923415
 20
1.1437241486673
 10
-1.772229194740476
 20
1.146743976891352
 10
-1.793424449120014
 20
1.149740346818994
 10
-1.809321069430812
 20
1.15223842856459
 10
-1.820205549264893
 20
1.154072054252763
 10
-1.825104431485292
 20
1.154929856477621
 10
-1.825499999999383
 20
1.15499999999989
  0
LINE
  5
108
330
D7
100
AcDbEntity
  8
AM_9
100
AcDbLine
 10
-1.3035
 20
1.155
 30
0.0
 11
-1.415714888604288
 21
1.155
 31
0.0
  0
LINE
  5
109
330
D7
100
AcDbEntity
  8
AM_9
100
AcDbLine
 10
-0.7722500000000002
 20
1.155
 30
0.0
 11
-0.9999999999999999
 21
1.155
 31
0.0
  0
LINE
  5
10A
330
D7
100
AcDbEntity
  8
AM_9
100
AcDbLine
 10
-1.824809419942035
 20
1.155
 30
0.0
 11
-1.9375
 21
1.155
 31
0.0
  0
LINE
  5
10B
330
D7
100
AcDbEntity
  8
AM_9
100
AcDbLine
 10
-0.9999999999999999
 20
-1.155
 30
0.0
 11
-0.7722500000000002
 21
-1.155
 31
0.0
  0
LINE
  5
10C
330
D7
100
AcDbEntity
  8
AM_9
100
AcDbLine
 10
-1.9375
 20
-1.155
 30
0.0
 11
-1.3035
 21
-1.155
 31
0.0
  0
LINE
  5
10D
330
D7
100
AcDbEntity
  8
AM_9
100
AcDbLine
 10
-1.426368378553238
 20
1.153120586255205
 30
0.0
 11
-1.415500000000512
 21
1.154999999999909
 31
0.0
  0
LINE
  5
10E
330
D7
100
AcDbEntity
  8
AM_9
100
AcDbLine
 10
-1.63294718314445
 20
1.136729929388778
 30
0.0
 11
-1.614984740588993
 21
1.136675159439306
 31
0.0
  0
LWPOLYLINE
  5
10F
330
D7
100
AcDbEntity
  8
AM_9
100
AcDbPolyline
 90
       11
 70
     0
 43
0.0
 10
-1.415500000000512
 20
1.154999999999909
 10
-1.417813289603336
 20
1.154591660532598
 10
-1.425863953789169
 20
1.153205615007395
 10
-1.438964750620486
 20
1.151066916719998
 10
-1.457476360126783
 20
1.148292953543438
 10
-1.480198368403657
 20
1.14528797593819
 10
-1.507573889191244
 20
1.142257548236119
 10
-1.537586840693594
 20
1.139681794180362
 10
-1.570935264890733
 20
1.13774191404134
 10
-1.595334828794659
 20
1.136940317625246
 10
-1.6205
 20
1.136661779070626
  0
LINE
  5
110
330
D7
100
AcDbEntity
  8
AM_9
100
AcDbLine
 10
0.9062499999999998
 20
-1.155
 30
0.0
 11
0.9062499999999998
 21
1.155
 31
0.0
  0
LINE
  5
111
330
D7
100
AcDbEntity
  8
AM_9
100
AcDbLine
 10
0.9062499999999998
 20
1.155
 30
0.0
 11
0.6307500000000005
 21
1.155
 31
0.0
  0
LINE
  5
112
330
D7
100
AcDbEntity
  8
AM_9
100
AcDbLine
 10
0.6307500000000005
 20
-1.155
 30
0.0
 11
0.9062499999999998
 21
-1.155
 31
0.0
  0
LINE
  5
113
330
D7
100
AcDbEntity
  8
AM_9
100
AcDbLine
 10
-0.5473124999999996
 20
1.41732
 30
0.0
 11
-0.6769375000000004
 21
1.41732
 31
0.0
  0
LINE
  5
114
330
D7
100
AcDbEntity
  8
AM_9
100
AcDbLine
 10
-0.6769375000000004
 20
-1.41732
 30
0.0
 11
-0.5473124999999996
 21
-1.41732
 31
0.0
  0
LINE
  5
115
330
D7
100
AcDbEntity
  8
AM_9
100
AcDbLine
 10
-0.6769375000000004
 20
-1.41732
 30
0.0
 11
-0.6769375000000004
 21
1.41732
 31
0.0
  0
LINE
  5
116
330
D7
100
AcDbEntity
  8
AM_9
100
AcDbLine
 10
-0.7722500000000002
 20
-1.3220075
 30
0.0
 11
-0.7722500000000002
 21
1.3220075
 31
0.0
  0
ARC
  5
117
330
D7
100
AcDbEntity
  8
AM_9
100
AcDbCircle
 10
-0.6769375000000007
 20
1.3220075
 30
0.0
 40
0.0953124999999997
100
AcDbArc
 50
90.0
 51
179.9999991462263
  0
ARC
  5
118
330
D7
100
AcDbEntity
  8
AM_9
100
AcDbCircle
 10
-0.6769375000000007
 20
-1.3220075
 30
0.0
 40
0.0953124999999995
100
AcDbArc
 50
179.9999991462263
 51
270.0
  0
LINE
  5
119
330
D7
100
AcDbEntity
  8
AM_9
100
AcDbLine
 10
0.5354375000000001
 20
1.41732
 30
0.0
 11
0.4058125
 21
1.41732
 31
0.0
  0
LINE
  5
11A
330
D7
100
AcDbEntity
  8
AM_9
100
AcDbLine
 10
0.4058125
 20
-1.41732
 30
0.0
 11
0.5354375000000001
 21
-1.41732
 31
0.0
  0
LINE
  5
11B
330
D7
100
AcDbEntity
  8
AM_9
100
AcDbLine
 10
0.6307500000000005
 20
-1.3220075
 30
0.0
 11
0.6307500000000005
 21
1.3220075
 31
0.0
  0
LINE
  5
11C
330
D7
100
AcDbEntity
  8
AM_9
100
AcDbLine
 10
0.5354375000000001
 20
-1.41732
 30
0.0
 11
0.5354375000000001
 21
1.41732
 31
0.0
  0
ARC
  5
11D
330
D7
100
AcDbEntity
  8
AM_9
100
AcDbCircle
 10
0.5354375000000009
 20
1.3220075
 30
0.0
 40
0.0953124999999996
100
AcDbArc
 50
0.0
 51
90.0
  0
ARC
  5
11E
330
D7
100
AcDbEntity
  8
AM_9
100
AcDbCircle
 10
0.5354375000000009
 20
-1.3220075
 30
0.0
 40
0.0953124999999995
100
AcDbArc
 50
270.0
 51
0.0
  0
LINE
  5
11F
330
D7
100
AcDbEntity
  8
AM_9
100
AcDbLine
 10
-0.0230937499999991
 20
1.700784
 30
0.0
 11
-0.1184062500000004
 21
1.700784
 31
0.0
  0
LINE
  5
120
330
D7
100
AcDbEntity
  8
AM_9
100
AcDbLine
 10
-0.1184062500000004
 20
-1.700784
 30
0.0
 11
-0.0230937499999991
 21
-1.700784
 31
0.0
  0
LINE
  5
121
330
D7
100
AcDbEntity
  8
AM_9
100
AcDbLine
 10
-0.5473124999999996
 20
-1.6763375
 30
0.0
 11
-0.5473124999999996
 21
1.6763375
 31
0.0
  0
ARC
  5
122
330
D7
100
AcDbEntity
  8
AM_9
100
AcDbCircle
 10
-0.4519999999999995
 20
1.6763375
 30
0.0
 40
0.0953125000000004
100
AcDbArc
 50
90.0
 51
180.0
  0
ARC
  5
123
330
D7
100
AcDbEntity
  8
AM_9
100
AcDbCircle
 10
-0.451999999999999
 20
-1.676337499999999
 30
0.0
 40
0.0953125000000008
100
AcDbArc
 50
180.0
 51
270.0
  0
LINE
  5
124
330
D7
100
AcDbEntity
  8
AM_9
100
AcDbLine
 10
-0.1593207541763925
 20
1.77165
 30
0.0
 11
-0.4520000000000001
 21
1.77165
 31
0.0
  0
LINE
  5
125
330
D7
100
AcDbEntity
  8
AM_9
100
AcDbLine
 10
-0.4520000000000001
 20
-1.77165
 30
0.0
 11
-0.1593207541763925
 21
-1.77165
 31
0.0
  0
LINE
  5
126
330
D7
100
AcDbEntity
  8
AM_9
100
AcDbLine
 10
-0.4520000000000001
 20
-1.77165
 30
0.0
 11
-0.4520000000000001
 21
1.77165
 31
0.0
  0
LINE
  5
127
330
D7
100
AcDbEntity
  8
AM_9
100
AcDbLine
 10
-0.0230937499999991
 20
-1.700784
 30
0.0
 11
0.0178207541763928
 21
-1.77165
 31
0.0
  0
LINE
  5
128
330
D7
100
AcDbEntity
  8
AM_9
100
AcDbLine
 10
0.0178207541763928
 20
1.77165
 30
0.0
 11
-0.0230937499999991
 21
1.700784
 31
0.0
  0
LINE
  5
129
330
D7
100
AcDbEntity
  8
AM_9
100
AcDbLine
 10
-0.0230937499999991
 20
-1.700784
 30
0.0
 11
-0.0230937499999991
 21
1.700784
 31
0.0
  0
LINE
  5
12A
330
D7
100
AcDbEntity
  8
AM_9
100
AcDbLine
 10
0.3105000000000001
 20
1.77165
 30
0.0
 11
0.0178207541763928
 21
1.77165
 31
0.0
  0
LINE
  5
12B
330
D7
100
AcDbEntity
  8
AM_9
100
AcDbLine
 10
0.0178207541763928
 20
-1.77165
 30
0.0
 11
0.3105000000000001
 21
-1.77165
 31
0.0
  0
LINE
  5
12C
330
D7
100
AcDbEntity
  8
AM_9
100
AcDbLine
 10
0.0178207541763928
 20
-1.77165
 30
0.0
 11
0.0178207541763928
 21
1.77165
 31
0.0
  0
LINE
  5
12D
330
D7
100
AcDbEntity
  8
AM_9
100
AcDbLine
 10
-0.1184062500000004
 20
1.700784
 30
0.0
 11
-0.1593207541763925
 21
1.77165
 31
0.0
  0
LINE
  5
12E
330
D7
100
AcDbEntity
  8
AM_9
100
AcDbLine
 10
-0.1593207541763925
 20
-1.77165
 30
0.0
 11
-0.1184062500000004
 21
-1.700784
 31
0.0
  0
LINE
  5
12F
330
D7
100
AcDbEntity
  8
AM_9
100
AcDbLine
 10
-0.1184062500000004
 20
-1.700784
 30
0.0
 11
-0.1184062500000004
 21
1.700784
 31
0.0
  0
LINE
  5
130
330
D7
100
AcDbEntity
  8
AM_9
100
AcDbLine
 10
-0.1593207541763925
 20
-1.77165
 30
0.0
 11
-0.1593207541763925
 21
1.77165
 31
0.0
  0
LINE
  5
131
330
D7
100
AcDbEntity
  8
AM_9
100
AcDbLine
 10
0.4058125
 20
-1.676337499999999
 30
0.0
 11
0.4058125
 21
1.676337499999999
 31
0.0
  0
ARC
  5
132
330
D7
100
AcDbEntity
  8
AM_9
100
AcDbCircle
 10
0.3104999999999993
 20
1.676337499999999
 30
0.0
 40
0.0953125000000006
100
AcDbArc
 50
0.0
 51
90.0
  0
ARC
  5
133
330
D7
100
AcDbEntity
  8
AM_9
100
AcDbCircle
 10
0.3104999999999993
 20
-1.676337499999999
 30
0.0
 40
0.0953125000000006
100
AcDbArc
 50
270.0
 51
0.0
  0
LINE
  5
134
330
D7
100
AcDbEntity
  8
AM_9
100
AcDbLine
 10
0.3105000000000001
 20
-1.77165
 30
0.0
 11
0.3105000000000001
 21
1.77165
 31
0.0
  0
LINE
  5
137
330
D7
100
AcDbEntity
  8
AM_7
100
AcDbLine
 10
-1.6205
 20
-0.0592307692307692
 30
0.0
 11
-1.6205
 21
1.7481875
 31
0.0
  0
LWPOLYLINE
  5
138
330
D7
100
AcDbEntity
  8
AM_4
100
AcDbPolyline
 90
        5
 70
     0
 43
0.0
 10
-1.572310050939817
 20
0.5812444310858786
 10
-1.594560385800203
 20
0.584589595465975
 10
-1.628690842116225
 20
0.5857837481735078
 10
-1.662586076776439
 20
0.5823704532999637
 10
-1.683156935710829
 20
0.5779171041027114
  0
LINE
  5
139
330
D7
100
AcDbEntity
  8
AM_4
100
AcDbLine
 10
-0.9999999999999999
 20
1.155
 30
0.0
 11
-1.3035
 21
1.155
 31
0.0
  0
LINE
  5
13A
330
D7
100
AcDbEntity
  8
AM_4
100
AcDbLine
 10
-1.3035
 20
-1.155
 30
0.0
 11
-0.9999999999999999
 21
-1.155
 31
0.0
  0
ENDBLK
  5
DA
330
D7
100
AcDbEntity
  8
0
100
AcDbBlockEnd
  0
BLOCK
  5
13D
330
13B
100
AcDbEntity
  8
0
100
AcDbBlockBegin
  2
4_405016_Inch_0_in_070758_2
 70
     2
 10
0.0
 20
0.0
 30
0.0
  3
4_405016_Inch_0_in_070758_2
  1

  0
ATTDEF
  5
13F
330
13B
100
AcDbEntity
  8
AM_6
100
AcDbText
 10
5.21875
 20
-0.91692569835516
 30
0.0
 40
0.5
  1
405016 -Inch
100
AcDbAttributeDefinition
  3

  2
NN
 70
     8
280
     0
  0
ATTDEF
  5
140
330
13B
100
AcDbEntity
  8
AM_6
100
AcDbText
 10
5.21875
 20
-1.41692569835516
 30
0.0
 40
0.5
  1
Grease Fitting
100
AcDbAttributeDefinition
  3

  2
NT
 70
     8
280
     0
  0
ATTDEF
  5
141
330
13B
100
AcDbEntity
  8
AM_6
100
AcDbText
 10
5.21875
 20
-1.91692569835516
 30
0.0
 40
0.5
  1
405016-Inch
100
AcDbAttributeDefinition
  3

  2
NB
 70
     8
280
     0
  0
ATTDEF
  5
142
330
13B
100
AcDbEntity
  8
AM_6
100
AcDbText
 10
5.21875
 20
-2.41692569835516
 30
0.0
 40
0.5
  1
$MN.-Inch
100
AcDbAttributeDefinition
  3

  2
NBSYN
 70
     8
280
     0
  0
ATTDEF
  5
143
330
13B
100
AcDbEntity
  8
AM_6
100
AcDbText
 10
5.21875
 20
-2.91692569835516
 30
0.0
 40
0.5
  1
405016
100
AcDbAttributeDefinition
  3

  2
LINA
 70
     8
280
     0
  0
ATTDEF
  5
144
330
13B
100
AcDbEntity
  8
AM_6
100
AcDbText
 10
5.21875
 20
-3.41692569835516
 30
0.0
 40
0.5
  1
405016
100
AcDbAttributeDefinition
  3

  2
MN
 70
     8
280
     0
  0
ATTDEF
  5
145
330
13B
100
AcDbEntity
  8
AM_6
100
AcDbText
 10
5.21875
 20
-3.91692569835516
 30
0.0
 40
0.5
  1
7/16 HEX
100
AcDbAttributeDefinition
  3

  2
H
 70
     8
280
     0
  0
ATTDEF
  5
146
330
13B
100
AcDbEntity
  8
AM_6
100
AcDbText
 10
5.21875
 20
-4.416925698355159
 30
0.0
 40
0.5
  1
0.383
100
AcDbAttributeDefinition
  3

  2
NDR
 70
     8
280
     0
  0
ATTDEF
  5
147
330
13B
100
AcDbEntity
  8
AM_6
100
AcDbText
 10
5.21875
 20
-4.916925698355159
 30
0.0
 40
0.5
  1
0.337
100
AcDbAttributeDefinition
  3

  2
KDR
 70
     8
280
     0
  0
ATTDEF
  5
148
330
13B
100
AcDbEntity
  8
AM_6
100
AcDbText
 10
5.21875
 20
-5.416925698355159
 30
0.0
 40
0.5
  1
0.1575
100
AcDbAttributeDefinition
  3

  2
BZE
 70
     8
280
     0
  0
ATTDEF
  5
149
330
13B
100
AcDbEntity
  8
AM_6
100
AcDbText
 10
5.21875
 20
-5.916925698355159
 30
0.0
 40
0.5
  1
0.4375
100
AcDbAttributeDefinition
  3

  2
HEX
 70
     8
280
     0
  0
ATTDEF
  5
14A
330
13B
100
AcDbEntity
  8
AM_6
100
AcDbText
 10
5.21875
 20
-6.416925698355159
 30
0.0
 40
0.5
  1
0.281250
100
AcDbAttributeDefinition
  3

  2
HEX2
 70
     8
280
     0
  0
ATTDEF
  5
14B
330
13B
100
AcDbEntity
  8
AM_6
100
AcDbText
 10
5.21875
 20
-6.916925698355159
 30
0.0
 40
0.5
  1
baldor
100
AcDbAttributeDefinition
  3

  2
COMPANY
 70
     8
280
     0
  0
LWPOLYLINE
  5
14C
330
13B
100
AcDbEntity
  8
AM_9
100
AcDbPolyline
 90
        5
 70
     0
 43
0.0
 10
-0.1791093260592888
 20
-1.521738809059826
 10
-0.1842540823997055
 20
-1.488670119967152
 10
-0.1862220679364952
 20
-1.454312409178914
 10
-0.1844124966919382
 20
-1.418126446285356
 10
-0.1791093260592888
 20
-1.381113809059826
  0
LINE
  5
14D
330
13B
100
AcDbEntity
  8
AM_9
100
AcDbLine
 10
-0.1510741298357571
 20
-1.37457729571137
 30
0.0
 11
-0.1791093260592888
 21
-1.381113809059826
 31
0.0
  0
LWPOLYLINE
  5
14E
330
13B
100
AcDbEntity
  8
AM_9
100
AcDbPolyline
 90
        5
 70
     0
 43
0.0
 10
-0.1791093260592888
 20
-1.381113809059826
 10
-0.198835512140694
 20
-1.349688517736611
 10
-0.2156330920108726
 20
-1.316997724328328
 10
-0.2290462109660022
 20
-1.282506153690794
 10
-0.2389369657326277
 20
-1.247169092407283
  0
LINE
  5
14F
330
13B
100
AcDbEntity
  8
AM_9
100
AcDbLine
 10
-0.2099962668917054
 20
-1.240421457656344
 30
0.0
 11
-0.2389369657326277
 21
-1.247169092407283
 31
0.0
  0
LINE
  5
150
330
13B
100
AcDbEntity
  8
AM_9
100
AcDbLine
 10
-0.2389369657326277
 20
-1.247169092407283
 30
0.0
 11
-0.2711532636537957
 21
-1.251618123437406
 31
0.0
  0
LWPOLYLINE
  5
151
330
13B
100
AcDbEntity
  8
AM_9
100
AcDbPolyline
 90
        3
 70
     0
 43
0.0
 10
-0.2813919000363601
 20
-1.252753048956784
 10
-0.2911775952746244
 20
-1.25355559349426
 10
-0.2987675689889719
 20
-1.253850066725467
  0
LWPOLYLINE
  5
152
330
13B
100
AcDbEntity
  8
AM_9
100
AcDbPolyline
 90
        5
 70
     0
 43
0.0
 10
-0.2389369657326277
 20
-1.528419092407283
 10
-0.2295338871417797
 20
-1.52799806213629
 10
-0.2166871171046321
 20
-1.526802555641742
 10
-0.1996402057054679
 20
-1.524676787031713
 10
-0.1791093260592888
 20
-1.521738809059826
  0
LINE
  5
153
330
13B
100
AcDbEntity
  8
AM_9
100
AcDbLine
 10
-0.1510741298357571
 20
-1.51520229571137
 30
0.0
 11
-0.1791093260592888
 21
-1.521738809059826
 31
0.0
  0
LINE
  5
154
330
13B
100
AcDbEntity
  8
AM_9
100
AcDbLine
 10
-0.452415808934145
 20
-1.541254016496842
 30
0.0
 11
-0.3774664534000949
 21
-1.559780662014441
 31
0.0
  0
LINE
  5
155
330
13B
100
AcDbEntity
  8
AM_9
100
AcDbLine
 10
-0.4395859245204076
 20
-1.293349390582632
 30
0.0
 11
-0.4986131040655764
 21
-1.343113178260487
 31
0.0
  0
LWPOLYLINE
  5
156
330
13B
100
AcDbEntity
  8
AM_9
100
AcDbPolyline
 90
        3
 70
     0
 43
0.0
 10
-0.2689146070947223
 20
-1.246889734350518
 10
-0.2512755937295761
 20
-1.244238843014547
 10
-0.2360765106845276
 20
-1.242187592413266
  0
ELLIPSE
  5
157
330
13B
100
AcDbEntity
  8
AM_9
100
AcDbEllipse
 10
-0.399430321788977
 20
-1.424444290038773
 30
0.0
 11
-0.03159560311146726
 21
0.1355139790604263
 31
0.0
210
0.0
220
0.0
230
1.0
 40
0.3659981507706693
 41
2.957156468664756
 42
4.145181672147541
  0
LWPOLYLINE
  5
158
330
13B
100
AcDbEntity
  8
AM_9
100
AcDbPolyline
 90
        9
 70
     0
 43
0.0
 10
-0.3781620382708277
 20
-1.29787332940306
 10
-0.3832104173093278
 20
-1.293828043377827
 10
-0.3923011697506111
 20
-1.288295609069121
 10
-0.4013457984807481
 20
-1.284874144981446
 10
-0.4104422324974148
 20
-1.283411065715694
 10
-0.4194875217088868
 20
-1.283916784047724
 10
-0.4287620538913338
 20
-1.286639368795613
 10
-0.4368558491715852
 20
-1.291220696648107
 10
-0.4401003992967769
 20
-1.293789631655686
  0
LWPOLYLINE
  5
159
330
13B
100
AcDbEntity
  8
AM_9
100
AcDbPolyline
 90
        9
 70
     0
 43
0.0
 10
-0.3785590684467457
 20
-1.559496365121537
 10
-0.3733683165801569
 20
-1.560594733787714
 10
-0.3642748702839718
 20
-1.560980580697026
 10
-0.3545606944920034
 20
-1.559132118540277
 10
-0.3459632606657165
 20
-1.555244001278297
 10
-0.3386071617889547
 20
-1.549737957232784
 10
-0.3323467100813027
 20
-1.542774764799847
 10
-0.3270104152543729
 20
-1.534215972601159
 10
-0.3247994003522254
 20
-1.529552156126069
  0
ELLIPSE
  5
15A
330
13B
100
AcDbEntity
  8
AM_9
100
AcDbEllipse
 10
-0.3994303217889761
 20
-1.424444290038773
 30
0.0
 11
-0.03159560311146615
 21
0.1355139790604256
 31
0.0
210
0.0
220
0.0
230
1.0
 40
0.3659981507706666
 41
0.1907083923697304
 42
2.946491519866552
  0
LWPOLYLINE
  5
15B
330
13B
100
AcDbEntity
  8
AM_9
100
AcDbPolyline
 90
        3
 70
     0
 43
0.0
 10
-0.109375
 20
-1.1
 10
-0.0546875000000001
 20
-1.071459559607483
 10
-0.0000000000000001
 20
-1.040778700151693
  0
LWPOLYLINE
  5
15C
330
13B
100
AcDbEntity
  8
AM_9
100
AcDbPolyline
 90
        3
 70
     0
 43
0.0
 10
-0.0000000000000001
 20
-1.040778700151693
 10
0.0544416102741494
 20
-1.071326042662265
 10
0.1093749999999998
 20
-1.1
  0
LWPOLYLINE
  5
15D
330
13B
100
AcDbEntity
  8
AM_9
100
AcDbPolyline
 90
        6
 70
     0
 43
0.0
 10
-0.1510741298357571
 20
-1.51520229571137
 10
-0.1564461543161401
 20
-1.515147891607217
 10
-0.1639940363880806
 20
-1.515585121917566
 10
-0.1744063212866123
 20
-1.516646289109957
 10
-0.1876759562813859
 20
-1.518363121169831
 10
-0.2099962668917054
 20
-1.521671457656344
  0
LWPOLYLINE
  5
15E
330
13B
100
AcDbEntity
  8
AM_9
100
AcDbPolyline
 90
        4
 70
     0
 43
0.0
 10
-0.1510741298357571
 20
-1.37457729571137
 10
-0.1458778226760521
 20
-1.398510622598914
 10
-0.1427138007556463
 20
-1.423367212109331
 10
-0.1419585098156051
 20
-1.442769408754154
  0
LWPOLYLINE
  5
15F
330
13B
100
AcDbEntity
  8
AM_9
100
AcDbPolyline
 90
        3
 70
     0
 43
0.0
 10
-0.2099962668917054
 20
-1.240421457656344
 10
-0.1943573015029059
 20
-1.262992854288234
 10
-0.1825813559372042
 20
-1.282698910091371
  0
LWPOLYLINE
  5
160
330
13B
100
AcDbEntity
  8
AM_9
100
AcDbPolyline
 90
        3
 70
     0
 43
0.0
 10
-0.2258378743019628
 20
-1.241052666893888
 10
-0.2189176876709016
 20
-1.240510369847583
 10
-0.2099962668917054
 20
-1.240421457656344
  0
LINE
  5
161
330
13B
100
AcDbEntity
  8
AM_9
100
AcDbLine
 10
-0.1442893806638437
 20
-1.477916258715706
 30
0.0
 11
-0.1510741298357571
 21
-1.51520229571137
 31
0.0
  0
LINE
  5
162
330
13B
100
AcDbEntity
  8
AM_9
100
AcDbLine
 10
-0.1438754666333022
 20
-1.474543698754177
 30
0.0
 11
-0.1442893806638437
 21
-1.477916258715706
 31
0.0
  0
LWPOLYLINE
  5
163
330
13B
100
AcDbEntity
  8
AM_9
100
AcDbPolyline
 90
        3
 70
     0
 43
0.0
 10
-0.1419585098156051
 20
-1.442769408754154
 10
-0.1420496512545707
 20
-1.449566312422038
 10
-0.1438754666333022
 20
-1.474543698754177
  0
LINE
  5
164
330
13B
100
AcDbEntity
  8
AM_9
100
AcDbLine
 10
-0.1594740728207691
 20
-1.338114775787655
 30
0.0
 11
-0.1510741298357571
 21
-1.37457729571137
 31
0.0
  0
LWPOLYLINE
  5
165
330
13B
100
AcDbEntity
  8
AM_9
100
AcDbPolyline
 90
        3
 70
     0
 43
0.0
 10
-0.1765789831125444
 20
-1.29420585554236
 10
-0.168899767719981
 20
-1.311210167846305
 10
-0.1674101491297174
 20
-1.314916052391025
  0
ELLIPSE
  5
166
330
13B
100
AcDbEntity
  8
AM_9
100
AcDbEllipse
 10
-0.2013892028241882
 20
-1.378270244837341
 30
0.0
 11
-0.03193085011438256
 21
0.136951858096094
 31
0.0
210
0.0
220
0.0
230
1.0
 40
0.3659981507706662
 41
2.150416404658199
 42
6.13994693963689
  0
LINE
  5
167
330
13B
100
AcDbEntity
  8
AM_9
100
AcDbLine
 10
-0.3055458577949632
 20
-1.342852494962034
 30
0.0
 11
-0.2987675689889719
 21
-1.394475066725467
 31
0.0
  0
LWPOLYLINE
  5
168
330
13B
100
AcDbEntity
  8
AM_9
100
AcDbPolyline
 90
        3
 70
     0
 43
0.0
 10
-0.2602304684431209
 20
-1.298067949924796
 10
-0.2616913382589204
 20
-1.2834112730526
 10
-0.2689146070947223
 20
-1.246889734350518
  0
LINE
  5
169
330
13B
100
AcDbEntity
  8
AM_9
100
AcDbLine
 10
-0.2689146070947223
 20
-1.246889734350518
 30
0.0
 11
-0.2987675689889719
 21
-1.253850066725467
 31
0.0
  0
LINE
  5
16A
330
13B
100
AcDbEntity
  8
AM_9
100
AcDbLine
 10
-0.2987675689889719
 20
-1.253850066725467
 30
0.0
 11
-0.3055458577949632
 21
-1.308633406468319
 31
0.0
  0
LINE
  5
16B
330
13B
100
AcDbEntity
  8
AM_9
100
AcDbLine
 10
-0.2711532636537957
 20
-1.251618123437406
 30
0.0
 11
-0.2813919000363601
 21
-1.252753048956784
 31
0.0
  0
ELLIPSE
  5
16C
330
13B
100
AcDbEntity
  8
AM_9
100
AcDbEllipse
 10
-0.2467045921760209
 20
-1.388835701380858
 30
0.0
 11
-0.03193085011438242
 21
0.1369518580960943
 31
0.0
210
0.0
220
0.0
230
1.0
 40
0.3659981507706628
 41
2.150416404658198
 42
6.139946939636897
  0
ELLIPSE
  5
16D
330
13B
100
AcDbEntity
  8
AM_9
100
AcDbEllipse
 10
-0.246704592176023
 20
-1.388835701380859
 30
0.0
 11
-0.03193085011438324
 21
0.1369518580960938
 31
0.0
210
0.0
220
0.0
230
1.0
 40
0.365998150770651
 41
1.447339947730634
 42
1.951156734850497
  0
LINE
  5
16E
330
13B
100
AcDbEntity
  8
AM_9
100
AcDbLine
 10
-0.3055458577949632
 20
-1.308633406468319
 30
0.0
 11
-0.3055458577949632
 21
-1.342852494962034
 31
0.0
  0
ELLIPSE
  5
16F
330
13B
100
AcDbEntity
  8
AM_9
100
AcDbEllipse
 10
-0.2467045921760023
 20
-1.388835701380879
 30
0.0
 11
-0.03193085011439411
 21
0.1369518580961256
 31
0.0
210
0.0
220
0.0
230
1.0
 40
0.3659981507706916
 41
0.0560213022651688
 42
0.8626327579757286
  0
LWPOLYLINE
  5
170
330
13B
100
AcDbEntity
  8
AM_9
100
AcDbPolyline
 90
        3
 70
     0
 43
0.0
 10
-0.2474863494266736
 20
-1.510324940170717
 10
-0.2472146403376105
 20
-1.510499960683274
 10
-0.2458148020772349
 20
-1.511498039444524
  0
LWPOLYLINE
  5
171
330
13B
100
AcDbEntity
  8
AM_9
100
AcDbPolyline
 90
        3
 70
     0
 43
0.0
 10
-0.2516859615817883
 20
-1.508058257897751
 10
-0.250553189222609
 20
-1.508602579586483
 10
-0.2474863494266736
 20
-1.510324940170717
  0
LWPOLYLINE
  5
172
330
13B
100
AcDbEntity
  8
AM_9
100
AcDbPolyline
 90
       12
 70
     0
 43
0.0
 10
-0.3250180123600638
 20
-1.530052677047444
 10
-0.3247687529700007
 20
-1.529537717881088
 10
-0.3234920170240528
 20
-1.527368090238867
 10
-0.3204411730394505
 20
-1.523325500153858
 10
-0.3152445732638057
 20
-1.518110689987282
 10
-0.3075909023929135
 20
-1.512511375891704
 10
-0.2975835765741536
 20
-1.507564935010447
 10
-0.2860855148943777
 20
-1.504319552652359
 10
-0.2745080911521717
 20
-1.503284336403284
 10
-0.2642477767668204
 20
-1.504196595539517
 10
-0.2561698776213034
 20
-1.506267877890343
 10
-0.2516859615817883
 20
-1.508058257897751
  0
LWPOLYLINE
  5
173
330
13B
100
AcDbEntity
  8
AM_9
100
AcDbPolyline
 90
        3
 70
     0
 43
0.0
 10
-0.2457249882508971
 20
-1.511571960916105
 10
-0.246053841482254
 20
-1.511267103223934
 10
-0.2469748751065033
 20
-1.51032759621579
  0
LWPOLYLINE
  5
174
330
13B
100
AcDbEntity
  8
AM_9
100
AcDbPolyline
 90
        4
 70
     0
 43
0.0
 10
-0.3007893184966279
 20
-1.280362754964431
 10
-0.3005013487942431
 20
-1.279425106776314
 10
-0.3001105641915033
 20
-1.278328234254163
 10
-0.3001080482840256
 20
-1.278322263717043
  0
LWPOLYLINE
  5
175
330
13B
100
AcDbEntity
  8
AM_9
100
AcDbPolyline
 90
       13
 70
     0
 43
0.0
 10
-0.300589481047888
 20
-1.279275548792489
 10
-0.3022127907362863
 20
-1.281867557732492
 10
-0.3057506653579216
 20
-1.286255758225061
 10
-0.3115307427364944
 20
-1.291647338671649
 10
-0.3197975212872168
 20
-1.297190513770702
 10
-0.3302818410891478
 20
-1.301804904259513
 10
-0.3419364588521395
 20
-1.304524162379469
 10
-0.3533185755281715
 20
-1.305029097952527
 10
-0.3630976989655769
 20
-1.303746856500449
 10
-0.3705723708219057
 20
-1.301531409730931
 10
-0.3755986883564458
 20
-1.299249987090112
 10
-0.3784272880003433
 20
-1.297538574785942
 10
-0.3793728577540387
 20
-1.296836844067977
  0
LINE
  5
176
330
13B
100
AcDbEntity
  8
AM_9
100
AcDbLine
 10
-0.177120771554662
 20
-1.259661692407327
 30
0.0
 11
-0.2263662233581053
 21
-1.271143458059951
 31
0.0
  0
LINE
  5
177
330
13B
100
AcDbEntity
  8
AM_9
100
AcDbLine
 10
-0.176412182290271
 20
-1.48539703161473
 30
0.0
 11
-0.1343592486638227
 21
-1.475592229115782
 31
0.0
  0
LWPOLYLINE
  5
178
330
13B
100
AcDbEntity
  8
AM_9
100
AcDbPolyline
 90
       12
 70
     0
 43
0.0
 10
-0.1183468623780371
 20
-1.38273992786783
 10
-0.1208367673933812
 20
-1.366607393511457
 10
-0.1245107513506023
 20
-1.348747455120002
 10
-0.1291842652280563
 20
-1.330922481606625
 10
-0.134472979061152
 20
-1.3145960564441
 10
-0.140518627090196
 20
-1.299328872764631
 10
-0.1468270783017121
 20
-1.286370478489193
 10
-0.1535654953592165
 20
-1.275381372029879
 10
-0.1601799433259584
 20
-1.267268942862664
 10
-0.1668493358980662
 20
-1.261820477436415
 10
-0.1731116383367607
 20
-1.259480939756072
 10
-0.1771125901748264
 20
-1.259659785344162
  0
LWPOLYLINE
  5
179
330
13B
100
AcDbEntity
  8
AM_9
100
AcDbPolyline
 90
        5
 70
     0
 43
0.0
 10
-0.1343659249938088
 20
-1.47559378540361
 10
-0.1293028157827817
 20
-1.472990967168627
 10
-0.1247141396218193
 20
-1.467417196040507
 10
-0.1208880884981782
 20
-1.458797239076489
 10
-0.1183630292837885
 20
-1.448979878110139
  0
LINE
  5
17A
330
13B
100
AcDbEntity
  8
AM_9
100
AcDbLine
 10
-0.1771125901748264
 20
-1.259659785344162
 30
0.0
 11
-0.1790373738502115
 21
-1.260304054033761
 31
0.0
  0
LWPOLYLINE
  5
17B
330
13B
100
AcDbEntity
  8
AM_9
100
AcDbPolyline
 90
        3
 70
     0
 43
0.0
 10
-0.2689146070947223
 20
-1.387514734350517
 10
-0.2634308483997529
 20
-1.359890958955647
 10
-0.2602304684431306
 20
-1.332287038418517
  0
LWPOLYLINE
  5
17C
330
13B
100
AcDbEntity
  8
AM_9
100
AcDbPolyline
 90
        5
 70
     0
 43
0.0
 10
-0.179037373850178
 20
-1.414695945966246
 10
-0.1733931390117468
 20
-1.430209976006311
 10
-0.1670729780242512
 20
-1.444357975630669
 10
-0.1606047421316796
 20
-1.455955943415793
 10
-0.1545931410189832
 20
-1.464389501506321
  0
ARC
  5
17D
330
13B
100
AcDbEntity
  8
AM_9
100
AcDbCircle
 10
0.0000000000000001
 20
-1.3375
 30
0.0
 40
0.1999999999999998
100
AcDbArc
 50
219.3447407688464
 51
0.0
  0
LWPOLYLINE
  5
17E
330
13B
100
AcDbEntity
  8
AM_9
100
AcDbPolyline
 90
        6
 70
     0
 43
0.0
 10
-0.1545931410189832
 20
-1.464389501506321
 10
-0.1538031670974778
 20
-1.465334802540261
 10
-0.1472336073736394
 20
-1.471712011960484
 10
-0.1407130262602577
 20
-1.47526170963818
 10
-0.1347930597680668
 20
-1.475684256104104
 10
-0.1343659249938088
 20
-1.47559378540361
  0
LINE
  5
17F
330
13B
100
AcDbEntity
  8
AM_9
100
AcDbLine
 10
-0.2360765106845276
 20
-1.242187592413266
 30
0.0
 11
-0.2258378743019628
 21
-1.241052666893888
 31
0.0
  0
ELLIPSE
  5
180
330
13B
100
AcDbEntity
  8
AM_9
100
AcDbEllipse
 10
-0.2013892028241875
 20
-1.378270244837343
 30
0.0
 11
-0.03193085011438405
 21
0.1369518580960967
 31
0.0
210
0.0
220
0.0
230
1.0
 40
0.3659981507705698
 41
0.056021302265008
 42
0.8626327579757257
  0
LINE
  5
181
330
13B
100
AcDbEntity
  8
AM_9
100
AcDbLine
 10
-0.2602304684431306
 20
-1.332287038418517
 30
0.0
 11
-0.2602304684431209
 21
-1.298067949924796
 31
0.0
  0
ELLIPSE
  5
182
330
13B
100
AcDbEntity
  8
AM_9
100
AcDbEllipse
 10
-0.2013892028241885
 20
-1.378270244837341
 30
0.0
 11
-0.03193085011438262
 21
0.1369518580960933
 31
0.0
210
0.0
220
0.0
230
1.0
 40
0.3659981507706665
 41
1.144545279139733
 42
1.951156734850495
  0
LWPOLYLINE
  5
183
330
13B
100
AcDbEntity
  8
AM_9
100
AcDbPolyline
 90
        3
 70
     0
 43
0.0
 10
-0.2099962668917054
 20
-1.521671457656344
 10
-0.2163479371246914
 20
-1.492339189975666
 10
-0.225837874301963
 20
-1.46305747759944
  0
LINE
  5
184
330
13B
100
AcDbEntity
  8
AM_9
100
AcDbLine
 10
-0.225837874301963
 20
-1.46305747759944
 30
0.0
 11
-0.2360765106845278
 21
-1.439965725501071
 31
0.0
  0
LWPOLYLINE
  5
185
330
13B
100
AcDbEntity
  8
AM_9
100
AcDbPolyline
 90
        3
 70
     0
 43
0.0
 10
-0.2360765106845278
 20
-1.439965725501071
 10
-0.2462091938631852
 20
-1.421421611213501
 10
-0.2689146070947223
 20
-1.387514734350517
  0
LINE
  5
186
330
13B
100
AcDbEntity
  8
AM_9
100
AcDbLine
 10
-0.2689146070947223
 20
-1.387514734350517
 30
0.0
 11
-0.2987675689889719
 21
-1.394475066725467
 31
0.0
  0
LWPOLYLINE
  5
187
330
13B
100
AcDbEntity
  8
AM_9
100
AcDbPolyline
 90
        3
 70
     0
 43
0.0
 10
-0.2987675689889719
 20
-1.394475066725467
 10
-0.2912216284034025
 20
-1.422576183495197
 10
-0.28139190003636
 20
-1.450531182044589
  0
LINE
  5
188
330
13B
100
AcDbEntity
  8
AM_9
100
AcDbLine
 10
-0.28139190003636
 20
-1.450531182044589
 30
0.0
 11
-0.2711532636537957
 21
-1.473622934142958
 31
0.0
  0
LWPOLYLINE
  5
189
330
13B
100
AcDbEntity
  8
AM_9
100
AcDbPolyline
 90
        3
 70
     0
 43
0.0
 10
-0.2711532636537957
 20
-1.473622934142958
 10
-0.2561815527589922
 20
-1.501327936735335
 10
-0.2389369657326277
 20
-1.528419092407283
  0
LINE
  5
18A
330
13B
100
AcDbEntity
  8
AM_9
100
AcDbLine
 10
-0.2099962668917054
 20
-1.521671457656344
 30
0.0
 11
-0.2389369657326277
 21
-1.528419092407283
 31
0.0
  0
LWPOLYLINE
  5
18B
330
13B
100
AcDbEntity
  8
AM_9
100
AcDbPolyline
 90
        3
 70
     0
 43
0.0
 10
-0.0000000000000001
 20
-0.999846299848307
 10
-0.0544416102741497
 20
-1.023740567611884
 10
-0.1093750000000001
 20
-1.05
  0
LWPOLYLINE
  5
18C
330
13B
100
AcDbEntity
  8
AM_9
100
AcDbPolyline
 90
        3
 70
     0
 43
0.0
 10
0.1093749999999999
 20
-1.05
 10
0.0546874999999999
 20
-1.023852940392517
 10
-0.0000000000000001
 20
-0.999846299848307
  0
LWPOLYLINE
  5
18D
330
13B
100
AcDbEntity
  8
AM_9
100
AcDbPolyline
 90
        3
 70
     0
 43
0.0
 10
0.1093749999999998
 20
-1.1
 10
0.1640624999999998
 20
-1.126147059607482
 10
0.2187499999999999
 20
-1.150153700151692
  0
LWPOLYLINE
  5
18E
330
13B
100
AcDbEntity
  8
AM_9
100
AcDbPolyline
 90
        3
 70
     0
 43
0.0
 10
-0.2187500000000001
 20
-1.150153700151692
 10
-0.1643083897258505
 20
-1.126259432388115
 10
-0.109375
 20
-1.1
  0
LINE
  5
18F
330
13B
100
AcDbEntity
  8
AM_9
100
AcDbLine
 10
-0.0000000000000001
 20
-1.040778700151693
 30
0.0
 11
-0.0000000000000001
 21
-0.999846299848307
 31
0.0
  0
LWPOLYLINE
  5
190
330
13B
100
AcDbEntity
  8
AM_9
100
AcDbPolyline
 90
        3
 70
     0
 43
0.0
 10
0.2187499999999999
 20
-1.109221299848307
 10
0.1643083897258503
 20
-1.078673957337735
 10
0.1093749999999999
 20
-1.05
  0
LWPOLYLINE
  5
191
330
13B
100
AcDbEntity
  8
AM_9
100
AcDbPolyline
 90
        3
 70
     0
 43
0.0
 10
-0.1093750000000001
 20
-1.05
 10
-0.1640625000000001
 20
-1.078540440392517
 10
-0.2187500000000001
 20
-1.109221299848307
  0
ELLIPSE
  5
192
330
13B
100
AcDbEntity
  8
AM_9
100
AcDbEllipse
 10
-0.0000000000000001
 20
-1.337499999999999
 30
0.0
 11
-0.2000000000000001
 21
2.449293598294707E-17
 31
0.0
210
0.0
220
0.0
230
1.0
 40
0.8660254037844369
 41
0.4619460205669688
 42
5.821239286612619
  0
LWPOLYLINE
  5
193
330
13B
100
AcDbEntity
  8
AM_9
100
AcDbPolyline
 90
        7
 70
     0
 43
0.0
 10
-0.1790373738501785
 20
-1.414695945966246
 10
-0.1842628795203942
 20
-1.398701216295605
 10
-0.1891729979031394
 20
-1.382644458256412
 10
-0.1936098952159724
 20
-1.365877825105295
 10
-0.1971856748420372
 20
-1.348429808725254
 10
-0.1994144431868155
 20
-1.330957633207593
 10
-0.1999999999699529
 20
-1.31725755900097
  0
LINE
  5
194
330
13B
100
AcDbEntity
  8
AM_9
100
AcDbLine
 10
-0.2000000000000001
 20
-1.2640625
 30
0.0
 11
-0.2000000000000001
 21
-1.317346885409147
 31
0.0
  0
LINE
  5
195
330
13B
100
AcDbEntity
  8
AM_9
100
AcDbLine
 10
0.1999999999999998
 20
-1.3375
 30
0.0
 11
0.1999999999999998
 21
-1.2640625
 31
0.0
  0
LWPOLYLINE
  5
196
330
13B
100
AcDbEntity
  8
AM_9
100
AcDbPolyline
 90
        8
 70
     0
 43
0.0
 10
-0.1999999999699529
 20
-1.31725755900097
 10
-0.1999786710855128
 20
-1.314747492794571
 10
-0.1988321115509054
 20
-1.299477046299115
 10
-0.196164942998426
 20
-1.286547828583382
 10
-0.1920694300574959
 20
-1.275495849846331
 10
-0.1870948030566196
 20
-1.267226804053057
 10
-0.1815005947613931
 20
-1.261703487144151
 10
-0.1790373738501785
 20
-1.260304054033753
  0
LWPOLYLINE
  5
197
330
13B
100
AcDbEntity
  8
AM_9
100
AcDbPolyline
 90
        3
 70
     0
 43
0.0
 10
0.1093749999999998
 20
-1.428125
 10
0.0546874999999999
 20
-1.454272059607483
 10
-0.0000000000000001
 20
-1.478278700151693
  0
LWPOLYLINE
  5
198
330
13B
100
AcDbEntity
  8
AM_9
100
AcDbPolyline
 90
        3
 70
     0
 43
0.0
 10
0.2187499999999999
 20
-1.368903700151693
 10
0.1643083897258503
 20
-1.399451042662265
 10
0.1093749999999998
 20
-1.428125
  0
LINE
  5
199
330
13B
100
AcDbEntity
  8
AM_9
100
AcDbLine
 10
0.2187499999999999
 20
-1.368903700151693
 30
0.0
 11
0.2187499999999999
 21
-1.109221299848307
 31
0.0
  0
LWPOLYLINE
  5
19A
330
13B
100
AcDbEntity
  8
AM_9
100
AcDbPolyline
 90
        3
 70
     0
 43
0.0
 10
0.1093749999999999
 20
-1.378125
 10
0.1640624999999998
 20
-1.351977940392517
 10
0.2187499999999999
 20
-1.327971299848307
  0
LWPOLYLINE
  5
19B
330
13B
100
AcDbEntity
  8
AM_9
100
AcDbPolyline
 90
        3
 70
     0
 43
0.0
 10
-0.0000000000000001
 20
-1.437346299848307
 10
0.0544416102741494
 20
-1.406798957337735
 10
0.1093749999999999
 20
-1.378125
  0
LINE
  5
19C
330
13B
100
AcDbEntity
  8
AM_9
100
AcDbLine
 10
-0.2187500000000001
 20
-1.368903700151693
 30
0.0
 11
-0.2187500000000001
 21
-1.109221299848307
 31
0.0
  0
LWPOLYLINE
  5
19D
330
13B
100
AcDbEntity
  8
AM_9
100
AcDbPolyline
 90
        3
 70
     0
 43
0.0
 10
-0.109375
 20
-1.428125
 10
-0.1640625000000001
 20
-1.399584559607483
 10
-0.2187500000000001
 20
-1.368903700151693
  0
LWPOLYLINE
  5
19E
330
13B
100
AcDbEntity
  8
AM_9
100
AcDbPolyline
 90
        3
 70
     0
 43
0.0
 10
-0.0000000000000001
 20
-1.478278700151693
 10
-0.0544416102741497
 20
-1.454384432388115
 10
-0.109375
 20
-1.428125
  0
LINE
  5
19F
330
13B
100
AcDbEntity
  8
AM_9
100
AcDbLine
 10
-0.0000000000000001
 20
-1.478278700151693
 30
0.0
 11
-0.0000000000000001
 21
-1.437346299848307
 31
0.0
  0
LWPOLYLINE
  5
1A0
330
13B
100
AcDbEntity
  8
AM_9
100
AcDbPolyline
 90
        3
 70
     0
 43
0.0
 10
-0.1093750000000001
 20
-1.378125
 10
-0.0546875000000001
 20
-1.406665440392517
 10
-0.0000000000000001
 20
-1.437346299848307
  0
LWPOLYLINE
  5
1A1
330
13B
100
AcDbEntity
  8
AM_9
100
AcDbPolyline
 90
        3
 70
     0
 43
0.0
 10
-0.2187500000000001
 20
-1.327971299848307
 10
-0.1643083897258505
 20
-1.351865567611884
 10
-0.1093750000000001
 20
-1.378125
  0
LINE
  5
1A2
330
13B
100
AcDbEntity
  8
AM_9
100
AcDbLine
 10
-0.2000000000000001
 20
-1.175
 30
0.0
 11
-0.2000000000000001
 21
-1.2140625
 31
0.0
  0
LINE
  5
1A3
330
13B
100
AcDbEntity
  8
AM_9
100
AcDbLine
 10
0.1999999999999998
 20
-1.2140625
 30
0.0
 11
0.1999999999999998
 21
-1.175
 31
0.0
  0
LINE
  5
1A4
330
13B
100
AcDbEntity
  8
AM_9
100
AcDbLine
 10
-0.1851454569549802
 20
-1.068809912570727
 30
0.0
 11
-0.1912304659644924
 21
-1.166022462287446
 31
0.0
  0
LINE
  5
1A5
330
13B
100
AcDbEntity
  8
AM_9
100
AcDbLine
 10
0.1912304659644922
 20
-1.166022462287446
 30
0.0
 11
0.1851454569549799
 21
-1.068809912570727
 31
0.0
  0
ELLIPSE
  5
1A6
330
13B
100
AcDbEntity
  8
AM_9
100
AcDbEllipse
 10
-0.0000000000000001
 20
-1.065625
 30
0.0
 11
0.1616637258772237
 21
0.0
 31
0.0
210
0.0
220
0.0
230
1.0
 40
0.8660254037844384
 41
0.0
 42
6.283185307179586
  0
ELLIPSE
  5
1A7
330
13B
100
AcDbEntity
  8
AM_9
100
AcDbEllipse
 10
-0.4687500000000004
 20
-1.440606438444094
 30
0.0
 11
-0.02349716402074609
 21
0.1007796617096763
 31
0.0
210
0.0
220
0.0
230
1.0
 40
0.3659981507706683
 41
0.0
 42
6.283185307179586
  0
ELLIPSE
  5
1A8
330
13B
100
AcDbEntity
  8
AM_9
100
AcDbEllipse
 10
-0.3729962569746644
 20
-1.418281086609234
 30
0.0
 11
-0.03024351534849252
 21
0.1297148559307584
 31
0.0
210
0.0
220
0.0
230
1.0
 40
0.365998150770666
 41
0.0
 42
6.283185307179586
  0
ELLIPSE
  5
1A9
330
13B
100
AcDbEntity
  8
AM_9
100
AcDbEllipse
 10
-0.2013892028241882
 20
-1.378270244837341
 30
0.0
 11
-0.02497702053391714
 21
0.1071267867773893
 31
0.0
210
0.0
220
0.0
230
1.0
 40
0.3659981507706665
 41
0.0
 42
6.283185307179586
  0
ELLIPSE
  5
1AA
330
13B
100
AcDbEntity
  8
AM_9
100
AcDbEllipse
 10
0.0000000000000003
 20
-1.264062499999999
 30
0.0
 11
-0.2000000000000004
 21
2.449293598294711E-17
 31
0.0
210
0.0
220
0.0
230
1.0
 40
0.8660254037844388
 41
0.0
 42
6.283185307179586
  0
ELLIPSE
  5
1AB
330
13B
100
AcDbEntity
  8
AM_9
100
AcDbEllipse
 10
-0.0000000000000001
 20
-1.264062500000002
 30
0.0
 11
-0.2187499999999981
 21
3.259629037943295E-9
 31
0.0
210
0.0
220
0.0
230
1.0
 40
0.866025403784435
 41
0.0
 42
6.283185307179586
  0
ELLIPSE
  5
1AC
330
13B
100
AcDbEntity
  8
AM_9
100
AcDbEllipse
 10
-0.0000000000000001
 20
-1.214062500000002
 30
0.0
 11
-0.2187499999999986
 21
2.678914873134817E-17
 31
0.0
210
0.0
220
0.0
230
1.0
 40
0.8660254037844355
 41
0.0
 42
6.283185307179586
  0
ELLIPSE
  5
1AD
330
13B
100
AcDbEntity
  8
AM_9
100
AcDbEllipse
 10
-0.0000000000000002
 20
-1.2140625
 30
0.0
 11
-0.1999999999999998
 21
2.449293598294704E-17
 31
0.0
210
0.0
220
0.0
230
1.0
 40
0.8660254037844394
 41
0.0
 42
6.283185307179586
  0
ELLIPSE
  5
1AE
330
13B
100
AcDbEntity
  8
AM_9
100
AcDbEllipse
 10
-0.0000000000000001
 20
-1.175
 30
0.0
 11
-0.1999999999999998
 21
2.449293598294704E-17
 31
0.0
210
0.0
220
0.0
230
1.0
 40
0.8660254037844382
 41
0.0
 42
6.283185307179586
  0
ELLIPSE
  5
1AF
330
13B
100
AcDbEntity
  8
AM_9
100
AcDbEllipse
 10
-0.0000000000000005
 20
-1.175
 30
0.0
 11
-0.1915112338502291
 21
2.345336195354433E-17
 31
0.0
210
0.0
220
0.0
230
1.0
 40
0.8660254037844392
 41
0.0
 42
6.283185307179586
  0
ELLIPSE
  5
1B0
330
13B
100
AcDbEntity
  8
AM_9
100
AcDbEllipse
 10
-0.0000000000000002
 20
-1.077501782423881
 30
0.0
 11
-0.185417290724986
 21
2.270706915929283E-17
 31
0.0
210
0.0
220
0.0
230
1.0
 40
0.8660254037844288
 41
0.0
 42
6.283185307179586
  0
ENDBLK
  5
13E
330
13B
100
AcDbEntity
  8
0
100
AcDbBlockEnd
  0
BLOCK
  5
1B3
330
1B1
100
AcDbEntity
  8
0
100
AcDbBlockBegin
  2
5_070758H_0_in_070758_2
 70
     2
 10
0.0
 20
0.0
 30
0.0
  3
5_070758H_0_in_070758_2
  1

  0
ATTDEF
  5
1B5
330
1B1
100
AcDbEntity
  8
AM_6
100
AcDbText
 10
6.176470588235294
 20
2.375
 30
0.0
 40
0.5
  1
WSTU-S2 -(Contact Seal)-Housing
100
AcDbAttributeDefinition
  3

  2
NN
 70
     8
280
     0
  0
ATTDEF
  5
1B6
330
1B1
100
AcDbEntity
  8
AM_6
100
AcDbText
 10
6.176470588235294
 20
1.875
 30
0.0
 40
0.5
  1
S-2000 Wide Slot Take-Up Bearing -Inch
100
AcDbAttributeDefinition
  3

  2
NT
 70
     8
280
     0
  0
ATTDEF
  5
1B7
330
1B1
100
AcDbEntity
  8
AM_6
100
AcDbText
 10
6.176470588235294
 20
1.375
 30
0.0
 40
0.5
  1
070758H
100
AcDbAttributeDefinition
  3

  2
NB
 70
     8
280
     0
  0
ATTDEF
  5
1B8
330
1B1
100
AcDbEntity
  8
AM_6
100
AcDbText
 10
6.176470588235294
 20
0.875
 30
0.0
 40
0.5
  1
$PN.H
100
AcDbAttributeDefinition
  3

  2
NBSYN
 70
     8
280
     0
  0
ATTDEF
  5
1B9
330
1B1
100
AcDbEntity
  8
AM_6
100
AcDbText
 10
6.176470588235294
 20
0.375
 30
0.0
 40
0.5
  1
070758
100
AcDbAttributeDefinition
  3

  2
LINA
 70
     8
280
     0
  0
ATTDEF
  5
1BA
330
1B1
100
AcDbEntity
  8
AM_6
100
AcDbText
 10
6.176470588235294
 20
-0.125
 30
0.0
 40
0.5
  1
1-15/16
100
AcDbAttributeDefinition
  3

  2
SS
 70
     8
280
     0
  0
ATTDEF
  5
1BB
330
1B1
100
AcDbEntity
  8
AM_6
100
AcDbText
 10
6.176470588235294
 20
-0.625
 30
0.0
 40
0.5
  1
070758
100
AcDbAttributeDefinition
  3

  2
PN
 70
     8
280
     0
  0
ATTDEF
  5
1BC
330
1B1
100
AcDbEntity
  8
AM_6
100
AcDbText
 10
6.176470588235294
 20
-1.125
 30
0.0
 40
0.5
  1
WSTU-S2-115R
100
AcDbAttributeDefinition
  3

  2
DESCRIPTION
 70
     8
280
     0
  0
ATTDEF
  5
1BD
330
1B1
100
AcDbEntity
  8
AM_6
100
AcDbText
 10
6.176470588235294
 20
-1.625
 30
0.0
 40
0.5
  1
Non-Expansion Type
100
AcDbAttributeDefinition
  3

  2
EF
 70
     8
280
     0
  0
ATTDEF
  5
1BE
330
1B1
100
AcDbEntity
  8
AM_6
100
AcDbText
 10
6.176470588235294
 20
-2.125
 30
0.0
 40
0.5
  1
2-27/32
100
AcDbAttributeDefinition
  3

  2
A
 70
     8
280
     0
  0
ATTDEF
  5
1BF
330
1B1
100
AcDbEntity
  8
AM_6
100
AcDbText
 10
6.176470588235294
 20
-2.625
 30
0.0
 40
0.5
  1
6-3/16
100
AcDbAttributeDefinition
  3

  2
B
 70
     8
280
     0
  0
ATTDEF
  5
1C0
330
1B1
100
AcDbEntity
  8
AM_6
100
AcDbText
 10
6.176470588235294
 20
-3.125
 30
0.0
 40
0.5
  1
11/16
100
AcDbAttributeDefinition
  3

  2
C
 70
     8
280
     0
  0
ATTDEF
  5
1C1
330
1B1
100
AcDbEntity
  8
AM_6
100
AcDbText
 10
6.176470588235294
 20
-3.625
 30
0.0
 40
0.5
  1
3-15/16
100
AcDbAttributeDefinition
  3

  2
E
 70
     8
280
     0
  0
ATTDEF
  5
1C2
330
1B1
100
AcDbEntity
  8
AM_6
100
AcDbText
 10
6.176470588235294
 20
-4.125
 30
0.0
 40
0.5
  1
1-1/8
100
AcDbAttributeDefinition
  3

  2
F
 70
     8
280
     0
  0
ATTDEF
  5
1C3
330
1B1
100
AcDbEntity
  8
AM_6
100
AcDbText
 10
6.176470588235294
 20
-4.625
 30
0.0
 40
0.5
  1
15/16
100
AcDbAttributeDefinition
  3

  2
G
 70
     8
280
     0
  0
ATTDEF
  5
1C4
330
1B1
100
AcDbEntity
  8
AM_6
100
AcDbText
 10
6.176470588235294
 20
-5.125
 30
0.0
 40
0.5
  1
3/4
100
AcDbAttributeDefinition
  3

  2
H
 70
     8
280
     0
  0
ATTDEF
  5
1C5
330
1B1
100
AcDbEntity
  8
AM_6
100
AcDbText
 10
6.176470588235294
 20
-5.625
 30
0.0
 40
0.5
  1
3-5/16
100
AcDbAttributeDefinition
  3

  2
J
 70
     8
280
     0
  0
ATTDEF
  5
1C6
330
1B1
100
AcDbEntity
  8
AM_6
100
AcDbText
 10
6.176470588235294
 20
-6.125
 30
0.0
 40
0.5
  1
1-15/16
100
AcDbAttributeDefinition
  3

  2
K
 70
     8
280
     0
  0
ATTDEF
  5
1C7
330
1B1
100
AcDbEntity
  8
AM_6
100
AcDbText
 10
6.176470588235294
 20
-6.625
 30
0.0
 40
0.5
  1
1.937500
100
AcDbAttributeDefinition
  3

  2
K1
 70
     8
280
     0
  0
ATTDEF
  5
1C8
330
1B1
100
AcDbEntity
  8
AM_6
100
AcDbText
 10
6.176470588235294
 20
-7.125
 30
0.0
 40
0.5
  1
3-7/16
100
AcDbAttributeDefinition
  3

  2
L
 70
     8
280
     0
  0
ATTDEF
  5
1C9
330
1B1
100
AcDbEntity
  8
AM_6
100
AcDbText
 10
6.176470588235294
 20
-7.625
 30
0.0
 40
0.5
  1
4
100
AcDbAttributeDefinition
  3

  2
M
 70
     8
280
     0
  0
ATTDEF
  5
1CA
330
1B1
100
AcDbEntity
  8
AM_6
100
AcDbText
 10
6.176470588235294
 20
-8.125
 30
0.0
 40
0.5
  1
4-3/4
100
AcDbAttributeDefinition
  3

  2
N
 70
     8
280
     0
  0
ATTDEF
  5
1CB
330
1B1
100
AcDbEntity
  8
AM_6
100
AcDbText
 10
6.176470588235294
 20
-8.625
 30
0.0
 40
0.5
  1
2-15/16
100
AcDbAttributeDefinition
  3

  2
R
 70
     8
280
     0
  0
ATTDEF
  5
1CC
330
1B1
100
AcDbEntity
  8
AM_6
100
AcDbText
 10
6.176470588235294
 20
-9.125
 30
0.0
 40
0.5
  1
1-15/16
100
AcDbAttributeDefinition
  3

  2
S
 70
     8
280
     0
  0
ATTDEF
  5
1CD
330
1B1
100
AcDbEntity
  8
AM_6
100
AcDbText
 10
6.176470588235294
 20
-9.625
 30
0.0
 40
0.5
  1
2
100
AcDbAttributeDefinition
  3

  2
T
 70
     8
280
     0
  0
ATTDEF
  5
1CE
330
1B1
100
AcDbEntity
  8
AM_6
100
AcDbText
 10
6.176470588235294
 20
-10.125
 30
0.0
 40
0.5
  1
2.000000
100
AcDbAttributeDefinition
  3

  2
T1
 70
     8
280
     0
  0
ATTDEF
  5
1CF
330
1B1
100
AcDbEntity
  8
AM_6
100
AcDbText
 10
6.176470588235294
 20
-10.625
 30
0.0
 40
0.5
  1
1/4
100
AcDbAttributeDefinition
  3

  2
X
 70
     8
280
     0
  0
ATTDEF
  5
1D0
330
1B1
100
AcDbEntity
  8
AM_6
100
AcDbText
 10
6.176470588235294
 20
-11.125
 30
0.0
 40
0.5
  1
0.020
100
AcDbAttributeDefinition
  3

  2
Y
 70
     8
280
     0
  0
ATTDEF
  5
1D1
330
1B1
100
AcDbEntity
  8
AM_6
100
AcDbText
 10
6.176470588235294
 20
-11.625
 30
0.0
 40
0.5
  1
2-19/64
100
AcDbAttributeDefinition
  3

  2
Z
 70
     8
280
     0
  0
ATTDEF
  5
1D2
330
1B1
100
AcDbEntity
  8
AM_6
100
AcDbText
 10
6.176470588235294
 20
-12.125
 30
0.0
 40
0.5
  1
baldor
100
AcDbAttributeDefinition
  3

  2
COMPANY
 70
     8
280
     0
  0
LWPOLYLINE
  5
1D3
330
1B1
100
AcDbEntity
  8
AM_9
100
AcDbPolyline
 90
        4
 70
     0
 43
0.0
 10
-0.4194684713626414
 20
-1.360657911281409
 10
-0.4177558594941195
 20
-1.363661826564645
 10
-0.3884149655426078
 20
-1.405326279498241
 10
-0.3609795111457416
 20
-1.434165007872714
  0
ELLIPSE
  5
1D4
330
1B1
100
AcDbEntity
  8
AM_9
100
AcDbEllipse
 10
-0.0000000000000001
 20
-1.175
 30
0.0
 11
-0.4
 21
4.898587196589413E-17
 31
0.0
210
0.0
220
0.0
230
1.0
 40
0.8660254037844389
 41
0.0
 42
6.283185307179586
  0
ELLIPSE
  5
1D5
330
1B1
100
AcDbEntity
  8
AM_9
100
AcDbEllipse
 10
-0.0000000000000001
 20
-1.125
 30
0.0
 11
0.5
 21
0.0
 31
0.0
210
0.0
220
0.0
230
1.0
 40
0.8660254037844392
 41
0.1597061488186746
 42
2.957786144510824
  0
LWPOLYLINE
  5
1D6
330
1B1
100
AcDbEntity
  8
AM_9
100
AcDbPolyline
 90
       14
 70
     0
 43
0.0
 10
-0.4999909145349082
 20
-1.12769597941484
 10
-0.4998698535852099
 20
-1.135203105884936
 10
-0.4979822031727266
 20
-1.16513638754349
 10
-0.4938600586703026
 20
-1.194866511779158
 10
-0.4875249671558015
 20
-1.224265482595398
 10
-0.4790060558634436
 20
-1.253208094409365
 10
-0.4683400567192862
 20
-1.281570902153153
 10
-0.4555714867097332
 20
-1.309232169263697
 10
-0.4407529597560566
 20
-1.336071943202689
 10
-0.423945563206508
 20
-1.361972301331043
 10
-0.4052192207273518
 20
-1.386817787008857
 10
-0.3846529626910649
 20
-1.410496029146215
 10
-0.3623350361923069
 20
-1.432898512125572
 10
-0.3610012303839918
 20
-1.434144984172816
  0
LINE
  5
1D7
330
1B1
100
AcDbEntity
  8
AM_9
100
AcDbLine
 10
-0.4999988766719724
 20
-1.125947977529759
 30
0.0
 11
-0.4999909145349082
 21
-1.12769597941484
 31
0.0
  0
LINE
  5
1D8
330
1B1
100
AcDbEntity
  8
AM_9
100
AcDbLine
 10
0.4999627646130672
 20
-1.130457763556391
 30
0.0
 11
0.4999994851933411
 21
-1.124358248403463
 31
0.0
  0
LWPOLYLINE
  5
1D9
330
1B1
100
AcDbEntity
  8
AM_9
100
AcDbPolyline
 90
       13
 70
     0
 43
0.0
 10
0.3705540239730928
 20
-1.424998381384092
 10
0.385112566828757
 20
-1.410001417205589
 10
0.4058306204967628
 20
-1.386061042679299
 10
0.4246725557082841
 20
-1.360930840132764
 10
0.4415524442621797
 20
-1.334733170615116
 10
0.4563955538341008
 20
-1.307595312603298
 10
0.4691386628973508
 20
-1.279648195590661
 10
0.4797300885222898
 20
-1.251025146185876
 10
0.4881294478167358
 20
-1.221860729140657
 10
0.4943072041110417
 20
-1.192289751445221
 10
0.4982440706634466
 20
-1.162446474550231
 10
0.4999303549696144
 20
-1.132464052742558
 10
0.4999627646130672
 20
-1.130457763556391
  0
LINE
  5
1DA
330
1B1
100
AcDbEntity
  8
AM_9
100
AcDbLine
 10
0.3613818726238562
 20
-1.433790250082011
 30
0.0
 11
0.3677881986470269
 21
-1.427699938509382
 31
0.0
  0
LWPOLYLINE
  5
1DB
330
1B1
100
AcDbEntity
  8
AM_9
100
AcDbPolyline
 90
       17
 70
     0
 43
0.0
 10
-0.3609795111457416
 20
-1.434165007872714
 10
-0.3526289903286545
 20
-1.441675611618473
 10
-0.3189419413866611
 20
-1.467559651496012
 10
-0.2824002194695278
 20
-1.489530098955324
 10
-0.2438605305872694
 20
-1.507523376883047
 10
-0.1873271993443838
 20
-1.526394498677392
 10
-0.128782482862679
 20
-1.538789381643934
 10
-0.069434619950275
 20
-1.545719341184148
 10
-0.0085624235267777
 20
-1.548524011379658
 10
0.0525334867638474
 20
-1.547266483117439
 10
0.113257443899885
 20
-1.541321788227751
 10
0.1730137808596199
 20
-1.530064958540853
 10
0.2159614415899905
 20
-1.517805677675322
 10
0.2576675956136592
 20
-1.501595333457497
 10
0.2973539398208423
 20
-1.481227047016832
 10
0.3348401965030343
 20
-1.456099633062738
 10
0.3613940512903271
 20
-1.433778887359365
  0
LWPOLYLINE
  5
1DC
330
1B1
100
AcDbEntity
  8
AM_9
100
AcDbPolyline
 90
        4
 70
     0
 43
0.0
 10
0.3613940512903271
 20
-1.433778887359365
 10
0.369016270564814
 20
-1.426382346761041
 10
0.3986643918412049
 20
-1.39246409234792
 10
0.4194684713626411
 20
-1.360657911281409
  0
LINE
  5
1DD
330
1B1
100
AcDbEntity
  8
AM_9
100
AcDbLine
 10
0.4339842795586019
 20
-1.333170562981347
 30
0.0
 11
0.4194684713626411
 21
-1.360657911281409
 31
0.0
  0
ELLIPSE
  5
1DE
330
1B1
100
AcDbEntity
  8
AM_9
100
AcDbEllipse
 10
-0.0000000000000085
 20
-1.124999999999996
 30
0.0
 11
0.5000000000000089
 21
0.0
 31
0.0
210
0.0
220
0.0
230
1.0
 40
0.8660254037844384
 41
5.707715923346118
 42
6.022139037214094
  0
ELLIPSE
  5
1DF
330
1B1
100
AcDbEntity
  8
AM_9
100
AcDbEllipse
 10
0.0000000000000004
 20
-1.125
 30
0.0
 11
0.5000000000000004
 21
0.0
 31
0.0
210
0.0
220
0.0
230
1.0
 40
0.866025403784438
 41
3.387979363440097
 42
3.717062037423262
  0
LINE
  5
1E0
330
1B1
100
AcDbEntity
  8
AM_9
100
AcDbLine
 10
-0.4194684713626414
 20
-1.360657911281409
 30
0.0
 11
-0.4339842795586019
 21
-1.333170562981348
 31
0.0
  0
LINE
  5
1E1
330
1B1
100
AcDbEntity
  8
AM_9
100
AcDbLine
 10
-0.5756410343589744
 20
-1.77165
 30
0.0
 11
1.0
 21
-1.77165
 31
0.0
  0
LINE
  5
1E2
330
1B1
100
AcDbEntity
  8
AM_9
100
AcDbLine
 10
1.0
 20
1.77165
 30
0.0
 11
-0.5756410343589744
 21
1.77165
 31
0.0
  0
LINE
  5
1E3
330
1B1
100
AcDbEntity
  8
AM_9
100
AcDbLine
 10
-0.5756410343589744
 20
1.77165
 30
0.0
 11
-1.0
 21
1.88535664214442
 31
0.0
  0
LINE
  5
1E4
330
1B1
100
AcDbEntity
  8
AM_9
100
AcDbLine
 10
-1.0
 20
-1.88535664214442
 30
0.0
 11
-0.5756410343589744
 21
-1.77165
 31
0.0
  0
LINE
  5
1E5
330
1B1
100
AcDbEntity
  8
AM_9
100
AcDbLine
 10
-0.5756410343589744
 20
1.77165
 30
0.0
 11
-0.5756410343589744
 21
-1.77165
 31
0.0
  0
LINE
  5
1E6
330
1B1
100
AcDbEntity
  8
AM_9
100
AcDbLine
 10
1.0
 20
0.6197443384031026
 30
0.0
 11
1.0
 21
-0.6197443384031026
 31
0.0
  0
LINE
  5
1E7
330
1B1
100
AcDbEntity
  8
AM_9
100
AcDbLine
 10
0.9090909090909092
 20
0.6819964200288305
 30
0.0
 11
0.9090909090909092
 21
-0.6807504377777864
 31
0.0
  0
LINE
  5
1E8
330
1B1
100
AcDbEntity
  8
AM_9
100
AcDbLine
 10
-0.909090909090909
 20
0.680750437777786
 30
0.0
 11
-0.909090909090909
 21
-0.6807504377777859
 31
0.0
  0
LINE
  5
1E9
330
1B1
100
AcDbEntity
  8
AM_9
100
AcDbLine
 10
-0.9999999999999999
 20
0.6197443384031022
 30
0.0
 11
-0.9999999999999999
 21
-0.6197443384031022
 31
0.0
  0
LINE
  5
1EA
330
1B1
100
AcDbEntity
  8
AM_9
100
AcDbLine
 10
-0.9090909090909091
 20
1.333170562981347
 30
0.0
 11
0.909090909090909
 21
1.333170562981347
 31
0.0
  0
LINE
  5
1EB
330
1B1
100
AcDbEntity
  8
AM_9
100
AcDbLine
 10
0.909090909090909
 20
-1.333170562981347
 30
0.0
 11
0.4339842795586016
 21
-1.333170562981347
 31
0.0
  0
LWPOLYLINE
  5
1EC
330
1B1
100
AcDbEntity
  8
AM_9
100
AcDbPolyline
 90
        7
 70
     0
 43
0.0
 10
0.4999999999999998
 20
-1.125
 10
0.4983170639284896
 20
-1.160278005512685
 10
0.493293968498949
 20
-1.194940579968675
 10
0.4846629570640156
 20
-1.229734119191657
 10
0.4726052871369176
 20
-1.263397505900959
 10
0.4553615960983353
 20
-1.299093279691377
 10
0.4339842795586016
 20
-1.333170562981347
  0
LWPOLYLINE
  5
1ED
330
1B1
100
AcDbEntity
  8
AM_9
100
AcDbPolyline
 90
       29
 70
     0
 43
0.0
 10
-0.5000000000000001
 20
-1.125
 10
-0.4973907405006158
 20
-1.080593134175059
 10
-0.489624382788631
 20
-1.036103349115451
 10
-0.4755687012220312
 20
-0.9887483959383947
 10
-0.4557991753740349
 20
-0.9423671989491837
 10
-0.4306935070481561
 20
-0.8978615476293152
 10
-0.3999413256348088
 20
-0.8551257333671496
 10
-0.3642242252878443
 20
-0.8152735963714746
 10
-0.3241804161561737
 20
-0.7791153780434334
 10
-0.2792229949365251
 20
-0.7465640808994498
 10
-0.2305287657449163
 20
-0.7187111129546475
 10
-0.1789971297193887
 20
-0.6962015252519786
 10
-0.1253883117156285
 20
-0.6795326774459808
 10
-0.069953006604097
 20
-0.6687210159304834
 10
-0.0137751021996342
 20
-0.6640438332244119
 10
0.0413183516206797
 20
-0.66557682079948
 10
0.0960614036553662
 20
-0.6730194848042336
 10
0.1494222332484612
 20
-0.6861871880603089
 10
0.200695774939334
 20
-0.704890774312061
 10
0.249657080384323
 20
-0.7288199163454602
 10
0.2954481230848692
 20
-0.7574414769169822
 10
0.3384828445683649
 20
-0.7911905143639651
 10
0.3774408199640906
 20
-0.8290397956353145
 10
0.411623735724944
 20
-0.8701985301295441
 10
0.44100057626936
 20
-0.9148318107270773
 10
0.4648675894245899
 20
-0.9618738737103504
 10
0.4827461398632855
 20
-1.010344177893954
 10
0.4956442381778909
 20
-1.067618709413217
 10
0.4999999999999998
 20
-1.125
  0
LWPOLYLINE
  5
1EE
330
1B1
100
AcDbEntity
  8
AM_9
100
AcDbPolyline
 90
        7
 70
     0
 43
0.0
 10
-0.4339842795586024
 20
-1.333170562981347
 10
-0.4459921619717708
 20
-1.315059290430366
 10
-0.463297564376994
 20
-1.283896378973867
 10
-0.4773887451584521
 20
-1.25128565135381
 10
-0.4884175418212987
 20
-1.216373875042599
 10
-0.4958261275867542
 20
-1.180371207221841
 10
-0.5000000000000001
 20
-1.125
  0
LINE
  5
1EF
330
1B1
100
AcDbEntity
  8
AM_9
100
AcDbLine
 10
-0.4339842795586024
 20
-1.333170562981347
 30
0.0
 11
-0.9090909090909091
 21
-1.333170562981347
 31
0.0
  0
LINE
  5
1F0
330
1B1
100
AcDbEntity
  8
AM_9
100
AcDbLine
 10
0.9599999999999999
 20
0.6800610597458874
 30
0.0
 11
0.9599999999999999
 21
-0.6800610597458874
 31
0.0
  0
LINE
  5
1F1
330
1B1
100
AcDbEntity
  8
AM_9
100
AcDbLine
 10
-0.9599999999999997
 20
0.6800610597458874
 30
0.0
 11
-0.9599999999999997
 21
-0.6800610597458874
 31
0.0
  0
LINE
  5
1F2
330
1B1
100
AcDbEntity
  8
AM_9
100
AcDbLine
 10
-0.909090909090909
 20
-0.9287500000000002
 30
0.0
 11
0.9090909090909092
 21
-0.9287500000000002
 31
0.0
  0
LINE
  5
1F3
330
1B1
100
AcDbEntity
  8
AM_9
100
AcDbLine
 10
-0.909090909090909
 20
-0.96875
 30
0.0
 11
0.9090909090909092
 21
-0.96875
 31
0.0
  0
LINE
  5
1F4
330
1B1
100
AcDbEntity
  8
AM_9
100
AcDbLine
 10
-0.909090909090909
 20
0.9287499999999999
 30
0.0
 11
0.9090909090909092
 21
0.9287499999999999
 31
0.0
  0
LINE
  5
1F5
330
1B1
100
AcDbEntity
  8
AM_9
100
AcDbLine
 10
-0.909090909090909
 20
0.9687500000000006
 30
0.0
 11
0.9090909090909092
 21
0.9687500000000006
 31
0.0
  0
LINE
  5
1F6
330
1B1
100
AcDbEntity
  8
AM_7
100
AcDbLine
 10
0.0000000000000002
 20
-0.5906250000000001
 30
0.0
 11
0.0000000000000002
 21
0.5906250000000001
 31
0.0
  0
LINE
  5
1F7
330
1B1
100
AcDbEntity
  8
AM_7
100
AcDbLine
 10
-2.0796875
 20
0.0
 30
0.0
 11
1.128205128641026
 21
0.0
 31
0.0
  0
LINE
  5
1F8
330
1B1
100
AcDbEntity
  8
AM_4
100
AcDbLine
 10
0.3437500000000001
 20
2.375
 30
0.0
 11
0.9090909090909092
 21
2.375
 31
0.0
  0
LINE
  5
1F9
330
1B1
100
AcDbEntity
  8
AM_4
100
AcDbLine
 10
0.3437500000000001
 20
2.375
 30
0.0
 11
0.3437500000000001
 21
2.0
 31
0.0
  0
LINE
  5
1FA
330
1B1
100
AcDbEntity
  8
AM_4
100
AcDbLine
 10
-0.909090909090909
 20
-2.375
 30
0.0
 11
-0.3437499999999998
 21
-2.375
 31
0.0
  0
LINE
  5
1FB
330
1B1
100
AcDbEntity
  8
AM_4
100
AcDbLine
 10
-0.3437499999999998
 20
-2.375
 30
0.0
 11
-0.3437499999999998
 21
-2.0
 31
0.0
  0
LINE
  5
1FC
330
1B1
100
AcDbEntity
  8
AM_4
100
AcDbLine
 10
-0.3437499999999998
 20
-2.0
 30
0.0
 11
0.3437500000000001
 21
-2.0
 31
0.0
  0
LINE
  5
1FD
330
1B1
100
AcDbEntity
  8
AM_4
100
AcDbLine
 10
0.3437500000000001
 20
-2.0
 30
0.0
 11
0.3437500000000001
 21
-2.375
 31
0.0
  0
LINE
  5
1FE
330
1B1
100
AcDbEntity
  8
AM_4
100
AcDbLine
 10
-0.909090909090909
 20
-2.335
 30
0.0
 11
-0.3437499999999998
 21
-2.335
 31
0.0
  0
LINE
  5
1FF
330
1B1
100
AcDbEntity
  8
AM_4
100
AcDbLine
 10
0.3437500000000001
 20
2.0
 30
0.0
 11
-0.3437499999999998
 21
2.0
 31
0.0
  0
LINE
  5
200
330
1B1
100
AcDbEntity
  8
AM_4
100
AcDbLine
 10
-0.3437499999999998
 20
2.0
 30
0.0
 11
-0.3437499999999998
 21
2.375
 31
0.0
  0
LINE
  5
201
330
1B1
100
AcDbEntity
  8
AM_4
100
AcDbLine
 10
0.3437500000000001
 20
2.335
 30
0.0
 11
0.9090909090909092
 21
2.335
 31
0.0
  0
LINE
  5
202
330
1B1
100
AcDbEntity
  8
AM_4
100
AcDbLine
 10
0.3437500000000001
 20
-2.335
 30
0.0
 11
0.9090909090909092
 21
-2.335
 31
0.0
  0
LINE
  5
203
330
1B1
100
AcDbEntity
  8
AM_4
100
AcDbLine
 10
0.3437500000000001
 20
-2.375
 30
0.0
 11
0.9090909090909092
 21
-2.375
 31
0.0
  0
LINE
  5
204
330
1B1
100
AcDbEntity
  8
AM_4
100
AcDbLine
 10
-0.909090909090909
 20
2.335
 30
0.0
 11
-0.3437499999999998
 21
2.335
 31
0.0
  0
LINE
  5
205
330
1B1
100
AcDbEntity
  8
AM_4
100
AcDbLine
 10
-0.909090909090909
 20
2.375
 30
0.0
 11
-0.3437499999999998
 21
2.375
 31
0.0
  0
LINE
  5
206
330
1B1
100
AcDbEntity
  8
AM_4
100
AcDbLine
 10
1.0
 20
-0.6197443384031026
 30
0.0
 11
0.9999999999999999
 21
-2.21
 31
0.0
  0
LINE
  5
207
330
1B1
100
AcDbEntity
  8
AM_4
100
AcDbLine
 10
0.9999999999999999
 20
2.21
 30
0.0
 11
1.0
 21
0.6197443384031026
 31
0.0
  0
ARC
  5
208
330
1B1
100
AcDbEntity
  8
AM_4
100
AcDbCircle
 10
0.9600000000000001
 20
-2.21
 30
0.0
 40
0.0399999999999996
100
AcDbArc
 50
270.0
 51
0.0
  0
ARC
  5
209
330
1B1
100
AcDbEntity
  8
AM_4
100
AcDbCircle
 10
0.9600000000000001
 20
2.21
 30
0.0
 40
0.0399999999999998
100
AcDbArc
 50
0.0
 51
90.0
  0
LINE
  5
20A
330
1B1
100
AcDbEntity
  8
AM_4
100
AcDbLine
 10
-0.9999999999999999
 20
-0.6197443384031022
 30
0.0
 11
-1.0
 21
-2.21
 31
0.0
  0
LINE
  5
20B
330
1B1
100
AcDbEntity
  8
AM_4
100
AcDbLine
 10
-1.0
 20
2.21
 30
0.0
 11
-0.9999999999999999
 21
0.6197443384031022
 31
0.0
  0
ARC
  5
20C
330
1B1
100
AcDbEntity
  8
AM_4
100
AcDbCircle
 10
-0.9599999999999991
 20
-2.21
 30
0.0
 40
0.0400000000000009
100
AcDbArc
 50
180.0
 51
270.0
  0
ARC
  5
20D
330
1B1
100
AcDbEntity
  8
AM_4
100
AcDbCircle
 10
-0.9599999999999992
 20
2.21
 30
0.0
 40
0.0400000000000009
100
AcDbArc
 50
90.0
 51
180.0
  0
LINE
  5
20E
330
1B1
100
AcDbEntity
  8
AM_4
100
AcDbLine
 10
-0.9599999999999999
 20
-2.25
 30
0.0
 11
-0.909090909090909
 21
-2.25
 31
0.0
  0
LINE
  5
20F
330
1B1
100
AcDbEntity
  8
AM_4
100
AcDbLine
 10
0.9090909090909091
 20
-2.25
 30
0.0
 11
0.9599999999999997
 21
-2.25
 31
0.0
  0
LINE
  5
210
330
1B1
100
AcDbEntity
  8
AM_4
100
AcDbLine
 10
0.9599999999999997
 20
2.25
 30
0.0
 11
0.9090909090909091
 21
2.25
 31
0.0
  0
LINE
  5
211
330
1B1
100
AcDbEntity
  8
AM_4
100
AcDbLine
 10
-0.909090909090909
 20
2.25
 30
0.0
 11
-0.9599999999999999
 21
2.25
 31
0.0
  0
LINE
  5
212
330
1B1
100
AcDbEntity
  8
AM_4
100
AcDbLine
 10
0.9599999999999999
 20
-0.6800610597458874
 30
0.0
 11
0.9599999999999997
 21
-2.25
 31
0.0
  0
LINE
  5
213
330
1B1
100
AcDbEntity
  8
AM_4
100
AcDbLine
 10
0.9599999999999997
 20
2.25
 30
0.0
 11
0.9599999999999999
 21
0.6800610597458874
 31
0.0
  0
LINE
  5
214
330
1B1
100
AcDbEntity
  8
AM_4
100
AcDbLine
 10
-0.9599999999999997
 20
-0.6800610597458874
 30
0.0
 11
-0.9599999999999999
 21
-2.25
 31
0.0
  0
LINE
  5
215
330
1B1
100
AcDbEntity
  8
AM_4
100
AcDbLine
 10
-0.9599999999999999
 20
2.25
 30
0.0
 11
-0.9599999999999997
 21
0.6800610597458874
 31
0.0
  0
ARC
  5
216
330
1B1
100
AcDbEntity
  8
AM_4
100
AcDbCircle
 10
0.0000000000000062
 20
0.0000000000000018
 30
0.0
 40
1.1764705882353
100
AcDbArc
 50
140.5994312462624
 51
219.4005687537376
  0
LINE
  5
217
330
1B1
100
AcDbEntity
  8
AM_4
100
AcDbLine
 10
-0.9090909090909087
 20
-1.65625
 30
0.0
 11
0.9090909090909093
 21
-1.65625
 31
0.0
  0
ARC
  5
218
330
1B1
100
AcDbEntity
  8
AM_4
100
AcDbCircle
 10
0.0000000000000002
 20
0.0
 30
0.0
 40
1.176470588235294
100
AcDbArc
 50
320.5994312462623
 51
39.40056875373772
  0
LINE
  5
219
330
1B1
100
AcDbEntity
  8
AM_4
100
AcDbLine
 10
0.9090909090909092
 20
-2.375
 30
0.0
 11
0.9090909090909093
 21
-0.6819964200288305
 31
0.0
  0
LINE
  5
21A
330
1B1
100
AcDbEntity
  8
AM_4
100
AcDbLine
 10
-0.9090909090909087
 20
0.6819964200288305
 30
0.0
 11
-0.909090909090909
 21
2.375
 31
0.0
  0
LINE
  5
21B
330
1B1
100
AcDbEntity
  8
AM_4
100
AcDbLine
 10
0.9090909090909093
 20
0.6819964200288305
 30
0.0
 11
0.9090909090909092
 21
2.375
 31
0.0
  0
CIRCLE
  5
21C
330
1B1
100
AcDbEntity
  8
AM_4
100
AcDbCircle
 10
0.0000000000000002
 20
0.0
 30
0.0
 40
0.5625
  0
ARC
  5
21D
330
1B1
100
AcDbEntity
  8
AM_4
100
AcDbCircle
 10
0.0000000000000013
 20
0.0
 30
0.0
 40
1.136470588235295
100
AcDbArc
 50
143.1229135734867
 51
216.8770864265133
  0
LINE
  5
21E
330
1B1
100
AcDbEntity
  8
AM_4
100
AcDbLine
 10
-0.909090909090909
 20
-2.375
 30
0.0
 11
-0.9090909090909087
 21
-0.6819964200288305
 31
0.0
  0
LINE
  5
21F
330
1B1
100
AcDbEntity
  8
AM_4
100
AcDbLine
 10
-0.9090909090909087
 20
-1.61625
 30
0.0
 11
0.9090909090909093
 21
-1.61625
 31
0.0
  0
ARC
  5
220
330
1B1
100
AcDbEntity
  8
AM_4
100
AcDbCircle
 10
0.0
 20
0.0
 30
0.0
 40
1.136470588235295
100
AcDbArc
 50
323.1229135734867
 51
36.87708642651332
  0
LINE
  5
221
330
1B1
100
AcDbEntity
  8
AM_4
100
AcDbLine
 10
-0.9090909090909087
 20
1.65625
 30
0.0
 11
0.9090909090909093
 21
1.65625
 31
0.0
  0
LINE
  5
222
330
1B1
100
AcDbEntity
  8
AM_4
100
AcDbLine
 10
-0.9090909090909087
 20
1.61625
 30
0.0
 11
0.9090909090909093
 21
1.61625
 31
0.0
  0
ENDBLK
  5
1B4
330
1B1
100
AcDbEntity
  8
0
100
AcDbBlockEnd
  0
ENDSEC
  0
SECTION
  2
ENTITIES
  0
INSERT
  5
6F
330
1F
100
AcDbEntity
  8
0
100
AcDbBlockReference
  2
1_070758_2
 10
0.0
 20
0.0
 30
0.0
  0
POINT
  5
224
330
1F
100
AcDbEntity
  8
ConnectionPoints
100
AcDbPoint
 10
-1.9375
 20
0.0
 30
0.0000000000000001
  0
POINT
  5
225
330
1F
100
AcDbEntity
  8
ConnectionPoints
100
AcDbPoint
 10
1.796
 20
0.0
 30
-0.0000000000000001
  0
POINT
  5
226
330
1F
100
AcDbEntity
  8
ConnectionPoints
100
AcDbPoint
 10
-1.9375
 20
0.0
 30
0.0000000000000001
  0
POINT
  5
227
330
1F
100
AcDbEntity
  8
ConnectionPoints
100
AcDbPoint
 10
-0.0000000000000001
 20
-1.175
 30
-2.035159698893431
  0
POINT
  5
228
330
1F
100
AcDbEntity
  8
ConnectionPoints
100
AcDbPoint
 10
-0.0000000000000001
 20
-1.175
 30
-2.035159698893431
  0
POINT
  5
229
330
1F
100
AcDbEntity
  8
ConnectionPoints
100
AcDbPoint
 10
-1.6875
 20
0.0
 30
0.0000000000000001
  0
POINT
  5
22A
330
1F
100
AcDbEntity
  8
ConnectionPoints
100
AcDbPoint
 10
-1.9375
 20
0.0
 30
0.0000000000000001
  0
ENDSEC
  0
SECTION
  2
OBJECTS
  0
DICTIONARY
  5
C
330
0
100
AcDbDictionary
281
     1
  3
ACAD_DETAILVIEWSTYLE
350
232
  3
ACAD_GROUP
350
D
  3
ACAD_LAYOUT
350
1A
  3
ACAD_MATERIAL
350
43
  3
ACAD_MLEADERSTYLE
350
6B
  3
ACAD_MLINESTYLE
350
17
  3
ACAD_PLOTSETTINGS
350
19
  3
ACAD_PLOTSTYLENAME
350
E
  3
ACAD_SCALELIST
350
47
  3
ACAD_SECTIONVIEWSTYLE
350
233
  3
ACAD_TABLESTYLE
350
69
  3
ACAD_VISUALSTYLE
350
2A
  3
ACDB_RECOMPOSE_DATA
350
22F
  3
AcDbVariableDictionary
350
22B
  0
SUN
  5
6D
330
29
100
AcDbSun
 90
        1
290
     0
 63
     7
421
 16777215
 40
1.0
291
     1
 91
  2455826
 92
 54000000
292
     0
 70
     2
 71
   256
280
     1
  0
DICTIONARY
  5
232
102
{ACAD_REACTORS
330
C
102
}
330
C
100
AcDbDictionary
281
     1
  0
DICTIONARY
  5
D
102
{ACAD_REACTORS
330
C
102
}
330
C
100
AcDbDictionary
281
     1
  0
DICTIONARY
  5
1A
102
{ACAD_REACTORS
330
C
102
}
330
C
100
AcDbDictionary
281
     1
  3
Layout1
350
1E
  3
Layout2
350
26
  3
Model
350
22
  0
DICTIONARY
  5
43
102
{ACAD_REACTORS
330
C
102
}
330
C
100
AcDbDictionary
281
     1
  3
ByBlock
350
45
  3
ByLayer
350
44
  3
Global
350
46
  0
DICTIONARY
  5
6B
102
{ACAD_REACTORS
330
C
102
}
330
C
100
AcDbDictionary
281
     1
  3
Standard
350
6C
  0
DICTIONARY
  5
17
102
{ACAD_REACTORS
330
C
102
}
330
C
100
AcDbDictionary
281
     1
  3
Standard
350
18
  0
DICTIONARY
  5
19
102
{ACAD_REACTORS
330
C
102
}
330
C
100
AcDbDictionary
281
     1
  0
ACDBDICTIONARYWDFLT
  5
E
102
{ACAD_REACTORS
330
C
102
}
330
C
100
AcDbDictionary
281
     1
  3
Normal
350
F
100
AcDbDictionaryWithDefault
340
F
  0
DICTIONARY
  5
47
102
{ACAD_REACTORS
330
C
102
}
330
C
100
AcDbDictionary
281
     1
  3
A0
350
48
  3
A1
350
49
  3
A2
350
4A
  3
A3
350
4B
  3
A4
350
4C
  3
A5
350
4D
  3
A6
350
4E
  3
A7
350
4F
  3
A8
350
50
  3
A9
350
51
  3
B0
350
52
  3
B1
350
53
  3
B2
350
54
  3
B3
350
55
  3
B4
350
56
  3
B5
350
57
  3
B6
350
58
  3
B7
350
59
  3
B8
350
5A
  3
B9
350
5B
  3
C0
350
5C
  3
C1
350
5D
  3
C2
350
5E
  3
C3
350
5F
  3
C4
350
60
  3
C5
350
61
  3
C6
350
62
  3
C7
350
63
  3
C8
350
64
  3
C9
350
65
  3
D0
350
66
  3
D1
350
67
  3
D2
350
68
  0
DICTIONARY
  5
233
102
{ACAD_REACTORS
330
C
102
}
330
C
100
AcDbDictionary
281
     1
  0
DICTIONARY
  5
69
102
{ACAD_REACTORS
330
C
102
}
330
C
100
AcDbDictionary
281
     1
  3
Standard
350
6A
  0
DICTIONARY
  5
2A
102
{ACAD_REACTORS
330
C
102
}
330
C
100
AcDbDictionary
281
     1
  3
2dWireframe
350
2F
  3
Basic
350
32
  3
Brighten
350
36
  3
ColorChange
350
3A
  3
Conceptual
350
34
  3
Dim
350
35
  3
EdgeColorOff
350
3D
  3
Facepattern
350
39
  3
Flat
350
2B
  3
FlatWithEdges
350
2C
  3
Gouraud
350
2D
  3
GouraudWithEdges
350
2E
  3
Hidden
350
31
  3
JitterOff
350
3B
  3
Linepattern
350
38
  3
OverhangOff
350
3C
  3
Realistic
350
33
  3
Shaded
350
42
  3
Shaded with edges
350
41
  3
Shades of Gray
350
3E
  3
Sketchy
350
3F
  3
Thicken
350
37
  3
Wireframe
350
30
  3
X-Ray
350
40
  0
XRECORD
  5
22F
102
{ACAD_REACTORS
330
C
102
}
330
C
100
AcDbXrecord
280
     1
 90
        1
330
6A
  0
DICTIONARY
  5
22B
102
{ACAD_REACTORS
330
C
102
}
330
C
100
AcDbDictionary
281
     1
  3
CANNOSCALE
350
22C
  3
CMLEADERSTYLE
350
231
  3
CTABLESTYLE
350
230
  0
LAYOUT
  5
1E
102
{ACAD_REACTORS
330
1A
102
}
330
1A
100
AcDbPlotSettings
  1

  2
none_device
  4

  6

 40
0.0
 41
0.0
 42
0.0
 43
0.0
 44
0.0
 45
0.0
 46
0.0
 47
0.0
 48
0.0
 49
0.0
140
0.0
141
0.0
142
1.0
143
1.0
 70
   688
 72
     0
 73
     0
 74
     5
  7

 75
    16
 76
     0
 77
     2
 78
   300
147
1.0
148
0.0
149
0.0
100
AcDbLayout
  1
Layout1
 70
     1
 71
     1
 10
0.0
 20
0.0
 11
12.0
 21
9.0
 12
0.0
 22
0.0
 32
0.0
 14
1.000000000000000E+20
 24
1.000000000000000E+20
 34
1.000000000000000E+20
 15
-1.000000000000000E+20
 25
-1.000000000000000E+20
 35
-1.000000000000000E+20
146
0.0
 13
0.0
 23
0.0
 33
0.0
 16
1.0
 26
0.0
 36
0.0
 17
0.0
 27
1.0
 37
0.0
 76
     0
330
1B
  0
LAYOUT
  5
26
102
{ACAD_REACTORS
330
1A
102
}
330
1A
100
AcDbPlotSettings
  1

  2
none_device
  4

  6

 40
0.0
 41
0.0
 42
0.0
 43
0.0
 44
0.0
 45
0.0
 46
0.0
 47
0.0
 48
0.0
 49
0.0
140
0.0
141
0.0
142
1.0
143
1.0
 70
   688
 72
     0
 73
     0
 74
     5
  7

 75
    16
 76
     0
 77
     2
 78
   300
147
1.0
148
0.0
149
0.0
100
AcDbLayout
  1
Layout2
 70
     1
 71
     2
 10
0.0
 20
0.0
 11
0.0
 21
0.0
 12
0.0
 22
0.0
 32
0.0
 14
0.0
 24
0.0
 34
0.0
 15
0.0
 25
0.0
 35
0.0
146
0.0
 13
0.0
 23
0.0
 33
0.0
 16
1.0
 26
0.0
 36
0.0
 17
0.0
 27
1.0
 37
0.0
 76
     0
330
23
  0
LAYOUT
  5
22
102
{ACAD_REACTORS
330
1A
102
}
330
1A
100
AcDbPlotSettings
  1

  2
none_device
  4
Letter_(8.50_x_11.00_Inches)
  6

 40
6.35
 41
6.35
 42
6.35000508
 43
6.35000508
 44
215.9
 45
279.4
 46
0.0
 47
0.0
 48
0.0
 49
0.0
140
0.0
141
0.0
142
1.0
143
1.0
 70
  1712
 72
     0
 73
     0
 74
     0
  7

 75
     0
 76
     0
 77
     2
 78
   300
147
1.0
148
0.0
149
0.0
100
AcDbLayout
  1
Model
 70
     1
 71
     0
 10
0.0
 20
0.0
 11
12.0
 21
9.0
 12
0.0
 22
0.0
 32
0.0
 14
1.000000000000000E+20
 24
1.000000000000000E+20
 34
1.000000000000000E+20
 15
-1.000000000000000E+20
 25
-1.000000000000000E+20
 35
-1.000000000000000E+20
146
0.0
 13
0.0
 23
0.0
 33
0.0
 16
1.0
 26
0.0
 36
0.0
 17
0.0
 27
1.0
 37
0.0
 76
     0
330
1F
331
29
  0
MATERIAL
  5
45
102
{ACAD_REACTORS
330
43
102
}
330
43
100
AcDbMaterial
  1
ByBlock
 72
     1
 94
      127
  0
MATERIAL
  5
44
102
{ACAD_REACTORS
330
43
102
}
330
43
100
AcDbMaterial
  1
ByLayer
 72
     1
 94
      127
  0
MATERIAL
  5
46
102
{ACAD_REACTORS
330
43
102
}
330
43
100
AcDbMaterial
  1
Global
 72
     1
 94
      127
  0
MLEADERSTYLE
  5
6C
102
{ACAD_REACTORS
330
6B
102
}
330
6B
100
AcDbMLeaderStyle
179
     2
170
     2
171
     1
172
     0
 90
        2
 40
0.0
 41
0.0
173
     1
 91
-1056964608
340
14
 92
       -2
290
     1
 42
0.09
291
     1
 43
0.36
  3
Standard
341
0
 44
0.18
300

342
11
174
     1
178
     6
175
     1
176
     0
 93
-1056964608
 45
0.18
292
     0
297
     0
 46
0.18
343
0
 94
-1056964608
 47
1.0
 49
1.0
140
1.0
293
     1
141
0.0
294
     1
177
     0
142
1.0
295
     0
296
     0
143
0.125
271
     0
272
     9
273
     9
298
     0
  0
MLINESTYLE
  5
18
102
{ACAD_REACTORS
330
17
102
}
330
17
100
AcDbMlineStyle
  2
Standard
 70
     0
  3

 62
   256
 51
90.0
 52
90.0
 71
     2
 49
0.5
 62
   256
  6
BYLAYER
 49
-0.5
 62
   256
  6
BYLAYER
  0
ACDBPLACEHOLDER
  5
F
102
{ACAD_REACTORS
330
E
102
}
330
E
  0
SCALE
  5
48
102
{ACAD_REACTORS
330
47
102
}
330
47
100
AcDbScale
 70
     0
300
1:1
140
1.0
141
1.0
290
     1
  0
SCALE
  5
49
102
{ACAD_REACTORS
330
47
102
}
330
47
100
AcDbScale
 70
     0
300
1:2
140
1.0
141
2.0
290
     0
  0
SCALE
  5
4A
102
{ACAD_REACTORS
330
47
102
}
330
47
100
AcDbScale
 70
     0
300
1:4
140
1.0
141
4.0
290
     0
  0
SCALE
  5
4B
102
{ACAD_REACTORS
330
47
102
}
330
47
100
AcDbScale
 70
     0
300
1:5
140
1.0
141
5.0
290
     0
  0
SCALE
  5
4C
102
{ACAD_REACTORS
330
47
102
}
330
47
100
AcDbScale
 70
     0
300
1:8
140
1.0
141
8.0
290
     0
  0
SCALE
  5
4D
102
{ACAD_REACTORS
330
47
102
}
330
47
100
AcDbScale
 70
     0
300
1:10
140
1.0
141
10.0
290
     0
  0
SCALE
  5
4E
102
{ACAD_REACTORS
330
47
102
}
330
47
100
AcDbScale
 70
     0
300
1:16
140
1.0
141
16.0
290
     0
  0
SCALE
  5
4F
102
{ACAD_REACTORS
330
47
102
}
330
47
100
AcDbScale
 70
     0
300
1:20
140
1.0
141
20.0
290
     0
  0
SCALE
  5
50
102
{ACAD_REACTORS
330
47
102
}
330
47
100
AcDbScale
 70
     0
300
1:30
140
1.0
141
30.0
290
     0
  0
SCALE
  5
51
102
{ACAD_REACTORS
330
47
102
}
330
47
100
AcDbScale
 70
     0
300
1:40
140
1.0
141
40.0
290
     0
  0
SCALE
  5
52
102
{ACAD_REACTORS
330
47
102
}
330
47
100
AcDbScale
 70
     0
300
1:50
140
1.0
141
50.0
290
     0
  0
SCALE
  5
53
102
{ACAD_REACTORS
330
47
102
}
330
47
100
AcDbScale
 70
     0
300
1:100
140
1.0
141
100.0
290
     0
  0
SCALE
  5
54
102
{ACAD_REACTORS
330
47
102
}
330
47
100
AcDbScale
 70
     0
300
2:1
140
2.0
141
1.0
290
     0
  0
SCALE
  5
55
102
{ACAD_REACTORS
330
47
102
}
330
47
100
AcDbScale
 70
     0
300
4:1
140
4.0
141
1.0
290
     0
  0
SCALE
  5
56
102
{ACAD_REACTORS
330
47
102
}
330
47
100
AcDbScale
 70
     0
300
8:1
140
8.0
141
1.0
290
     0
  0
SCALE
  5
57
102
{ACAD_REACTORS
330
47
102
}
330
47
100
AcDbScale
 70
     0
300
10:1
140
10.0
141
1.0
290
     0
  0
SCALE
  5
58
102
{ACAD_REACTORS
330
47
102
}
330
47
100
AcDbScale
 70
     0
300
100:1
140
100.0
141
1.0
290
     0
  0
SCALE
  5
59
102
{ACAD_REACTORS
330
47
102
}
330
47
100
AcDbScale
 70
     0
300
1/128" = 1'-0"
140
0.0078125
141
12.0
290
     0
  0
SCALE
  5
5A
102
{ACAD_REACTORS
330
47
102
}
330
47
100
AcDbScale
 70
     0
300
1/64" = 1'-0"
140
0.015625
141
12.0
290
     0
  0
SCALE
  5
5B
102
{ACAD_REACTORS
330
47
102
}
330
47
100
AcDbScale
 70
     0
300
1/32" = 1'-0"
140
0.03125
141
12.0
290
     0
  0
SCALE
  5
5C
102
{ACAD_REACTORS
330
47
102
}
330
47
100
AcDbScale
 70
     0
300
1/16" = 1'-0"
140
0.0625
141
12.0
290
     0
  0
SCALE
  5
5D
102
{ACAD_REACTORS
330
47
102
}
330
47
100
AcDbScale
 70
     0
300
3/32" = 1'-0"
140
0.09375
141
12.0
290
     0
  0
SCALE
  5
5E
102
{ACAD_REACTORS
330
47
102
}
330
47
100
AcDbScale
 70
     0
300
1/8" = 1'-0"
140
0.125
141
12.0
290
     0
  0
SCALE
  5
5F
102
{ACAD_REACTORS
330
47
102
}
330
47
100
AcDbScale
 70
     0
300
3/16" = 1'-0"
140
0.1875
141
12.0
290
     0
  0
SCALE
  5
60
102
{ACAD_REACTORS
330
47
102
}
330
47
100
AcDbScale
 70
     0
300
1/4" = 1'-0"
140
0.25
141
12.0
290
     0
  0
SCALE
  5
61
102
{ACAD_REACTORS
330
47
102
}
330
47
100
AcDbScale
 70
     0
300
3/8" = 1'-0"
140
0.375
141
12.0
290
     0
  0
SCALE
  5
62
102
{ACAD_REACTORS
330
47
102
}
330
47
100
AcDbScale
 70
     0
300
1/2" = 1'-0"
140
0.5
141
12.0
290
     0
  0
SCALE
  5
63
102
{ACAD_REACTORS
330
47
102
}
330
47
100
AcDbScale
 70
     0
300
3/4" = 1'-0"
140
0.75
141
12.0
290
     0
  0
SCALE
  5
64
102
{ACAD_REACTORS
330
47
102
}
330
47
100
AcDbScale
 70
     0
300
1" = 1'-0"
140
1.0
141
12.0
290
     0
  0
SCALE
  5
65
102
{ACAD_REACTORS
330
47
102
}
330
47
100
AcDbScale
 70
     0
300
1-1/2" = 1'-0"
140
1.5
141
12.0
290
     0
  0
SCALE
  5
66
102
{ACAD_REACTORS
330
47
102
}
330
47
100
AcDbScale
 70
     0
300
3" = 1'-0"
140
3.0
141
12.0
290
     0
  0
SCALE
  5
67
102
{ACAD_REACTORS
330
47
102
}
330
47
100
AcDbScale
 70
     0
300
6" = 1'-0"
140
6.0
141
12.0
290
     0
  0
SCALE
  5
68
102
{ACAD_REACTORS
330
47
102
}
330
47
100
AcDbScale
 70
     0
300
1'-0" = 1'-0"
140
12.0
141
12.0
290
     0
  0
TABLESTYLE
  5
6A
102
{ACAD_REACTORS
330
69
102
}
102
{ACAD_XDICTIONARY
360
22D
102
}
330
69
100
AcDbTableStyle
  3
Standard
 70
     0
 71
     0
 40
0.06
 41
0.06
280
     0
281
     0
  7
Standard
140
0.18
170
     2
 62
     0
 63
   257
283
     0
 90
        4
 91
        0
  1

274
    -2
284
     1
 64
     0
275
    -2
285
     1
 65
     0
276
    -2
286
     1
 66
     0
277
    -2
287
     1
 67
     0
278
    -2
288
     1
 68
     0
279
    -2
289
     1
 69
     0
  7
Standard
140
0.25
170
     5
 62
     0
 63
   257
283
     0
 90
        4
 91
        0
  1

274
    -2
284
     1
 64
     0
275
    -2
285
     1
 65
     0
276
    -2
286
     1
 66
     0
277
    -2
287
     1
 67
     0
278
    -2
288
     1
 68
     0
279
    -2
289
     1
 69
     0
  7
Standard
140
0.18
170
     5
 62
     0
 63
   257
283
     0
 90
        4
 91
        0
  1

274
    -2
284
     1
 64
     0
275
    -2
285
     1
 65
     0
276
    -2
286
     1
 66
     0
277
    -2
287
     1
 67
     0
278
    -2
288
     1
 68
     0
279
    -2
289
     1
 69
     0
  0
VISUALSTYLE
  5
2F
102
{ACAD_REACTORS
330
2A
102
}
330
2A
100
AcDbVisualStyle
  2
2dWireframe
 70
     4
177
     3
291
     0
 70
    58
 90
        0
176
     1
 90
        2
176
     1
 90
        0
176
     1
 90
        0
176
     1
 40
0.6
176
     1
 40
30.0
176
     1
 62
     7
420
 16777215
176
     1
 90
        1
176
     1
 90
        4
176
     1
 62
     7
176
     1
 62
   257
176
     1
 90
        1
176
     1
 90
        1
176
     1
 40
1.0
176
     1
 90
        0
176
     1
 62
   257
176
     1
 40
1.0
176
     1
 90
        1
176
     1
 90
        6
176
     1
 90
        2
176
     1
 62
     7
176
     1
 90
        5
176
     1
 90
        0
176
     1
 90
        0
176
     1
290
     0
176
     1
 90
        1
176
     1
 40
0.0
176
     1
 90
        0
176
     1
290
     1
176
     1
290
     1
176
     1
290
     0
176
     1
290
     0
176
     1
290
     0
176
     1
290
     0
176
     1
290
     0
176
     1
290
     0
176
     1
290
     0
176
     1
 90
       50
176
     1
 40
0.0
176
     1
 40
1.0
176
     1
 90
        0
176
     1
 62
    18
420
        0
176
     1
 90
       50
176
     1
 90
        3
176
     1
 62
     5
420
      255
176
     1
290
     0
176
     1
 90
       50
176
     1
 90
       50
176
     1
 90
       50
176
     1
290
     0
176
     1
 90
       50
176
     1
 62
   256
176
     0
 40
1.0
176
     0
 90
        2
176
     1
  1
strokes_ogs.tif
176
     1
290
     0
176
     1
 40
1.0
176
     1
 40
1.0
176
     1
  0
VISUALSTYLE
  5
32
102
{ACAD_REACTORS
330
2A
102
}
330
2A
100
AcDbVisualStyle
  2
Basic
 70
     7
177
     3
291
     1
 70
    58
 90
        1
176
     1
 90
        0
176
     1
 90
        1
176
     1
 90
        0
176
     1
 40
0.6
176
     1
 40
30.0
176
     1
 62
     7
420
 16777215
176
     1
 90
        0
176
     1
 90
        4
176
     1
 62
     7
176
     1
 62
   257
176
     1
 90
        1
176
     1
 90
        1
176
     1
 40
1.0
176
     1
 90
        8
176
     1
 62
     7
176
     1
 40
1.0
176
     1
 90
        1
176
     1
 90
        6
176
     1
 90
        2
176
     1
 62
     7
176
     1
 90
        5
176
     1
 90
        0
176
     1
 90
        0
176
     1
290
     0
176
     1
 90
        1
176
     1
 40
0.0
176
     1
 90
        0
176
     1
290
     0
176
     1
290
     1
176
     1
290
     1
176
     1
290
     0
176
     1
290
     0
176
     1
290
     0
176
     1
290
     0
176
     1
290
     0
176
     1
290
     0
176
     1
 90
       50
176
     1
 40
0.0
176
     1
 40
1.0
176
     1
 90
        0
176
     1
 62
    18
420
        0
176
     1
 90
       50
176
     1
 90
        3
176
     1
 62
     5
420
      255
176
     1
290
     0
176
     1
 90
       50
176
     1
 90
       50
176
     1
 90
       50
176
     1
290
     0
176
     1
 90
       50
176
     1
 62
   256
176
     0
 40
1.0
176
     0
 90
        2
176
     1
  1
strokes_ogs.tif
176
     1
290
     0
176
     1
 40
1.0
176
     1
 40
1.0
176
     1
  0
VISUALSTYLE
  5
36
102
{ACAD_REACTORS
330
2A
102
}
330
2A
100
AcDbVisualStyle
  2
Brighten
 70
    12
177
     3
291
     1
 70
    58
 90
        2
176
     1
 90
        2
176
     1
 90
        0
176
     1
 90
        0
176
     1
 40
0.6
176
     1
 40
30.0
176
     1
 62
     7
420
 16777215
176
     1
 90
        1
176
     1
 90
        4
176
     1
 62
     7
176
     1
 62
   257
176
     1
 90
        1
176
     1
 90
        1
176
     1
 40
1.0
176
     1
 90
        8
176
     1
 62
     7
176
     1
 40
1.0
176
     1
 90
        1
176
     1
 90
        6
176
     1
 90
        2
176
     1
 62
     7
176
     1
 90
        5
176
     1
 90
        0
176
     1
 90
        0
176
     1
290
     0
176
     1
 90
        1
176
     1
 40
50.0
176
     1
 90
        0
176
     1
290
     0
176
     1
290
     1
176
     1
290
     1
176
     1
290
     0
176
     1
290
     0
176
     1
290
     0
176
     1
290
     0
176
     1
290
     0
176
     1
290
     0
176
     1
 90
       50
176
     1
 40
0.0
176
     1
 40
1.0
176
     1
 90
        0
176
     1
 62
    18
420
        0
176
     1
 90
       50
176
     1
 90
        3
176
     1
 62
     5
420
      255
176
     1
290
     0
176
     1
 90
       50
176
     1
 90
       50
176
     1
 90
       50
176
     1
290
     0
176
     1
 90
       50
176
     1
 62
   256
176
     0
 40
1.0
176
     0
 90
        2
176
     1
  1
strokes_ogs.tif
176
     1
290
     0
176
     1
 40
1.0
176
     1
 40
1.0
176
     1
  0
VISUALSTYLE
  5
3A
102
{ACAD_REACTORS
330
2A
102
}
330
2A
100
AcDbVisualStyle
  2
ColorChange
 70
    16
177
     3
291
     1
 70
    58
 90
        2
176
     1
 90
        2
176
     1
 90
        3
176
     1
 90
        0
176
     1
 40
0.6
176
     1
 40
30.0
176
     1
 62
     8
420
  8421504
176
     1
 90
        1
176
     1
 90
        4
176
     1
 62
     7
176
     1
 62
   257
176
     1
 90
        1
176
     1
 90
        1
176
     1
 40
1.0
176
     1
 90
        8
176
     1
 62
     8
420
  8421504
176
     1
 40
1.0
176
     1
 90
        1
176
     1
 90
        6
176
     1
 90
        2
176
     1
 62
     7
176
     1
 90
        5
176
     1
 90
        0
176
     1
 90
        0
176
     1
290
     0
176
     1
 90
        1
176
     1
 40
0.0
176
     1
 90
        0
176
     1
290
     0
176
     1
290
     1
176
     1
290
     1
176
     1
290
     0
176
     1
290
     0
176
     1
290
     0
176
     1
290
     0
176
     1
290
     0
176
     1
290
     0
176
     1
 90
       50
176
     1
 40
0.0
176
     1
 40
1.0
176
     1
 90
        0
176
     1
 62
    18
420
        0
176
     1
 90
       50
176
     1
 90
        3
176
     1
 62
     5
420
      255
176
     1
290
     0
176
     1
 90
       50
176
     1
 90
       50
176
     1
 90
       50
176
     1
290
     0
176
     1
 90
       50
176
     1
 62
   256
176
     0
 40
1.0
176
     0
 90
        2
176
     1
  1
strokes_ogs.tif
176
     1
290
     0
176
     1
 40
1.0
176
     1
 40
1.0
176
     1
  0
VISUALSTYLE
  5
34
102
{ACAD_REACTORS
330
2A
102
}
330
2A
100
AcDbVisualStyle
  2
Conceptual
 70
     9
177
     3
291
     0
 70
    58
 90
        3
176
     1
 90
        2
176
     1
 90
        0
176
     1
 90
        0
176
     1
 40
0.6
176
     1
 40
30.0
176
     1
 62
     7
420
 16777215
176
     1
 90
        2
176
     1
 90
        2
176
     1
 62
     7
176
     1
 62
   257
176
     1
 90
        1
176
     1
 90
        1
176
     1
 40
179.0
176
     1
 90
        8
176
     1
 62
     7
176
     1
 40
1.0
176
     1
 90
        1
176
     1
 90
        6
176
     1
 90
        2
176
     1
 62
     7
176
     1
 90
        3
176
     1
 90
        0
176
     1
 90
        0
176
     1
290
     0
176
     1
 90
        1
176
     1
 40
0.0
176
     1
 90
        0
176
     1
290
     0
176
     1
290
     1
176
     1
290
     1
176
     1
290
     0
176
     1
290
     0
176
     1
290
     0
176
     1
290
     0
176
     1
290
     0
176
     1
290
     0
176
     1
 90
       50
176
     1
 40
0.0
176
     1
 40
1.0
176
     1
 90
        0
176
     1
 62
    18
420
        0
176
     1
 90
       50
176
     1
 90
        3
176
     1
 62
     5
420
      255
176
     1
290
     0
176
     1
 90
       50
176
     1
 90
       50
176
     1
 90
       50
176
     1
290
     0
176
     1
 90
       50
176
     1
 62
   256
176
     0
 40
1.0
176
     0
 90
        2
176
     1
  1
strokes_ogs.tif
176
     1
290
     0
176
     1
 40
1.0
176
     1
 40
1.0
176
     1
  0
VISUALSTYLE
  5
35
102
{ACAD_REACTORS
330
2A
102
}
330
2A
100
AcDbVisualStyle
  2
Dim
 70
    11
177
     3
291
     1
 70
    58
 90
        2
176
     1
 90
        2
176
     1
 90
        0
176
     1
 90
        0
176
     1
 40
0.6
176
     1
 40
30.0
176
     1
 62
     7
420
 16777215
176
     1
 90
        1
176
     1
 90
        4
176
     1
 62
     7
176
     1
 62
   257
176
     1
 90
        1
176
     1
 90
        1
176
     1
 40
1.0
176
     1
 90
        8
176
     1
 62
     7
176
     1
 40
1.0
176
     1
 90
        1
176
     1
 90
        6
176
     1
 90
        2
176
     1
 62
     7
176
     1
 90
        5
176
     1
 90
        0
176
     1
 90
        0
176
     1
290
     0
176
     1
 90
        1
176
     1
 40
-50.0
176
     1
 90
        0
176
     1
290
     0
176
     1
290
     1
176
     1
290
     1
176
     1
290
     0
176
     1
290
     0
176
     1
290
     0
176
     1
290
     0
176
     1
290
     0
176
     1
290
     0
176
     1
 90
       50
176
     1
 40
0.0
176
     1
 40
1.0
176
     1
 90
        0
176
     1
 62
    18
420
        0
176
     1
 90
       50
176
     1
 90
        3
176
     1
 62
     5
420
      255
176
     1
290
     0
176
     1
 90
       50
176
     1
 90
       50
176
     1
 90
       50
176
     1
290
     0
176
     1
 90
       50
176
     1
 62
   256
176
     0
 40
1.0
176
     0
 90
        2
176
     1
  1
strokes_ogs.tif
176
     1
290
     0
176
     1
 40
1.0
176
     1
 40
1.0
176
     1
  0
VISUALSTYLE
  5
3D
102
{ACAD_REACTORS
330
2A
102
}
330
2A
100
AcDbVisualStyle
  2
EdgeColorOff
 70
    22
177
     3
291
     1
 70
    58
 90
        2
176
     0
 90
        2
176
     0
 90
        0
176
     0
 90
        0
176
     0
 40
0.6
176
     0
 40
30.0
176
     0
 62
     7
420
 16777215
176
     0
 90
        1
176
     0
 90
        4
176
     0
 62
     7
176
     0
 62
   257
176
     0
 90
        1
176
     0
 90
        1
176
     0
 40
1.0
176
     0
 90
        8
176
     2
 62
     7
176
     0
 40
1.0
176
     0
 90
        1
176
     0
 90
        6
176
     0
 90
        2
176
     0
 62
     7
176
     0
 90
        5
176
     0
 90
        0
176
     0
 90
        0
176
     0
290
     0
176
     0
 90
        1
176
     0
 40
0.0
176
     0
 90
        0
176
     0
290
     0
176
     0
290
     1
176
     0
290
     1
176
     0
290
     0
176
     0
290
     0
176
     0
290
     0
176
     0
290
     0
176
     0
290
     0
176
     0
290
     0
176
     0
 90
       50
176
     0
 40
0.0
176
     0
 40
1.0
176
     0
 90
        0
176
     0
 62
    18
420
        0
176
     0
 90
       50
176
     0
 90
        3
176
     0
 62
     5
420
      255
176
     0
290
     0
176
     0
 90
       50
176
     0
 90
       50
176
     0
 90
       50
176
     0
290
     0
176
     0
 90
       50
176
     0
 62
   256
176
     0
 40
1.0
176
     0
 90
        2
176
     0
  1
strokes_ogs.tif
176
     0
290
     0
176
     0
 40
1.0
176
     0
 40
1.0
176
     0
  0
VISUALSTYLE
  5
39
102
{ACAD_REACTORS
330
2A
102
}
330
2A
100
AcDbVisualStyle
  2
Facepattern
 70
    15
177
     3
291
     1
 70
    58
 90
        2
176
     1
 90
        2
176
     1
 90
        0
176
     1
 90
        0
176
     1
 40
0.6
176
     1
 40
30.0
176
     1
 62
     7
420
 16777215
176
     1
 90
        1
176
     1
 90
        4
176
     1
 62
     7
176
     1
 62
   257
176
     1
 90
        1
176
     1
 90
        1
176
     1
 40
1.0
176
     1
 90
        8
176
     1
 62
     7
176
     1
 40
1.0
176
     1
 90
        1
176
     1
 90
        6
176
     1
 90
        2
176
     1
 62
     7
176
     1
 90
        5
176
     1
 90
        0
176
     1
 90
        0
176
     1
290
     0
176
     1
 90
        1
176
     1
 40
0.0
176
     1
 90
        0
176
     1
290
     0
176
     1
290
     1
176
     1
290
     1
176
     1
290
     0
176
     1
290
     0
176
     1
290
     0
176
     1
290
     0
176
     1
290
     0
176
     1
290
     0
176
     1
 90
       50
176
     1
 40
0.0
176
     1
 40
1.0
176
     1
 90
        0
176
     1
 62
    18
420
        0
176
     1
 90
       50
176
     1
 90
        3
176
     1
 62
     5
420
      255
176
     1
290
     0
176
     1
 90
       50
176
     1
 90
       50
176
     1
 90
       50
176
     1
290
     0
176
     1
 90
       50
176
     1
 62
   256
176
     0
 40
1.0
176
     0
 90
        2
176
     1
  1
strokes_ogs.tif
176
     1
290
     0
176
     1
 40
1.0
176
     1
 40
1.0
176
     1
  0
VISUALSTYLE
  5
2B
102
{ACAD_REACTORS
330
2A
102
}
330
2A
100
AcDbVisualStyle
  2
Flat
 70
     0
177
     3
291
     1
 70
    58
 90
        2
176
     1
 90
        1
176
     1
 90
        1
176
     1
 90
        2
176
     1
 40
0.6
176
     1
 40
30.0
176
     1
 62
     7
420
 16777215
176
     1
 90
        0
176
     1
 90
        0
176
     1
 62
     7
176
     1
 62
   257
176
     1
 90
        1
176
     1
 90
        1
176
     1
 40
1.0
176
     1
 90
        8
176
     1
 62
     7
176
     1
 40
1.0
176
     1
 90
        1
176
     1
 90
        6
176
     1
 90
        2
176
     1
 62
     7
176
     1
 90
        5
176
     1
 90
        0
176
     1
 90
        0
176
     1
290
     0
176
     1
 90
       13
176
     1
 40
0.0
176
     1
 90
        0
176
     1
290
     0
176
     1
290
     1
176
     1
290
     1
176
     1
290
     0
176
     1
290
     0
176
     1
290
     0
176
     1
290
     0
176
     1
290
     0
176
     1
290
     0
176
     1
 90
       50
176
     1
 40
0.0
176
     1
 40
1.0
176
     1
 90
        0
176
     1
 62
    18
420
        0
176
     1
 90
       50
176
     1
 90
        3
176
     1
 62
     5
420
      255
176
     1
290
     0
176
     1
 90
       50
176
     1
 90
       50
176
     1
 90
       50
176
     1
290
     0
176
     1
 90
       50
176
     1
 62
   256
176
     0
 40
1.0
176
     0
 90
        2
176
     1
  1
strokes_ogs.tif
176
     1
290
     0
176
     1
 40
1.0
176
     1
 40
1.0
176
     1
  0
VISUALSTYLE
  5
2C
102
{ACAD_REACTORS
330
2A
102
}
330
2A
100
AcDbVisualStyle
  2
FlatWithEdges
 70
     1
177
     3
291
     1
 70
    58
 90
        2
176
     1
 90
        1
176
     1
 90
        1
176
     1
 90
        2
176
     1
 40
0.6
176
     1
 40
30.0
176
     1
 62
     7
420
 16777215
176
     1
 90
        1
176
     1
 90
        0
176
     1
 62
     7
176
     1
 62
   257
176
     1
 90
        1
176
     1
 90
        1
176
     1
 40
1.0
176
     1
 90
        0
176
     1
 62
   257
176
     1
 40
1.0
176
     1
 90
        1
176
     1
 90
        6
176
     1
 90
        2
176
     1
 62
     7
176
     1
 90
        5
176
     1
 90
        0
176
     1
 90
        0
176
     1
290
     0
176
     1
 90
       13
176
     1
 40
0.0
176
     1
 90
        0
176
     1
290
     0
176
     1
290
     1
176
     1
290
     1
176
     1
290
     0
176
     1
290
     0
176
     1
290
     0
176
     1
290
     0
176
     1
290
     0
176
     1
290
     0
176
     1
 90
       50
176
     1
 40
0.0
176
     1
 40
1.0
176
     1
 90
        0
176
     1
 62
    18
420
        0
176
     1
 90
       50
176
     1
 90
        3
176
     1
 62
     5
420
      255
176
     1
290
     0
176
     1
 90
       50
176
     1
 90
       50
176
     1
 90
       50
176
     1
290
     0
176
     1
 90
       50
176
     1
 62
   256
176
     0
 40
1.0
176
     0
 90
        2
176
     1
  1
strokes_ogs.tif
176
     1
290
     0
176
     1
 40
1.0
176
     1
 40
1.0
176
     1
  0
VISUALSTYLE
  5
2D
102
{ACAD_REACTORS
330
2A
102
}
330
2A
100
AcDbVisualStyle
  2
Gouraud
 70
     2
177
     3
291
     1
 70
    58
 90
        2
176
     1
 90
        2
176
     1
 90
        1
176
     1
 90
        2
176
     1
 40
0.6
176
     1
 40
30.0
176
     1
 62
     7
420
 16777215
176
     1
 90
        0
176
     1
 90
        0
176
     1
 62
     7
176
     1
 62
   257
176
     1
 90
        1
176
     1
 90
        1
176
     1
 40
1.0
176
     1
 90
        0
176
     1
 62
     7
176
     1
 40
1.0
176
     1
 90
        1
176
     1
 90
        6
176
     1
 90
        2
176
     1
 62
     7
176
     1
 90
        5
176
     1
 90
        0
176
     1
 90
        0
176
     1
290
     0
176
     1
 90
       13
176
     1
 40
0.0
176
     1
 90
        0
176
     1
290
     0
176
     1
290
     1
176
     1
290
     1
176
     1
290
     0
176
     1
290
     0
176
     1
290
     0
176
     1
290
     0
176
     1
290
     0
176
     1
290
     0
176
     1
 90
       50
176
     1
 40
0.0
176
     1
 40
1.0
176
     1
 90
        0
176
     1
 62
    18
420
        0
176
     1
 90
       50
176
     1
 90
        3
176
     1
 62
     5
420
      255
176
     1
290
     0
176
     1
 90
       50
176
     1
 90
       50
176
     1
 90
       50
176
     1
290
     0
176
     1
 90
       50
176
     1
 62
   256
176
     0
 40
1.0
176
     0
 90
        2
176
     1
  1
strokes_ogs.tif
176
     1
290
     0
176
     1
 40
1.0
176
     1
 40
1.0
176
     1
  0
VISUALSTYLE
  5
2E
102
{ACAD_REACTORS
330
2A
102
}
330
2A
100
AcDbVisualStyle
  2
GouraudWithEdges
 70
     3
177
     3
291
     1
 70
    58
 90
        2
176
     1
 90
        2
176
     1
 90
        1
176
     1
 90
        2
176
     1
 40
0.6
176
     1
 40
30.0
176
     1
 62
     7
420
 16777215
176
     1
 90
        1
176
     1
 90
        0
176
     1
 62
     7
176
     1
 62
   257
176
     1
 90
        1
176
     1
 90
        1
176
     1
 40
1.0
176
     1
 90
        0
176
     1
 62
   257
176
     1
 40
1.0
176
     1
 90
        1
176
     1
 90
        6
176
     1
 90
        2
176
     1
 62
     7
176
     1
 90
        5
176
     1
 90
        0
176
     1
 90
        0
176
     1
290
     0
176
     1
 90
       13
176
     1
 40
0.0
176
     1
 90
        0
176
     1
290
     0
176
     1
290
     1
176
     1
290
     1
176
     1
290
     0
176
     1
290
     0
176
     1
290
     0
176
     1
290
     0
176
     1
290
     0
176
     1
290
     0
176
     1
 90
       50
176
     1
 40
0.0
176
     1
 40
1.0
176
     1
 90
        0
176
     1
 62
    18
420
        0
176
     1
 90
       50
176
     1
 90
        3
176
     1
 62
     5
420
      255
176
     1
290
     0
176
     1
 90
       50
176
     1
 90
       50
176
     1
 90
       50
176
     1
290
     0
176
     1
 90
       50
176
     1
 62
   256
176
     0
 40
1.0
176
     0
 90
        2
176
     1
  1
strokes_ogs.tif
176
     1
290
     0
176
     1
 40
1.0
176
     1
 40
1.0
176
     1
  0
VISUALSTYLE
  5
31
102
{ACAD_REACTORS
330
2A
102
}
330
2A
100
AcDbVisualStyle
  2
Hidden
 70
     6
177
     3
291
     0
 70
    58
 90
        1
176
     1
 90
        2
176
     1
 90
        2
176
     1
 90
        0
176
     1
 40
0.6
176
     1
 40
30.0
176
     1
 62
     7
420
 16777215
176
     1
 90
        2
176
     1
 90
        2
176
     1
 62
     7
176
     1
 62
   257
176
     1
 90
        2
176
     1
 90
        1
176
     1
 40
40.0
176
     1
 90
        0
176
     1
 62
   257
176
     1
 40
1.0
176
     1
 90
        1
176
     1
 90
        6
176
     1
 90
        2
176
     1
 62
     7
176
     1
 90
        3
176
     1
 90
        0
176
     1
 90
        0
176
     1
290
     0
176
     1
 90
        1
176
     1
 40
0.0
176
     1
 90
        0
176
     1
290
     0
176
     1
290
     1
176
     1
290
     1
176
     1
290
     0
176
     1
290
     0
176
     1
290
     0
176
     1
290
     0
176
     1
290
     0
176
     1
290
     0
176
     1
 90
       50
176
     1
 40
0.0
176
     1
 40
1.0
176
     1
 90
        0
176
     1
 62
    18
420
        0
176
     1
 90
       50
176
     1
 90
        3
176
     1
 62
     5
420
      255
176
     1
290
     0
176
     1
 90
       50
176
     1
 90
       50
176
     1
 90
       50
176
     1
290
     0
176
     1
 90
       50
176
     1
 62
   256
176
     0
 40
1.0
176
     0
 90
        2
176
     1
  1
strokes_ogs.tif
176
     1
290
     0
176
     1
 40
1.0
176
     1
 40
1.0
176
     1
  0
VISUALSTYLE
  5
3B
102
{ACAD_REACTORS
330
2A
102
}
330
2A
100
AcDbVisualStyle
  2
JitterOff
 70
    20
177
     3
291
     1
 70
    58
 90
        2
176
     0
 90
        2
176
     0
 90
        0
176
     0
 90
        0
176
     0
 40
0.6
176
     0
 40
30.0
176
     0
 62
     7
420
 16777215
176
     0
 90
        1
176
     0
 90
        4
176
     0
 62
     7
176
     0
 62
   257
176
     0
 90
        1
176
     0
 90
        1
176
     0
 40
1.0
176
     0
 90
       10
176
     2
 62
     7
176
     0
 40
1.0
176
     0
 90
        1
176
     0
 90
        6
176
     0
 90
        2
176
     0
 62
     7
176
     0
 90
        5
176
     0
 90
        0
176
     0
 90
        0
176
     0
290
     0
176
     0
 90
        1
176
     0
 40
0.0
176
     0
 90
        0
176
     0
290
     0
176
     0
290
     1
176
     0
290
     1
176
     0
290
     0
176
     0
290
     0
176
     0
290
     0
176
     0
290
     0
176
     0
290
     0
176
     0
290
     0
176
     0
 90
       50
176
     0
 40
0.0
176
     0
 40
1.0
176
     0
 90
        0
176
     0
 62
    18
420
        0
176
     0
 90
       50
176
     0
 90
        3
176
     0
 62
     5
420
      255
176
     0
290
     0
176
     0
 90
       50
176
     0
 90
       50
176
     0
 90
       50
176
     0
290
     0
176
     0
 90
       50
176
     0
 62
   256
176
     0
 40
1.0
176
     0
 90
        2
176
     0
  1
strokes_ogs.tif
176
     0
290
     0
176
     0
 40
1.0
176
     0
 40
1.0
176
     0
  0
VISUALSTYLE
  5
38
102
{ACAD_REACTORS
330
2A
102
}
330
2A
100
AcDbVisualStyle
  2
Linepattern
 70
    14
177
     3
291
     1
 70
    58
 90
        2
176
     1
 90
        2
176
     1
 90
        0
176
     1
 90
        0
176
     1
 40
0.6
176
     1
 40
30.0
176
     1
 62
     7
420
 16777215
176
     1
 90
        1
176
     1
 90
        4
176
     1
 62
     7
176
     1
 62
   257
176
     1
 90
        7
176
     1
 90
        7
176
     1
 40
1.0
176
     1
 90
        8
176
     1
 62
     7
176
     1
 40
1.0
176
     1
 90
        1
176
     1
 90
        6
176
     1
 90
        2
176
     1
 62
     7
176
     1
 90
        5
176
     1
 90
        0
176
     1
 90
        0
176
     1
290
     0
176
     1
 90
        1
176
     1
 40
0.0
176
     1
 90
        0
176
     1
290
     0
176
     1
290
     1
176
     1
290
     1
176
     1
290
     0
176
     1
290
     0
176
     1
290
     0
176
     1
290
     0
176
     1
290
     0
176
     1
290
     0
176
     1
 90
       50
176
     1
 40
0.0
176
     1
 40
1.0
176
     1
 90
        0
176
     1
 62
    18
420
        0
176
     1
 90
       50
176
     1
 90
        3
176
     1
 62
     5
420
      255
176
     1
290
     0
176
     1
 90
       50
176
     1
 90
       50
176
     1
 90
       50
176
     1
290
     0
176
     1
 90
       50
176
     1
 62
   256
176
     0
 40
1.0
176
     0
 90
        2
176
     1
  1
strokes_ogs.tif
176
     1
290
     0
176
     1
 40
1.0
176
     1
 40
1.0
176
     1
  0
VISUALSTYLE
  5
3C
102
{ACAD_REACTORS
330
2A
102
}
330
2A
100
AcDbVisualStyle
  2
OverhangOff
 70
    21
177
     3
291
     1
 70
    58
 90
        2
176
     0
 90
        2
176
     0
 90
        0
176
     0
 90
        0
176
     0
 40
0.6
176
     0
 40
30.0
176
     0
 62
     7
420
 16777215
176
     0
 90
        1
176
     0
 90
        4
176
     0
 62
     7
176
     0
 62
   257
176
     0
 90
        1
176
     0
 90
        1
176
     0
 40
1.0
176
     0
 90
        9
176
     2
 62
     7
176
     0
 40
1.0
176
     0
 90
        1
176
     0
 90
        6
176
     0
 90
        2
176
     0
 62
     7
176
     0
 90
        5
176
     0
 90
        0
176
     0
 90
        0
176
     0
290
     0
176
     0
 90
        1
176
     0
 40
0.0
176
     0
 90
        0
176
     0
290
     0
176
     0
290
     1
176
     0
290
     1
176
     0
290
     0
176
     0
290
     0
176
     0
290
     0
176
     0
290
     0
176
     0
290
     0
176
     0
290
     0
176
     0
 90
       50
176
     0
 40
0.0
176
     0
 40
1.0
176
     0
 90
        0
176
     0
 62
    18
420
        0
176
     0
 90
       50
176
     0
 90
        3
176
     0
 62
     5
420
      255
176
     0
290
     0
176
     0
 90
       50
176
     0
 90
       50
176
     0
 90
       50
176
     0
290
     0
176
     0
 90
       50
176
     0
 62
   256
176
     0
 40
1.0
176
     0
 90
        2
176
     0
  1
strokes_ogs.tif
176
     0
290
     0
176
     0
 40
1.0
176
     0
 40
1.0
176
     0
  0
VISUALSTYLE
  5
33
102
{ACAD_REACTORS
330
2A
102
}
330
2A
100
AcDbVisualStyle
  2
Realistic
 70
     8
177
     3
291
     0
 70
    58
 90
        2
176
     1
 90
        3
176
     1
 90
        0
176
     1
 90
        2
176
     1
 40
0.6
176
     1
 40
30.0
176
     1
 62
     7
420
 16777215
176
     1
 90
        0
176
     1
 90
        0
176
     1
 62
     7
176
     1
 62
   257
176
     1
 90
        1
176
     1
 90
        1
176
     1
 40
1.0
176
     1
 90
        8
176
     1
 62
   257
176
     1
 40
1.0
176
     1
 90
        1
176
     1
 90
        6
176
     1
 90
        2
176
     1
 62
     7
176
     1
 90
        3
176
     1
 90
        0
176
     1
 90
        0
176
     1
290
     0
176
     1
 90
       13
176
     1
 40
0.0
176
     1
 90
        0
176
     1
290
     0
176
     1
290
     1
176
     1
290
     1
176
     1
290
     0
176
     1
290
     0
176
     1
290
     0
176
     1
290
     0
176
     1
290
     0
176
     1
290
     0
176
     1
 90
       50
176
     1
 40
0.0
176
     1
 40
1.0
176
     1
 90
        0
176
     1
 62
    18
420
        0
176
     1
 90
       50
176
     1
 90
        3
176
     1
 62
     5
420
      255
176
     1
290
     0
176
     1
 90
       50
176
     1
 90
       50
176
     1
 90
       50
176
     1
290
     0
176
     1
 90
       50
176
     1
 62
   256
176
     0
 40
1.0
176
     0
 90
        2
176
     1
  1
strokes_ogs.tif
176
     1
290
     0
176
     1
 40
1.0
176
     1
 40
1.0
176
     1
  0
VISUALSTYLE
  5
42
102
{ACAD_REACTORS
330
2A
102
}
330
2A
100
AcDbVisualStyle
  2
Shaded
 70
    27
177
     3
291
     0
 70
    58
 90
        2
176
     1
 90
        2
176
     1
 90
        1
176
     1
 90
        2
176
     1
 40
0.6
176
     1
 40
30.0
176
     1
 62
     7
420
 16777215
176
     1
 90
        0
176
     1
 90
        4
176
     1
 62
     7
176
     1
 62
   257
176
     1
 90
        1
176
     1
 90
        1
176
     1
 40
1.0
176
     1
 90
        8
176
     1
 62
   257
176
     1
 40
1.0
176
     1
 90
        1
176
     1
 90
        6
176
     1
 90
        2
176
     1
 62
     8
420
  7895160
176
     1
 90
        3
176
     1
 90
        0
176
     1
 90
        0
176
     1
290
     0
176
     1
 90
        5
176
     1
 40
0.0
176
     1
 90
        0
176
     1
290
     0
176
     1
290
     1
176
     1
290
     1
176
     1
290
     0
176
     1
290
     0
176
     1
290
     0
176
     1
290
     0
176
     1
290
     0
176
     1
290
     0
176
     1
 90
       50
176
     1
 40
0.0
176
     1
 40
1.0
176
     1
 90
        0
176
     1
 62
    18
420
        0
176
     1
 90
       50
176
     1
 90
        3
176
     1
 62
     5
420
      255
176
     1
290
     0
176
     1
 90
       50
176
     1
 90
       50
176
     1
 90
       50
176
     1
290
     0
176
     1
 90
       50
176
     1
 62
   256
176
     0
 40
1.0
176
     0
 90
        2
176
     1
  1
strokes_ogs.tif
176
     1
290
     0
176
     1
 40
1.0
176
     1
 40
1.0
176
     1
  0
VISUALSTYLE
  5
41
102
{ACAD_REACTORS
330
2A
102
}
330
2A
100
AcDbVisualStyle
  2
Shaded with edges
 70
    26
177
     3
291
     0
 70
    58
 90
        2
176
     1
 90
        2
176
     1
 90
        1
176
     1
 90
        2
176
     1
 40
0.6
176
     1
 40
30.0
176
     1
 62
     7
420
 16777215
176
     1
 90
        1
176
     1
 90
       10
176
     1
 62
     7
176
     1
 62
   257
176
     1
 90
        2
176
     1
 90
        1
176
     1
 40
1.0
176
     1
 90
        8
176
     1
 62
   257
176
     1
 40
1.0
176
     1
 90
        1
176
     1
 90
        6
176
     1
 90
        2
176
     1
 62
     7
176
     1
 90
        3
176
     1
 90
        0
176
     1
 90
        0
176
     1
290
     0
176
     1
 90
        5
176
     1
 40
0.0
176
     1
 90
        0
176
     1
290
     0
176
     1
290
     1
176
     1
290
     1
176
     1
290
     0
176
     1
290
     0
176
     1
290
     0
176
     1
290
     0
176
     1
290
     0
176
     1
290
     0
176
     1
 90
       50
176
     1
 40
0.0
176
     1
 40
1.0
176
     1
 90
        0
176
     1
 62
    18
420
        0
176
     1
 90
       50
176
     1
 90
        3
176
     1
 62
     5
420
      255
176
     1
290
     0
176
     1
 90
       50
176
     1
 90
       50
176
     1
 90
       50
176
     1
290
     0
176
     1
 90
       50
176
     1
 62
   256
176
     0
 40
1.0
176
     0
 90
        2
176
     1
  1
strokes_ogs.tif
176
     1
290
     0
176
     1
 40
1.0
176
     1
 40
1.0
176
     1
  0
VISUALSTYLE
  5
3E
102
{ACAD_REACTORS
330
2A
102
}
330
2A
100
AcDbVisualStyle
  2
Shades of Gray
 70
    23
177
     3
291
     0
 70
    58
 90
        2
176
     1
 90
        2
176
     1
 90
        3
176
     1
 90
        0
176
     1
 40
0.6
176
     1
 40
30.0
176
     1
 62
     7
420
 16777215
176
     1
 90
        2
176
     1
 90
        2
176
     1
 62
     7
176
     1
 62
     7
176
     1
 90
        1
176
     1
 90
        1
176
     1
 40
40.0
176
     1
 90
        8
176
     1
 62
     7
176
     1
 40
1.0
176
     1
 90
        1
176
     1
 90
        6
176
     1
 90
        2
176
     1
 62
     7
176
     1
 90
        3
176
     1
 90
        0
176
     1
 90
        0
176
     1
290
     0
176
     1
 90
        1
176
     1
 40
0.0
176
     1
 90
        0
176
     1
290
     0
176
     1
290
     1
176
     1
290
     1
176
     1
290
     0
176
     1
290
     0
176
     1
290
     0
176
     1
290
     0
176
     1
290
     0
176
     1
290
     0
176
     1
 90
       50
176
     1
 40
0.0
176
     1
 40
1.0
176
     1
 90
        0
176
     1
 62
    18
420
        0
176
     1
 90
       50
176
     1
 90
        3
176
     1
 62
     5
420
      255
176
     1
290
     0
176
     1
 90
       50
176
     1
 90
       50
176
     1
 90
       50
176
     1
290
     0
176
     1
 90
       50
176
     1
 62
   256
176
     0
 40
1.0
176
     0
 90
        2
176
     1
  1
strokes_ogs.tif
176
     1
290
     0
176
     1
 40
1.0
176
     1
 40
1.0
176
     1
  0
VISUALSTYLE
  5
3F
102
{ACAD_REACTORS
330
2A
102
}
330
2A
100
AcDbVisualStyle
  2
Sketchy
 70
    24
177
     3
291
     0
 70
    58
 90
        1
176
     1
 90
        2
176
     1
 90
        2
176
     1
 90
        0
176
     1
 40
0.6
176
     1
 40
30.0
176
     1
 62
     7
420
 16777215
176
     1
 90
        2
176
     1
 90
        2
176
     1
 62
     7
176
     1
 62
     7
176
     1
 90
        1
176
     1
 90
        1
176
     1
 40
40.0
176
     1
 90
       11
176
     1
 62
     7
176
     1
 40
1.0
176
     1
 90
        1
176
     1
 90
        6
176
     1
 90
        2
176
     1
 62
     7
176
     1
 90
        6
176
     1
 90
        0
176
     1
 90
        0
176
     1
290
     0
176
     1
 90
        1
176
     1
 40
0.0
176
     1
 90
        0
176
     1
290
     0
176
     1
290
     1
176
     1
290
     1
176
     1
290
     0
176
     1
290
     0
176
     1
290
     0
176
     1
290
     0
176
     1
290
     0
176
     1
290
     0
176
     1
 90
       50
176
     1
 40
0.0
176
     1
 40
1.0
176
     1
 90
        0
176
     1
 62
    18
420
        0
176
     1
 90
       50
176
     1
 90
        3
176
     1
 62
     5
420
      255
176
     1
290
     0
176
     1
 90
       50
176
     1
 90
       50
176
     1
 90
       50
176
     1
290
     0
176
     1
 90
       50
176
     1
 62
   256
176
     0
 40
1.0
176
     0
 90
        2
176
     1
  1
strokes_ogs.tif
176
     1
290
     0
176
     1
 40
1.0
176
     1
 40
1.0
176
     1
  0
VISUALSTYLE
  5
37
102
{ACAD_REACTORS
330
2A
102
}
330
2A
100
AcDbVisualStyle
  2
Thicken
 70
    13
177
     3
291
     1
 70
    58
 90
        2
176
     1
 90
        2
176
     1
 90
        0
176
     1
 90
        0
176
     1
 40
0.6
176
     1
 40
30.0
176
     1
 62
     7
420
 16777215
176
     1
 90
        1
176
     1
 90
        4
176
     1
 62
     7
176
     1
 62
   257
176
     1
 90
        1
176
     1
 90
        1
176
     1
 40
1.0
176
     1
 90
       12
176
     1
 62
     7
176
     1
 40
1.0
176
     1
 90
        1
176
     1
 90
        6
176
     1
 90
        2
176
     1
 62
     7
176
     1
 90
        5
176
     1
 90
        0
176
     1
 90
        0
176
     1
290
     0
176
     1
 90
        1
176
     1
 40
0.0
176
     1
 90
        0
176
     1
290
     0
176
     1
290
     1
176
     1
290
     1
176
     1
290
     0
176
     1
290
     0
176
     1
290
     0
176
     1
290
     0
176
     1
290
     0
176
     1
290
     0
176
     1
 90
       50
176
     1
 40
0.0
176
     1
 40
1.0
176
     1
 90
        0
176
     1
 62
    18
420
        0
176
     1
 90
       50
176
     1
 90
        3
176
     1
 62
     5
420
      255
176
     1
290
     0
176
     1
 90
       50
176
     1
 90
       50
176
     1
 90
       50
176
     1
290
     0
176
     1
 90
       50
176
     1
 62
   256
176
     0
 40
1.0
176
     0
 90
        2
176
     1
  1
strokes_ogs.tif
176
     1
290
     0
176
     1
 40
1.0
176
     1
 40
1.0
176
     1
  0
VISUALSTYLE
  5
30
102
{ACAD_REACTORS
330
2A
102
}
330
2A
100
AcDbVisualStyle
  2
Wireframe
 70
     5
177
     3
291
     0
 70
    58
 90
        0
176
     1
 90
        2
176
     1
 90
        0
176
     1
 90
        0
176
     1
 40
0.6
176
     1
 40
30.0
176
     1
 62
     7
420
 16777215
176
     1
 90
        1
176
     1
 90
        4
176
     1
 62
     7
176
     1
 62
   257
176
     1
 90
        1
176
     1
 90
        1
176
     1
 40
1.0
176
     1
 90
        0
176
     1
 62
   257
176
     1
 40
1.0
176
     1
 90
        1
176
     1
 90
        6
176
     1
 90
        2
176
     1
 62
     7
176
     1
 90
        3
176
     1
 90
        0
176
     1
 90
        0
176
     1
290
     0
176
     1
 90
        1
176
     1
 40
0.0
176
     1
 90
        0
176
     1
290
     0
176
     1
290
     1
176
     1
290
     1
176
     1
290
     0
176
     1
290
     0
176
     1
290
     0
176
     1
290
     0
176
     1
290
     0
176
     1
290
     0
176
     1
 90
       50
176
     1
 40
0.0
176
     1
 40
1.0
176
     1
 90
        0
176
     1
 62
    18
420
        0
176
     1
 90
       50
176
     1
 90
        3
176
     1
 62
     5
420
      255
176
     1
290
     0
176
     1
 90
       50
176
     1
 90
       50
176
     1
 90
       50
176
     1
290
     0
176
     1
 90
       50
176
     1
 62
   256
176
     0
 40
1.0
176
     0
 90
        2
176
     1
  1
strokes_ogs.tif
176
     1
290
     0
176
     1
 40
1.0
176
     1
 40
1.0
176
     1
  0
VISUALSTYLE
  5
40
102
{ACAD_REACTORS
330
2A
102
}
330
2A
100
AcDbVisualStyle
  2
X-Ray
 70
    25
177
     3
291
     0
 70
    58
 90
        2
176
     1
 90
        2
176
     1
 90
        1
176
     1
 90
        1
176
     1
 40
0.5
176
     1
 40
30.0
176
     1
 62
     7
420
 16777215
176
     1
 90
        1
176
     1
 90
        0
176
     1
 62
     7
176
     1
 62
   257
176
     1
 90
        1
176
     1
 90
        1
176
     1
 40
1.0
176
     1
 90
        8
176
     1
 62
     7
176
     1
 40
1.0
176
     1
 90
        1
176
     1
 90
        6
176
     1
 90
        2
176
     1
 62
     7
176
     1
 90
        3
176
     1
 90
        0
176
     1
 90
        0
176
     1
290
     0
176
     1
 90
       13
176
     1
 40
0.0
176
     1
 90
        0
176
     1
290
     0
176
     1
290
     1
176
     1
290
     1
176
     1
290
     0
176
     1
290
     0
176
     1
290
     0
176
     1
290
     0
176
     1
290
     0
176
     1
290
     0
176
     1
 90
       50
176
     1
 40
0.0
176
     1
 40
1.0
176
     1
 90
        0
176
     1
 62
    18
420
        0
176
     1
 90
       50
176
     1
 90
        3
176
     1
 62
     5
420
      255
176
     1
290
     0
176
     1
 90
       50
176
     1
 90
       50
176
     1
 90
       50
176
     1
290
     0
176
     1
 90
       50
176
     1
 62
   256
176
     0
 40
1.0
176
     0
 90
        2
176
     1
  1
strokes_ogs.tif
176
     1
290
     0
176
     1
 40
1.0
176
     1
 40
1.0
176
     1
  0
DICTIONARYVAR
  5
22C
102
{ACAD_REACTORS
330
22B
102
}
330
22B
100
DictionaryVariables
280
     0
  1
1:1
  0
DICTIONARYVAR
  5
231
102
{ACAD_REACTORS
330
22B
102
}
330
22B
100
DictionaryVariables
280
     0
  1
Standard
  0
DICTIONARYVAR
  5
230
102
{ACAD_REACTORS
330
22B
102
}
330
22B
100
DictionaryVariables
280
     0
  1
Standard
  0
DICTIONARY
  5
22D
330
6A
100
AcDbDictionary
280
     1
281
     1
  3
ACAD_ROUNDTRIP_2008_TABLESTYLE_CELLSTYLEMAP
360
22E
  0
CELLSTYLEMAP
  5
22E
102
{ACAD_REACTORS
330
22D
102
}
330
22D
100
AcDbCellStyleMap
 90
        3
300
CELLSTYLE
  1
TABLEFORMAT_BEGIN
 90
        5
170
     1
 91
        0
 92
    32768
 62
   257
 93
        1
300
CONTENTFORMAT
  1
CONTENTFORMAT_BEGIN
 90
        0
 91
        0
 92
        4
 93
        0
300

 40
0.0
140
1.0
 94
        5
 62
     0
340
11
144
0.25
309
CONTENTFORMAT_END
171
     1
301
MARGIN
  1
CELLMARGIN_BEGIN
 40
0.06
 40
0.06
 40
0.06
 40
0.06
 40
0.06
 40
0.06
309
CELLMARGIN_END
 94
        6
 95
        1
302
GRIDFORMAT
  1
GRIDFORMAT_BEGIN
 90
        0
 91
        1
 62
     0
 92
       -2
340
14
 93
        0
 40
0.045
309
GRIDFORMAT_END
 95
        2
302
GRIDFORMAT
  1
GRIDFORMAT_BEGIN
 90
        0
 91
        1
 62
     0
 92
       -2
340
14
 93
        0
 40
0.045
309
GRIDFORMAT_END
 95
        4
302
GRIDFORMAT
  1
GRIDFORMAT_BEGIN
 90
        0
 91
        1
 62
     0
 92
       -2
340
14
 93
        0
 40
0.045
309
GRIDFORMAT_END
 95
        8
302
GRIDFORMAT
  1
GRIDFORMAT_BEGIN
 90
        0
 91
        1
 62
     0
 92
       -2
340
14
 93
        0
 40
0.045
309
GRIDFORMAT_END
 95
       16
302
GRIDFORMAT
  1
GRIDFORMAT_BEGIN
 90
        0
 91
        1
 62
     0
 92
       -2
340
14
 93
        0
 40
0.045
309
GRIDFORMAT_END
 95
       32
302
GRIDFORMAT
  1
GRIDFORMAT_BEGIN
 90
        0
 91
        1
 62
     0
 92
       -2
340
14
 93
        0
 40
0.045
309
GRIDFORMAT_END
309
TABLEFORMAT_END
  1
CELLSTYLE_BEGIN
 90
        1
 91
        1
300
_TITLE
309
CELLSTYLE_END
300
CELLSTYLE
  1
TABLEFORMAT_BEGIN
 90
        5
170
     1
 91
        0
 92
        0
 62
   257
 93
        1
300
CONTENTFORMAT
  1
CONTENTFORMAT_BEGIN
 90
        0
 91
        0
 92
        4
 93
        0
300

 40
0.0
140
1.0
 94
        5
 62
     0
340
11
144
0.18
309
CONTENTFORMAT_END
171
     1
301
MARGIN
  1
CELLMARGIN_BEGIN
 40
0.06
 40
0.06
 40
0.06
 40
0.06
 40
0.06
 40
0.06
309
CELLMARGIN_END
 94
        6
 95
        1
302
GRIDFORMAT
  1
GRIDFORMAT_BEGIN
 90
        0
 91
        1
 62
     0
 92
       -2
340
14
 93
        0
 40
0.045
309
GRIDFORMAT_END
 95
        2
302
GRIDFORMAT
  1
GRIDFORMAT_BEGIN
 90
        0
 91
        1
 62
     0
 92
       -2
340
14
 93
        0
 40
0.045
309
GRIDFORMAT_END
 95
        4
302
GRIDFORMAT
  1
GRIDFORMAT_BEGIN
 90
        0
 91
        1
 62
     0
 92
       -2
340
14
 93
        0
 40
0.045
309
GRIDFORMAT_END
 95
        8
302
GRIDFORMAT
  1
GRIDFORMAT_BEGIN
 90
        0
 91
        1
 62
     0
 92
       -2
340
14
 93
        0
 40
0.045
309
GRIDFORMAT_END
 95
       16
302
GRIDFORMAT
  1
GRIDFORMAT_BEGIN
 90
        0
 91
        1
 62
     0
 92
       -2
340
14
 93
        0
 40
0.045
309
GRIDFORMAT_END
 95
       32
302
GRIDFORMAT
  1
GRIDFORMAT_BEGIN
 90
        0
 91
        1
 62
     0
 92
       -2
340
14
 93
        0
 40
0.045
309
GRIDFORMAT_END
309
TABLEFORMAT_END
  1
CELLSTYLE_BEGIN
 90
        2
 91
        1
300
_HEADER
309
CELLSTYLE_END
300
CELLSTYLE
  1
TABLEFORMAT_BEGIN
 90
        5
170
     1
 91
        0
 92
        0
 62
   257
 93
        1
300
CONTENTFORMAT
  1
CONTENTFORMAT_BEGIN
 90
        0
 91
        0
 92
        4
 93
        0
300

 40
0.0
140
1.0
 94
        2
 62
     0
340
11
144
0.18
309
CONTENTFORMAT_END
171
     1
301
MARGIN
  1
CELLMARGIN_BEGIN
 40
0.06
 40
0.06
 40
0.06
 40
0.06
 40
0.06
 40
0.06
309
CELLMARGIN_END
 94
        6
 95
        1
302
GRIDFORMAT
  1
GRIDFORMAT_BEGIN
 90
        0
 91
        1
 62
     0
 92
       -2
340
14
 93
        0
 40
0.045
309
GRIDFORMAT_END
 95
        2
302
GRIDFORMAT
  1
GRIDFORMAT_BEGIN
 90
        0
 91
        1
 62
     0
 92
       -2
340
14
 93
        0
 40
0.045
309
GRIDFORMAT_END
 95
        4
302
GRIDFORMAT
  1
GRIDFORMAT_BEGIN
 90
        0
 91
        1
 62
     0
 92
       -2
340
14
 93
        0
 40
0.045
309
GRIDFORMAT_END
 95
        8
302
GRIDFORMAT
  1
GRIDFORMAT_BEGIN
 90
        0
 91
        1
 62
     0
 92
       -2
340
14
 93
        0
 40
0.045
309
GRIDFORMAT_END
 95
       16
302
GRIDFORMAT
  1
GRIDFORMAT_BEGIN
 90
        0
 91
        1
 62
     0
 92
       -2
340
14
 93
        0
 40
0.045
309
GRIDFORMAT_END
 95
       32
302
GRIDFORMAT
  1
GRIDFORMAT_BEGIN
 90
        0
 91
        1
 62
     0
 92
       -2
340
14
 93
        0
 40
0.045
309
GRIDFORMAT_END
309
TABLEFORMAT_END
  1
CELLSTYLE_BEGIN
 90
        3
 91
        2
300
_DATA
309
CELLSTYLE_END
  0
ENDSEC
  0
EOF