0
SECTION
  2
HEADER
  9
$ACADVER
  1
AC1027
  9
$ACADMAINTVER
 70
     8
  9
$DWGCODEPAGE
  3
ANSI_1252
  9
$REQUIREDVERSIONS
160
                 0
  9
$COMMENTS
  1
File was created by Cadenas
  9
$CUSTOMPROPERTYTAG
  1
NN
  9
$CUSTOMPROPERTY
  1
S-2000 Wide Slot Take-Up Trident Seal
  9
$CUSTOMPROPERTYTAG
  1
NT
  9
$CUSTOMPROPERTY
  1
S-2000 Wide Slot Take-Up Bearing -Inch
  9
$CUSTOMPROPERTYTAG
  1
NB
  9
$CUSTOMPROPERTY
  1
070754
  9
$CUSTOMPROPERTYTAG
  1
NBSYN
  9
$CUSTOMPROPERTY
  1
$PN.
  9
$CUSTOMPROPERTYTAG
  1
LINA
  9
$CUSTOMPROPERTY
  1
070754
  9
$CUSTOMPROPERTYTAG
  1
SS
  9
$CUSTOMPROPERTY
  1
1-1/2
  9
$CUSTOMPROPERTYTAG
  1
PN
  9
$CUSTOMPROPERTY
  1
070754
  9
$CUSTOMPROPERTYTAG
  1
DESCRIPTION
  9
$CUSTOMPROPERTY
  1
WSTU-S2-108R
  9
$CUSTOMPROPERTYTAG
  1
EF
  9
$CUSTOMPROPERTY
  1
Non-Expansion Type
  9
$CUSTOMPROPERTYTAG
  1
ST
  9
$CUSTOMPROPERTY
  1
Contact Seal
  9
$CUSTOMPROPERTYTAG
  1
A
  9
$CUSTOMPROPERTY
  1
2-17/32
  9
$CUSTOMPROPERTYTAG
  1
B
  9
$CUSTOMPROPERTY
  1
5-1/16
  9
$CUSTOMPROPERTYTAG
  1
C
  9
$CUSTOMPROPERTY
  1
17/32
  9
$CUSTOMPROPERTYTAG
  1
D
  9
$CUSTOMPROPERTY
  1
2-3/4
  9
$CUSTOMPROPERTYTAG
  1
E
  9
$CUSTOMPROPERTY
  1
3-3/16
  9
$CUSTOMPROPERTYTAG
  1
F
  9
$CUSTOMPROPERTY
  1
7/8
  9
$CUSTOMPROPERTYTAG
  1
G
  9
$CUSTOMPROPERTY
  1
11/16
  9
$CUSTOMPROPERTYTAG
  1
H
  9
$CUSTOMPROPERTY
  1
5/8
  9
$CUSTOMPROPERTYTAG
  1
J
  9
$CUSTOMPROPERTY
  1
2-7/16
  9
$CUSTOMPROPERTYTAG
  1
K
  9
$CUSTOMPROPERTY
  1
1-7/16
  9
$CUSTOMPROPERTYTAG
  1
L
  9
$CUSTOMPROPERTY
  1
2-3/4
  9
$CUSTOMPROPERTYTAG
  1
M
  9
$CUSTOMPROPERTY
  1
3-1/2
  9
$CUSTOMPROPERTYTAG
  1
N
  9
$CUSTOMPROPERTY
  1
4-1/8
  9
$CUSTOMPROPERTYTAG
  1
R
  9
$CUSTOMPROPERTY
  1
2-47/64
  9
$CUSTOMPROPERTYTAG
  1
S
  9
$CUSTOMPROPERTY
  1
1-45/64
  9
$CUSTOMPROPERTYTAG
  1
T
  9
$CUSTOMPROPERTY
  1
2-1/16
  9
$CUSTOMPROPERTYTAG
  1
X
  9
$CUSTOMPROPERTY
  1
3/16
  9
$CUSTOMPROPERTYTAG
  1
Y
  9
$CUSTOMPROPERTY
  1
0.020
  9
$CUSTOMPROPERTYTAG
  1
Z
  9
$CUSTOMPROPERTY
  1
1-51/64
  9
$CUSTOMPROPERTYTAG
  1
COMPANY
  9
$CUSTOMPROPERTY
  1
baldor
  9
$INSBASE
 10
0.0
 20
0.0
 30
0.0
  9
$EXTMIN
 10
1.000000000000000E+20
 20
1.000000000000000E+20
 30
1.000000000000000E+20
  9
$EXTMAX
 10
-1.000000000000000E+20
 20
-1.000000000000000E+20
 30
-1.000000000000000E+20
  9
$LIMMIN
 10
0.0
 20
0.0
  9
$LIMMAX
 10
12.0
 20
9.0
  9
$ORTHOMODE
 70
     0
  9
$REGENMODE
 70
     1
  9
$FILLMODE
 70
     1
  9
$QTEXTMODE
 70
     0
  9
$MIRRTEXT
 70
     1
  9
$LTSCALE
 40
1.0
  9
$ATTMODE
 70
     1
  9
$TEXTSIZE
 40
0.2
  9
$TRACEWID
 40
0.05
  9
$TEXTSTYLE
  7
Standard
  9
$CLAYER
  8
0
  9
$CELTYPE
  6
ByLayer
  9
$CECOLOR
 62
   256
  9
$CELTSCALE
 40
1.0
  9
$DISPSILH
 70
     0
  9
$DIMSCALE
 40
1.0
  9
$DIMASZ
 40
0.18
  9
$DIMEXO
 40
0.0625
  9
$DIMDLI
 40
0.38
  9
$DIMRND
 40
0.0
  9
$DIMDLE
 40
0.0
  9
$DIMEXE
 40
0.18
  9
$DIMTP
 40
0.0
  9
$DIMTM
 40
0.0
  9
$DIMTXT
 40
0.18
  9
$DIMCEN
 40
0.09
  9
$DIMTSZ
 40
0.0
  9
$DIMTOL
 70
     0
  9
$DIMLIM
 70
     0
  9
$DIMTIH
 70
     1
  9
$DIMTOH
 70
     1
  9
$DIMSE1
 70
     0
  9
$DIMSE2
 70
     0
  9
$DIMTAD
 70
     0
  9
$DIMZIN
 70
     0
  9
$DIMBLK
  1

  9
$DIMASO
 70
     1
  9
$DIMSHO
 70
     1
  9
$DIMPOST
  1

  9
$DIMAPOST
  1

  9
$DIMALT
 70
     0
  9
$DIMALTD
 70
     2
  9
$DIMALTF
 40
25.4
  9
$DIMLFAC
 40
1.0
  9
$DIMTOFL
 70
     0
  9
$DIMTVP
 40
0.0
  9
$DIMTIX
 70
     0
  9
$DIMSOXD
 70
     0
  9
$DIMSAH
 70
     0
  9
$DIMBLK1
  1

  9
$DIMBLK2
  1

  9
$DIMSTYLE
  2
Standard
  9
$DIMCLRD
 70
     0
  9
$DIMCLRE
 70
     0
  9
$DIMCLRT
 70
     0
  9
$DIMTFAC
 40
1.0
  9
$DIMGAP
 40
0.09
  9
$DIMJUST
 70
     0
  9
$DIMSD1
 70
     0
  9
$DIMSD2
 70
     0
  9
$DIMTOLJ
 70
     1
  9
$DIMTZIN
 70
     0
  9
$DIMALTZ
 70
     0
  9
$DIMALTTZ
 70
     0
  9
$DIMUPT
 70
     0
  9
$DIMDEC
 70
     4
  9
$DIMTDEC
 70
     4
  9
$DIMALTU
 70
     2
  9
$DIMALTTD
 70
     2
  9
$DIMTXSTY
  7
Standard
  9
$DIMAUNIT
 70
     0
  9
$DIMADEC
 70
     0
  9
$DIMALTRND
 40
0.0
  9
$DIMAZIN
 70
     0
  9
$DIMDSEP
 70
    46
  9
$DIMATFIT
 70
     3
  9
$DIMFRAC
 70
     0
  9
$DIMLDRBLK
  1

  9
$DIMLUNIT
 70
     2
  9
$DIMLWD
 70
    -2
  9
$DIMLWE
 70
    -2
  9
$DIMTMOVE
 70
     0
  9
$DIMFXL
 40
1.0
  9
$DIMFXLON
 70
     0
  9
$DIMJOGANG
 40
0.7853981633974483
  9
$DIMTFILL
 70
     0
  9
$DIMTFILLCLR
 70
     0
  9
$DIMARCSYM
 70
     0
  9
$DIMLTYPE
  6

  9
$DIMLTEX1
  6

  9
$DIMLTEX2
  6

  9
$DIMTXTDIRECTION
 70
     0
  9
$LUNITS
 70
     2
  9
$LUPREC
 70
     4
  9
$SKETCHINC
 40
0.1
  9
$FILLETRAD
 40
0.5
  9
$AUNITS
 70
     0
  9
$AUPREC
 70
     0
  9
$MENU
  1
.
  9
$ELEVATION
 40
0.0
  9
$PELEVATION
 40
0.0
  9
$THICKNESS
 40
0.0
  9
$LIMCHECK
 70
     0
  9
$CHAMFERA
 40
0.0
  9
$CHAMFERB
 40
0.0
  9
$CHAMFERC
 40
0.0
  9
$CHAMFERD
 40
0.0
  9
$SKPOLY
 70
     0
  9
$TDCREATE
 40
2458168.983962836
  9
$TDUCREATE
 40
2458168.942296169
  9
$TDUPDATE
 40
2458168.983963021
  9
$TDUUPDATE
 40
2458168.942296354
  9
$TDINDWG
 40
0.0000000116
  9
$TDUSRTIMER
 40
0.0000000116
  9
$USRTIMER
 70
     1
  9
$ANGBASE
 50
0.0
  9
$ANGDIR
 70
     0
  9
$PDMODE
 70
     0
  9
$PDSIZE
 40
0.0
  9
$PLINEWID
 40
0.0
  9
$SPLFRAME
 70
     0
  9
$SPLINETYPE
 70
     6
  9
$SPLINESEGS
 70
     8
  9
$HANDSEED
  5
21F
  9
$SURFTAB1
 70
     6
  9
$SURFTAB2
 70
     6
  9
$SURFTYPE
 70
     6
  9
$SURFU
 70
     6
  9
$SURFV
 70
     6
  9
$UCSBASE
  2

  9
$UCSNAME
  2

  9
$UCSORG
 10
0.0
 20
0.0
 30
0.0
  9
$UCSXDIR
 10
1.0
 20
0.0
 30
0.0
  9
$UCSYDIR
 10
0.0
 20
1.0
 30
0.0
  9
$UCSORTHOREF
  2

  9
$UCSORTHOVIEW
 70
     0
  9
$UCSORGTOP
 10
0.0
 20
0.0
 30
0.0
  9
$UCSORGBOTTOM
 10
0.0
 20
0.0
 30
0.0
  9
$UCSORGLEFT
 10
0.0
 20
0.0
 30
0.0
  9
$UCSORGRIGHT
 10
0.0
 20
0.0
 30
0.0
  9
$UCSORGFRONT
 10
0.0
 20
0.0
 30
0.0
  9
$UCSORGBACK
 10
0.0
 20
0.0
 30
0.0
  9
$PUCSBASE
  2

  9
$PUCSNAME
  2

  9
$PUCSORG
 10
0.0
 20
0.0
 30
0.0
  9
$PUCSXDIR
 10
1.0
 20
0.0
 30
0.0
  9
$PUCSYDIR
 10
0.0
 20
1.0
 30
0.0
  9
$PUCSORTHOREF
  2

  9
$PUCSORTHOVIEW
 70
     0
  9
$PUCSORGTOP
 10
0.0
 20
0.0
 30
0.0
  9
$PUCSORGBOTTOM
 10
0.0
 20
0.0
 30
0.0
  9
$PUCSORGLEFT
 10
0.0
 20
0.0
 30
0.0
  9
$PUCSORGRIGHT
 10
0.0
 20
0.0
 30
0.0
  9
$PUCSORGFRONT
 10
0.0
 20
0.0
 30
0.0
  9
$PUCSORGBACK
 10
0.0
 20
0.0
 30
0.0
  9
$USERI1
 70
     0
  9
$USERI2
 70
     0
  9
$USERI3
 70
     0
  9
$USERI4
 70
     0
  9
$USERI5
 70
     0
  9
$USERR1
 40
0.0
  9
$USERR2
 40
0.0
  9
$USERR3
 40
0.0
  9
$USERR4
 40
0.0
  9
$USERR5
 40
0.0
  9
$WORLDVIEW
 70
     1
  9
$SHADEDGE
 70
     3
  9
$SHADEDIF
 70
    70
  9
$TILEMODE
 70
     1
  9
$MAXACTVP
 70
    64
  9
$PINSBASE
 10
0.0
 20
0.0
 30
0.0
  9
$PLIMCHECK
 70
     0
  9
$PEXTMIN
 10
1.000000000000000E+20
 20
1.000000000000000E+20
 30
1.000000000000000E+20
  9
$PEXTMAX
 10
-1.000000000000000E+20
 20
-1.000000000000000E+20
 30
-1.000000000000000E+20
  9
$PLIMMIN
 10
0.0
 20
0.0
  9
$PLIMMAX
 10
12.0
 20
9.0
  9
$UNITMODE
 70
     0
  9
$VISRETAIN
 70
     1
  9
$PLINEGEN
 70
     0
  9
$PSLTSCALE
 70
     1
  9
$TREEDEPTH
 70
  3020
  9
$CMLSTYLE
  2
Standard
  9
$CMLJUST
 70
     0
  9
$CMLSCALE
 40
1.0
  9
$PROXYGRAPHICS
 70
     1
  9
$MEASUREMENT
 70
     0
  9
$CELWEIGHT
370
    -1
  9
$ENDCAPS
280
     0
  9
$JOINSTYLE
280
     0
  9
$LWDISPLAY
290
     0
  9
$INSUNITS
 70
     1
  9
$HYPERLINKBASE
  1

  9
$STYLESHEET
  1

  9
$XEDIT
290
     1
  9
$CEPSNTYPE
380
     0
  9
$PSTYLEMODE
290
     1
  9
$FINGERPRINTGUID
  2
{210B2DCF-9DC6-41CD-BD84-4C1AF09C67D5}
  9
$VERSIONGUID
  2
{FAEB1C32-E019-11D5-929B-00C0DF256EC4}
  9
$EXTNAMES
290
     1
  9
$PSVPSCALE
 40
0.0
  9
$OLESTARTUP
290
     0
  9
$SORTENTS
280
   127
  9
$INDEXCTL
280
     0
  9
$HIDETEXT
280
     1
  9
$XCLIPFRAME
280
     2
  9
$HALOGAP
280
     0
  9
$OBSCOLOR
 70
   257
  9
$OBSLTYPE
280
     0
  9
$INTERSECTIONDISPLAY
280
     0
  9
$INTERSECTIONCOLOR
 70
   257
  9
$DIMASSOC
280
     2
  9
$PROJECTNAME
  1

  9
$CAMERADISPLAY
290
     0
  9
$LENSLENGTH
 40
50.0
  9
$CAMERAHEIGHT
 40
0.0
  9
$STEPSPERSEC
 40
2.0
  9
$STEPSIZE
 40
6.0
  9
$3DDWFPREC
 40
2.0
  9
$PSOLWIDTH
 40
0.25
  9
$PSOLHEIGHT
 40
4.0
  9
$LOFTANG1
 40
1.570796326794897
  9
$LOFTANG2
 40
1.570796326794897
  9
$LOFTMAG1
 40
0.0
  9
$LOFTMAG2
 40
0.0
  9
$LOFTPARAM
 70
     7
  9
$LOFTNORMALS
280
     1
  9
$LATITUDE
 40
37.795
  9
$LONGITUDE
 40
-122.394
  9
$NORTHDIRECTION
 40
0.0
  9
$TIMEZONE
 70
 -8000
  9
$LIGHTGLYPHDISPLAY
280
     1
  9
$TILEMODELIGHTSYNCH
280
     1
  9
$CMATERIAL
347
44
  9
$SOLIDHIST
280
     0
  9
$SHOWHIST
280
     1
  9
$DWFFRAME
280
     2
  9
$DGNFRAME
280
     2
  9
$REALWORLDSCALE
290
     1
  9
$INTERFERECOLOR
 62
   256
  9
$CSHADOW
280
     0
  9
$SHADOWPLANELOCATION
 40
0.0
  0
ENDSEC
  0
SECTION
  2
CLASSES
  0
CLASS
  1
ACDBDICTIONARYWDFLT
  2
AcDbDictionaryWithDefault
  3
ObjectDBX Classes
 90
        0
 91
        4
280
     0
281
     0
  0
CLASS
  1
VISUALSTYLE
  2
AcDbVisualStyle
  3
ObjectDBX Classes
 90
     4095
 91
        4
280
     0
281
     0
  0
CLASS
  1
MATERIAL
  2
AcDbMaterial
  3
ObjectDBX Classes
 90
     1153
 91
        4
280
     0
281
     0
  0
CLASS
  1
SCALE
  2
AcDbScale
  3
ObjectDBX Classes
 90
     1153
 91
        4
280
     0
281
     0
  0
CLASS
  1
TABLESTYLE
  2
AcDbTableStyle
  3
ObjectDBX Classes
 90
     4095
 91
        4
280
     0
281
     0
  0
CLASS
  1
MLEADERSTYLE
  2
AcDbMLeaderStyle
  3
ACDB_MLEADERSTYLE_CLASS
 90
     4095
 91
        4
280
     0
281
     0
  0
CLASS
  1
SUN
  2
AcDbSun
  3
SCENEOE
 90
     1153
 91
        4
280
     0
281
     0
  0
CLASS
  1
DICTIONARYVAR
  2
AcDbDictionaryVar
  3
ObjectDBX Classes
 90
        0
 91
        4
280
     0
281
     0
  0
CLASS
  1
CELLSTYLEMAP
  2
AcDbCellStyleMap
  3
ObjectDBX Classes
 90
     1152
 91
        4
280
     0
281
     0
  0
ENDSEC
  0
SECTION
  2
TABLES
  0
TABLE
  2
VPORT
  5
8
330
0
100
AcDbSymbolTable
 70
     1
  0
VPORT
  5
29
330
8
100
AcDbSymbolTableRecord
100
AcDbViewportTableRecord
  2
*Active
 70
     0
 10
0.0
 20
0.0
 11
1.0
 21
1.0
 12
0.4758019690774802
 22
-0.2051562499999999
 13
0.0
 23
0.0
 14
0.5
 24
0.5
 15
0.5
 25
0.5
 16
0.0
 26
0.0
 36
1.0
 17
0.0
 27
0.0
 37
0.0
 40
3.314043750000001
 41
1.691436702693482
 42
50.0
 43
0.0
 44
0.0
 50
0.0
 51
0.0
 71
     0
 72
   100
 73
     1
 74
     3
 75
     0
 76
     0
 77
     0
 78
     0
281
     0
 65
     1
110
0.0
120
0.0
130
0.0
111
1.0
121
0.0
131
0.0
112
0.0
122
1.0
132
0.0
 79
     0
146
0.0
348
2F
 60
     3
 61
     5
292
     1
282
     1
141
0.0
142
0.0
 63
   250
361
6D
  0
ENDTAB
  0
TABLE
  2
LTYPE
  5
5
330
0
100
AcDbSymbolTable
 70
     3
  0
LTYPE
  5
14
330
5
100
AcDbSymbolTableRecord
100
AcDbLinetypeTableRecord
  2
ByBlock
 70
     0
  3

 72
    65
 73
     0
 40
0.0
  0
LTYPE
  5
15
330
5
100
AcDbSymbolTableRecord
100
AcDbLinetypeTableRecord
  2
ByLayer
 70
     0
  3

 72
    65
 73
     0
 40
0.0
  0
LTYPE
  5
16
330
5
100
AcDbSymbolTableRecord
100
AcDbLinetypeTableRecord
  2
Continuous
 70
     0
  3
Solid line
 72
    65
 73
     0
 40
0.0
  0
LTYPE
  5
AA
330
5
100
AcDbSymbolTableRecord
100
AcDbLinetypeTableRecord
  2
Dashed
 70
     0
  3

 72
    65
 73
     2
 40
2.0
 49
1.0
 74
     0
 49
-1.0
 74
     0
  0
LTYPE
  5
BE
330
5
100
AcDbSymbolTableRecord
100
AcDbLinetypeTableRecord
  2
Center
 70
     0
  3

 72
    65
 73
     4
 40
1.5
 49
0.45
 74
     0
 49
-0.5
 74
     0
 49
0.05
 74
     0
 49
-0.5
 74
     0
  0
ENDTAB
  0
TABLE
  2
LAYER
  5
2
330
0
100
AcDbSymbolTable
 70
     7
  0
LAYER
  5
10
330
2
100
AcDbSymbolTableRecord
100
AcDbLayerTableRecord
  2
0
 70
     0
 62
     7
  6
Continuous
370
    -3
390
F
347
46
348
0
  0
LAYER
  5
72
330
2
100
AcDbSymbolTableRecord
100
AcDbLayerTableRecord
  2
AM_6
 70
     0
 62
    -2
  6
Continuous
370
    35
390
F
347
46
348
0
  0
LAYER
  5
AB
330
2
100
AcDbSymbolTableRecord
100
AcDbLayerTableRecord
  2
AM_9
 70
     0
 62
     6
  6
Dashed
370
    25
390
F
347
46
348
0
  0
LAYER
  5
BF
330
2
100
AcDbSymbolTableRecord
100
AcDbLayerTableRecord
  2
AM_7
 70
     0
 62
     7
  6
Center
370
    25
390
F
347
46
348
0
  0
LAYER
  5
C1
330
2
100
AcDbSymbolTableRecord
100
AcDbLayerTableRecord
  2
AM_4
 70
     0
 62
     7
  6
Continuous
370
    50
390
F
347
46
348
0
  0
LAYER
  5
D6
330
2
100
AcDbSymbolTableRecord
100
AcDbLayerTableRecord
  2
AM_5
 70
     0
 62
     3
  6
Continuous
370
    25
390
F
347
46
348
0
  0
LAYER
  5
20E
330
2
100
AcDbSymbolTableRecord
100
AcDbLayerTableRecord
  2
ConnectionPoints
 70
     0
 62
     7
  6
Continuous
370
    50
390
F
347
46
348
0
  0
ENDTAB
  0
TABLE
  2
STYLE
  5
3
330
0
100
AcDbSymbolTable
 70
     1
  0
STYLE
  5
11
330
3
100
AcDbSymbolTableRecord
100
AcDbTextStyleTableRecord
  2
Standard
 70
     0
 40
0.0
 41
1.0
 50
0.0
 71
     0
 42
0.2
  3
txt
  4

  0
ENDTAB
  0
TABLE
  2
VIEW
  5
6
330
0
100
AcDbSymbolTable
 70
     0
  0
ENDTAB
  0
TABLE
  2
UCS
  5
7
330
0
100
AcDbSymbolTable
 70
     0
  0
ENDTAB
  0
TABLE
  2
APPID
  5
9
330
0
100
AcDbSymbolTable
 70
     1
  0
APPID
  5
12
330
9
100
AcDbSymbolTableRecord
100
AcDbRegAppTableRecord
  2
ACAD
 70
     0
  0
ENDTAB
  0
TABLE
  2
DIMSTYLE
  5
A
330
0
100
AcDbSymbolTable
 70
     1
100
AcDbDimStyleTable
  0
DIMSTYLE
105
27
330
A
100
AcDbSymbolTableRecord
100
AcDbDimStyleTableRecord
  2
Standard
 70
     0
178
     0
340
11
  0
ENDTAB
  0
TABLE
  2
BLOCK_RECORD
  5
1
330
0
100
AcDbSymbolTable
 70
     6
  0
BLOCK_RECORD
  5
1F
330
1
100
AcDbSymbolTableRecord
100
AcDbBlockTableRecord
  2
*Model_Space
340
22
 70
     0
280
     1
281
     0
  0
BLOCK_RECORD
  5
1B
330
1
100
AcDbSymbolTableRecord
100
AcDbBlockTableRecord
  2
*Paper_Space
340
1E
 70
     0
280
     1
281
     0
  0
BLOCK_RECORD
  5
23
330
1
100
AcDbSymbolTableRecord
100
AcDbBlockTableRecord
  2
*Paper_Space0
340
26
 70
     0
280
     1
281
     0
  0
BLOCK_RECORD
  5
6E
330
1
100
AcDbSymbolTableRecord
100
AcDbBlockTableRecord
  2
1_070754_4
340
0
102
{BLKREFS
331
6F
102
}
 70
     0
280
     1
281
     0
  0
BLOCK_RECORD
  5
91
330
1
100
AcDbSymbolTableRecord
100
AcDbBlockTableRecord
  2
2_1_1_2CS2i_0_in_070754_4
340
0
102
{BLKREFS
331
92
102
}
 70
     0
280
     1
281
     0
  0
BLOCK_RECORD
  5
D8
330
1
100
AcDbSymbolTableRecord
100
AcDbBlockTableRecord
  2
3_070002i_0_in_070754_4
340
0
102
{BLKREFS
331
D9
102
}
 70
     0
280
     1
281
     0
  0
BLOCK_RECORD
  5
12A
330
1
100
AcDbSymbolTableRecord
100
AcDbBlockTableRecord
  2
4_405016_Inch_0_in_070754_4
340
0
102
{BLKREFS
331
12B
102
}
 70
     0
280
     1
281
     0
  0
BLOCK_RECORD
  5
1B0
330
1
100
AcDbSymbolTableRecord
100
AcDbBlockTableRecord
  2
5_070754H_0_in_070754_4
340
0
102
{BLKREFS
331
1B1
102
}
 70
     0
280
     1
281
     0
  0
ENDTAB
  0
ENDSEC
  0
SECTION
  2
BLOCKS
  0
BLOCK
  5
20
330
1F
100
AcDbEntity
  8
0
100
AcDbBlockBegin
  2
*Model_Space
 70
     0
 10
0.0
 20
0.0
 30
0.0
  3
*Model_Space
  1

  0
ENDBLK
  5
21
330
1F
100
AcDbEntity
  8
0
100
AcDbBlockEnd
  0
BLOCK
  5
1C
330
1B
100
AcDbEntity
 67
     1
  8
0
100
AcDbBlockBegin
  2
*Paper_Space
 70
     0
 10
0.0
 20
0.0
 30
0.0
  3
*Paper_Space
  1

  0
ENDBLK
  5
1D
330
1B
100
AcDbEntity
 67
     1
  8
0
100
AcDbBlockEnd
  0
BLOCK
  5
24
330
23
100
AcDbEntity
  8
0
100
AcDbBlockBegin
  2
*Paper_Space0
 70
     0
 10
0.0
 20
0.0
 30
0.0
  3
*Paper_Space0
  1

  0
ENDBLK
  5
25
330
23
100
AcDbEntity
  8
0
100
AcDbBlockEnd
  0
BLOCK
  5
70
330
6E
100
AcDbEntity
  8
0
100
AcDbBlockBegin
  2
1_070754_4
 70
     2
 10
0.0
 20
0.0
 30
0.0
  3
1_070754_4
  1

  0
ATTDEF
  5
73
330
6E
100
AcDbEntity
  8
AM_6
100
AcDbText
 10
8.22359375
 20
1.213235294117647
 30
0.0
 40
0.5
  1
S-2000 Wide Slot Take-Up Trident Seal
100
AcDbAttributeDefinition
  3

  2
NN
 70
     8
280
     0
  0
ATTDEF
  5
74
330
6E
100
AcDbEntity
  8
AM_6
100
AcDbText
 10
8.22359375
 20
0.7132352941176472
 30
0.0
 40
0.5
  1
S-2000 Wide Slot Take-Up Bearing -Inch
100
AcDbAttributeDefinition
  3

  2
NT
 70
     8
280
     0
  0
ATTDEF
  5
75
330
6E
100
AcDbEntity
  8
AM_6
100
AcDbText
 10
8.22359375
 20
0.2132352941176472
 30
0.0
 40
0.5
  1
070754
100
AcDbAttributeDefinition
  3

  2
NB
 70
     8
280
     0
  0
ATTDEF
  5
76
330
6E
100
AcDbEntity
  8
AM_6
100
AcDbText
 10
8.22359375
 20
-0.2867647058823528
 30
0.0
 40
0.5
  1
$PN.
100
AcDbAttributeDefinition
  3

  2
NBSYN
 70
     8
280
     0
  0
ATTDEF
  5
77
330
6E
100
AcDbEntity
  8
AM_6
100
AcDbText
 10
8.22359375
 20
-0.7867647058823528
 30
0.0
 40
0.5
  1
070754
100
AcDbAttributeDefinition
  3

  2
LINA
 70
     8
280
     0
  0
ATTDEF
  5
78
330
6E
100
AcDbEntity
  8
AM_6
100
AcDbText
 10
8.22359375
 20
-1.286764705882353
 30
0.0
 40
0.5
  1
1-1/2
100
AcDbAttributeDefinition
  3

  2
SS
 70
     8
280
     0
  0
ATTDEF
  5
79
330
6E
100
AcDbEntity
  8
AM_6
100
AcDbText
 10
8.22359375
 20
-1.786764705882353
 30
0.0
 40
0.5
  1
070754
100
AcDbAttributeDefinition
  3

  2
PN
 70
     8
280
     0
  0
ATTDEF
  5
7A
330
6E
100
AcDbEntity
  8
AM_6
100
AcDbText
 10
8.22359375
 20
-2.286764705882353
 30
0.0
 40
0.5
  1
WSTU-S2-108R
100
AcDbAttributeDefinition
  3

  2
DESCRIPTION
 70
     8
280
     0
  0
ATTDEF
  5
7B
330
6E
100
AcDbEntity
  8
AM_6
100
AcDbText
 10
8.22359375
 20
-2.786764705882353
 30
0.0
 40
0.5
  1
Non-Expansion Type
100
AcDbAttributeDefinition
  3

  2
EF
 70
     8
280
     0
  0
ATTDEF
  5
7C
330
6E
100
AcDbEntity
  8
AM_6
100
AcDbText
 10
8.22359375
 20
-3.286764705882353
 30
0.0
 40
0.5
  1
Contact Seal
100
AcDbAttributeDefinition
  3

  2
ST
 70
     8
280
     0
  0
ATTDEF
  5
7D
330
6E
100
AcDbEntity
  8
AM_6
100
AcDbText
 10
8.22359375
 20
-3.786764705882353
 30
0.0
 40
0.5
  1
2-17/32
100
AcDbAttributeDefinition
  3

  2
A
 70
     8
280
     0
  0
ATTDEF
  5
7E
330
6E
100
AcDbEntity
  8
AM_6
100
AcDbText
 10
8.22359375
 20
-4.286764705882353
 30
0.0
 40
0.5
  1
5-1/16
100
AcDbAttributeDefinition
  3

  2
B
 70
     8
280
     0
  0
ATTDEF
  5
7F
330
6E
100
AcDbEntity
  8
AM_6
100
AcDbText
 10
8.22359375
 20
-4.786764705882353
 30
0.0
 40
0.5
  1
17/32
100
AcDbAttributeDefinition
  3

  2
C
 70
     8
280
     0
  0
ATTDEF
  5
80
330
6E
100
AcDbEntity
  8
AM_6
100
AcDbText
 10
8.22359375
 20
-5.286764705882353
 30
0.0
 40
0.5
  1
2-3/4
100
AcDbAttributeDefinition
  3

  2
D
 70
     8
280
     0
  0
ATTDEF
  5
81
330
6E
100
AcDbEntity
  8
AM_6
100
AcDbText
 10
8.22359375
 20
-5.786764705882353
 30
0.0
 40
0.5
  1
3-3/16
100
AcDbAttributeDefinition
  3

  2
E
 70
     8
280
     0
  0
ATTDEF
  5
82
330
6E
100
AcDbEntity
  8
AM_6
100
AcDbText
 10
8.22359375
 20
-6.286764705882353
 30
0.0
 40
0.5
  1
7/8
100
AcDbAttributeDefinition
  3

  2
F
 70
     8
280
     0
  0
ATTDEF
  5
83
330
6E
100
AcDbEntity
  8
AM_6
100
AcDbText
 10
8.22359375
 20
-6.786764705882353
 30
0.0
 40
0.5
  1
11/16
100
AcDbAttributeDefinition
  3

  2
G
 70
     8
280
     0
  0
ATTDEF
  5
84
330
6E
100
AcDbEntity
  8
AM_6
100
AcDbText
 10
8.22359375
 20
-7.286764705882353
 30
0.0
 40
0.5
  1
5/8
100
AcDbAttributeDefinition
  3

  2
H
 70
     8
280
     0
  0
ATTDEF
  5
85
330
6E
100
AcDbEntity
  8
AM_6
100
AcDbText
 10
8.22359375
 20
-7.786764705882353
 30
0.0
 40
0.5
  1
2-7/16
100
AcDbAttributeDefinition
  3

  2
J
 70
     8
280
     0
  0
ATTDEF
  5
86
330
6E
100
AcDbEntity
  8
AM_6
100
AcDbText
 10
8.22359375
 20
-8.286764705882353
 30
0.0
 40
0.5
  1
1-7/16
100
AcDbAttributeDefinition
  3

  2
K
 70
     8
280
     0
  0
ATTDEF
  5
87
330
6E
100
AcDbEntity
  8
AM_6
100
AcDbText
 10
8.22359375
 20
-8.786764705882353
 30
0.0
 40
0.5
  1
2-3/4
100
AcDbAttributeDefinition
  3

  2
L
 70
     8
280
     0
  0
ATTDEF
  5
88
330
6E
100
AcDbEntity
  8
AM_6
100
AcDbText
 10
8.22359375
 20
-9.286764705882353
 30
0.0
 40
0.5
  1
3-1/2
100
AcDbAttributeDefinition
  3

  2
M
 70
     8
280
     0
  0
ATTDEF
  5
89
330
6E
100
AcDbEntity
  8
AM_6
100
AcDbText
 10
8.22359375
 20
-9.786764705882353
 30
0.0
 40
0.5
  1
4-1/8
100
AcDbAttributeDefinition
  3

  2
N
 70
     8
280
     0
  0
ATTDEF
  5
8A
330
6E
100
AcDbEntity
  8
AM_6
100
AcDbText
 10
8.22359375
 20
-10.28676470588235
 30
0.0
 40
0.5
  1
2-47/64
100
AcDbAttributeDefinition
  3

  2
R
 70
     8
280
     0
  0
ATTDEF
  5
8B
330
6E
100
AcDbEntity
  8
AM_6
100
AcDbText
 10
8.22359375
 20
-10.78676470588235
 30
0.0
 40
0.5
  1
1-45/64
100
AcDbAttributeDefinition
  3

  2
S
 70
     8
280
     0
  0
ATTDEF
  5
8C
330
6E
100
AcDbEntity
  8
AM_6
100
AcDbText
 10
8.22359375
 20
-11.28676470588235
 30
0.0
 40
0.5
  1
2-1/16
100
AcDbAttributeDefinition
  3

  2
T
 70
     8
280
     0
  0
ATTDEF
  5
8D
330
6E
100
AcDbEntity
  8
AM_6
100
AcDbText
 10
8.22359375
 20
-11.78676470588235
 30
0.0
 40
0.5
  1
3/16
100
AcDbAttributeDefinition
  3

  2
X
 70
     8
280
     0
  0
ATTDEF
  5
8E
330
6E
100
AcDbEntity
  8
AM_6
100
AcDbText
 10
8.22359375
 20
-12.28676470588235
 30
0.0
 40
0.5
  1
0.020
100
AcDbAttributeDefinition
  3

  2
Y
 70
     8
280
     0
  0
ATTDEF
  5
8F
330
6E
100
AcDbEntity
  8
AM_6
100
AcDbText
 10
8.22359375
 20
-12.78676470588235
 30
0.0
 40
0.5
  1
1-51/64
100
AcDbAttributeDefinition
  3

  2
Z
 70
     8
280
     0
  0
ATTDEF
  5
90
330
6E
100
AcDbEntity
  8
AM_6
100
AcDbText
 10
8.22359375
 20
-13.28676470588235
 30
0.0
 40
0.5
  1
baldor
100
AcDbAttributeDefinition
  3

  2
COMPANY
 70
     8
280
     0
  0
INSERT
  5
92
330
6E
100
AcDbEntity
  8
0
100
AcDbBlockReference
  2
2_1_1_2CS2i_0_in_070754_4
 10
0.0
 20
0.0
 30
0.0
  0
INSERT
  5
D9
330
6E
100
AcDbEntity
  8
0
100
AcDbBlockReference
  2
3_070002i_0_in_070754_4
 10
0.0
 20
0.0
 30
0.0
  0
INSERT
  5
12B
330
6E
100
AcDbEntity
  8
0
100
AcDbBlockReference
  2
4_405016_Inch_0_in_070754_4
 10
0.0
 20
0.0
 30
0.0
  0
INSERT
  5
1B1
330
6E
100
AcDbEntity
  8
0
100
AcDbBlockReference
  2
5_070754H_0_in_070754_4
 10
0.0
 20
0.0
 30
0.0
  0
ENDBLK
  5
71
330
6E
100
AcDbEntity
  8
0
100
AcDbBlockEnd
  0
BLOCK
  5
93
330
91
100
AcDbEntity
  8
0
100
AcDbBlockBegin
  2
2_1_1_2CS2i_0_in_070754_4
 70
     2
 10
0.0
 20
0.0
 30
0.0
  3
2_1_1_2CS2i_0_in_070754_4
  1

  0
ATTDEF
  5
95
330
91
100
AcDbEntity
  8
AM_6
100
AcDbText
 10
6.375
 20
-1.131125
 30
0.0
 40
0.5
  1
S-2000 Collar -Inch
100
AcDbAttributeDefinition
  3

  2
NN
 70
     8
280
     0
  0
ATTDEF
  5
96
330
91
100
AcDbEntity
  8
AM_6
100
AcDbText
 10
6.375
 20
-1.631125
 30
0.0
 40
0.5
  1
S-2000 Bearings
100
AcDbAttributeDefinition
  3

  2
NT
 70
     8
280
     0
  0
ATTDEF
  5
97
330
91
100
AcDbEntity
  8
AM_6
100
AcDbText
 10
6.375
 20
-2.131125
 30
0.0
 40
0.5
  1
1-1/2CS2i
100
AcDbAttributeDefinition
  3

  2
NB
 70
     8
280
     0
  0
ATTDEF
  5
98
330
91
100
AcDbEntity
  8
AM_6
100
AcDbText
 10
6.375
 20
-2.631125
 30
0.0
 40
0.5
  1
$BORE.CS2i
100
AcDbAttributeDefinition
  3

  2
NBSYN
 70
     8
280
     0
  0
ATTDEF
  5
99
330
91
100
AcDbEntity
  8
AM_6
100
AcDbText
 10
6.375
 20
-3.131125
 30
0.0
 40
0.5
  1
1-1/2CS2i
100
AcDbAttributeDefinition
  3

  2
LINA
 70
     8
280
     0
  0
ATTDEF
  5
9A
330
91
100
AcDbEntity
  8
AM_6
100
AcDbText
 10
6.375
 20
-3.631125
 30
0.0
 40
0.5
  1
1-1/2
100
AcDbAttributeDefinition
  3

  2
BORE
 70
     8
280
     0
  0
ATTDEF
  5
9B
330
91
100
AcDbEntity
  8
AM_6
100
AcDbText
 10
6.375
 20
-4.131125
 30
0.0
 40
0.5
  1
1.500000
100
AcDbAttributeDefinition
  3

  2
BORE1
 70
     8
280
     0
  0
ATTDEF
  5
9C
330
91
100
AcDbEntity
  8
AM_6
100
AcDbText
 10
6.375
 20
-4.631125
 30
0.0
 40
0.5
  1
2-3/4
100
AcDbAttributeDefinition
  3

  2
L1
 70
     8
280
     0
  0
ATTDEF
  5
9D
330
91
100
AcDbEntity
  8
AM_6
100
AcDbText
 10
6.375
 20
-5.131125
 30
0.0
 40
0.5
  1
2.75000
100
AcDbAttributeDefinition
  3

  2
L
 70
     8
280
     0
  0
ATTDEF
  5
9E
330
91
100
AcDbEntity
  8
AM_6
100
AcDbText
 10
6.375
 20
-5.631125
 30
0.0
 40
0.5
  1
2.65625
100
AcDbAttributeDefinition
  3

  2
L2
 70
     8
280
     0
  0
ATTDEF
  5
9F
330
91
100
AcDbEntity
  8
AM_6
100
AcDbText
 10
6.375
 20
-6.131125
 30
0.0
 40
0.5
  1
3.38
100
AcDbAttributeDefinition
  3

  2
A
 70
     8
280
     0
  0
ATTDEF
  5
A0
330
91
100
AcDbEntity
  8
AM_6
100
AcDbText
 10
6.375
 20
-6.631125
 30
0.0
 40
0.5
  1
1.50
100
AcDbAttributeDefinition
  3

  2
B
 70
     8
280
     0
  0
ATTDEF
  5
A1
330
91
100
AcDbEntity
  8
AM_6
100
AcDbText
 10
6.375
 20
-7.131125
 30
0.0
 40
0.5
  1
2.06
100
AcDbAttributeDefinition
  3

  2
C
 70
     8
280
     0
  0
ATTDEF
  5
A2
330
91
100
AcDbEntity
  8
AM_6
100
AcDbText
 10
6.375
 20
-7.631125
 30
0.0
 40
0.5
  1
3.25
100
AcDbAttributeDefinition
  3

  2
D
 70
     8
280
     0
  0
ATTDEF
  5
A3
330
91
100
AcDbEntity
  8
AM_6
100
AcDbText
 10
6.375
 20
-8.131125
 30
0.0
 40
0.5
  1
0.35
100
AcDbAttributeDefinition
  3

  2
E
 70
     8
280
     0
  0
ATTDEF
  5
A4
330
91
100
AcDbEntity
  8
AM_6
100
AcDbText
 10
6.375
 20
-8.631125
 30
0.0
 40
0.5
  1
0.286
100
AcDbAttributeDefinition
  3

  2
F
 70
     8
280
     0
  0
ATTDEF
  5
A5
330
91
100
AcDbEntity
  8
AM_6
100
AcDbText
 10
6.375
 20
-9.131125
 30
0.0
 40
0.5
  1
5/16-18
100
AcDbAttributeDefinition
  3

  2
CS
 70
     8
280
     0
  0
ATTDEF
  5
A6
330
91
100
AcDbEntity
  8
AM_6
100
AcDbText
 10
6.375
 20
-9.631125
 30
0.0
 40
0.5
  1
0.3125
100
AcDbAttributeDefinition
  3

  2
NDM
 70
     8
280
     0
  0
ATTDEF
  5
A7
330
91
100
AcDbEntity
  8
AM_6
100
AcDbText
 10
6.375
 20
-10.131125
 30
0.0
 40
0.5
  1
0.2520
100
AcDbAttributeDefinition
  3

  2
KDM
 70
     8
280
     0
  0
ATTDEF
  5
A8
330
91
100
AcDbEntity
  8
AM_6
100
AcDbText
 10
6.375
 20
-10.631125
 30
0.0
 40
0.5
  1
1
100
AcDbAttributeDefinition
  3

  2
DD
 70
     8
280
     0
  0
ATTDEF
  5
A9
330
91
100
AcDbEntity
  8
AM_6
100
AcDbText
 10
6.375
 20
-11.131125
 30
0.0
 40
0.5
  1
baldor
100
AcDbAttributeDefinition
  3

  2
COMPANY
 70
     8
280
     0
  0
LINE
  5
AC
330
91
100
AcDbEntity
  8
AM_9
100
AcDbLine
 10
0.9667204080673114
 20
-1.305485626202667
 30
0.0
 11
0.9588186057002683
 21
-1.295629814107421
 31
0.0
  0
LINE
  5
AD
330
91
100
AcDbEntity
  8
AM_9
100
AcDbLine
 10
0.9588039485709583
 20
-1.538638467533352
 30
0.0
 11
0.9667204080673114
 21
-1.528764373797333
 31
0.0
  0
LWPOLYLINE
  5
AE
330
91
100
AcDbEntity
  8
AM_9
100
AcDbPolyline
 90
       25
 70
     0
 43
0.0
 10
0.9587681927256437
 20
-1.295566934688562
 10
0.9507830359024692
 20
-1.287730260310261
 10
0.9411861948580292
 20
-1.282816538561018
 10
0.9304615446755495
 20
-1.281884337983458
 10
0.9192537850760379
 20
-1.285158471004591
 10
0.9077846982770182
 20
-1.292725752480756
 10
0.8966001711739594
 20
-1.304365121137573
 10
0.8863394900795778
 20
-1.319601601168282
 10
0.8773099536379898
 20
-1.338194779287333
 10
0.8703783002532661
 20
-1.358526886865826
 10
0.8654291956609261
 20
-1.380885572410201
 10
0.8629620940377324
 20
-1.402664899785715
 10
0.8626208703802728
 20
-1.424900263705619
 10
0.8643096398213276
 20
-1.445653298899273
 10
0.8678149661738628
 20
-1.465615383472096
 10
0.8730221968277888
 20
-1.484408698131489
 10
0.8796242678615751
 20
-1.501451636269268
 10
0.8878597638570167
 20
-1.517243201389448
 10
0.8969912772847339
 20
-1.530371269160129
 10
0.9074231362706906
 20
-1.541219504743312
 10
0.9181139245863289
 20
-1.548529346588576
 10
0.92924726751273
 20
-1.5522113723685
 10
0.9399411462321269
 20
-1.551769252685196
 10
0.9500774323464586
 20
-1.54702979885606
 10
0.9587685337061725
 20
-1.538682640018546
  0
LWPOLYLINE
  5
AF
330
91
100
AcDbEntity
  8
AM_9
100
AcDbPolyline
 90
        6
 70
     0
 43
0.0
 10
0.9857109686543801
 20
-1.417124999999992
 10
0.9854587962131793
 20
-1.40258365374442
 10
0.9842069558582289
 20
-1.381757304702639
 10
0.9819465546978768
 20
-1.362229663110749
 10
0.9786999673425218
 20
-1.344145782964527
 10
0.9715380727787518
 20
-1.319241833062571
  0
LWPOLYLINE
  5
B0
330
91
100
AcDbEntity
  8
AM_9
100
AcDbPolyline
 90
        8
 70
     0
 43
0.0
 10
0.9631796371925714
 20
-1.532406499230025
 10
0.9671228985571815
 20
-1.525241433877427
 10
0.973740314130867
 20
-1.508707906120249
 10
0.9787827345822118
 20
-1.489687102812568
 10
0.9824922755808613
 20
-1.468136188780092
 10
0.9846796929994055
 20
-1.446464595658369
 10
0.9856582099085004
 20
-1.423829484274784
 10
0.9857109686543801
 20
-1.417124999999992
  0
LWPOLYLINE
  5
B1
330
91
100
AcDbEntity
  8
AM_9
100
AcDbPolyline
 90
        3
 70
     0
 43
0.0
 10
0.9587685337061725
 20
-1.538682640018546
 10
0.9592213460049205
 20
-1.538110224404417
 10
0.9631796371925714
 20
-1.532406499230025
  0
LINE
  5
B2
330
91
100
AcDbEntity
  8
AM_9
100
AcDbLine
 10
0.9418501574182655
 20
-1.543325
 30
0.0
 11
1.203654871843787
 21
-1.543325
 31
0.0
  0
LINE
  5
B3
330
91
100
AcDbEntity
  8
AM_9
100
AcDbLine
 10
1.218938658174942
 20
-1.290925
 30
0.0
 11
0.9418501574182655
 21
-1.290925
 31
0.0
  0
ELLIPSE
  5
B4
330
91
100
AcDbEntity
  8
AM_9
100
AcDbEllipse
 10
1.218938658174954
 20
-1.417124999999967
 30
0.0
 11
-2.318256390785288E-17
 21
-0.1261999999999646
 31
0.0
210
0.0
220
0.0
230
1.0
 40
0.4226182617407547
 41
3.432986229901035
 42
4.71238898038469
  0
LINE
  5
B5
330
91
100
AcDbEntity
  8
AM_9
100
AcDbLine
 10
1.213832385869543
 20
-1.280834281134624
 30
0.0
 11
1.194068407525901
 21
-1.305485626202662
 31
0.0
  0
LWPOLYLINE
  5
B6
330
91
100
AcDbEntity
  8
AM_9
100
AcDbPolyline
 90
       39
 70
     0
 43
0.0
 10
-0.101183741715439
 20
-1.319792359787586
 10
-0.115445122996144
 20
-1.334602477419788
 10
-0.1275895126737101
 20
-1.351779393636444
 10
-0.1375725029473131
 20
-1.372447012062167
 10
-0.1438745639902233
 20
-1.395339106283162
 10
-0.1457850944573348
 20
-1.41661253047403
 10
-0.1439354379935622
 20
-1.43856339526777
 10
-0.1387727767224035
 20
-1.45849484342837
 10
-0.1302296369189201
 20
-1.477828936932303
 10
-0.118676817227775
 20
-1.495600561672243
 10
-0.1041315660981363
 20
-1.511736883531857
 10
-0.0864699337885861
 20
-1.526022243092778
 10
-0.0662765237808774
 20
-1.537656134445209
 10
-0.0435455198347405
 20
-1.546321442012864
 10
-0.0190623504813184
 20
-1.551371449480162
 10
0.0062421128853624
 20
-1.552416658032935
 10
0.0320838252594779
 20
-1.54920042734938
 10
0.056561092949656
 20
-1.541872146372804
 10
0.0800977413472399
 20
-1.530158245786087
 10
0.1002674196002207
 20
-1.515272654098443
 10
0.118016425513791
 20
-1.496453395851473
 10
0.1309257165826867
 20
-1.47652833163606
 10
0.1402989398493193
 20
-1.453813340667502
 10
0.144850397676473
 20
-1.43239254052213
 10
0.1455701751135865
 20
-1.40978139529542
 10
0.1426543100415933
 20
-1.389296739643923
 10
0.1362208359348266
 20
-1.369023058575519
 10
0.12677348169852
 20
-1.350427805808242
 10
0.1142060426877186
 20
-1.333130404729407
 10
0.0985328443793698
 20
-1.317472453471455
 10
0.0801509260258058
 20
-1.304124373010249
 10
0.0589090895114302
 20
-1.293323321888074
 10
0.0356057842945748
 20
-1.285835214943639
 10
0.0108061051736513
 20
-1.282083311504054
 10
-0.0149793067815089
 20
-1.282429761947529
 10
-0.040126471167456
 20
-1.286971552164758
 10
-0.06483963142626
 20
-1.295918764097208
 10
-0.083704404166652
 20
-1.306375141863338
 10
-0.1011837417154389
 20
-1.319792359787586
  0
LWPOLYLINE
  5
B7
330
91
100
AcDbEntity
  8
AM_9
100
AcDbPolyline
 90
        3
 70
     0
 43
0.0
 10
0.9632015599512572
 20
-1.301878867696608
 10
0.9594602770504532
 20
-1.296448037174173
 10
0.9587681927256437
 20
-1.295566934688562
  0
LWPOLYLINE
  5
B8
330
91
100
AcDbEntity
  8
AM_9
100
AcDbPolyline
 90
        3
 70
     0
 43
0.0
 10
0.9715380727787518
 20
-1.319241833062571
 10
0.9659135475690983
 20
-1.306627989187927
 10
0.9632015599512572
 20
-1.301878867696608
  0
LINE
  5
B9
330
91
100
AcDbEntity
  8
AM_9
100
AcDbLine
 10
1.03
 20
-1.703125
 30
0.0
 11
1.03
 21
-1.131125
 31
0.0
  0
LINE
  5
BA
330
91
100
AcDbEntity
  8
AM_9
100
AcDbLine
 10
-1.03
 20
-1.131125
 30
0.0
 11
-1.03
 21
-1.703125
 31
0.0
  0
LINE
  5
BB
330
91
100
AcDbEntity
  8
AM_9
100
AcDbLine
 10
0.1262
 20
-1.417125
 30
0.0
 11
-0.1262
 21
-1.417125
 31
0.0
  0
LINE
  5
BC
330
91
100
AcDbEntity
  8
AM_9
100
AcDbLine
 10
1.251578059435964
 20
-1.417125
 30
0.0
 11
1.176262874038005
 21
-1.417125
 31
0.0
  0
ELLIPSE
  5
BD
330
91
100
AcDbEntity
  8
AM_9
100
AcDbEllipse
 10
0.9418501574182652
 20
-1.417125
 30
0.0
 11
-2.318256390785933E-17
 21
-0.1261999999999996
 31
0.0
210
0.0
220
0.0
230
1.0
 40
0.4226182617406988
 41
0.0
 42
6.283185307179586
  0
LINE
  5
C0
330
91
100
AcDbEntity
  8
AM_7
100
AcDbLine
 10
-0.1325100000000001
 20
-1.417125
 30
0.0
 11
0.1325100000000001
 21
-1.417125
 31
0.0
  0
LWPOLYLINE
  5
C2
330
91
100
AcDbEntity
  8
AM_4
100
AcDbPolyline
 90
       11
 70
     0
 43
0.0
 10
1.203694960815953
 20
-1.543324999460589
 10
1.197560040137503
 20
-1.542507769742056
 10
1.188437376883005
 20
-1.538334791427672
 10
1.179478469956133
 20
-1.530777813031322
 10
1.170974111639531
 20
-1.519987408113066
 10
1.16323674854231
 20
-1.506320427508808
 10
1.156545541749094
 20
-1.490053871310504
 10
1.15118089429054
 20
-1.471726169132425
 10
1.147385180924457
 20
-1.451824843468661
 10
1.145294973747406
 20
-1.43093680399684
 10
1.144909210172611
 20
-1.417125
  0
ELLIPSE
  5
C3
330
91
100
AcDbEntity
  8
AM_4
100
AcDbEllipse
 10
1.21893865817494
 20
-1.417125000000003
 30
0.0
 11
-2.318256390785990E-17
 21
-0.1262000000000028
 31
0.0
210
0.0
220
0.0
230
1.0
 40
0.4226182617406937
 41
1.570796326794897
 42
3.432986229900743
  0
LWPOLYLINE
  5
C4
330
91
100
AcDbEntity
  8
AM_4
100
AcDbPolyline
 90
       14
 70
     0
 43
0.0
 10
1.214034350195322
 20
-1.280582375722653
 10
1.218439603452179
 20
-1.27552426300055
 10
1.229436354557986
 20
-1.266234496559511
 10
1.240000643011124
 20
-1.261637549692404
 10
1.250371720573527
 20
-1.261232675737965
 10
1.259889826207888
 20
-1.264899795793293
 10
1.268696348023578
 20
-1.2723556885824
 10
1.276647104959011
 20
-1.283474729300735
 10
1.283573675040601
 20
-1.297802875021348
 10
1.289610299711103
 20
-1.315716163048293
 10
1.294422915987854
 20
-1.336115490593438
 10
1.298143288614857
 20
-1.359679246262341
 10
1.300506942754651
 20
-1.38473050004842
 10
1.301557456887996
 20
-1.417125
  0
LINE
  5
C5
330
91
100
AcDbEntity
  8
AM_4
100
AcDbLine
 10
-1.232791666666667
 20
-1.703125
 30
0.0
 11
1.232791666656449
 21
-1.703125
 31
0.0
  0
ARC
  5
C6
330
91
100
AcDbEntity
  8
AM_4
100
AcDbCircle
 10
1.232791666666667
 20
-1.607791666666667
 30
0.0
 40
0.0953333333333333
100
AcDbArc
 50
270.0
 51
0.0000008537736463
  0
ARC
  5
C7
330
91
100
AcDbEntity
  8
AM_4
100
AcDbCircle
 10
-1.232791666666667
 20
-1.607791666666667
 30
0.0
 40
0.095333333333333
100
AcDbArc
 50
179.9999991462263
 51
270.0
  0
LWPOLYLINE
  5
C8
330
91
100
AcDbEntity
  8
AM_4
100
AcDbPolyline
 90
       20
 70
     0
 43
0.0
 10
0.1262
 20
-1.417125
 10
0.124468578611845
 20
-1.437957977183949
 10
0.119123416029814
 20
-1.458790954367899
 10
0.1106171300361007
 20
-1.477872761626058
 10
0.0987081127479961
 20
-1.4957579986566
 10
0.0843464615985912
 20
-1.510997863042508
 10
0.0671477702892477
 20
-1.523978249577083
 10
0.0485126931654683
 20
-1.53362804116989
 10
0.0279296018190063
 20
-1.540195619329846
 10
0.007200067292253
 20
-1.543119440476503
 10
-0.0143387953402804
 20
-1.542507769742056
 10
-0.0348048262632609
 20
-1.538430663795159
 10
-0.0548587102479397
 20
-1.530777813031322
 10
-0.0728546134656991
 20
-1.520171811191631
 10
-0.0892783048199334
 20
-1.506320427508808
 10
-0.1028124973985364
 20
-1.490309905401838
 10
-0.1137767653318213
 20
-1.471726169132425
 10
-0.1212496925035681
 20
-1.452124315247447
 10
-0.125441915125499
 20
-1.43093680399684
 10
-0.1262
 20
-1.417125
  0
LINE
  5
C9
330
91
100
AcDbEntity
  8
AM_4
100
AcDbLine
 10
-1.328125
 20
-1.607791666666667
 30
0.0
 11
1.328125
 21
-1.607791666666667
 31
0.0
  0
LWPOLYLINE
  5
CA
330
91
100
AcDbEntity
  8
AM_4
100
AcDbPolyline
 90
       11
 70
     0
 43
0.0
 10
1.251578059435964
 20
-1.417125
 10
1.250974724205943
 20
-1.438256447093476
 10
1.249182248290964
 20
-1.458790954367899
 10
1.246202588301568
 20
-1.478131331333701
 10
1.242076883470346
 20
-1.4957579986566
 10
1.236820246441594
 20
-1.511191159029479
 10
1.230528516838174
 20
-1.523978249577083
 10
1.223274847089721
 20
-1.533734047121187
 10
1.215227404002858
 20
-1.540195619329846
 10
1.206584817238278
 20
-1.543123711375933
 10
1.203694960815953
 20
-1.543324999460589
  0
LINE
  5
CB
330
91
100
AcDbEntity
  8
AM_4
100
AcDbLine
 10
1.328125
 20
-1.607791666666667
 30
0.0
 11
1.328125
 21
-1.417125
 31
0.0
  0
LINE
  5
CC
330
91
100
AcDbEntity
  8
AM_4
100
AcDbLine
 10
-1.328125
 20
-1.417125
 30
0.0
 11
-1.328125
 21
-1.607791666666667
 31
0.0
  0
LINE
  5
CD
330
91
100
AcDbEntity
  8
AM_4
100
AcDbLine
 10
-0.1262
 20
-1.417125
 30
0.0
 11
-1.375
 21
-1.417125
 31
0.0
  0
ARC
  5
CE
330
91
100
AcDbEntity
  8
AM_4
100
AcDbCircle
 10
0.0
 20
-1.417125
 30
0.0
 40
0.1262
100
AcDbArc
 50
0.0
 51
180.0
  0
LINE
  5
CF
330
91
100
AcDbEntity
  8
AM_4
100
AcDbLine
 10
1.176262874038005
 20
-1.417125
 30
0.0
 11
0.1262
 21
-1.417125
 31
0.0
  0
LINE
  5
D0
330
91
100
AcDbEntity
  8
AM_4
100
AcDbLine
 10
1.251578059435964
 20
-1.417125
 30
0.0
 11
1.375
 21
-1.417125
 31
0.0
  0
LWPOLYLINE
  5
D1
330
91
100
AcDbEntity
  8
AM_4
100
AcDbPolyline
 90
       20
 70
     0
 43
0.0
 10
-0.1482361201500411
 20
-1.417125
 10
-0.1470729124633054
 20
-1.397611681255786
 10
-0.1435272678807329
 20
-1.378098362511572
 10
-0.1349071611276211
 20
-1.352433764871024
 10
-0.1216536395559408
 20
-1.327914837676337
 10
-0.1051740788061588
 20
-1.307080189520065
 10
-0.0846605728749428
 20
-1.288913441730542
 10
-0.0629456271430199
 20
-1.27569124210219
 10
-0.0384496724713533
 20
-1.266234496559511
 10
-0.0148128453016497
 20
-1.261658882718748
 10
0.0100127105203584
 20
-1.261232675737965
 10
0.0330079054838706
 20
-1.264806680200052
 10
0.0557160680211961
 20
-1.2723556885824
 10
0.0764451586983132
 20
-1.283296252007839
 10
0.0956384975152395
 20
-1.297802875021348
 10
0.1125112614412572
 20
-1.315460723954483
 10
0.126716966669634
 20
-1.336115490593438
 10
0.1377086384026034
 20
-1.359351363081269
 10
0.1450079466451511
 20
-1.38473050004842
 10
0.148236120150041
 20
-1.417125
  0
LWPOLYLINE
  5
D2
330
91
100
AcDbEntity
  8
AM_4
100
AcDbPolyline
 90
        8
 70
     0
 43
0.0
 10
1.176262874038004
 20
-1.417125
 10
1.176879777344923
 20
-1.397468768213998
 10
1.178708273437042
 20
-1.378098362511572
 10
1.183238197056405
 20
-1.352064859755089
 10
1.189873120360383
 20
-1.327914837676337
 10
1.198222920049047
 20
-1.306783933915898
 10
1.20802972118644
 20
-1.288913441730542
 10
1.214034350195322
 20
-1.280582375722653
  0
LINE
  5
D3
330
91
100
AcDbEntity
  8
AM_4
100
AcDbLine
 10
-1.375
 20
-1.131125
 30
0.0
 11
1.375
 21
-1.131125
 31
0.0
  0
LINE
  5
D4
330
91
100
AcDbEntity
  8
AM_4
100
AcDbLine
 10
1.375
 20
-1.417125
 30
0.0
 11
1.375
 21
-1.131125
 31
0.0
  0
LINE
  5
D5
330
91
100
AcDbEntity
  8
AM_4
100
AcDbLine
 10
-1.375
 20
-1.131125
 30
0.0
 11
-1.375
 21
-1.417125
 31
0.0
  0
CIRCLE
  5
D7
330
91
100
AcDbEntity
  8
AM_5
100
AcDbCircle
 10
0.0000000000000001
 20
-1.417125
 30
0.0
 40
0.1562499999999999
  0
ENDBLK
  5
94
330
91
100
AcDbEntity
  8
0
100
AcDbBlockEnd
  0
BLOCK
  5
DA
330
D8
100
AcDbEntity
  8
0
100
AcDbBlockBegin
  2
3_070002i_0_in_070754_4
 70
     2
 10
0.0
 20
0.0
 30
0.0
  3
3_070002i_0_in_070754_4
  1

  0
ATTDEF
  5
DC
330
D8
100
AcDbEntity
  8
AM_6
100
AcDbText
 10
6.5748
 20
0.8281250000000001
 30
0.0
 40
0.5
  1
S-2000 Insert -Inch
100
AcDbAttributeDefinition
  3

  2
NN
 70
     8
280
     0
  0
ATTDEF
  5
DD
330
D8
100
AcDbEntity
  8
AM_6
100
AcDbText
 10
6.5748
 20
0.3281250000000001
 30
0.0
 40
0.5
  1
S-2000 Bearings
100
AcDbAttributeDefinition
  3

  2
NT
 70
     8
280
     0
  0
ATTDEF
  5
DE
330
D8
100
AcDbEntity
  8
AM_6
100
AcDbText
 10
6.5748
 20
-0.1718749999999999
 30
0.0
 40
0.5
  1
070002i
100
AcDbAttributeDefinition
  3

  2
NB
 70
     8
280
     0
  0
ATTDEF
  5
DF
330
D8
100
AcDbEntity
  8
AM_6
100
AcDbText
 10
6.5748
 20
-0.6718749999999999
 30
0.0
 40
0.5
  1
$PN.i
100
AcDbAttributeDefinition
  3

  2
NBSYN
 70
     8
280
     0
  0
ATTDEF
  5
E0
330
D8
100
AcDbEntity
  8
AM_6
100
AcDbText
 10
6.5748
 20
-1.171875
 30
0.0
 40
0.5
  1
070002i
100
AcDbAttributeDefinition
  3

  2
LINA
 70
     8
280
     0
  0
ATTDEF
  5
E1
330
D8
100
AcDbEntity
  8
AM_6
100
AcDbText
 10
6.5748
 20
-1.671875
 30
0.0
 40
0.5
  1
1-1/2
100
AcDbAttributeDefinition
  3

  2
SS
 70
     8
280
     0
  0
ATTDEF
  5
E2
330
D8
100
AcDbEntity
  8
AM_6
100
AcDbText
 10
6.5748
 20
-2.171875
 30
0.0
 40
0.5
  1
2.06
100
AcDbAttributeDefinition
  3

  2
CC
 70
     8
280
     0
  0
ATTDEF
  5
E3
330
D8
100
AcDbEntity
  8
AM_6
100
AcDbText
 10
6.5748
 20
-2.671875
 30
0.0
 40
0.5
  1
1.500000
100
AcDbAttributeDefinition
  3

  2
SS1
 70
     8
280
     0
  0
ATTDEF
  5
E4
330
D8
100
AcDbEntity
  8
AM_6
100
AcDbText
 10
6.5748
 20
-3.171875
 30
0.0
 40
0.5
  1
070002
100
AcDbAttributeDefinition
  3

  2
PN
 70
     8
280
     0
  0
ATTDEF
  5
E5
330
D8
100
AcDbEntity
  8
AM_6
100
AcDbText
 10
6.5748
 20
-3.671875
 30
0.0
 40
0.5
  1
INS-S2-108R
100
AcDbAttributeDefinition
  3

  2
DESCRIPTION
 70
     8
280
     0
  0
ATTDEF
  5
E6
330
D8
100
AcDbEntity
  8
AM_6
100
AcDbText
 10
6.5748
 20
-4.171875
 30
0.0
 40
0.5
  1
Contact Seal
100
AcDbAttributeDefinition
  3

  2
ST
 70
     8
280
     0
  0
ATTDEF
  5
E7
330
D8
100
AcDbEntity
  8
AM_6
100
AcDbText
 10
6.5748
 20
-4.671875
 30
0.0
 40
0.5
  1
1
100
AcDbAttributeDefinition
  3

  2
ST1
 70
     8
280
     0
  0
ATTDEF
  5
E8
330
D8
100
AcDbEntity
  8
AM_6
100
AcDbText
 10
6.5748
 20
-5.171875
 30
0.0
 40
0.5
  1
3.1496
100
AcDbAttributeDefinition
  3

  2
A
 70
     8
280
     0
  0
ATTDEF
  5
E9
330
D8
100
AcDbEntity
  8
AM_6
100
AcDbText
 10
6.5748
 20
-5.671875
 30
0.0
 40
0.5
  1
61/64
100
AcDbAttributeDefinition
  3

  2
B
 70
     8
280
     0
  0
ATTDEF
  5
EA
330
D8
100
AcDbEntity
  8
AM_6
100
AcDbText
 10
6.5748
 20
-6.171875
 30
0.0
 40
0.5
  1
2-17/32
100
AcDbAttributeDefinition
  3

  2
C
 70
     8
280
     0
  0
ATTDEF
  5
EB
330
D8
100
AcDbEntity
  8
AM_6
100
AcDbText
 10
6.5748
 20
-6.671875
 30
0.0
 40
0.5
  1
0.970
100
AcDbAttributeDefinition
  3

  2
D
 70
     8
280
     0
  0
ATTDEF
  5
EC
330
D8
100
AcDbEntity
  8
AM_6
100
AcDbText
 10
6.5748
 20
-7.171875
 30
0.0
 40
0.5
  1
2-21/32
100
AcDbAttributeDefinition
  3

  2
E
 70
     8
280
     0
  0
ATTDEF
  5
ED
330
D8
100
AcDbEntity
  8
AM_6
100
AcDbText
 10
6.5748
 20
-7.671875
 30
0.0
 40
0.5
  1
0.28125
100
AcDbAttributeDefinition
  3

  2
F
 70
     8
280
     0
  0
ATTDEF
  5
EE
330
D8
100
AcDbEntity
  8
AM_6
100
AcDbText
 10
6.5748
 20
-8.171875
 30
0.0
 40
0.5
  1
1
100
AcDbAttributeDefinition
  3

  2
DD
 70
     8
280
     0
  0
ATTDEF
  5
EF
330
D8
100
AcDbEntity
  8
AM_6
100
AcDbText
 10
6.5748
 20
-8.671875
 30
0.0
 40
0.5
  1
baldor
100
AcDbAttributeDefinition
  3

  2
COMPANY
 70
     8
280
     0
  0
LINE
  5
F0
330
D8
100
AcDbEntity
  8
AM_9
100
AcDbLine
 10
0.9334970206477495
 20
-1.242125
 30
0.0
 11
0.6796029090698052
 21
-1.242125
 31
0.0
  0
LINE
  5
F1
330
D8
100
AcDbEntity
  8
AM_9
100
AcDbLine
 10
0.6796541858599198
 20
-1.592125
 30
0.0
 11
0.9334970206477496
 21
-1.592125
 31
0.0
  0
LWPOLYLINE
  5
F2
330
D8
100
AcDbEntity
  8
AM_9
100
AcDbPolyline
 90
       21
 70
     0
 43
0.0
 10
0.6797354389406162
 20
-1.242125000338308
 10
0.6719273303191956
 20
-1.24305331317238
 10
0.6590782683389268
 20
-1.24824048555302
 10
0.645549030092484
 20
-1.258170623664661
 10
0.6324851647926204
 20
-1.272140435474406
 10
0.6198317158822187
 20
-1.290459157660527
 10
0.6085846922014586
 20
-1.312197149320568
 10
0.5990026689926192
 20
-1.337608609799755
 10
0.592114421833889
 20
-1.364687963445853
 10
0.5879753127127558
 20
-1.394181190915846
 10
0.5870693124493979
 20
-1.422823977220675
 10
0.5892676817630437
 20
-1.452146532747266
 10
0.5942278499359134
 20
-1.479279365922737
 10
0.6019415495528627
 20
-1.505424183884496
 10
0.6117685671151111
 20
-1.52887787898606
 10
0.6236206792371299
 20
-1.549847979725867
 10
0.6365792353382705
 20
-1.566977698018725
 10
0.6505381288318051
 20
-1.580263401120394
 10
0.6640134457143848
 20
-1.588507536552193
 10
0.6773677606405276
 20
-1.592037049262924
 10
0.6797231584103823
 20
-1.592124999056056
  0
LWPOLYLINE
  5
F3
330
D8
100
AcDbEntity
  8
AM_9
100
AcDbPolyline
 90
       11
 70
     0
 43
0.0
 10
0.6797231584103823
 20
-1.592124999056056
 10
0.689100474130817
 20
-1.590617340081
 10
0.6999102389858219
 20
-1.584359347908089
 10
0.7089602279408499
 20
-1.573854766129357
 10
0.7167314472289202
 20
-1.558819384384996
 10
0.7229339897311277
 20
-1.540040463653024
 10
0.7278232656767674
 20
-1.517261508331986
 10
0.7312970188843039
 20
-1.491928203095162
 10
0.733611864573035
 20
-1.463589876514523
 10
0.7345945024109788
 20
-1.440801800932384
 10
0.7349262963594176
 20
-1.417125
  0
LWPOLYLINE
  5
F4
330
D8
100
AcDbEntity
  8
AM_9
100
AcDbPolyline
 90
       12
 70
     0
 43
0.0
 10
0.8459665306186323
 20
-1.417125
 10
0.8460972915007772
 20
-1.408694276640261
 10
0.8483045205344528
 20
-1.379685157994551
 10
0.8531963862303122
 20
-1.351935598729266
 10
0.860485225722411
 20
-1.325996577916395
 10
0.8699498509986968
 20
-1.302389045698534
 10
0.8810607881163173
 20
-1.281973210716401
 10
0.8934853375283646
 20
-1.265193789970946
 10
0.9065759252811615
 20
-1.252715922987896
 10
0.919755472827023
 20
-1.244996945740267
 10
0.9326171010317551
 20
-1.242137332757163
 10
0.9334920782865639
 20
-1.242125000390745
  0
LWPOLYLINE
  5
F5
330
D8
100
AcDbEntity
  8
AM_9
100
AcDbPolyline
 90
       11
 70
     0
 43
0.0
 10
0.9335029728775591
 20
-1.592124999433229
 10
0.925283887650353
 20
-1.591084402438499
 10
0.9123807932615888
 20
-1.585510631169831
 10
0.8994187050831411
 20
-1.575332001435086
 10
0.8868114676302247
 20
-1.560704018102754
 10
0.8751181360945851
 20
-1.542132179214583
 10
0.8647295837672877
 20
-1.519774442412315
 10
0.856257877708185
 20
-1.494502185835339
 10
0.8501473626291758
 20
-1.466945207691442
 10
0.8466852168874099
 20
-1.437943694058289
 10
0.8459665306186323
 20
-1.417125
  0
LWPOLYLINE
  5
F6
330
D8
100
AcDbEntity
  8
AM_9
100
AcDbPolyline
 90
        3
 70
     0
 43
0.0
 10
0.9931463527674569
 20
-1.386210528115092
 10
0.9935423664932884
 20
-1.396051628812851
 10
0.9938829222278769
 20
-1.417125
  0
LWPOLYLINE
  5
F7
330
D8
100
AcDbEntity
  8
AM_9
100
AcDbPolyline
 90
       10
 70
     0
 43
0.0
 10
0.9334920782865639
 20
-1.242125000390745
 10
0.9445852859611438
 20
-1.244239570914647
 10
0.95553344385968
 20
-1.251102859537034
 10
0.965202732295545
 20
-1.26257050343335
 10
0.9735003021697903
 20
-1.278257819781523
 10
0.9804196938669214
 20
-1.298039599966389
 10
0.9858731565762479
 20
-1.321158463828577
 10
0.9899003790166319
 20
-1.347215125710379
 10
0.9925196932323542
 20
-1.37529191677462
 10
0.9931463527674569
 20
-1.386210528115092
  0
LWPOLYLINE
  5
F8
330
D8
100
AcDbEntity
  8
AM_9
100
AcDbPolyline
 90
       11
 70
     0
 43
0.0
 10
0.7349262963594176
 20
-1.417125
 10
0.7344429916397448
 20
-1.388612141704143
 10
0.7329070116758583
 20
-1.360099283408285
 10
0.7303298114241422
 20
-1.33399980090404
 10
0.7264482129524172
 20
-1.309518114995577
 10
0.7212487276546498
 20
-1.288270314106991
 10
0.7143703643167619
 20
-1.270083636742892
 10
0.7060207041955372
 20
-1.256317235215275
 10
0.6957890016313242
 20
-1.246833934437304
 10
0.6846191512355237
 20
-1.242520894107825
 10
0.6797354389406162
 20
-1.242125000338308
  0
LINE
  5
F9
330
D8
100
AcDbEntity
  8
AM_9
100
AcDbLine
 10
-0.7499999999999999
 20
0.8281250000000001
 30
0.0
 11
-0.7499999999999999
 21
-1.703125
 31
0.0
  0
LINE
  5
FA
330
D8
100
AcDbEntity
  8
AM_9
100
AcDbLine
 10
0.7499999999999999
 20
-1.703125
 30
0.0
 11
0.7499999999999999
 21
0.8281250000000001
 31
0.0
  0
LWPOLYLINE
  5
FB
330
D8
100
AcDbEntity
  8
AM_9
100
AcDbPolyline
 90
       10
 70
     0
 43
0.0
 10
0.993163296705543
 20
-1.447686252511164
 10
0.9912563220164305
 20
-1.474575445305748
 10
0.9879293407841631
 20
-1.501230996380489
 10
0.9832129705546524
 20
-1.525541777649895
 10
0.9769870286120511
 20
-1.546993429806787
 10
0.9692886140666137
 20
-1.564808949005365
 10
0.960060587432073
 20
-1.578508453474293
 10
0.9494738003690123
 20
-1.587626741688253
 10
0.9378111283897616
 20
-1.591801356212409
 10
0.9335029728775591
 20
-1.592124999433229
  0
LWPOLYLINE
  5
FC
330
D8
100
AcDbEntity
  8
AM_9
100
AcDbPolyline
 90
        3
 70
     0
 43
0.0
 10
0.9938829222278769
 20
-1.417125
 10
0.9932270559878096
 20
-1.446263799809129
 10
0.993163296705543
 20
-1.447686252511164
  0
LWPOLYLINE
  5
FD
330
D8
100
AcDbEntity
  8
AM_9
100
AcDbPolyline
 90
       21
 70
     0
 43
0.0
 10
-0.1749999999999999
 20
-1.417125
 10
-0.1748167393483924
 20
-1.409118275101752
 10
-0.1709481156099915
 20
-1.379685157994551
 10
-0.1625538556677182
 20
-1.352307995999826
 10
-0.1494008389820897
 20
-1.325996577916395
 10
-0.1323981873899363
 20
-1.302688467477124
 10
-0.111171011749654
 20
-1.281973210716401
 10
-0.0871895983241894
 20
-1.265391767173218
 10
-0.059955445090734
 20
-1.252715922987896
 10
-0.0319026251259536
 20
-1.245057505945856
 10
-0.0020775738037906
 20
-1.242137332757163
 10
0.0265972562462647
 20
-1.244157991700236
 10
0.0553321685468324
 20
-1.251102859537034
 10
0.0816982203405888
 20
-1.262365829696006
 10
0.1064936911660455
 20
-1.278257819781523
 10
0.1279391803991795
 20
-1.297724136859124
 10
0.1463400968130711
 20
-1.321158463828577
 10
0.160252628067769
 20
-1.346810739729602
 10
0.1699264345175832
 20
-1.375291916774621
 10
0.1737073028630756
 20
-1.395893586197907
 10
0.175
 20
-1.417125
  0
LWPOLYLINE
  5
FE
330
D8
100
AcDbEntity
  8
AM_9
100
AcDbPolyline
 90
       20
 70
     0
 43
0.0
 10
0.175
 20
-1.417125
 10
0.1726263641033512
 20
-1.445850222652874
 10
0.1653010778372946
 20
-1.474575445305748
 10
0.153656272928678
 20
-1.500879103121385
 10
0.1373710388837958
 20
-1.525541777649895
 10
0.1175946466448143
 20
-1.546726308174267
 10
0.0938853087878011
 20
-1.564808949005365
 10
0.0680387470719214
 20
-1.578356910293475
 10
0.0394227863205064
 20
-1.587626741688253
 10
0.0107628715723161
 20
-1.591793716705419
 10
-0.019055873195427
 20
-1.591084402438499
 10
-0.0472026499957345
 20
-1.585638826831451
 10
-0.0748033735664281
 20
-1.575332001435086
 10
-0.099696712880877
 20
-1.560949773390219
 10
-0.1224671594543336
 20
-1.542132179214583
 10
-0.1414768870885451
 20
-1.520126409794891
 10
-0.1569642351371913
 20
-1.494502185835339
 10
-0.1676323576327585
 20
-1.46736833462742
 10
-0.1737572501442956
 20
-1.437943694058289
 10
-0.1749999999999999
 20
-1.417125
  0
LINE
  5
FF
330
D8
100
AcDbEntity
  8
AM_9
100
AcDbLine
 10
-1.03
 20
-1.131125
 30
0.0
 11
-1.03
 21
-1.703125
 31
0.0
  0
LINE
  5
100
330
D8
100
AcDbEntity
  8
AM_9
100
AcDbLine
 10
-1.03
 20
-0.849875
 30
0.0
 11
-1.03
 21
-1.03125
 31
0.0
  0
LINE
  5
101
330
D8
100
AcDbEntity
  8
AM_9
100
AcDbLine
 10
1.03
 20
-1.03125
 30
0.0
 11
1.03
 21
-0.849875
 31
0.0
  0
LINE
  5
102
330
D8
100
AcDbEntity
  8
AM_9
100
AcDbLine
 10
1.03
 20
-1.703125
 30
0.0
 11
1.03
 21
-1.131125
 31
0.0
  0
LINE
  5
103
330
D8
100
AcDbEntity
  8
AM_9
100
AcDbLine
 10
-1.03
 20
0.8281250000000001
 30
0.0
 11
-1.03
 21
0.566125
 31
0.0
  0
LINE
  5
104
330
D8
100
AcDbEntity
  8
AM_9
100
AcDbLine
 10
1.03
 20
0.566125
 30
0.0
 11
1.03
 21
0.8281250000000001
 31
0.0
  0
LINE
  5
105
330
D8
100
AcDbEntity
  8
AM_9
100
AcDbLine
 10
1.03
 20
0.8281250000000001
 30
0.0
 11
-1.03
 21
0.8281250000000001
 31
0.0
  0
LINE
  5
106
330
D8
100
AcDbEntity
  8
AM_9
100
AcDbLine
 10
-1.25984
 20
0.4708125
 30
0.0
 11
-1.25984
 21
0.3346875000000001
 31
0.0
  0
LINE
  5
107
330
D8
100
AcDbEntity
  8
AM_9
100
AcDbLine
 10
1.25984
 20
0.3346875000000001
 30
0.0
 11
1.25984
 21
0.4708125
 31
0.0
  0
LINE
  5
108
330
D8
100
AcDbEntity
  8
AM_9
100
AcDbLine
 10
1.1645275
 20
0.566125
 30
0.0
 11
-1.1645275
 21
0.566125
 31
0.0
  0
ARC
  5
109
330
D8
100
AcDbEntity
  8
AM_9
100
AcDbCircle
 10
-1.1645275
 20
0.4708125000000001
 30
0.0
 40
0.0953124999999999
100
AcDbArc
 50
90.0
 51
180.0
  0
ARC
  5
10A
330
D8
100
AcDbEntity
  8
AM_9
100
AcDbCircle
 10
1.1645275
 20
0.4708125
 30
0.0
 40
0.0953124999999999
100
AcDbArc
 50
0.0
 51
90.0
  0
LINE
  5
10B
330
D8
100
AcDbEntity
  8
AM_9
100
AcDbLine
 10
1.25984
 20
0.4708125
 30
0.0
 11
-1.25984
 21
0.4708125
 31
0.0
  0
LINE
  5
10C
330
D8
100
AcDbEntity
  8
AM_9
100
AcDbLine
 10
1.1645275
 20
-0.849875
 30
0.0
 11
-1.1645275
 21
-0.849875
 31
0.0
  0
ARC
  5
10D
330
D8
100
AcDbEntity
  8
AM_9
100
AcDbCircle
 10
-1.1645275
 20
-0.7545625000000004
 30
0.0
 40
0.0953124999999997
100
AcDbArc
 50
180.0
 51
270.0
  0
ARC
  5
10E
330
D8
100
AcDbEntity
  8
AM_9
100
AcDbCircle
 10
1.1645275
 20
-0.7545625000000004
 30
0.0
 40
0.0953124999999997
100
AcDbArc
 50
270.0
 51
0.0
  0
LINE
  5
10F
330
D8
100
AcDbEntity
  8
AM_9
100
AcDbLine
 10
-1.25984
 20
-0.6184375
 30
0.0
 11
-1.25984
 21
-0.7545625000000002
 31
0.0
  0
LINE
  5
110
330
D8
100
AcDbEntity
  8
AM_9
100
AcDbLine
 10
1.25984
 20
-0.7545625000000002
 30
0.0
 11
1.25984
 21
-0.6184375
 31
0.0
  0
LINE
  5
111
330
D8
100
AcDbEntity
  8
AM_9
100
AcDbLine
 10
1.25984
 20
-0.7545625000000002
 30
0.0
 11
-1.25984
 21
-0.7545625000000002
 31
0.0
  0
LINE
  5
112
330
D8
100
AcDbEntity
  8
AM_9
100
AcDbLine
 10
-1.511808
 20
-0.0942187500000011
 30
0.0
 11
-1.511808
 21
-0.1895312499999988
 31
0.0
  0
LINE
  5
113
330
D8
100
AcDbEntity
  8
AM_9
100
AcDbLine
 10
1.511808
 20
-0.1895312499999988
 30
0.0
 11
1.511808
 21
-0.0942187500000011
 31
0.0
  0
LINE
  5
114
330
D8
100
AcDbEntity
  8
AM_9
100
AcDbLine
 10
1.511808
 20
-0.0942187500000011
 30
0.0
 11
1.5748
 21
-0.0578503018432082
 31
0.0
  0
LINE
  5
115
330
D8
100
AcDbEntity
  8
AM_9
100
AcDbLine
 10
-1.5748
 20
-0.0578503018432082
 30
0.0
 11
-1.511808
 21
-0.0942187500000011
 31
0.0
  0
LINE
  5
116
330
D8
100
AcDbEntity
  8
AM_9
100
AcDbLine
 10
1.511808
 20
-0.0942187500000011
 30
0.0
 11
-1.511808
 21
-0.0942187500000011
 31
0.0
  0
LINE
  5
117
330
D8
100
AcDbEntity
  8
AM_9
100
AcDbLine
 10
-1.511808
 20
-0.1895312499999988
 30
0.0
 11
-1.5748
 21
-0.2258996981567918
 31
0.0
  0
LINE
  5
118
330
D8
100
AcDbEntity
  8
AM_9
100
AcDbLine
 10
1.5748
 20
-0.2258996981567918
 30
0.0
 11
1.511808
 21
-0.1895312499999988
 31
0.0
  0
LINE
  5
119
330
D8
100
AcDbEntity
  8
AM_9
100
AcDbLine
 10
1.511808
 20
-0.1895312499999988
 30
0.0
 11
-1.511808
 21
-0.1895312499999988
 31
0.0
  0
LINE
  5
11A
330
D8
100
AcDbEntity
  8
AM_9
100
AcDbLine
 10
-1.5748
 20
0.2393749999999999
 30
0.0
 11
-1.5748
 21
-0.0578503018432082
 31
0.0
  0
LINE
  5
11B
330
D8
100
AcDbEntity
  8
AM_9
100
AcDbLine
 10
1.5748
 20
-0.0578503018432082
 30
0.0
 11
1.5748
 21
0.2393749999999999
 31
0.0
  0
LINE
  5
11C
330
D8
100
AcDbEntity
  8
AM_9
100
AcDbLine
 10
1.5748
 20
-0.0578503018432082
 30
0.0
 11
-1.5748
 21
-0.0578503018432082
 31
0.0
  0
LINE
  5
11D
330
D8
100
AcDbEntity
  8
AM_9
100
AcDbLine
 10
1.4794875
 20
0.3346875000000001
 30
0.0
 11
-1.4794875
 21
0.3346875000000001
 31
0.0
  0
ARC
  5
11E
330
D8
100
AcDbEntity
  8
AM_9
100
AcDbCircle
 10
-1.4794875
 20
0.2393750000000007
 30
0.0
 40
0.0953124999999995
100
AcDbArc
 50
90.0
 51
179.9999991462263
  0
ARC
  5
11F
330
D8
100
AcDbEntity
  8
AM_9
100
AcDbCircle
 10
1.4794875
 20
0.2393750000000006
 30
0.0
 40
0.0953124999999995
100
AcDbArc
 50
0.0000008537736463
 51
90.0
  0
LINE
  5
120
330
D8
100
AcDbEntity
  8
AM_9
100
AcDbLine
 10
1.5748
 20
0.2393749999999999
 30
0.0
 11
-1.5748
 21
0.2393749999999999
 31
0.0
  0
LINE
  5
121
330
D8
100
AcDbEntity
  8
AM_9
100
AcDbLine
 10
-1.5748
 20
-0.2258996981567918
 30
0.0
 11
-1.5748
 21
-0.5231250000000003
 31
0.0
  0
LINE
  5
122
330
D8
100
AcDbEntity
  8
AM_9
100
AcDbLine
 10
1.5748
 20
-0.5231250000000003
 30
0.0
 11
1.5748
 21
-0.2258996981567918
 31
0.0
  0
LINE
  5
123
330
D8
100
AcDbEntity
  8
AM_9
100
AcDbLine
 10
1.5748
 20
-0.2258996981567918
 30
0.0
 11
-1.5748
 21
-0.2258996981567918
 31
0.0
  0
LINE
  5
124
330
D8
100
AcDbEntity
  8
AM_9
100
AcDbLine
 10
1.4794875
 20
-0.6184375
 30
0.0
 11
-1.4794875
 21
-0.6184375
 31
0.0
  0
ARC
  5
125
330
D8
100
AcDbEntity
  8
AM_9
100
AcDbCircle
 10
-1.4794875
 20
-0.5231250000000001
 30
0.0
 40
0.0953124999999999
100
AcDbArc
 50
180.0
 51
270.0
  0
ARC
  5
126
330
D8
100
AcDbEntity
  8
AM_9
100
AcDbCircle
 10
1.4794875
 20
-0.5231250000000001
 30
0.0
 40
0.0953124999999999
100
AcDbArc
 50
270.0
 51
0.0
  0
LINE
  5
127
330
D8
100
AcDbEntity
  8
AM_9
100
AcDbLine
 10
1.5748
 20
-0.5231250000000003
 30
0.0
 11
-1.5748
 21
-0.5231250000000003
 31
0.0
  0
LINE
  5
128
330
D8
100
AcDbEntity
  8
AM_4
100
AcDbLine
 10
-1.03
 20
-1.03125
 30
0.0
 11
-1.03
 21
-1.131125
 31
0.0
  0
LINE
  5
129
330
D8
100
AcDbEntity
  8
AM_4
100
AcDbLine
 10
1.03
 20
-1.131125
 30
0.0
 11
1.03
 21
-1.03125
 31
0.0
  0
ENDBLK
  5
DB
330
D8
100
AcDbEntity
  8
0
100
AcDbBlockEnd
  0
BLOCK
  5
12C
330
12A
100
AcDbEntity
  8
0
100
AcDbBlockBegin
  2
4_405016_Inch_0_in_070754_4
 70
     2
 10
0.0
 20
0.0
 30
0.0
  3
4_405016_Inch_0_in_070754_4
  1

  0
ATTDEF
  5
12E
330
12A
100
AcDbEntity
  8
AM_6
100
AcDbText
 10
3.559874747542191
 20
0.2187499999999999
 30
0.0
 40
0.5
  1
405016 -Inch
100
AcDbAttributeDefinition
  3

  2
NN
 70
     8
280
     0
  0
ATTDEF
  5
12F
330
12A
100
AcDbEntity
  8
AM_6
100
AcDbText
 10
3.559874747542191
 20
-0.2812500000000001
 30
0.0
 40
0.5
  1
Grease Fitting
100
AcDbAttributeDefinition
  3

  2
NT
 70
     8
280
     0
  0
ATTDEF
  5
130
330
12A
100
AcDbEntity
  8
AM_6
100
AcDbText
 10
3.559874747542191
 20
-0.7812500000000001
 30
0.0
 40
0.5
  1
405016-Inch
100
AcDbAttributeDefinition
  3

  2
NB
 70
     8
280
     0
  0
ATTDEF
  5
131
330
12A
100
AcDbEntity
  8
AM_6
100
AcDbText
 10
3.559874747542191
 20
-1.28125
 30
0.0
 40
0.5
  1
$MN.-Inch
100
AcDbAttributeDefinition
  3

  2
NBSYN
 70
     8
280
     0
  0
ATTDEF
  5
132
330
12A
100
AcDbEntity
  8
AM_6
100
AcDbText
 10
3.559874747542191
 20
-1.78125
 30
0.0
 40
0.5
  1
405016
100
AcDbAttributeDefinition
  3

  2
LINA
 70
     8
280
     0
  0
ATTDEF
  5
133
330
12A
100
AcDbEntity
  8
AM_6
100
AcDbText
 10
3.559874747542191
 20
-2.28125
 30
0.0
 40
0.5
  1
405016
100
AcDbAttributeDefinition
  3

  2
MN
 70
     8
280
     0
  0
ATTDEF
  5
134
330
12A
100
AcDbEntity
  8
AM_6
100
AcDbText
 10
3.559874747542191
 20
-2.78125
 30
0.0
 40
0.5
  1
7/16 HEX
100
AcDbAttributeDefinition
  3

  2
H
 70
     8
280
     0
  0
ATTDEF
  5
135
330
12A
100
AcDbEntity
  8
AM_6
100
AcDbText
 10
3.559874747542191
 20
-3.28125
 30
0.0
 40
0.5
  1
0.383
100
AcDbAttributeDefinition
  3

  2
NDR
 70
     8
280
     0
  0
ATTDEF
  5
136
330
12A
100
AcDbEntity
  8
AM_6
100
AcDbText
 10
3.559874747542191
 20
-3.78125
 30
0.0
 40
0.5
  1
0.337
100
AcDbAttributeDefinition
  3

  2
KDR
 70
     8
280
     0
  0
ATTDEF
  5
137
330
12A
100
AcDbEntity
  8
AM_6
100
AcDbText
 10
3.559874747542191
 20
-4.28125
 30
0.0
 40
0.5
  1
0.1575
100
AcDbAttributeDefinition
  3

  2
BZE
 70
     8
280
     0
  0
ATTDEF
  5
138
330
12A
100
AcDbEntity
  8
AM_6
100
AcDbText
 10
3.559874747542191
 20
-4.78125
 30
0.0
 40
0.5
  1
0.4375
100
AcDbAttributeDefinition
  3

  2
HEX
 70
     8
280
     0
  0
ATTDEF
  5
139
330
12A
100
AcDbEntity
  8
AM_6
100
AcDbText
 10
3.559874747542191
 20
-5.28125
 30
0.0
 40
0.5
  1
0.281250
100
AcDbAttributeDefinition
  3

  2
HEX2
 70
     8
280
     0
  0
ATTDEF
  5
13A
330
12A
100
AcDbEntity
  8
AM_6
100
AcDbText
 10
3.559874747542191
 20
-5.78125
 30
0.0
 40
0.5
  1
baldor
100
AcDbAttributeDefinition
  3

  2
COMPANY
 70
     8
280
     0
  0
LINE
  5
13B
330
12A
100
AcDbEntity
  8
AM_9
100
AcDbLine
 10
-2.13726807028835
 20
-0.151074129835757
 30
0.0
 11
-2.148589643512226
 21
-0.1791093260592887
 31
0.0
  0
LINE
  5
13C
330
12A
100
AcDbEntity
  8
AM_9
100
AcDbLine
 10
-1.986093224249853
 20
-0.2099962668917053
 30
0.0
 11
-1.997780470469397
 21
-0.2389369657326276
 31
0.0
  0
LWPOLYLINE
  5
13D
330
12A
100
AcDbEntity
  8
AM_9
100
AcDbPolyline
 90
        3
 70
     0
 43
0.0
 10
-1.769939418984447
 20
0.1093749999999999
 10
-1.752079769000523
 20
0.0546874999999999
 10
-1.730512804449523
 20
-0.0000000000000001
  0
LWPOLYLINE
  5
13E
330
12A
100
AcDbEntity
  8
AM_9
100
AcDbPolyline
 90
        3
 70
     0
 43
0.0
 10
-1.730512804449523
 20
-0.0000000000000001
 10
-1.751990475367145
 20
-0.0544416102741496
 10
-1.769939418984447
 20
-0.109375
  0
LWPOLYLINE
  5
13F
330
12A
100
AcDbEntity
  8
AM_9
100
AcDbPolyline
 90
        3
 70
     0
 43
0.0
 10
-1.928162375827762
 20
-0.2987675689889718
 10
-1.944049660390859
 20
-0.2912216284034024
 10
-1.959259662088873
 20
-0.2813919000363599
  0
LWPOLYLINE
  5
140
330
12A
100
AcDbEntity
  8
AM_9
100
AcDbPolyline
 90
        3
 70
     0
 43
0.0
 10
-1.659615807448312
 20
-0.0000000000000001
 10
-1.669570014877586
 20
0.0544416102741495
 10
-1.683336878606003
 20
0.1093749999999999
  0
LWPOLYLINE
  5
141
330
12A
100
AcDbEntity
  8
AM_9
100
AcDbPolyline
 90
        3
 70
     0
 43
0.0
 10
-1.683336878606003
 20
-0.1093750000000001
 10
-1.669622685743618
 20
-0.0546875000000001
 10
-1.659615807448312
 20
-0.0000000000000001
  0
LWPOLYLINE
  5
142
330
12A
100
AcDbEntity
  8
AM_9
100
AcDbPolyline
 90
        3
 70
     0
 43
0.0
 10
-1.769939418984447
 20
-0.109375
 10
-1.783653611846831
 20
-0.1640625
 10
-1.793660490142138
 20
-0.2187500000000001
  0
LINE
  5
143
330
12A
100
AcDbEntity
  8
AM_9
100
AcDbLine
 10
-1.730512804449523
 20
-0.0000000000000001
 30
0.0
 11
-1.659615807448312
 21
-0.0000000000000001
 31
0.0
  0
LWPOLYLINE
  5
144
330
12A
100
AcDbEntity
  8
AM_9
100
AcDbPolyline
 90
        3
 70
     0
 43
0.0
 10
-1.793660490142138
 20
0.2187499999999999
 10
-1.783706282712864
 20
0.1643083897258503
 10
-1.769939418984447
 20
0.1093749999999999
  0
ELLIPSE
  5
145
330
12A
100
AcDbEntity
  8
AM_9
100
AcDbEllipse
 10
-2.170444018676853
 20
-0.4687500000000001
 30
0.0
 11
-0.09595382955731768
 21
0.03874944547499719
 31
0.0
210
0.0
220
0.0
230
1.0
 40
0.2113091308703505
 41
3.04060964969654
 42
6.384168311072842
  0
ELLIPSE
  5
146
330
12A
100
AcDbEntity
  8
AM_9
100
AcDbEllipse
 10
-2.14245035647937
 20
-0.399430321788976
 30
0.0
 11
-0.1290248947933269
 21
0.05210467522533582
 31
0.0
210
0.0
220
0.0
230
1.0
 40
0.2113091308703473
 41
3.034023391453985
 42
5.801105639492172
  0
ELLIPSE
  5
147
330
12A
100
AcDbEntity
  8
AM_9
100
AcDbEllipse
 10
-2.131775375002043
 20
-0.3729962569746555
 30
0.0
 11
-0.1235034625625757
 21
0.04987493162722797
 31
0.0
210
0.0
220
0.0
230
1.0
 40
0.2113091308703532
 41
3.384496206540263
 42
6.029128482655404
  0
LWPOLYLINE
  5
148
330
12A
100
AcDbEntity
  8
AM_9
100
AcDbPolyline
 90
        5
 70
     0
 43
0.0
 10
-2.148589643512226
 20
-0.1791093260592887
 10
-2.170452032010852
 20
-0.1842540823997054
 10
-2.191348118940845
 20
-0.1862220679364951
 10
-2.211265738495755
 20
-0.1844124966919381
 10
-2.229779525117018
 20
-0.1791093260592887
  0
LWPOLYLINE
  5
149
330
12A
100
AcDbEntity
  8
AM_9
100
AcDbPolyline
 90
        5
 70
     0
 43
0.0
 10
-1.997780470469397
 20
-0.2389369657326276
 10
-2.036621759156827
 20
-0.2295338871417796
 10
-2.074756805868745
 20
-0.216687117104632
 10
-2.112375600229929
 20
-0.1996402057054678
 10
-2.148589643512226
 20
-0.1791093260592887
  0
LWPOLYLINE
  5
14A
330
12A
100
AcDbEntity
  8
AM_9
100
AcDbPolyline
 90
        3
 70
     0
 43
0.0
 10
-1.97128119227068
 20
-0.2711532636537956
 10
-1.985016370035253
 20
-0.2561815527589921
 10
-1.997780470469397
 20
-0.2389369657326276
  0
ELLIPSE
  5
14B
330
12A
100
AcDbEntity
  8
AM_9
100
AcDbEllipse
 10
-2.080774471738045
 20
-0.2467045921760199
 30
0.0
 11
-0.13039392101917
 21
0.05265753494273252
 31
0.0
210
0.0
220
0.0
230
1.0
 40
0.2113091308703452
 41
3.806340372002854
 42
6.919181903097281
  0
LINE
  5
14C
330
12A
100
AcDbEntity
  8
AM_9
100
AcDbLine
 10
-1.713634856088831
 20
0.1965904602690901
 30
0.0
 11
-1.722763493140927
 21
0.2187499999999999
 31
0.0
  0
LWPOLYLINE
  5
14D
330
12A
100
AcDbEntity
  8
AM_9
100
AcDbPolyline
 90
        3
 70
     0
 43
0.0
 10
-1.683336878606003
 20
0.1093749999999999
 10
-1.701196528589926
 20
0.1640624999999999
 10
-1.713634856088831
 20
0.1965904602690901
  0
LWPOLYLINE
  5
14E
330
12A
100
AcDbEntity
  8
AM_9
100
AcDbPolyline
 90
        3
 70
     0
 43
0.0
 10
-1.715023853052277
 20
-0.2000409996967266
 10
-1.701285822223304
 20
-0.1643083897258505
 10
-1.683336878606003
 20
-0.1093750000000001
  0
LINE
  5
14F
330
12A
100
AcDbEntity
  8
AM_9
100
AcDbLine
 10
-1.722763493140927
 20
-0.2187500000000001
 30
0.0
 11
-1.715023853052277
 21
-0.2000409996967266
 31
0.0
  0
LINE
  5
150
330
12A
100
AcDbEntity
  8
AM_9
100
AcDbLine
 10
-2.148402871140239
 20
-0.1204089378707286
 30
0.0
 11
-2.149488316129952
 21
-0.1230967854582223
 31
0.0
  0
LINE
  5
151
330
12A
100
AcDbEntity
  8
AM_9
100
AcDbLine
 10
-1.943282642714364
 20
-0.2
 30
0.0
 11
-1.940614163369661
 21
-0.193392142543456
 31
0.0
  0
ELLIPSE
  5
152
330
12A
100
AcDbEntity
  8
AM_9
100
AcDbEllipse
 10
-2.062474564199504
 20
-0.2013892028241892
 30
0.0
 11
-0.1019970226638898
 21
0.04118989399965072
 31
0.0
210
0.0
220
0.0
230
1.0
 40
0.2113091308703466
 41
3.141592653589793
 42
6.283185307179586
  0
LWPOLYLINE
  5
153
330
12A
100
AcDbEntity
  8
AM_9
100
AcDbPolyline
 90
        4
 70
     0
 43
0.0
 10
-2.148407600795259
 20
-0.1204206514110939
 10
-2.148546766779788
 20
-0.1208367673933812
 10
-2.147969182822662
 20
-0.1245107513506023
 10
-2.146065201356847
 20
-0.1273588006540515
  0
LWPOLYLINE
  5
154
330
12A
100
AcDbEntity
  8
AM_9
100
AcDbPolyline
 90
        5
 70
     0
 43
0.0
 10
-1.940613219168173
 20
-0.1933898041312626
 10
-1.940706555299324
 20
-0.1936098952159724
 10
-1.943922092251963
 20
-0.1971856748420371
 10
-1.949940455494745
 20
-0.1994144431868155
 10
-1.956804426075188
 20
-0.1999999999699529
  0
LWPOLYLINE
  5
155
330
12A
100
AcDbEntity
  8
AM_9
100
AcDbPolyline
 90
        3
 70
     0
 43
0.0
 10
-2.050101557287626
 20
-0.1745741884610188
 10
-2.022712481914196
 20
-0.1876759562813858
 10
-1.986093224249853
 20
-0.2099962668917053
  0
LWPOLYLINE
  5
156
330
12A
100
AcDbEntity
  8
AM_9
100
AcDbPolyline
 90
        3
 70
     0
 43
0.0
 10
-2.13726807028835
 20
-0.151074129835757
 10
-2.108063462788826
 20
-0.1564222384464442
 10
-2.079392963846532
 20
-0.1639312493177431
  0
LWPOLYLINE
  5
157
330
12A
100
AcDbEntity
  8
AM_9
100
AcDbPolyline
 90
        3
 70
     0
 43
0.0
 10
-1.986093224249853
 20
-0.2099962668917053
 10
-1.969119541916329
 20
-0.2163479371246913
 10
-1.952981284732147
 20
-0.2258378743019629
  0
LWPOLYLINE
  5
158
330
12A
100
AcDbEntity
  8
AM_9
100
AcDbPolyline
 90
        4
 70
     0
 43
0.0
 10
-2.174178950632844
 20
-0.141958509815605
 10
-2.170303831186795
 20
-0.1420496512545706
 10
-2.155814916072045
 20
-0.1441228263802214
 10
-2.13726807028835
 20
-0.151074129835757
  0
ELLIPSE
  5
159
330
12A
100
AcDbEntity
  8
AM_9
100
AcDbEllipse
 10
-2.062474564199505
 20
-0.2013892028241882
 30
0.0
 11
-0.1303939210191722
 21
0.05265753494273301
 31
0.0
210
0.0
220
0.0
230
1.0
 40
0.2113091308703503
 41
3.806340372002822
 42
4.685075580199745
  0
ELLIPSE
  5
15A
330
12A
100
AcDbEntity
  8
AM_9
100
AcDbEllipse
 10
-2.062474564199506
 20
-0.2013892028241861
 30
0.0
 11
-0.130393921019174
 21
0.05265753494273265
 31
0.0
210
0.0
220
0.0
230
1.0
 40
0.2113091308703381
 41
-1.27977288630612
 42
-0.6725714813802801
  0
LINE
  5
15B
330
12A
100
AcDbEntity
  8
AM_9
100
AcDbLine
 10
-1.959259662088873
 20
-0.2813919000363599
 30
0.0
 11
-1.97128119227068
 21
-0.2711532636537956
 31
0.0
  0
ELLIPSE
  5
15C
330
12A
100
AcDbEntity
  8
AM_9
100
AcDbEllipse
 10
-2.080774471738043
 20
-0.2467045921760187
 30
0.0
 11
-0.1303939210191775
 21
0.0526575349427361
 31
0.0
210
0.0
220
0.0
230
1.0
 40
0.2113091308703496
 41
2.800469246484386
 42
3.607080702195126
  0
ELLIPSE
  5
15D
330
12A
100
AcDbEntity
  8
AM_9
100
AcDbEllipse
 10
-2.080774471739692
 20
-0.2467045921738476
 30
0.0
 11
-0.1303939210215432
 21
0.05265753494463191
 31
0.0
210
0.0
220
0.0
230
1.0
 40
0.2113091308746886
 41
-3.77758924950608
 42
-3.764628581858059
  0
LWPOLYLINE
  5
15E
330
12A
100
AcDbEntity
  8
AM_9
100
AcDbPolyline
 90
       17
 70
     0
 43
0.0
 10
-1.947289328520249
 20
-0.1790373738501779
 10
-1.955256793596442
 20
-0.1733931390117467
 10
-1.966012867030623
 20
-0.1670729780242511
 10
-1.978655918553067
 20
-0.1606047421316795
 10
-1.993546341698908
 20
-0.1538031670974777
 10
-2.009448218505788
 20
-0.1472336073736393
 10
-2.026809188327507
 20
-0.1407130262602576
 10
-2.044164665457752
 20
-0.1347930597680667
 10
-2.06202237704204
 20
-0.1293028157827817
 10
-2.078852138542115
 20
-0.1247141396218192
 10
-2.09516888244282
 20
-0.1208880884981781
 10
-2.109567933302654
 20
-0.1181545989145989
 10
-2.122500286168401
 20
-0.1164278875396128
 10
-2.132860014328101
 20
-0.1158549073091554
 10
-2.140970189144798
 20
-0.1164156227038168
 10
-2.14614683033564
 20
-0.1180609686233502
 10
-2.148407600795259
 20
-0.1204206514110939
  0
LWPOLYLINE
  5
15F
330
12A
100
AcDbEntity
  8
AM_9
100
AcDbPolyline
 90
        4
 70
     0
 43
0.0
 10
-1.947289328520249
 20
-0.1790373738501784
 10
-1.942334668048181
 20
-0.1842628795203941
 10
-1.940226783581438
 20
-0.1891729979031393
 10
-1.940613219168173
 20
-0.1933898041312626
  0
LINE
  5
160
330
12A
100
AcDbEntity
  8
AM_9
100
AcDbLine
 10
-1.86466094752337
 20
0.1999999999999999
 30
0.0
 11
-1.927350249373426
 21
0.1999999999999999
 31
0.0
  0
LINE
  5
161
330
12A
100
AcDbEntity
  8
AM_9
100
AcDbLine
 10
-1.927352893460802
 20
-0.2
 30
0.0
 11
-1.86466094752337
 21
-0.2
 31
0.0
  0
LINE
  5
162
330
12A
100
AcDbEntity
  8
AM_9
100
AcDbLine
 10
-1.710400172474267
 20
0.1999999999999999
 30
0.0
 11
-1.778058407144926
 21
0.1999999999999999
 31
0.0
  0
LINE
  5
163
330
12A
100
AcDbEntity
  8
AM_9
100
AcDbLine
 10
-1.778058407144926
 20
-0.2
 30
0.0
 11
-1.710400172474267
 21
-0.2
 31
0.0
  0
LINE
  5
164
330
12A
100
AcDbEntity
  8
AM_9
100
AcDbLine
 10
-1.895454501753347
 20
0.2187499999999999
 30
0.0
 11
-1.722763493140927
 21
0.2187499999999999
 31
0.0
  0
LINE
  5
165
330
12A
100
AcDbEntity
  8
AM_9
100
AcDbLine
 10
-1.860580863672939
 20
0.1571360769933567
 30
0.0
 11
-1.872779935683849
 21
0.1093749999999999
 31
0.0
  0
LINE
  5
166
330
12A
100
AcDbEntity
  8
AM_9
100
AcDbLine
 10
-1.849058864526157
 20
0.2187499999999999
 30
0.0
 11
-1.853132585668264
 21
0.1942932792292822
 31
0.0
  0
LWPOLYLINE
  5
167
330
12A
100
AcDbEntity
  8
AM_9
100
AcDbPolyline
 90
        3
 70
     0
 43
0.0
 10
-1.874775663306068
 20
0.1025748451436699
 10
-1.890639585667772
 20
0.0546875
 10
-1.912206550218773
 20
0.0
  0
LINE
  5
168
330
12A
100
AcDbEntity
  8
AM_9
100
AcDbLine
 10
-1.872779935683849
 20
0.1093749999999999
 30
0.0
 11
-1.874775663306068
 21
0.1025748451436699
 31
0.0
  0
LINE
  5
169
330
12A
100
AcDbEntity
  8
AM_9
100
AcDbLine
 10
-1.923797632095823
 20
-0.0000000000000001
 30
0.0
 11
-1.912206550218773
 21
0.0
 31
0.0
  0
LINE
  5
16A
330
12A
100
AcDbEntity
  8
AM_9
100
AcDbLine
 10
-1.89543676116096
 20
-0.2187500000000001
 30
0.0
 11
-1.722763493140927
 21
-0.2187500000000001
 31
0.0
  0
LINE
  5
16B
330
12A
100
AcDbEntity
  8
AM_9
100
AcDbLine
 10
-1.85313283089881
 20
-0.194291909796007
 30
0.0
 11
-1.849058864526157
 21
-0.2187500000000001
 31
0.0
  0
LINE
  5
16C
330
12A
100
AcDbEntity
  8
AM_9
100
AcDbLine
 10
-1.872779935683849
 20
-0.109375
 30
0.0
 11
-1.860566091587412
 21
-0.1572022813427033
 31
0.0
  0
LINE
  5
16D
330
12A
100
AcDbEntity
  8
AM_9
100
AcDbLine
 10
-1.874774650064552
 20
-0.1025782420374803
 30
0.0
 11
-1.872779935683849
 21
-0.109375
 31
0.0
  0
LWPOLYLINE
  5
16E
330
12A
100
AcDbEntity
  8
AM_9
100
AcDbPolyline
 90
        3
 70
     0
 43
0.0
 10
-1.912206550218773
 20
0.0
 10
-1.89072887930115
 20
-0.0544416102741496
 10
-1.874774650064552
 20
-0.1025782420374803
  0
LINE
  5
16F
330
12A
100
AcDbEntity
  8
AM_9
100
AcDbLine
 10
-1.539855554851864
 20
0.1853871066562612
 30
0.0
 11
-1.708672444535932
 21
0.1914800577488989
 31
0.0
  0
LINE
  5
170
330
12A
100
AcDbEntity
  8
AM_9
100
AcDbLine
 10
-1.708672444535932
 20
-0.191480057748899
 30
0.0
 11
-1.539855554851864
 21
-0.1853871066562613
 31
0.0
  0
LINE
  5
171
330
12A
100
AcDbEntity
  8
AM_9
100
AcDbLine
 10
-1.474288817569714
 20
0.1319978794387896
 30
0.0
 11
-1.488002944628782
 21
0.1513925839218323
 31
0.0
  0
LINE
  5
172
330
12A
100
AcDbEntity
  8
AM_9
100
AcDbLine
 10
-1.488002944628782
 20
-0.1513925839218325
 30
0.0
 11
-1.474288817569714
 21
-0.1319978794387897
 31
0.0
  0
ELLIPSE
  5
173
330
12A
100
AcDbEntity
  8
AM_9
100
AcDbEllipse
 10
-1.864660947523369
 20
0.0000000000000002
 30
0.0
 11
1.339457436567415E-17
 21
0.2187499999999996
 31
0.0
210
0.0
220
0.0
230
1.0
 40
0.5000000000000029
 41
0.0
 42
6.283185307179586
  0
ELLIPSE
  5
174
330
12A
100
AcDbEntity
  8
AM_9
100
AcDbEllipse
 10
-1.86466094752337
 20
-0.0000000000000005
 30
0.0
 11
1.224646799147350E-17
 21
0.1999999999999995
 31
0.0
210
0.0
220
0.0
230
1.0
 40
0.5000000000000006
 41
0.0
 42
6.283185307179586
  0
ELLIPSE
  5
175
330
12A
100
AcDbEntity
  8
AM_9
100
AcDbEllipse
 10
-1.710400172474277
 20
-0.0000000000000039
 30
0.0
 11
1.224646799147376E-17
 21
0.2000000000000038
 31
0.0
210
0.0
220
0.0
230
1.0
 40
0.5000000000000056
 41
0.0
 42
6.283185307179586
  0
ELLIPSE
  5
176
330
12A
100
AcDbEntity
  8
AM_9
100
AcDbEllipse
 10
-1.778058407144926
 20
0.0000000000000001
 30
0.0
 11
1.224646799147352E-17
 21
0.1999999999999998
 31
0.0
210
0.0
220
0.0
230
1.0
 40
0.4999999999999998
 41
0.0
 42
6.283185307179586
  0
ELLIPSE
  5
177
330
12A
100
AcDbEntity
  8
AM_9
100
AcDbEllipse
 10
-1.778058407144927
 20
-0.0000000000000001
 30
0.0
 11
1.339457436567408E-17
 21
0.2187499999999985
 31
0.0
210
0.0
220
0.0
230
1.0
 40
0.4999999999999985
 41
0.0
 42
6.283185307179586
  0
ELLIPSE
  5
178
330
12A
100
AcDbEntity
  8
AM_9
100
AcDbEllipse
 10
-1.710400172474266
 20
-0.0000000000000001
 30
0.0
 11
1.172668097677219E-17
 21
0.1915112338502295
 31
0.0
210
0.0
220
0.0
230
1.0
 40
0.4999999999999991
 41
0.0
 42
6.283185307179586
  0
ELLIPSE
  5
179
330
12A
100
AcDbEntity
  8
AM_9
100
AcDbEllipse
 10
-1.541528305985024
 20
0.0000000000000002
 30
0.0
 11
1.135353457964646E-17
 21
0.1854172907249866
 31
0.0
210
0.0
220
0.0
230
1.0
 40
0.4999999999999983
 41
0.0
 42
6.283185307179586
  0
ELLIPSE
  5
17A
330
12A
100
AcDbEntity
  8
AM_9
100
AcDbEllipse
 10
-1.520957115396421
 20
0.0000000000000001
 30
0.0
 11
9.899048221688851E-18
 21
0.1616637258772236
 31
0.0
210
0.0
220
0.0
230
1.0
 40
0.4999999999999997
 41
0.0
 42
6.283185307179586
  0
LWPOLYLINE
  5
17B
330
12A
100
AcDbEntity
  8
AM_4
100
AcDbPolyline
 90
        4
 70
     0
 43
0.0
 10
-1.940959754550339
 20
-0.2360765106845277
 10
-1.931794767973782
 20
-0.2462091938631851
 10
-1.923703497194795
 20
-0.2570505402207574
 10
-1.916106726516784
 20
-0.2689146070947222
  0
LWPOLYLINE
  5
17C
330
12A
100
AcDbEntity
  8
AM_4
100
AcDbPolyline
 90
        3
 70
     0
 43
0.0
 10
-1.916106726516784
 20
-0.2689146070947222
 10
-1.929102614366395
 20
-0.2634308483997528
 10
-1.943316514480635
 20
-0.2602304684431305
  0
LWPOLYLINE
  5
17D
330
12A
100
AcDbEntity
  8
AM_4
100
AcDbPolyline
 90
        3
 70
     0
 43
0.0
 10
-1.961616422019169
 20
-0.3055458577949631
 10
-1.945234467400191
 20
-0.3030753670497808
 10
-1.928162375827762
 20
-0.2987675689889718
  0
LINE
  5
17E
330
12A
100
AcDbEntity
  8
AM_4
100
AcDbLine
 10
-1.916106726516784
 20
-0.2689146070947222
 30
0.0
 11
-1.928162375827762
 21
-0.2987675689889718
 31
0.0
  0
LINE
  5
17F
330
12A
100
AcDbEntity
  8
AM_4
100
AcDbLine
 10
-2.075804476805507
 20
-0.5093460834378319
 30
0.0
 11
-2.015192726538243
 21
-0.4540180898723598
 31
0.0
  0
LINE
  5
180
330
12A
100
AcDbEntity
  8
AM_4
100
AcDbLine
 10
-2.271927893838118
 20
-0.3503396289636352
 30
0.0
 11
-2.266734471547388
 21
-0.4322420068738781
 31
0.0
  0
ELLIPSE
  5
181
330
12A
100
AcDbEntity
  8
AM_4
100
AcDbEllipse
 10
-2.170444018676853
 20
-0.4687500000000001
 30
0.0
 11
-0.09595382955731765
 21
0.03874944547499707
 31
0.0
210
0.0
220
0.0
230
1.0
 40
0.2113091308703502
 41
0.1009830038932442
 42
3.040609649696545
  0
LINE
  5
182
330
12A
100
AcDbEntity
  8
AM_4
100
AcDbLine
 10
-2.218457951893141
 20
-0.151074129835757
 30
0.0
 11
-2.229779525117018
 21
-0.1791093260592887
 31
0.0
  0
LWPOLYLINE
  5
183
330
12A
100
AcDbEntity
  8
AM_4
100
AcDbPolyline
 90
        8
 70
     0
 43
0.0
 10
-2.248130342564919
 20
-0.3179920734734821
 10
-2.251845317026925
 20
-0.3193265608816367
 10
-2.25817354228095
 20
-0.3227079992956012
 10
-2.263728721482428
 20
-0.3274226095214306
 10
-2.268138783353563
 20
-0.3334462762254252
 10
-2.271144402250027
 20
-0.3411361055753668
 10
-2.271989811845041
 20
-0.3486712298902567
 10
-2.271916857910272
 20
-0.3505067451926599
  0
LWPOLYLINE
  5
184
330
12A
100
AcDbEntity
  8
AM_4
100
AcDbPolyline
 90
        8
 70
     0
 43
0.0
 10
-2.015825909350403
 20
-0.4545809265899781
 10
-2.013585441566407
 20
-0.4524430291614941
 10
-2.009135702792575
 20
-0.4464542916322585
 10
-2.006069978496852
 20
-0.4387685132337528
 10
-2.005175595044243
 20
-0.431220623133958
 10
-2.005974060969938
 20
-0.4242545700553308
 10
-2.008064412230854
 20
-0.4178556926964077
 10
-2.009715874355267
 20
-0.4144677374075489
  0
ELLIPSE
  5
185
330
12A
100
AcDbEntity
  8
AM_4
100
AcDbEllipse
 10
-2.14245035647937
 20
-0.3994303217889759
 30
0.0
 11
-0.1290248947933272
 21
0.05210467522533585
 31
0.0
210
0.0
220
0.0
230
1.0
 40
0.2113091308703542
 41
0.1022519223638918
 42
3.034023391453985
  0
LWPOLYLINE
  5
186
330
12A
100
AcDbEntity
  8
AM_4
100
AcDbPolyline
 90
        3
 70
     0
 43
0.0
 10
-2.009352257432553
 20
-0.2987675689889718
 10
-1.995818991932164
 20
-0.3030606061861223
 10
-1.982259707307179
 20
-0.305456396233367
  0
ELLIPSE
  5
187
330
12A
100
AcDbEntity
  8
AM_4
100
AcDbEllipse
 10
-2.080774471738041
 20
-0.2467045921760204
 30
0.0
 11
-0.1303939210191762
 21
0.05265753494273434
 31
0.0
210
0.0
220
0.0
230
1.0
 40
0.2113091308703465
 41
1.711945269609641
 42
2.505596057672109
  0
LWPOLYLINE
  5
188
330
12A
100
AcDbEntity
  8
AM_4
100
AcDbPolyline
 90
        4
 70
     0
 43
0.0
 10
-2.229779525117018
 20
-0.1791093260592887
 10
-2.214902407073942
 20
-0.1988355121406939
 10
-2.198473134831267
 20
-0.2156330920108724
 10
-2.192976116219925
 20
-0.2201680623457971
  0
LWPOLYLINE
  5
189
330
12A
100
AcDbEntity
  8
AM_4
100
AcDbPolyline
 90
        3
 70
     0
 43
0.0
 10
-2.192976116219925
 20
-0.2201680623457971
 10
-2.180035594621297
 20
-0.2290462109660021
 10
-2.16016023367898
 20
-0.2389369657326275
  0
LWPOLYLINE
  5
18A
330
12A
100
AcDbEntity
  8
AM_4
100
AcDbPolyline
 90
        4
 70
     0
 43
0.0
 10
-1.963072914433904
 20
-0.2602304684431209
 10
-1.972321549847798
 20
-0.2616913382589203
 10
-1.984619067297432
 20
-0.2647402074337707
 10
-1.997296608121575
 20
-0.2689146070947222
  0
LINE
  5
18B
330
12A
100
AcDbEntity
  8
AM_4
100
AcDbLine
 10
-2.149488316129952
 20
-0.1230967854582223
 30
0.0
 11
-2.164471586863394
 21
-0.1601993088245384
 31
0.0
  0
LINE
  5
18C
330
12A
100
AcDbEntity
  8
AM_4
100
AcDbLine
 10
-1.960477541535619
 20
-0.2425790968238377
 30
0.0
 11
-1.943282642714364
 21
-0.2
 31
0.0
  0
ELLIPSE
  5
18D
330
12A
100
AcDbEntity
  8
AM_4
100
AcDbEllipse
 10
-2.062474564199506
 20
-0.2013892028241881
 30
0.0
 11
-0.1019970226638876
 21
0.04118989399964963
 31
0.0
210
0.0
220
0.0
230
1.0
 40
0.2113091308703492
 41
0.0
 42
3.141592653589793
  0
LWPOLYLINE
  5
18E
330
12A
100
AcDbEntity
  8
AM_4
100
AcDbPolyline
 90
        4
 70
     0
 43
0.0
 10
-2.218457951893141
 20
-0.151074129835757
 10
-2.201842109905612
 20
-0.145877822676052
 10
-2.185787497250479
 20
-0.1427138007556462
 10
-2.174178950632844
 20
-0.141958509815605
  0
LWPOLYLINE
  5
18F
330
12A
100
AcDbEntity
  8
AM_4
100
AcDbPolyline
 90
        7
 70
     0
 43
0.0
 10
-2.148472987459435
 20
-0.2099962668917053
 10
-2.158782123816764
 20
-0.1943573015029059
 10
-2.170125950650974
 20
-0.1805491420332303
 10
-2.182839925227781
 20
-0.1688997677199809
 10
-2.196735851417473
 20
-0.1598729403210871
 10
-2.207409191058117
 20
-0.1549033058439656
 10
-2.218457951893141
 20
-0.151074129835757
  0
LINE
  5
190
330
12A
100
AcDbEntity
  8
AM_4
100
AcDbLine
 10
-2.172849097090015
 20
-0.1419585097669023
 30
0.0
 11
-2.174287573738169
 21
-0.1419585097669023
 31
0.0
  0
ELLIPSE
  5
191
330
12A
100
AcDbEntity
  8
AM_4
100
AcDbEllipse
 10
-2.062474564199515
 20
-0.2013892028241565
 30
0.0
 11
-0.1303939210191598
 21
0.05265753494270604
 31
0.0
210
0.0
220
0.0
230
1.0
 40
0.2113091308702583
 41
5.610613825799257
 42
7.795870906981703
  0
ELLIPSE
  5
192
330
12A
100
AcDbEntity
  8
AM_4
100
AcDbEllipse
 10
-2.080774471738039
 20
-0.2467045921760209
 30
0.0
 11
-0.1303939210191749
 21
0.0526575349427341
 31
0.0
210
0.0
220
0.0
230
1.0
 40
0.2113091308703492
 41
0.6359965959176863
 42
1.512685599801932
  0
LWPOLYLINE
  5
193
330
12A
100
AcDbEntity
  8
AM_4
100
AcDbPolyline
 90
        3
 70
     0
 43
0.0
 10
-1.981372821972439
 20
-0.3055458577949631
 10
-1.97192262308613
 20
-0.3064767622622302
 10
-1.961616422019169
 20
-0.3055458577949631
  0
LWPOLYLINE
  5
194
330
12A
100
AcDbEntity
  8
AM_4
100
AcDbPolyline
 90
       16
 70
     0
 43
0.0
 10
-2.009408517496025
 20
-0.4150420993620387
 10
-2.01034120752291
 20
-0.4131740187800102
 10
-2.013200869147676
 20
-0.4062080958010885
 10
-2.01566439867866
 20
-0.3973273894648803
 10
-2.017126581717024
 20
-0.3868159790855844
 10
-2.01707762493024
 20
-0.3752583681903708
 10
-2.015237040919063
 20
-0.3633059211961641
 10
-2.011094679970107
 20
-0.350448524071167
 10
-2.005148876997221
 20
-0.3389022090427235
 10
-1.997906401062397
 20
-0.3290175610078133
 10
-1.98988907467585
 20
-0.3209315617392861
 10
-1.981677586550566
 20
-0.3146924034921324
 10
-1.97391307908658
 20
-0.3102416871667142
 10
-1.967179948063924
 20
-0.3073626095701842
 10
-1.961843667362624
 20
-0.305701717573838
 10
-1.959583792578919
 20
-0.3051730546903457
  0
LWPOLYLINE
  5
195
330
12A
100
AcDbEntity
  8
AM_4
100
AcDbPolyline
 90
       16
 70
     0
 43
0.0
 10
-2.208300964810945
 20
-0.2050362855205539
 10
-2.207918750110559
 20
-0.2056204587794067
 10
-2.205298158544808
 20
-0.2101552736868571
 10
-2.202427311455088
 20
-0.216515184702757
 10
-2.19977504109976
 20
-0.2248049164244553
 10
-2.197933406667415
 20
-0.2348550962948996
 10
-2.197464059259886
 20
-0.2461545407994604
 10
-2.19872368874749
 20
-0.258049253167239
 10
-2.202283323280577
 20
-0.271185156873882
 10
-2.207776339433054
 20
-0.2831535546018261
 10
-2.214707536238844
 20
-0.2935226840998664
 10
-2.22256317375263
 20
-0.3021202899237708
 10
-2.230783356342518
 20
-0.3088760813748568
 10
-2.238737712096622
 20
-0.313812906999025
 10
-2.245807694317686
 20
-0.3171004273154556
 10
-2.248946950138357
 20
-0.3182510737032483
  0
ELLIPSE
  5
196
330
12A
100
AcDbEntity
  8
AM_4
100
AcDbEllipse
 10
-2.131775375002025
 20
-0.3729962569746643
 30
0.0
 11
-0.1235034625625957
 21
0.04987493162723568
 31
0.0
210
0.0
220
0.0
230
1.0
 40
0.2113091308703499
 41
6.040860171848455
 42
9.667681513719918
  0
ELLIPSE
  5
197
330
12A
100
AcDbEntity
  8
AM_4
100
AcDbEllipse
 10
-2.062474564199507
 20
-0.2013892028241864
 30
0.0
 11
-0.1303939210191825
 21
0.05265753494272171
 31
0.0
210
0.0
220
0.0
230
1.0
 40
0.2113091308703703
 41
1.71194526960962
 42
2.518556725320342
  0
LINE
  5
198
330
12A
100
AcDbEntity
  8
AM_4
100
AcDbLine
 10
-1.943316514480635
 20
-0.2602304684431305
 30
0.0
 11
-1.963072914433904
 21
-0.2602304684431209
 31
0.0
  0
ELLIPSE
  5
199
330
12A
100
AcDbEntity
  8
AM_4
100
AcDbEllipse
 10
-2.062474564199506
 20
-0.2013892028241882
 30
0.0
 11
-0.130393921019174
 21
0.05265753494273388
 31
0.0
210
0.0
220
0.0
230
1.0
 40
0.2113091308703483
 41
2.800469246484371
 42
3.607080702195126
  0
LINE
  5
19A
330
12A
100
AcDbEntity
  8
AM_4
100
AcDbLine
 10
-1.952981284732147
 20
-0.2258378743019629
 30
0.0
 11
-1.940959754550339
 21
-0.2360765106845277
 31
0.0
  0
LWPOLYLINE
  5
19B
330
12A
100
AcDbEntity
  8
AM_4
100
AcDbPolyline
 90
        3
 70
     0
 43
0.0
 10
-1.997296608121575
 20
-0.2689146070947222
 10
-2.02535890809042
 20
-0.251275593729576
 10
-2.055147012928405
 20
-0.2360765106845275
  0
LINE
  5
19C
330
12A
100
AcDbEntity
  8
AM_4
100
AcDbLine
 10
-2.055147012928405
 20
-0.2360765106845275
 30
0.0
 11
-2.08115582195439
 21
-0.2258378743019627
 31
0.0
  0
LWPOLYLINE
  5
19D
330
12A
100
AcDbEntity
  8
AM_4
100
AcDbPolyline
 90
        4
 70
     0
 43
0.0
 10
-2.08115582195439
 20
-0.2258378743019627
 10
-2.10414585664663
 20
-0.2189176876709014
 10
-2.126151726507315
 20
-0.2138633349839127
 10
-2.148472987459435
 20
-0.2099962668917053
  0
LINE
  5
19E
330
12A
100
AcDbEntity
  8
AM_4
100
AcDbLine
 10
-2.148472987459435
 20
-0.2099962668917053
 30
0.0
 11
-2.16016023367898
 21
-0.2389369657326276
 31
0.0
  0
LWPOLYLINE
  5
19F
330
12A
100
AcDbEntity
  8
AM_4
100
AcDbPolyline
 90
        3
 70
     0
 43
0.0
 10
-2.16016023367898
 20
-0.2389369657326276
 10
-2.130480412445178
 20
-0.2560939713202353
 10
-2.099455729492922
 20
-0.2711532636537956
  0
LINE
  5
1A0
330
12A
100
AcDbEntity
  8
AM_4
100
AcDbLine
 10
-2.099455729492922
 20
-0.2711532636537956
 30
0.0
 11
-2.073446920466939
 21
-0.2813919000363599
 31
0.0
  0
LWPOLYLINE
  5
1A1
330
12A
100
AcDbEntity
  8
AM_4
100
AcDbPolyline
 90
        3
 70
     0
 43
0.0
 10
-2.073446920466939
 20
-0.2813919000363599
 10
-2.041796369612915
 20
-0.2911775952746243
 10
-2.009352257432553
 20
-0.2987675689889718
  0
LINE
  5
1A2
330
12A
100
AcDbEntity
  8
AM_4
100
AcDbLine
 10
-1.997296608121575
 20
-0.2689146070947222
 30
0.0
 11
-2.009352257432553
 21
-0.2987675689889718
 31
0.0
  0
ARC
  5
1A3
330
12A
100
AcDbEntity
  8
AM_4
100
AcDbCircle
 10
-1.991858428704209
 20
-0.0000000000000002
 30
0.0
 40
0.2000000000000001
100
AcDbArc
 50
90.0
 51
219.6367673603068
  0
LWPOLYLINE
  5
1A4
330
12A
100
AcDbEntity
  8
AM_4
100
AcDbPolyline
 90
       10
 70
     0
 43
0.0
 10
-2.146065201356847
 20
-0.1273588006540515
 10
-2.144397479013538
 20
-0.1291842652280562
 10
-2.138119931745875
 20
-0.1344729790611519
 10
-2.128962332683153
 20
-0.1405186270901959
 10
-2.117666143521142
 20
-0.1468270783017121
 10
-2.103924992380392
 20
-0.1535654953592165
 10
-2.088863502640911
 20
-0.1601799433259583
 10
-2.072070079821251
 20
-0.1668493358980661
 10
-2.054670743667255
 20
-0.1731116383367606
 10
-2.036427528888152
 20
-0.1790373738502115
  0
ELLIPSE
  5
1A5
330
12A
100
AcDbEntity
  8
AM_4
100
AcDbEllipse
 10
-1.991858428704209
 20
0.0
 30
0.0
 11
1.224646799147355E-17
 21
0.2000000000000002
 31
0.0
210
0.0
220
0.0
230
1.0
 40
0.4999999999999999
 41
0.0
 42
2.679646633022826
  0
LINE
  5
1A6
330
12A
100
AcDbEntity
  8
AM_4
100
AcDbLine
 10
-1.927350249373426
 20
0.1999999999999999
 30
0.0
 11
-1.991858428704209
 21
0.1999999999999999
 31
0.0
  0
LINE
  5
1A7
330
12A
100
AcDbEntity
  8
AM_4
100
AcDbLine
 10
-1.956952210302096
 20
-0.2
 30
0.0
 11
-1.927352893460802
 21
-0.2
 31
0.0
  0
LWPOLYLINE
  5
1A8
330
12A
100
AcDbEntity
  8
AM_4
100
AcDbPolyline
 90
        8
 70
     0
 43
0.0
 10
-1.956804426075188
 20
-0.1999999999699529
 10
-1.958291543314491
 20
-0.1999786710855128
 10
-1.969165143791241
 20
-0.1988321115509053
 10
-1.981563465505223
 20
-0.1961649429984259
 10
-1.995986895871215
 20
-0.1920694300574958
 10
-2.011499875732032
 20
-0.1870948030566195
 10
-2.028593279519003
 20
-0.181500594761393
 10
-2.036427528888169
 20
-0.1790373738501784
  0
LINE
  5
1A9
330
12A
100
AcDbEntity
  8
AM_4
100
AcDbLine
 10
-1.919955861527369
 20
0.2187499999999999
 30
0.0
 11
-1.895454501753347
 21
0.2187499999999999
 31
0.0
  0
LWPOLYLINE
  5
1AA
330
12A
100
AcDbEntity
  8
AM_4
100
AcDbPolyline
 90
        3
 70
     0
 43
0.0
 10
-1.959382476062293
 20
0.1093749999999999
 10
-1.941522826078369
 20
0.1640624999999999
 10
-1.919955861527369
 20
0.2187499999999999
  0
LWPOLYLINE
  5
1AB
330
12A
100
AcDbEntity
  8
AM_4
100
AcDbPolyline
 90
        3
 70
     0
 43
0.0
 10
-1.983103547219984
 20
-0.0000000000000001
 10
-1.97314933979071
 20
0.0544416102741495
 10
-1.959382476062293
 20
0.1093749999999999
  0
LINE
  5
1AC
330
12A
100
AcDbEntity
  8
AM_4
100
AcDbLine
 10
-1.983103547219984
 20
-0.0000000000000001
 30
0.0
 11
-1.923797632095823
 21
-0.0000000000000001
 31
0.0
  0
LWPOLYLINE
  5
1AD
330
12A
100
AcDbEntity
  8
AM_4
100
AcDbPolyline
 90
        3
 70
     0
 43
0.0
 10
-1.959382476062293
 20
-0.109375
 10
-1.973096668924677
 20
-0.0546875
 10
-1.983103547219984
 20
-0.0000000000000001
  0
LWPOLYLINE
  5
1AE
330
12A
100
AcDbEntity
  8
AM_4
100
AcDbPolyline
 90
        3
 70
     0
 43
0.0
 10
-1.919955861527369
 20
-0.2187500000000001
 10
-1.941433532444991
 20
-0.1643083897258504
 10
-1.959382476062293
 20
-0.109375
  0
LINE
  5
1AF
330
12A
100
AcDbEntity
  8
AM_4
100
AcDbLine
 10
-1.919955861527369
 20
-0.2187500000000001
 30
0.0
 11
-1.89543676116096
 21
-0.2187500000000001
 31
0.0
  0
ENDBLK
  5
12D
330
12A
100
AcDbEntity
  8
0
100
AcDbBlockEnd
  0
BLOCK
  5
1B2
330
1B0
100
AcDbEntity
  8
0
100
AcDbBlockBegin
  2
5_070754H_0_in_070754_4
 70
     2
 10
0.0
 20
0.0
 30
0.0
  3
5_070754H_0_in_070754_4
  1

  0
ATTDEF
  5
1B4
330
1B0
100
AcDbEntity
  8
AM_6
100
AcDbText
 10
8.22359375
 20
1.213235294117647
 30
0.0
 40
0.5
  1
WSTU-S2 -(Contact Seal)-Housing
100
AcDbAttributeDefinition
  3

  2
NN
 70
     8
280
     0
  0
ATTDEF
  5
1B5
330
1B0
100
AcDbEntity
  8
AM_6
100
AcDbText
 10
8.22359375
 20
0.7132352941176472
 30
0.0
 40
0.5
  1
S-2000 Wide Slot Take-Up Bearing -Inch
100
AcDbAttributeDefinition
  3

  2
NT
 70
     8
280
     0
  0
ATTDEF
  5
1B6
330
1B0
100
AcDbEntity
  8
AM_6
100
AcDbText
 10
8.22359375
 20
0.2132352941176472
 30
0.0
 40
0.5
  1
070754H
100
AcDbAttributeDefinition
  3

  2
NB
 70
     8
280
     0
  0
ATTDEF
  5
1B7
330
1B0
100
AcDbEntity
  8
AM_6
100
AcDbText
 10
8.22359375
 20
-0.2867647058823528
 30
0.0
 40
0.5
  1
$PN.H
100
AcDbAttributeDefinition
  3

  2
NBSYN
 70
     8
280
     0
  0
ATTDEF
  5
1B8
330
1B0
100
AcDbEntity
  8
AM_6
100
AcDbText
 10
8.22359375
 20
-0.7867647058823528
 30
0.0
 40
0.5
  1
070754
100
AcDbAttributeDefinition
  3

  2
LINA
 70
     8
280
     0
  0
ATTDEF
  5
1B9
330
1B0
100
AcDbEntity
  8
AM_6
100
AcDbText
 10
8.22359375
 20
-1.286764705882353
 30
0.0
 40
0.5
  1
1-1/2
100
AcDbAttributeDefinition
  3

  2
SS
 70
     8
280
     0
  0
ATTDEF
  5
1BA
330
1B0
100
AcDbEntity
  8
AM_6
100
AcDbText
 10
8.22359375
 20
-1.786764705882353
 30
0.0
 40
0.5
  1
070754
100
AcDbAttributeDefinition
  3

  2
PN
 70
     8
280
     0
  0
ATTDEF
  5
1BB
330
1B0
100
AcDbEntity
  8
AM_6
100
AcDbText
 10
8.22359375
 20
-2.286764705882353
 30
0.0
 40
0.5
  1
WSTU-S2-108R
100
AcDbAttributeDefinition
  3

  2
DESCRIPTION
 70
     8
280
     0
  0
ATTDEF
  5
1BC
330
1B0
100
AcDbEntity
  8
AM_6
100
AcDbText
 10
8.22359375
 20
-2.786764705882353
 30
0.0
 40
0.5
  1
Non-Expansion Type
100
AcDbAttributeDefinition
  3

  2
EF
 70
     8
280
     0
  0
ATTDEF
  5
1BD
330
1B0
100
AcDbEntity
  8
AM_6
100
AcDbText
 10
8.22359375
 20
-3.286764705882353
 30
0.0
 40
0.5
  1
2-17/32
100
AcDbAttributeDefinition
  3

  2
A
 70
     8
280
     0
  0
ATTDEF
  5
1BE
330
1B0
100
AcDbEntity
  8
AM_6
100
AcDbText
 10
8.22359375
 20
-3.786764705882353
 30
0.0
 40
0.5
  1
5-1/16
100
AcDbAttributeDefinition
  3

  2
B
 70
     8
280
     0
  0
ATTDEF
  5
1BF
330
1B0
100
AcDbEntity
  8
AM_6
100
AcDbText
 10
8.22359375
 20
-4.286764705882353
 30
0.0
 40
0.5
  1
17/32
100
AcDbAttributeDefinition
  3

  2
C
 70
     8
280
     0
  0
ATTDEF
  5
1C0
330
1B0
100
AcDbEntity
  8
AM_6
100
AcDbText
 10
8.22359375
 20
-4.786764705882353
 30
0.0
 40
0.5
  1
3-3/16
100
AcDbAttributeDefinition
  3

  2
E
 70
     8
280
     0
  0
ATTDEF
  5
1C1
330
1B0
100
AcDbEntity
  8
AM_6
100
AcDbText
 10
8.22359375
 20
-5.286764705882353
 30
0.0
 40
0.5
  1
7/8
100
AcDbAttributeDefinition
  3

  2
F
 70
     8
280
     0
  0
ATTDEF
  5
1C2
330
1B0
100
AcDbEntity
  8
AM_6
100
AcDbText
 10
8.22359375
 20
-5.786764705882353
 30
0.0
 40
0.5
  1
11/16
100
AcDbAttributeDefinition
  3

  2
G
 70
     8
280
     0
  0
ATTDEF
  5
1C3
330
1B0
100
AcDbEntity
  8
AM_6
100
AcDbText
 10
8.22359375
 20
-6.286764705882353
 30
0.0
 40
0.5
  1
5/8
100
AcDbAttributeDefinition
  3

  2
H
 70
     8
280
     0
  0
ATTDEF
  5
1C4
330
1B0
100
AcDbEntity
  8
AM_6
100
AcDbText
 10
8.22359375
 20
-6.786764705882353
 30
0.0
 40
0.5
  1
2-7/16
100
AcDbAttributeDefinition
  3

  2
J
 70
     8
280
     0
  0
ATTDEF
  5
1C5
330
1B0
100
AcDbEntity
  8
AM_6
100
AcDbText
 10
8.22359375
 20
-7.286764705882353
 30
0.0
 40
0.5
  1
1-7/16
100
AcDbAttributeDefinition
  3

  2
K
 70
     8
280
     0
  0
ATTDEF
  5
1C6
330
1B0
100
AcDbEntity
  8
AM_6
100
AcDbText
 10
8.22359375
 20
-7.786764705882353
 30
0.0
 40
0.5
  1
1.437500
100
AcDbAttributeDefinition
  3

  2
K1
 70
     8
280
     0
  0
ATTDEF
  5
1C7
330
1B0
100
AcDbEntity
  8
AM_6
100
AcDbText
 10
8.22359375
 20
-8.286764705882353
 30
0.0
 40
0.5
  1
2-3/4
100
AcDbAttributeDefinition
  3

  2
L
 70
     8
280
     0
  0
ATTDEF
  5
1C8
330
1B0
100
AcDbEntity
  8
AM_6
100
AcDbText
 10
8.22359375
 20
-8.786764705882353
 30
0.0
 40
0.5
  1
3-1/2
100
AcDbAttributeDefinition
  3

  2
M
 70
     8
280
     0
  0
ATTDEF
  5
1C9
330
1B0
100
AcDbEntity
  8
AM_6
100
AcDbText
 10
8.22359375
 20
-9.286764705882353
 30
0.0
 40
0.5
  1
4-1/8
100
AcDbAttributeDefinition
  3

  2
N
 70
     8
280
     0
  0
ATTDEF
  5
1CA
330
1B0
100
AcDbEntity
  8
AM_6
100
AcDbText
 10
8.22359375
 20
-9.786764705882353
 30
0.0
 40
0.5
  1
2-47/64
100
AcDbAttributeDefinition
  3

  2
R
 70
     8
280
     0
  0
ATTDEF
  5
1CB
330
1B0
100
AcDbEntity
  8
AM_6
100
AcDbText
 10
8.22359375
 20
-10.28676470588235
 30
0.0
 40
0.5
  1
1-45/64
100
AcDbAttributeDefinition
  3

  2
S
 70
     8
280
     0
  0
ATTDEF
  5
1CC
330
1B0
100
AcDbEntity
  8
AM_6
100
AcDbText
 10
8.22359375
 20
-10.78676470588235
 30
0.0
 40
0.5
  1
2-1/16
100
AcDbAttributeDefinition
  3

  2
T
 70
     8
280
     0
  0
ATTDEF
  5
1CD
330
1B0
100
AcDbEntity
  8
AM_6
100
AcDbText
 10
8.22359375
 20
-11.28676470588235
 30
0.0
 40
0.5
  1
2.062500
100
AcDbAttributeDefinition
  3

  2
T1
 70
     8
280
     0
  0
ATTDEF
  5
1CE
330
1B0
100
AcDbEntity
  8
AM_6
100
AcDbText
 10
8.22359375
 20
-11.78676470588235
 30
0.0
 40
0.5
  1
3/16
100
AcDbAttributeDefinition
  3

  2
X
 70
     8
280
     0
  0
ATTDEF
  5
1CF
330
1B0
100
AcDbEntity
  8
AM_6
100
AcDbText
 10
8.22359375
 20
-12.28676470588235
 30
0.0
 40
0.5
  1
0.020
100
AcDbAttributeDefinition
  3

  2
Y
 70
     8
280
     0
  0
ATTDEF
  5
1D0
330
1B0
100
AcDbEntity
  8
AM_6
100
AcDbText
 10
8.22359375
 20
-12.78676470588235
 30
0.0
 40
0.5
  1
1-51/64
100
AcDbAttributeDefinition
  3

  2
Z
 70
     8
280
     0
  0
ATTDEF
  5
1D1
330
1B0
100
AcDbEntity
  8
AM_6
100
AcDbText
 10
8.22359375
 20
-13.28676470588235
 30
0.0
 40
0.5
  1
baldor
100
AcDbAttributeDefinition
  3

  2
COMPANY
 70
     8
280
     0
  0
ELLIPSE
  5
1D2
330
1B0
100
AcDbEntity
  8
AM_9
100
AcDbEllipse
 10
-1.710400172474267
 20
-0.0000000000000001
 30
0.0
 11
2.449293598294707E-17
 21
0.4
 31
0.0
210
0.0
220
0.0
230
1.0
 40
0.4999999999999999
 41
0.0
 42
6.283185307179586
  0
ELLIPSE
  5
1D3
330
1B0
100
AcDbEntity
  8
AM_9
100
AcDbEllipse
 10
-1.623797632095823
 20
0.0000000000000002
 30
0.0
 11
-9.184850993605140E-17
 21
-0.4999999999999995
 31
0.0
210
0.0
220
0.0
230
1.0
 40
0.5000000000000001
 41
1.668911888641698
 42
7.755866072127683
  0
LINE
  5
1D4
330
1B0
100
AcDbEntity
  8
AM_9
100
AcDbLine
 10
-1.624947406213989
 20
-0.499996695031626
 30
0.0
 11
-1.623763006485218
 21
-0.4999999970026675
 31
0.0
  0
LWPOLYLINE
  5
1D5
330
1B0
100
AcDbEntity
  8
AM_9
100
AcDbPolyline
 90
       16
 70
     0
 43
0.0
 10
-1.875129104382052
 20
-0.2811496362713194
 10
-1.871632860193249
 20
-0.289958993043311
 10
-1.860020554302321
 20
-0.3165107166435406
 10
-1.847183215873277
 20
-0.3419178524079066
 10
-1.833099510859579
 20
-0.3660450312898594
 10
-1.817765792021446
 20
-0.3887240653510551
 10
-1.801235558983467
 20
-0.4097266585693443
 10
-1.783601321233358
 20
-0.4288306911995662
 10
-1.765010613403606
 20
-0.4458263794794633
 10
-1.745647896435917
 20
-0.4605539829959639
 10
-1.725703691576962
 20
-0.4729266720299334
 10
-1.705350469156101
 20
-0.4829259544075729
 10
-1.684735835683621
 20
-0.4905791202239025
 10
-1.663987870583394
 20
-0.4959361752398926
 10
-1.643222464231918
 20
-0.4990552967467778
 10
-1.624947406213989
 20
-0.499996695031626
  0
LWPOLYLINE
  5
1D6
330
1B0
100
AcDbEntity
  8
AM_9
100
AcDbPolyline
 90
       17
 70
     0
 43
0.0
 10
-1.625660935473415
 20
0.4999913201335896
 10
-1.633187160543951
 20
0.499779515949491
 10
-1.653576009702303
 20
0.4977754073663298
 10
-1.673621074445048
 20
0.4937331267722233
 10
-1.693261309177049
 20
0.4877039910754322
 10
-1.712454491447371
 20
0.4797217952352981
 10
-1.731171665764123
 20
0.469798990132036
 10
-1.749390127179874
 20
0.4579261095922956
 10
-1.767083070420953
 20
0.4440773508768566
 10
-1.784207561595735
 20
0.4282247142380478
 10
-1.800694618883522
 20
0.4103605113940845
 10
-1.816447044419881
 20
0.3905223876913691
 10
-1.831349333403086
 20
0.3688089584507679
 10
-1.845287390672904
 20
0.3453752459274696
 10
-1.858168180742242
 20
0.3204091733311771
 10
-1.869920044423512
 20
0.2941257287654725
 10
-1.875147556924134
 20
0.2811020077862306
  0
LINE
  5
1D7
330
1B0
100
AcDbEntity
  8
AM_9
100
AcDbLine
 10
-1.623916779692886
 20
0.499999964509623
 30
0.0
 11
-1.625660935473415
 21
0.4999913201335896
 31
0.0
  0
LINE
  5
1D8
330
1B0
100
AcDbEntity
  8
AM_9
100
AcDbLine
 10
2.5
 20
-0.4375
 30
0.0
 11
3.1875
 21
-0.4375
 31
0.0
  0
LINE
  5
1D9
330
1B0
100
AcDbEntity
  8
AM_9
100
AcDbLine
 10
3.1875
 20
0.4375
 30
0.0
 11
2.5
 21
0.4375
 31
0.0
  0
LINE
  5
1DA
330
1B0
100
AcDbEntity
  8
AM_9
100
AcDbLine
 10
2.46
 20
-0.9374999999999999
 30
0.0
 11
2.46
 21
0.9374999999999999
 31
0.0
  0
LINE
  5
1DB
330
1B0
100
AcDbEntity
  8
AM_9
100
AcDbLine
 10
2.5
 20
-0.9374999999999999
 30
0.0
 11
2.5
 21
0.9374999999999999
 31
0.0
  0
LINE
  5
1DC
330
1B0
100
AcDbEntity
  8
AM_9
100
AcDbLine
 10
1.915000000000001
 20
-0.9374999999999999
 30
0.0
 11
1.915000000000001
 21
0.9374999999999999
 31
0.0
  0
LINE
  5
1DD
330
1B0
100
AcDbEntity
  8
AM_9
100
AcDbLine
 10
1.875
 20
-0.9374999999999999
 30
0.0
 11
1.875
 21
0.9374999999999999
 31
0.0
  0
LINE
  5
1DE
330
1B0
100
AcDbEntity
  8
AM_9
100
AcDbLine
 10
1.5748
 20
-0.7201923166826925
 30
0.0
 11
1.5748
 21
1.03125
 31
0.0
  0
LINE
  5
1DF
330
1B0
100
AcDbEntity
  8
AM_9
100
AcDbLine
 10
-1.5748
 20
1.03125
 30
0.0
 11
-1.5748
 21
-0.7201923166826925
 31
0.0
  0
LINE
  5
1E0
330
1B0
100
AcDbEntity
  8
AM_9
100
AcDbLine
 10
-1.5748
 20
-0.7201923166826925
 30
0.0
 11
1.5748
 21
-0.7201923166826925
 31
0.0
  0
LINE
  5
1E1
330
1B0
100
AcDbEntity
  8
AM_9
100
AcDbLine
 10
-1.5748
 20
-0.7201923166826925
 30
0.0
 11
-1.658147655044369
 21
-1.03125
 31
0.0
  0
LINE
  5
1E2
330
1B0
100
AcDbEntity
  8
AM_9
100
AcDbLine
 10
1.658147655044369
 20
-1.03125
 30
0.0
 11
1.5748
 21
-0.7201923166826925
 31
0.0
  0
LWPOLYLINE
  5
1E3
330
1B0
100
AcDbEntity
  8
AM_9
100
AcDbPolyline
 90
       13
 70
     0
 43
0.0
 10
-1.623797632095823
 20
0.4999999999999998
 10
-1.60305946484733
 20
0.4983369507752157
 10
-1.581712694825786
 20
0.4933742765901681
 10
-1.559274809217389
 20
0.4848477329968063
 10
-1.536577742198146
 20
0.4729404901290304
 10
-1.514494388747175
 20
0.4582264214375946
 10
-1.492575108383694
 20
0.4405279269217024
 10
-1.470435927701564
 20
0.4193486615906579
 10
-1.448921832412613
 20
0.3953018507263734
 10
-1.428933954884365
 20
0.3694729386329615
 10
-1.409952494409231
 20
0.3412763633324272
 10
-1.391731451074383
 20
0.3100398228415243
 10
-1.375
 20
0.2766814935988637
  0
LWPOLYLINE
  5
1E4
330
1B0
100
AcDbEntity
  8
AM_9
100
AcDbPolyline
 90
       30
 70
     0
 43
0.0
 10
-1.623797632095823
 20
-0.4999999999999999
 10
-1.647252479342795
 20
-0.4976867395501701
 10
-1.669433267326634
 20
-0.4907979060487319
 10
-1.692735470719482
 20
-0.4775442803019865
 10
-1.71408550037483
 20
-0.4586835658293176
 10
-1.73324825516238
 20
-0.4345806867724602
 10
-1.750508760924744
 20
-0.4047816779648873
 10
-1.76557458192249
 20
-0.370048392134659
 10
-1.778413138379657
 20
-0.3309892090682006
 10
-1.789397322371642
 20
-0.2866018695349209
 10
-1.798304792711043
 20
-0.2383631209078512
 10
-1.805195043963743
 20
-0.1871509268992465
 10
-1.810166438978747
 20
-0.1337160110932796
 10
-1.813378430342061
 20
-0.0783039786253223
 10
-1.814871670555684
 20
-0.0220161704453262
 10
-1.814716682507671
 20
0.0327202833631424
 10
-1.812984669418015
 20
0.0872126698984006
 10
-1.809653726087451
 20
0.1404266871120406
 10
-1.804695595373806
 20
0.1914582026013937
 10
-1.797998604210947
 20
0.240310497861663
 10
-1.789507511951746
 20
0.2861517517932131
 10
-1.7787395843968
 20
0.3297744936648671
 10
-1.765797367177028
 20
0.3694596083890549
 10
-1.750669087571698
 20
0.4045162165033754
 10
-1.73281386751496
 20
0.4351535682911443
 10
-1.712500014999415
 20
0.4603404805052673
 10
-1.68991271572409
 20
0.4795629246115773
 10
-1.669261858607922
 20
0.490843111306891
 10
-1.647131304259044
 20
0.4976923418077145
 10
-1.623797632095823
 20
0.4999999999999998
  0
LWPOLYLINE
  5
1E5
330
1B0
100
AcDbEntity
  8
AM_9
100
AcDbPolyline
 90
       11
 70
     0
 43
0.0
 10
-1.375
 20
-0.2766814935988638
 10
-1.391821286471707
 20
-0.3102055404724382
 10
-1.410146355728581
 20
-0.3415849893985083
 10
-1.437042103419089
 20
-0.3803534587533335
 10
-1.465830003166927
 20
-0.4144685740226398
 10
-1.495761948242122
 20
-0.4432980708328284
 10
-1.526491111844904
 20
-0.4665676528212664
 10
-1.557427979436393
 20
-0.4839661506922111
 10
-1.58782327595449
 20
-0.4951175370966795
 10
-1.606043375763296
 20
-0.4987757847885227
 10
-1.623797632095823
 20
-0.4999999999999999
  0
LINE
  5
1E6
330
1B0
100
AcDbEntity
  8
AM_7
100
AcDbLine
 10
3.22359375
 20
0.0
 30
0.0
 11
2.42953125
 21
0.0
 31
0.0
  0
LINE
  5
1E7
330
1B0
100
AcDbEntity
  8
AM_7
100
AcDbLine
 10
0.0
 20
-1.8296875
 30
0.0
 11
0.0
 21
1.163461538911057
 31
0.0
  0
LWPOLYLINE
  5
1E8
330
1B0
100
AcDbEntity
  8
AM_4
100
AcDbPolyline
 90
       11
 70
     0
 43
0.0
 10
-1.923797632095823
 20
0.0
 10
-1.92363383095434
 20
-0.0171681006334467
 10
-1.922447622871301
 20
-0.0492273953217856
 10
-1.92011563259144
 20
-0.0811044966242914
 10
-1.916639201225268
 20
-0.1126838594522272
 10
-1.912018906136868
 20
-0.1438563731025813
 10
-1.906253979963729
 20
-0.1745153083525664
 10
-1.899341429653339
 20
-0.204556499479823
 10
-1.891274991458047
 20
-0.233878065432041
 10
-1.88204405563751
 20
-0.2623793934376017
 10
-1.875129104382052
 20
-0.2811496362713194
  0
LWPOLYLINE
  5
1E9
330
1B0
100
AcDbEntity
  8
AM_4
100
AcDbPolyline
 90
       11
 70
     0
 43
0.0
 10
-1.875147556924134
 20
0.2811020077862306
 10
-1.880513383384906
 20
0.266702397086955
 10
-1.889941130406777
 20
0.2382856488012573
 10
-1.898204569515587
 20
0.2090056249877497
 10
-1.905307892346172
 20
0.1789818735263995
 10
-1.911255381107657
 20
0.1483282145862544
 10
-1.916050322621892
 20
0.1171560839388178
 10
-1.919694860307685
 20
0.0855765038917396
 10
-1.922190259776405
 20
0.0537010327964393
 10
-1.923537284552855
 20
0.0216420208165034
 10
-1.923797632095823
 20
0.0
  0
LINE
  5
1EA
330
1B0
100
AcDbEntity
  8
AM_4
100
AcDbLine
 10
3.1475
 20
1.213235294117647
 30
0.0
 11
2.54
 21
1.213235294117647
 31
0.0
  0
LINE
  5
1EB
330
1B0
100
AcDbEntity
  8
AM_4
100
AcDbLine
 10
2.54
 20
-1.213235294117647
 30
0.0
 11
3.1475
 21
-1.213235294117647
 31
0.0
  0
ARC
  5
1EC
330
1B0
100
AcDbEntity
  8
AM_4
100
AcDbCircle
 10
3.1475
 20
1.173235294117648
 30
0.0
 40
0.0399999999999991
100
AcDbArc
 50
0.0
 51
90.0
  0
LINE
  5
1ED
330
1B0
100
AcDbEntity
  8
AM_4
100
AcDbLine
 10
3.187499999999999
 20
1.173235294117647
 30
0.0
 11
3.187499999999999
 21
-1.173235294117647
 31
0.0
  0
LINE
  5
1EE
330
1B0
100
AcDbEntity
  8
AM_4
100
AcDbLine
 10
3.1475
 20
1.213235294117647
 30
0.0
 11
3.1475
 21
-1.213235294117647
 31
0.0
  0
ARC
  5
1EF
330
1B0
100
AcDbEntity
  8
AM_4
100
AcDbCircle
 10
3.1475
 20
-1.173235294117648
 30
0.0
 40
0.0399999999999991
100
AcDbArc
 50
270.0
 51
0.0
  0
LINE
  5
1F0
330
1B0
100
AcDbEntity
  8
AM_4
100
AcDbLine
 10
2.5
 20
1.173235294117647
 30
0.0
 11
2.5
 21
0.9374999999999999
 31
0.0
  0
ARC
  5
1F1
330
1B0
100
AcDbEntity
  8
AM_4
100
AcDbCircle
 10
2.54
 20
1.173235294117647
 30
0.0
 40
0.0399999999999998
100
AcDbArc
 50
90.0
 51
180.0
  0
LINE
  5
1F2
330
1B0
100
AcDbEntity
  8
AM_4
100
AcDbLine
 10
2.54
 20
1.213235294117647
 30
0.0
 11
2.54
 21
0.9374999999999998
 31
0.0
  0
LINE
  5
1F3
330
1B0
100
AcDbEntity
  8
AM_4
100
AcDbLine
 10
2.5
 20
-0.9374999999999999
 30
0.0
 11
2.5
 21
-1.173235294117647
 31
0.0
  0
LINE
  5
1F4
330
1B0
100
AcDbEntity
  8
AM_4
100
AcDbLine
 10
2.54
 20
-0.9374999999999999
 30
0.0
 11
2.54
 21
-1.213235294117647
 31
0.0
  0
ARC
  5
1F5
330
1B0
100
AcDbEntity
  8
AM_4
100
AcDbCircle
 10
2.54
 20
-1.173235294117647
 30
0.0
 40
0.0399999999999996
100
AcDbArc
 50
180.0
 51
270.0
  0
LINE
  5
1F6
330
1B0
100
AcDbEntity
  8
AM_4
100
AcDbLine
 10
3.1875
 20
0.9375
 30
0.0
 11
1.42487663939725
 21
0.9375
 31
0.0
  0
LINE
  5
1F7
330
1B0
100
AcDbEntity
  8
AM_4
100
AcDbLine
 10
3.1875
 20
-0.9374999999999998
 30
0.0
 11
1.42487663939725
 21
-0.9374999999999998
 31
0.0
  0
LINE
  5
1F8
330
1B0
100
AcDbEntity
  8
AM_4
100
AcDbLine
 10
-1.835
 20
1.03125
 30
0.0
 11
1.83499999999845
 21
1.03125
 31
0.0
  0
ARC
  5
1F9
330
1B0
100
AcDbEntity
  8
AM_4
100
AcDbCircle
 10
1.835
 20
0.9912499999999999
 30
0.0
 40
0.04
100
AcDbArc
 50
0.0
 51
90.0
  0
ARC
  5
1FA
330
1B0
100
AcDbEntity
  8
AM_4
100
AcDbCircle
 10
-1.835
 20
0.9912499999999999
 30
0.0
 40
0.0399999999999999
100
AcDbArc
 50
90.0
 51
180.0
  0
LINE
  5
1FB
330
1B0
100
AcDbEntity
  8
AM_4
100
AcDbLine
 10
-1.875
 20
0.99125
 30
0.0
 11
1.875
 21
0.99125
 31
0.0
  0
LINE
  5
1FC
330
1B0
100
AcDbEntity
  8
AM_4
100
AcDbLine
 10
1.42487663939725
 20
-0.9374999999999998
 30
0.0
 11
1.42487663939725
 21
0.9375
 31
0.0
  0
LINE
  5
1FD
330
1B0
100
AcDbEntity
  8
AM_4
100
AcDbLine
 10
1.875
 20
-0.9912499999999995
 30
0.0
 11
1.875
 21
-0.9374999999999999
 31
0.0
  0
LINE
  5
1FE
330
1B0
100
AcDbEntity
  8
AM_4
100
AcDbLine
 10
1.875
 20
0.9374999999999999
 30
0.0
 11
1.875
 21
0.99125
 31
0.0
  0
LINE
  5
1FF
330
1B0
100
AcDbEntity
  8
AM_4
100
AcDbLine
 10
-1.875
 20
0.99125
 30
0.0
 11
-1.875
 21
-0.9912499999999995
 31
0.0
  0
LINE
  5
200
330
1B0
100
AcDbEntity
  8
AM_4
100
AcDbLine
 10
-1.835
 20
-1.03125
 30
0.0
 11
1.83499999999845
 21
-1.03125
 31
0.0
  0
LINE
  5
201
330
1B0
100
AcDbEntity
  8
AM_4
100
AcDbLine
 10
-1.875
 20
-0.9912499999999995
 30
0.0
 11
1.875
 21
-0.9912499999999995
 31
0.0
  0
ARC
  5
202
330
1B0
100
AcDbEntity
  8
AM_4
100
AcDbCircle
 10
1.835
 20
-0.9912499999999993
 30
0.0
 40
0.0400000000000007
100
AcDbArc
 50
270.0
 51
0.0
  0
ARC
  5
203
330
1B0
100
AcDbEntity
  8
AM_4
100
AcDbCircle
 10
-1.835
 20
-0.9912499999999993
 30
0.0
 40
0.0400000000000007
100
AcDbArc
 50
180.0
 51
270.0
  0
LINE
  5
204
330
1B0
100
AcDbEntity
  8
AM_4
100
AcDbLine
 10
1.375
 20
-0.2656249999999998
 30
0.0
 11
-1.375
 21
-0.2656249999999998
 31
0.0
  0
LINE
  5
205
330
1B0
100
AcDbEntity
  8
AM_4
100
AcDbLine
 10
1.375
 20
-0.9374999999999998
 30
0.0
 11
1.375
 21
0.9375
 31
0.0
  0
LINE
  5
206
330
1B0
100
AcDbEntity
  8
AM_4
100
AcDbLine
 10
1.375
 20
-0.9374999999999998
 30
0.0
 11
-1.375
 21
-0.9374999999999998
 31
0.0
  0
LINE
  5
207
330
1B0
100
AcDbEntity
  8
AM_4
100
AcDbLine
 10
-1.375
 20
-0.9374999999999998
 30
0.0
 11
-1.375
 21
0.9375
 31
0.0
  0
LINE
  5
208
330
1B0
100
AcDbEntity
  8
AM_4
100
AcDbLine
 10
-1.375
 20
0.2656250000000001
 30
0.0
 11
1.375
 21
0.2656250000000001
 31
0.0
  0
LINE
  5
209
330
1B0
100
AcDbEntity
  8
AM_4
100
AcDbLine
 10
1.375
 20
0.9375
 30
0.0
 11
-1.375
 21
0.9375
 31
0.0
  0
LINE
  5
20A
330
1B0
100
AcDbEntity
  8
AM_4
100
AcDbLine
 10
1.335
 20
-0.9374999999999998
 30
0.0
 11
1.335
 21
-0.2656249999999998
 31
0.0
  0
LINE
  5
20B
330
1B0
100
AcDbEntity
  8
AM_4
100
AcDbLine
 10
-1.335
 20
-0.9374999999999998
 30
0.0
 11
-1.335
 21
-0.2656249999999998
 31
0.0
  0
LINE
  5
20C
330
1B0
100
AcDbEntity
  8
AM_4
100
AcDbLine
 10
-1.335
 20
0.2656250000000001
 30
0.0
 11
-1.335
 21
0.9375
 31
0.0
  0
LINE
  5
20D
330
1B0
100
AcDbEntity
  8
AM_4
100
AcDbLine
 10
1.335
 20
0.2656250000000001
 30
0.0
 11
1.335
 21
0.9375
 31
0.0
  0
ENDBLK
  5
1B3
330
1B0
100
AcDbEntity
  8
0
100
AcDbBlockEnd
  0
ENDSEC
  0
SECTION
  2
ENTITIES
  0
INSERT
  5
6F
330
1F
100
AcDbEntity
  8
0
100
AcDbBlockReference
  2
1_070754_4
 10
0.0
 20
0.0
 30
0.0
  0
POINT
  5
20F
330
1F
100
AcDbEntity
  8
ConnectionPoints
100
AcDbPoint
 10
0.0
 20
-1.703125
 30
0.0000000000000001
  0
POINT
  5
210
330
1F
100
AcDbEntity
  8
ConnectionPoints
100
AcDbPoint
 10
0.0
 20
1.419375
 30
-0.0000000000000001
  0
POINT
  5
211
330
1F
100
AcDbEntity
  8
ConnectionPoints
100
AcDbPoint
 10
0.0
 20
-1.703125
 30
0.0000000000000001
  0
POINT
  5
212
330
1F
100
AcDbEntity
  8
ConnectionPoints
100
AcDbPoint
 10
-1.710400172474267
 20
-0.0000000000000001
 30
-0.9874999999999999
  0
POINT
  5
213
330
1F
100
AcDbEntity
  8
ConnectionPoints
100
AcDbPoint
 10
-1.710400172474267
 20
-0.0000000000000001
 30
-0.9874999999999999
  0
POINT
  5
214
330
1F
100
AcDbEntity
  8
ConnectionPoints
100
AcDbPoint
 10
0.0
 20
-1.515625
 30
0.0000000000000001
  0
POINT
  5
215
330
1F
100
AcDbEntity
  8
ConnectionPoints
100
AcDbPoint
 10
0.0
 20
-1.703125
 30
0.0000000000000001
  0
ENDSEC
  0
SECTION
  2
OBJECTS
  0
DICTIONARY
  5
C
330
0
100
AcDbDictionary
281
     1
  3
ACAD_DETAILVIEWSTYLE
350
21D
  3
ACAD_GROUP
350
D
  3
ACAD_LAYOUT
350
1A
  3
ACAD_MATERIAL
350
43
  3
ACAD_MLEADERSTYLE
350
6B
  3
ACAD_MLINESTYLE
350
17
  3
ACAD_PLOTSETTINGS
350
19
  3
ACAD_PLOTSTYLENAME
350
E
  3
ACAD_SCALELIST
350
47
  3
ACAD_SECTIONVIEWSTYLE
350
21E
  3
ACAD_TABLESTYLE
350
69
  3
ACAD_VISUALSTYLE
350
2A
  3
ACDB_RECOMPOSE_DATA
350
21A
  3
AcDbVariableDictionary
350
216
  0
SUN
  5
6D
330
29
100
AcDbSun
 90
        1
290
     0
 63
     7
421
 16777215
 40
1.0
291
     1
 91
  2455826
 92
 54000000
292
     0
 70
     2
 71
   256
280
     1
  0
DICTIONARY
  5
21D
102
{ACAD_REACTORS
330
C
102
}
330
C
100
AcDbDictionary
281
     1
  0
DICTIONARY
  5
D
102
{ACAD_REACTORS
330
C
102
}
330
C
100
AcDbDictionary
281
     1
  0
DICTIONARY
  5
1A
102
{ACAD_REACTORS
330
C
102
}
330
C
100
AcDbDictionary
281
     1
  3
Layout1
350
1E
  3
Layout2
350
26
  3
Model
350
22
  0
DICTIONARY
  5
43
102
{ACAD_REACTORS
330
C
102
}
330
C
100
AcDbDictionary
281
     1
  3
ByBlock
350
45
  3
ByLayer
350
44
  3
Global
350
46
  0
DICTIONARY
  5
6B
102
{ACAD_REACTORS
330
C
102
}
330
C
100
AcDbDictionary
281
     1
  3
Standard
350
6C
  0
DICTIONARY
  5
17
102
{ACAD_REACTORS
330
C
102
}
330
C
100
AcDbDictionary
281
     1
  3
Standard
350
18
  0
DICTIONARY
  5
19
102
{ACAD_REACTORS
330
C
102
}
330
C
100
AcDbDictionary
281
     1
  0
ACDBDICTIONARYWDFLT
  5
E
102
{ACAD_REACTORS
330
C
102
}
330
C
100
AcDbDictionary
281
     1
  3
Normal
350
F
100
AcDbDictionaryWithDefault
340
F
  0
DICTIONARY
  5
47
102
{ACAD_REACTORS
330
C
102
}
330
C
100
AcDbDictionary
281
     1
  3
A0
350
48
  3
A1
350
49
  3
A2
350
4A
  3
A3
350
4B
  3
A4
350
4C
  3
A5
350
4D
  3
A6
350
4E
  3
A7
350
4F
  3
A8
350
50
  3
A9
350
51
  3
B0
350
52
  3
B1
350
53
  3
B2
350
54
  3
B3
350
55
  3
B4
350
56
  3
B5
350
57
  3
B6
350
58
  3
B7
350
59
  3
B8
350
5A
  3
B9
350
5B
  3
C0
350
5C
  3
C1
350
5D
  3
C2
350
5E
  3
C3
350
5F
  3
C4
350
60
  3
C5
350
61
  3
C6
350
62
  3
C7
350
63
  3
C8
350
64
  3
C9
350
65
  3
D0
350
66
  3
D1
350
67
  3
D2
350
68
  0
DICTIONARY
  5
21E
102
{ACAD_REACTORS
330
C
102
}
330
C
100
AcDbDictionary
281
     1
  0
DICTIONARY
  5
69
102
{ACAD_REACTORS
330
C
102
}
330
C
100
AcDbDictionary
281
     1
  3
Standard
350
6A
  0
DICTIONARY
  5
2A
102
{ACAD_REACTORS
330
C
102
}
330
C
100
AcDbDictionary
281
     1
  3
2dWireframe
350
2F
  3
Basic
350
32
  3
Brighten
350
36
  3
ColorChange
350
3A
  3
Conceptual
350
34
  3
Dim
350
35
  3
EdgeColorOff
350
3D
  3
Facepattern
350
39
  3
Flat
350
2B
  3
FlatWithEdges
350
2C
  3
Gouraud
350
2D
  3
GouraudWithEdges
350
2E
  3
Hidden
350
31
  3
JitterOff
350
3B
  3
Linepattern
350
38
  3
OverhangOff
350
3C
  3
Realistic
350
33
  3
Shaded
350
42
  3
Shaded with edges
350
41
  3
Shades of Gray
350
3E
  3
Sketchy
350
3F
  3
Thicken
350
37
  3
Wireframe
350
30
  3
X-Ray
350
40
  0
XRECORD
  5
21A
102
{ACAD_REACTORS
330
C
102
}
330
C
100
AcDbXrecord
280
     1
 90
        1
330
6A
  0
DICTIONARY
  5
216
102
{ACAD_REACTORS
330
C
102
}
330
C
100
AcDbDictionary
281
     1
  3
CANNOSCALE
350
217
  3
CMLEADERSTYLE
350
21C
  3
CTABLESTYLE
350
21B
  0
LAYOUT
  5
1E
102
{ACAD_REACTORS
330
1A
102
}
330
1A
100
AcDbPlotSettings
  1

  2
none_device
  4

  6

 40
0.0
 41
0.0
 42
0.0
 43
0.0
 44
0.0
 45
0.0
 46
0.0
 47
0.0
 48
0.0
 49
0.0
140
0.0
141
0.0
142
1.0
143
1.0
 70
   688
 72
     0
 73
     0
 74
     5
  7

 75
    16
 76
     0
 77
     2
 78
   300
147
1.0
148
0.0
149
0.0
100
AcDbLayout
  1
Layout1
 70
     1
 71
     1
 10
0.0
 20
0.0
 11
12.0
 21
9.0
 12
0.0
 22
0.0
 32
0.0
 14
1.000000000000000E+20
 24
1.000000000000000E+20
 34
1.000000000000000E+20
 15
-1.000000000000000E+20
 25
-1.000000000000000E+20
 35
-1.000000000000000E+20
146
0.0
 13
0.0
 23
0.0
 33
0.0
 16
1.0
 26
0.0
 36
0.0
 17
0.0
 27
1.0
 37
0.0
 76
     0
330
1B
  0
LAYOUT
  5
26
102
{ACAD_REACTORS
330
1A
102
}
330
1A
100
AcDbPlotSettings
  1

  2
none_device
  4

  6

 40
0.0
 41
0.0
 42
0.0
 43
0.0
 44
0.0
 45
0.0
 46
0.0
 47
0.0
 48
0.0
 49
0.0
140
0.0
141
0.0
142
1.0
143
1.0
 70
   688
 72
     0
 73
     0
 74
     5
  7

 75
    16
 76
     0
 77
     2
 78
   300
147
1.0
148
0.0
149
0.0
100
AcDbLayout
  1
Layout2
 70
     1
 71
     2
 10
0.0
 20
0.0
 11
0.0
 21
0.0
 12
0.0
 22
0.0
 32
0.0
 14
0.0
 24
0.0
 34
0.0
 15
0.0
 25
0.0
 35
0.0
146
0.0
 13
0.0
 23
0.0
 33
0.0
 16
1.0
 26
0.0
 36
0.0
 17
0.0
 27
1.0
 37
0.0
 76
     0
330
23
  0
LAYOUT
  5
22
102
{ACAD_REACTORS
330
1A
102
}
330
1A
100
AcDbPlotSettings
  1

  2
none_device
  4
Letter_(8.50_x_11.00_Inches)
  6

 40
6.35
 41
6.35
 42
6.35000508
 43
6.35000508
 44
215.9
 45
279.4
 46
0.0
 47
0.0
 48
0.0
 49
0.0
140
0.0
141
0.0
142
1.0
143
1.0
 70
  1712
 72
     0
 73
     0
 74
     0
  7

 75
     0
 76
     0
 77
     2
 78
   300
147
1.0
148
0.0
149
0.0
100
AcDbLayout
  1
Model
 70
     1
 71
     0
 10
0.0
 20
0.0
 11
12.0
 21
9.0
 12
0.0
 22
0.0
 32
0.0
 14
1.000000000000000E+20
 24
1.000000000000000E+20
 34
1.000000000000000E+20
 15
-1.000000000000000E+20
 25
-1.000000000000000E+20
 35
-1.000000000000000E+20
146
0.0
 13
0.0
 23
0.0
 33
0.0
 16
1.0
 26
0.0
 36
0.0
 17
0.0
 27
1.0
 37
0.0
 76
     0
330
1F
331
29
  0
MATERIAL
  5
45
102
{ACAD_REACTORS
330
43
102
}
330
43
100
AcDbMaterial
  1
ByBlock
 72
     1
 94
      127
  0
MATERIAL
  5
44
102
{ACAD_REACTORS
330
43
102
}
330
43
100
AcDbMaterial
  1
ByLayer
 72
     1
 94
      127
  0
MATERIAL
  5
46
102
{ACAD_REACTORS
330
43
102
}
330
43
100
AcDbMaterial
  1
Global
 72
     1
 94
      127
  0
MLEADERSTYLE
  5
6C
102
{ACAD_REACTORS
330
6B
102
}
330
6B
100
AcDbMLeaderStyle
179
     2
170
     2
171
     1
172
     0
 90
        2
 40
0.0
 41
0.0
173
     1
 91
-1056964608
340
14
 92
       -2
290
     1
 42
0.09
291
     1
 43
0.36
  3
Standard
341
0
 44
0.18
300

342
11
174
     1
178
     6
175
     1
176
     0
 93
-1056964608
 45
0.18
292
     0
297
     0
 46
0.18
343
0
 94
-1056964608
 47
1.0
 49
1.0
140
1.0
293
     1
141
0.0
294
     1
177
     0
142
1.0
295
     0
296
     0
143
0.125
271
     0
272
     9
273
     9
298
     0
  0
MLINESTYLE
  5
18
102
{ACAD_REACTORS
330
17
102
}
330
17
100
AcDbMlineStyle
  2
Standard
 70
     0
  3

 62
   256
 51
90.0
 52
90.0
 71
     2
 49
0.5
 62
   256
  6
BYLAYER
 49
-0.5
 62
   256
  6
BYLAYER
  0
ACDBPLACEHOLDER
  5
F
102
{ACAD_REACTORS
330
E
102
}
330
E
  0
SCALE
  5
48
102
{ACAD_REACTORS
330
47
102
}
330
47
100
AcDbScale
 70
     0
300
1:1
140
1.0
141
1.0
290
     1
  0
SCALE
  5
49
102
{ACAD_REACTORS
330
47
102
}
330
47
100
AcDbScale
 70
     0
300
1:2
140
1.0
141
2.0
290
     0
  0
SCALE
  5
4A
102
{ACAD_REACTORS
330
47
102
}
330
47
100
AcDbScale
 70
     0
300
1:4
140
1.0
141
4.0
290
     0
  0
SCALE
  5
4B
102
{ACAD_REACTORS
330
47
102
}
330
47
100
AcDbScale
 70
     0
300
1:5
140
1.0
141
5.0
290
     0
  0
SCALE
  5
4C
102
{ACAD_REACTORS
330
47
102
}
330
47
100
AcDbScale
 70
     0
300
1:8
140
1.0
141
8.0
290
     0
  0
SCALE
  5
4D
102
{ACAD_REACTORS
330
47
102
}
330
47
100
AcDbScale
 70
     0
300
1:10
140
1.0
141
10.0
290
     0
  0
SCALE
  5
4E
102
{ACAD_REACTORS
330
47
102
}
330
47
100
AcDbScale
 70
     0
300
1:16
140
1.0
141
16.0
290
     0
  0
SCALE
  5
4F
102
{ACAD_REACTORS
330
47
102
}
330
47
100
AcDbScale
 70
     0
300
1:20
140
1.0
141
20.0
290
     0
  0
SCALE
  5
50
102
{ACAD_REACTORS
330
47
102
}
330
47
100
AcDbScale
 70
     0
300
1:30
140
1.0
141
30.0
290
     0
  0
SCALE
  5
51
102
{ACAD_REACTORS
330
47
102
}
330
47
100
AcDbScale
 70
     0
300
1:40
140
1.0
141
40.0
290
     0
  0
SCALE
  5
52
102
{ACAD_REACTORS
330
47
102
}
330
47
100
AcDbScale
 70
     0
300
1:50
140
1.0
141
50.0
290
     0
  0
SCALE
  5
53
102
{ACAD_REACTORS
330
47
102
}
330
47
100
AcDbScale
 70
     0
300
1:100
140
1.0
141
100.0
290
     0
  0
SCALE
  5
54
102
{ACAD_REACTORS
330
47
102
}
330
47
100
AcDbScale
 70
     0
300
2:1
140
2.0
141
1.0
290
     0
  0
SCALE
  5
55
102
{ACAD_REACTORS
330
47
102
}
330
47
100
AcDbScale
 70
     0
300
4:1
140
4.0
141
1.0
290
     0
  0
SCALE
  5
56
102
{ACAD_REACTORS
330
47
102
}
330
47
100
AcDbScale
 70
     0
300
8:1
140
8.0
141
1.0
290
     0
  0
SCALE
  5
57
102
{ACAD_REACTORS
330
47
102
}
330
47
100
AcDbScale
 70
     0
300
10:1
140
10.0
141
1.0
290
     0
  0
SCALE
  5
58
102
{ACAD_REACTORS
330
47
102
}
330
47
100
AcDbScale
 70
     0
300
100:1
140
100.0
141
1.0
290
     0
  0
SCALE
  5
59
102
{ACAD_REACTORS
330
47
102
}
330
47
100
AcDbScale
 70
     0
300
1/128" = 1'-0"
140
0.0078125
141
12.0
290
     0
  0
SCALE
  5
5A
102
{ACAD_REACTORS
330
47
102
}
330
47
100
AcDbScale
 70
     0
300
1/64" = 1'-0"
140
0.015625
141
12.0
290
     0
  0
SCALE
  5
5B
102
{ACAD_REACTORS
330
47
102
}
330
47
100
AcDbScale
 70
     0
300
1/32" = 1'-0"
140
0.03125
141
12.0
290
     0
  0
SCALE
  5
5C
102
{ACAD_REACTORS
330
47
102
}
330
47
100
AcDbScale
 70
     0
300
1/16" = 1'-0"
140
0.0625
141
12.0
290
     0
  0
SCALE
  5
5D
102
{ACAD_REACTORS
330
47
102
}
330
47
100
AcDbScale
 70
     0
300
3/32" = 1'-0"
140
0.09375
141
12.0
290
     0
  0
SCALE
  5
5E
102
{ACAD_REACTORS
330
47
102
}
330
47
100
AcDbScale
 70
     0
300
1/8" = 1'-0"
140
0.125
141
12.0
290
     0
  0
SCALE
  5
5F
102
{ACAD_REACTORS
330
47
102
}
330
47
100
AcDbScale
 70
     0
300
3/16" = 1'-0"
140
0.1875
141
12.0
290
     0
  0
SCALE
  5
60
102
{ACAD_REACTORS
330
47
102
}
330
47
100
AcDbScale
 70
     0
300
1/4" = 1'-0"
140
0.25
141
12.0
290
     0
  0
SCALE
  5
61
102
{ACAD_REACTORS
330
47
102
}
330
47
100
AcDbScale
 70
     0
300
3/8" = 1'-0"
140
0.375
141
12.0
290
     0
  0
SCALE
  5
62
102
{ACAD_REACTORS
330
47
102
}
330
47
100
AcDbScale
 70
     0
300
1/2" = 1'-0"
140
0.5
141
12.0
290
     0
  0
SCALE
  5
63
102
{ACAD_REACTORS
330
47
102
}
330
47
100
AcDbScale
 70
     0
300
3/4" = 1'-0"
140
0.75
141
12.0
290
     0
  0
SCALE
  5
64
102
{ACAD_REACTORS
330
47
102
}
330
47
100
AcDbScale
 70
     0
300
1" = 1'-0"
140
1.0
141
12.0
290
     0
  0
SCALE
  5
65
102
{ACAD_REACTORS
330
47
102
}
330
47
100
AcDbScale
 70
     0
300
1-1/2" = 1'-0"
140
1.5
141
12.0
290
     0
  0
SCALE
  5
66
102
{ACAD_REACTORS
330
47
102
}
330
47
100
AcDbScale
 70
     0
300
3" = 1'-0"
140
3.0
141
12.0
290
     0
  0
SCALE
  5
67
102
{ACAD_REACTORS
330
47
102
}
330
47
100
AcDbScale
 70
     0
300
6" = 1'-0"
140
6.0
141
12.0
290
     0
  0
SCALE
  5
68
102
{ACAD_REACTORS
330
47
102
}
330
47
100
AcDbScale
 70
     0
300
1'-0" = 1'-0"
140
12.0
141
12.0
290
     0
  0
TABLESTYLE
  5
6A
102
{ACAD_REACTORS
330
69
102
}
102
{ACAD_XDICTIONARY
360
218
102
}
330
69
100
AcDbTableStyle
  3
Standard
 70
     0
 71
     0
 40
0.06
 41
0.06
280
     0
281
     0
  7
Standard
140
0.18
170
     2
 62
     0
 63
   257
283
     0
 90
        4
 91
        0
  1

274
    -2
284
     1
 64
     0
275
    -2
285
     1
 65
     0
276
    -2
286
     1
 66
     0
277
    -2
287
     1
 67
     0
278
    -2
288
     1
 68
     0
279
    -2
289
     1
 69
     0
  7
Standard
140
0.25
170
     5
 62
     0
 63
   257
283
     0
 90
        4
 91
        0
  1

274
    -2
284
     1
 64
     0
275
    -2
285
     1
 65
     0
276
    -2
286
     1
 66
     0
277
    -2
287
     1
 67
     0
278
    -2
288
     1
 68
     0
279
    -2
289
     1
 69
     0
  7
Standard
140
0.18
170
     5
 62
     0
 63
   257
283
     0
 90
        4
 91
        0
  1

274
    -2
284
     1
 64
     0
275
    -2
285
     1
 65
     0
276
    -2
286
     1
 66
     0
277
    -2
287
     1
 67
     0
278
    -2
288
     1
 68
     0
279
    -2
289
     1
 69
     0
  0
VISUALSTYLE
  5
2F
102
{ACAD_REACTORS
330
2A
102
}
330
2A
100
AcDbVisualStyle
  2
2dWireframe
 70
     4
177
     3
291
     0
 70
    58
 90
        0
176
     1
 90
        2
176
     1
 90
        0
176
     1
 90
        0
176
     1
 40
0.6
176
     1
 40
30.0
176
     1
 62
     7
420
 16777215
176
     1
 90
        1
176
     1
 90
        4
176
     1
 62
     7
176
     1
 62
   257
176
     1
 90
        1
176
     1
 90
        1
176
     1
 40
1.0
176
     1
 90
        0
176
     1
 62
   257
176
     1
 40
1.0
176
     1
 90
        1
176
     1
 90
        6
176
     1
 90
        2
176
     1
 62
     7
176
     1
 90
        5
176
     1
 90
        0
176
     1
 90
        0
176
     1
290
     0
176
     1
 90
        1
176
     1
 40
0.0
176
     1
 90
        0
176
     1
290
     1
176
     1
290
     1
176
     1
290
     0
176
     1
290
     0
176
     1
290
     0
176
     1
290
     0
176
     1
290
     0
176
     1
290
     0
176
     1
290
     0
176
     1
 90
       50
176
     1
 40
0.0
176
     1
 40
1.0
176
     1
 90
        0
176
     1
 62
    18
420
        0
176
     1
 90
       50
176
     1
 90
        3
176
     1
 62
     5
420
      255
176
     1
290
     0
176
     1
 90
       50
176
     1
 90
       50
176
     1
 90
       50
176
     1
290
     0
176
     1
 90
       50
176
     1
 62
   256
176
     0
 40
1.0
176
     0
 90
        2
176
     1
  1
strokes_ogs.tif
176
     1
290
     0
176
     1
 40
1.0
176
     1
 40
1.0
176
     1
  0
VISUALSTYLE
  5
32
102
{ACAD_REACTORS
330
2A
102
}
330
2A
100
AcDbVisualStyle
  2
Basic
 70
     7
177
     3
291
     1
 70
    58
 90
        1
176
     1
 90
        0
176
     1
 90
        1
176
     1
 90
        0
176
     1
 40
0.6
176
     1
 40
30.0
176
     1
 62
     7
420
 16777215
176
     1
 90
        0
176
     1
 90
        4
176
     1
 62
     7
176
     1
 62
   257
176
     1
 90
        1
176
     1
 90
        1
176
     1
 40
1.0
176
     1
 90
        8
176
     1
 62
     7
176
     1
 40
1.0
176
     1
 90
        1
176
     1
 90
        6
176
     1
 90
        2
176
     1
 62
     7
176
     1
 90
        5
176
     1
 90
        0
176
     1
 90
        0
176
     1
290
     0
176
     1
 90
        1
176
     1
 40
0.0
176
     1
 90
        0
176
     1
290
     0
176
     1
290
     1
176
     1
290
     1
176
     1
290
     0
176
     1
290
     0
176
     1
290
     0
176
     1
290
     0
176
     1
290
     0
176
     1
290
     0
176
     1
 90
       50
176
     1
 40
0.0
176
     1
 40
1.0
176
     1
 90
        0
176
     1
 62
    18
420
        0
176
     1
 90
       50
176
     1
 90
        3
176
     1
 62
     5
420
      255
176
     1
290
     0
176
     1
 90
       50
176
     1
 90
       50
176
     1
 90
       50
176
     1
290
     0
176
     1
 90
       50
176
     1
 62
   256
176
     0
 40
1.0
176
     0
 90
        2
176
     1
  1
strokes_ogs.tif
176
     1
290
     0
176
     1
 40
1.0
176
     1
 40
1.0
176
     1
  0
VISUALSTYLE
  5
36
102
{ACAD_REACTORS
330
2A
102
}
330
2A
100
AcDbVisualStyle
  2
Brighten
 70
    12
177
     3
291
     1
 70
    58
 90
        2
176
     1
 90
        2
176
     1
 90
        0
176
     1
 90
        0
176
     1
 40
0.6
176
     1
 40
30.0
176
     1
 62
     7
420
 16777215
176
     1
 90
        1
176
     1
 90
        4
176
     1
 62
     7
176
     1
 62
   257
176
     1
 90
        1
176
     1
 90
        1
176
     1
 40
1.0
176
     1
 90
        8
176
     1
 62
     7
176
     1
 40
1.0
176
     1
 90
        1
176
     1
 90
        6
176
     1
 90
        2
176
     1
 62
     7
176
     1
 90
        5
176
     1
 90
        0
176
     1
 90
        0
176
     1
290
     0
176
     1
 90
        1
176
     1
 40
50.0
176
     1
 90
        0
176
     1
290
     0
176
     1
290
     1
176
     1
290
     1
176
     1
290
     0
176
     1
290
     0
176
     1
290
     0
176
     1
290
     0
176
     1
290
     0
176
     1
290
     0
176
     1
 90
       50
176
     1
 40
0.0
176
     1
 40
1.0
176
     1
 90
        0
176
     1
 62
    18
420
        0
176
     1
 90
       50
176
     1
 90
        3
176
     1
 62
     5
420
      255
176
     1
290
     0
176
     1
 90
       50
176
     1
 90
       50
176
     1
 90
       50
176
     1
290
     0
176
     1
 90
       50
176
     1
 62
   256
176
     0
 40
1.0
176
     0
 90
        2
176
     1
  1
strokes_ogs.tif
176
     1
290
     0
176
     1
 40
1.0
176
     1
 40
1.0
176
     1
  0
VISUALSTYLE
  5
3A
102
{ACAD_REACTORS
330
2A
102
}
330
2A
100
AcDbVisualStyle
  2
ColorChange
 70
    16
177
     3
291
     1
 70
    58
 90
        2
176
     1
 90
        2
176
     1
 90
        3
176
     1
 90
        0
176
     1
 40
0.6
176
     1
 40
30.0
176
     1
 62
     8
420
  8421504
176
     1
 90
        1
176
     1
 90
        4
176
     1
 62
     7
176
     1
 62
   257
176
     1
 90
        1
176
     1
 90
        1
176
     1
 40
1.0
176
     1
 90
        8
176
     1
 62
     8
420
  8421504
176
     1
 40
1.0
176
     1
 90
        1
176
     1
 90
        6
176
     1
 90
        2
176
     1
 62
     7
176
     1
 90
        5
176
     1
 90
        0
176
     1
 90
        0
176
     1
290
     0
176
     1
 90
        1
176
     1
 40
0.0
176
     1
 90
        0
176
     1
290
     0
176
     1
290
     1
176
     1
290
     1
176
     1
290
     0
176
     1
290
     0
176
     1
290
     0
176
     1
290
     0
176
     1
290
     0
176
     1
290
     0
176
     1
 90
       50
176
     1
 40
0.0
176
     1
 40
1.0
176
     1
 90
        0
176
     1
 62
    18
420
        0
176
     1
 90
       50
176
     1
 90
        3
176
     1
 62
     5
420
      255
176
     1
290
     0
176
     1
 90
       50
176
     1
 90
       50
176
     1
 90
       50
176
     1
290
     0
176
     1
 90
       50
176
     1
 62
   256
176
     0
 40
1.0
176
     0
 90
        2
176
     1
  1
strokes_ogs.tif
176
     1
290
     0
176
     1
 40
1.0
176
     1
 40
1.0
176
     1
  0
VISUALSTYLE
  5
34
102
{ACAD_REACTORS
330
2A
102
}
330
2A
100
AcDbVisualStyle
  2
Conceptual
 70
     9
177
     3
291
     0
 70
    58
 90
        3
176
     1
 90
        2
176
     1
 90
        0
176
     1
 90
        0
176
     1
 40
0.6
176
     1
 40
30.0
176
     1
 62
     7
420
 16777215
176
     1
 90
        2
176
     1
 90
        2
176
     1
 62
     7
176
     1
 62
   257
176
     1
 90
        1
176
     1
 90
        1
176
     1
 40
179.0
176
     1
 90
        8
176
     1
 62
     7
176
     1
 40
1.0
176
     1
 90
        1
176
     1
 90
        6
176
     1
 90
        2
176
     1
 62
     7
176
     1
 90
        3
176
     1
 90
        0
176
     1
 90
        0
176
     1
290
     0
176
     1
 90
        1
176
     1
 40
0.0
176
     1
 90
        0
176
     1
290
     0
176
     1
290
     1
176
     1
290
     1
176
     1
290
     0
176
     1
290
     0
176
     1
290
     0
176
     1
290
     0
176
     1
290
     0
176
     1
290
     0
176
     1
 90
       50
176
     1
 40
0.0
176
     1
 40
1.0
176
     1
 90
        0
176
     1
 62
    18
420
        0
176
     1
 90
       50
176
     1
 90
        3
176
     1
 62
     5
420
      255
176
     1
290
     0
176
     1
 90
       50
176
     1
 90
       50
176
     1
 90
       50
176
     1
290
     0
176
     1
 90
       50
176
     1
 62
   256
176
     0
 40
1.0
176
     0
 90
        2
176
     1
  1
strokes_ogs.tif
176
     1
290
     0
176
     1
 40
1.0
176
     1
 40
1.0
176
     1
  0
VISUALSTYLE
  5
35
102
{ACAD_REACTORS
330
2A
102
}
330
2A
100
AcDbVisualStyle
  2
Dim
 70
    11
177
     3
291
     1
 70
    58
 90
        2
176
     1
 90
        2
176
     1
 90
        0
176
     1
 90
        0
176
     1
 40
0.6
176
     1
 40
30.0
176
     1
 62
     7
420
 16777215
176
     1
 90
        1
176
     1
 90
        4
176
     1
 62
     7
176
     1
 62
   257
176
     1
 90
        1
176
     1
 90
        1
176
     1
 40
1.0
176
     1
 90
        8
176
     1
 62
     7
176
     1
 40
1.0
176
     1
 90
        1
176
     1
 90
        6
176
     1
 90
        2
176
     1
 62
     7
176
     1
 90
        5
176
     1
 90
        0
176
     1
 90
        0
176
     1
290
     0
176
     1
 90
        1
176
     1
 40
-50.0
176
     1
 90
        0
176
     1
290
     0
176
     1
290
     1
176
     1
290
     1
176
     1
290
     0
176
     1
290
     0
176
     1
290
     0
176
     1
290
     0
176
     1
290
     0
176
     1
290
     0
176
     1
 90
       50
176
     1
 40
0.0
176
     1
 40
1.0
176
     1
 90
        0
176
     1
 62
    18
420
        0
176
     1
 90
       50
176
     1
 90
        3
176
     1
 62
     5
420
      255
176
     1
290
     0
176
     1
 90
       50
176
     1
 90
       50
176
     1
 90
       50
176
     1
290
     0
176
     1
 90
       50
176
     1
 62
   256
176
     0
 40
1.0
176
     0
 90
        2
176
     1
  1
strokes_ogs.tif
176
     1
290
     0
176
     1
 40
1.0
176
     1
 40
1.0
176
     1
  0
VISUALSTYLE
  5
3D
102
{ACAD_REACTORS
330
2A
102
}
330
2A
100
AcDbVisualStyle
  2
EdgeColorOff
 70
    22
177
     3
291
     1
 70
    58
 90
        2
176
     0
 90
        2
176
     0
 90
        0
176
     0
 90
        0
176
     0
 40
0.6
176
     0
 40
30.0
176
     0
 62
     7
420
 16777215
176
     0
 90
        1
176
     0
 90
        4
176
     0
 62
     7
176
     0
 62
   257
176
     0
 90
        1
176
     0
 90
        1
176
     0
 40
1.0
176
     0
 90
        8
176
     2
 62
     7
176
     0
 40
1.0
176
     0
 90
        1
176
     0
 90
        6
176
     0
 90
        2
176
     0
 62
     7
176
     0
 90
        5
176
     0
 90
        0
176
     0
 90
        0
176
     0
290
     0
176
     0
 90
        1
176
     0
 40
0.0
176
     0
 90
        0
176
     0
290
     0
176
     0
290
     1
176
     0
290
     1
176
     0
290
     0
176
     0
290
     0
176
     0
290
     0
176
     0
290
     0
176
     0
290
     0
176
     0
290
     0
176
     0
 90
       50
176
     0
 40
0.0
176
     0
 40
1.0
176
     0
 90
        0
176
     0
 62
    18
420
        0
176
     0
 90
       50
176
     0
 90
        3
176
     0
 62
     5
420
      255
176
     0
290
     0
176
     0
 90
       50
176
     0
 90
       50
176
     0
 90
       50
176
     0
290
     0
176
     0
 90
       50
176
     0
 62
   256
176
     0
 40
1.0
176
     0
 90
        2
176
     0
  1
strokes_ogs.tif
176
     0
290
     0
176
     0
 40
1.0
176
     0
 40
1.0
176
     0
  0
VISUALSTYLE
  5
39
102
{ACAD_REACTORS
330
2A
102
}
330
2A
100
AcDbVisualStyle
  2
Facepattern
 70
    15
177
     3
291
     1
 70
    58
 90
        2
176
     1
 90
        2
176
     1
 90
        0
176
     1
 90
        0
176
     1
 40
0.6
176
     1
 40
30.0
176
     1
 62
     7
420
 16777215
176
     1
 90
        1
176
     1
 90
        4
176
     1
 62
     7
176
     1
 62
   257
176
     1
 90
        1
176
     1
 90
        1
176
     1
 40
1.0
176
     1
 90
        8
176
     1
 62
     7
176
     1
 40
1.0
176
     1
 90
        1
176
     1
 90
        6
176
     1
 90
        2
176
     1
 62
     7
176
     1
 90
        5
176
     1
 90
        0
176
     1
 90
        0
176
     1
290
     0
176
     1
 90
        1
176
     1
 40
0.0
176
     1
 90
        0
176
     1
290
     0
176
     1
290
     1
176
     1
290
     1
176
     1
290
     0
176
     1
290
     0
176
     1
290
     0
176
     1
290
     0
176
     1
290
     0
176
     1
290
     0
176
     1
 90
       50
176
     1
 40
0.0
176
     1
 40
1.0
176
     1
 90
        0
176
     1
 62
    18
420
        0
176
     1
 90
       50
176
     1
 90
        3
176
     1
 62
     5
420
      255
176
     1
290
     0
176
     1
 90
       50
176
     1
 90
       50
176
     1
 90
       50
176
     1
290
     0
176
     1
 90
       50
176
     1
 62
   256
176
     0
 40
1.0
176
     0
 90
        2
176
     1
  1
strokes_ogs.tif
176
     1
290
     0
176
     1
 40
1.0
176
     1
 40
1.0
176
     1
  0
VISUALSTYLE
  5
2B
102
{ACAD_REACTORS
330
2A
102
}
330
2A
100
AcDbVisualStyle
  2
Flat
 70
     0
177
     3
291
     1
 70
    58
 90
        2
176
     1
 90
        1
176
     1
 90
        1
176
     1
 90
        2
176
     1
 40
0.6
176
     1
 40
30.0
176
     1
 62
     7
420
 16777215
176
     1
 90
        0
176
     1
 90
        0
176
     1
 62
     7
176
     1
 62
   257
176
     1
 90
        1
176
     1
 90
        1
176
     1
 40
1.0
176
     1
 90
        8
176
     1
 62
     7
176
     1
 40
1.0
176
     1
 90
        1
176
     1
 90
        6
176
     1
 90
        2
176
     1
 62
     7
176
     1
 90
        5
176
     1
 90
        0
176
     1
 90
        0
176
     1
290
     0
176
     1
 90
       13
176
     1
 40
0.0
176
     1
 90
        0
176
     1
290
     0
176
     1
290
     1
176
     1
290
     1
176
     1
290
     0
176
     1
290
     0
176
     1
290
     0
176
     1
290
     0
176
     1
290
     0
176
     1
290
     0
176
     1
 90
       50
176
     1
 40
0.0
176
     1
 40
1.0
176
     1
 90
        0
176
     1
 62
    18
420
        0
176
     1
 90
       50
176
     1
 90
        3
176
     1
 62
     5
420
      255
176
     1
290
     0
176
     1
 90
       50
176
     1
 90
       50
176
     1
 90
       50
176
     1
290
     0
176
     1
 90
       50
176
     1
 62
   256
176
     0
 40
1.0
176
     0
 90
        2
176
     1
  1
strokes_ogs.tif
176
     1
290
     0
176
     1
 40
1.0
176
     1
 40
1.0
176
     1
  0
VISUALSTYLE
  5
2C
102
{ACAD_REACTORS
330
2A
102
}
330
2A
100
AcDbVisualStyle
  2
FlatWithEdges
 70
     1
177
     3
291
     1
 70
    58
 90
        2
176
     1
 90
        1
176
     1
 90
        1
176
     1
 90
        2
176
     1
 40
0.6
176
     1
 40
30.0
176
     1
 62
     7
420
 16777215
176
     1
 90
        1
176
     1
 90
        0
176
     1
 62
     7
176
     1
 62
   257
176
     1
 90
        1
176
     1
 90
        1
176
     1
 40
1.0
176
     1
 90
        0
176
     1
 62
   257
176
     1
 40
1.0
176
     1
 90
        1
176
     1
 90
        6
176
     1
 90
        2
176
     1
 62
     7
176
     1
 90
        5
176
     1
 90
        0
176
     1
 90
        0
176
     1
290
     0
176
     1
 90
       13
176
     1
 40
0.0
176
     1
 90
        0
176
     1
290
     0
176
     1
290
     1
176
     1
290
     1
176
     1
290
     0
176
     1
290
     0
176
     1
290
     0
176
     1
290
     0
176
     1
290
     0
176
     1
290
     0
176
     1
 90
       50
176
     1
 40
0.0
176
     1
 40
1.0
176
     1
 90
        0
176
     1
 62
    18
420
        0
176
     1
 90
       50
176
     1
 90
        3
176
     1
 62
     5
420
      255
176
     1
290
     0
176
     1
 90
       50
176
     1
 90
       50
176
     1
 90
       50
176
     1
290
     0
176
     1
 90
       50
176
     1
 62
   256
176
     0
 40
1.0
176
     0
 90
        2
176
     1
  1
strokes_ogs.tif
176
     1
290
     0
176
     1
 40
1.0
176
     1
 40
1.0
176
     1
  0
VISUALSTYLE
  5
2D
102
{ACAD_REACTORS
330
2A
102
}
330
2A
100
AcDbVisualStyle
  2
Gouraud
 70
     2
177
     3
291
     1
 70
    58
 90
        2
176
     1
 90
        2
176
     1
 90
        1
176
     1
 90
        2
176
     1
 40
0.6
176
     1
 40
30.0
176
     1
 62
     7
420
 16777215
176
     1
 90
        0
176
     1
 90
        0
176
     1
 62
     7
176
     1
 62
   257
176
     1
 90
        1
176
     1
 90
        1
176
     1
 40
1.0
176
     1
 90
        0
176
     1
 62
     7
176
     1
 40
1.0
176
     1
 90
        1
176
     1
 90
        6
176
     1
 90
        2
176
     1
 62
     7
176
     1
 90
        5
176
     1
 90
        0
176
     1
 90
        0
176
     1
290
     0
176
     1
 90
       13
176
     1
 40
0.0
176
     1
 90
        0
176
     1
290
     0
176
     1
290
     1
176
     1
290
     1
176
     1
290
     0
176
     1
290
     0
176
     1
290
     0
176
     1
290
     0
176
     1
290
     0
176
     1
290
     0
176
     1
 90
       50
176
     1
 40
0.0
176
     1
 40
1.0
176
     1
 90
        0
176
     1
 62
    18
420
        0
176
     1
 90
       50
176
     1
 90
        3
176
     1
 62
     5
420
      255
176
     1
290
     0
176
     1
 90
       50
176
     1
 90
       50
176
     1
 90
       50
176
     1
290
     0
176
     1
 90
       50
176
     1
 62
   256
176
     0
 40
1.0
176
     0
 90
        2
176
     1
  1
strokes_ogs.tif
176
     1
290
     0
176
     1
 40
1.0
176
     1
 40
1.0
176
     1
  0
VISUALSTYLE
  5
2E
102
{ACAD_REACTORS
330
2A
102
}
330
2A
100
AcDbVisualStyle
  2
GouraudWithEdges
 70
     3
177
     3
291
     1
 70
    58
 90
        2
176
     1
 90
        2
176
     1
 90
        1
176
     1
 90
        2
176
     1
 40
0.6
176
     1
 40
30.0
176
     1
 62
     7
420
 16777215
176
     1
 90
        1
176
     1
 90
        0
176
     1
 62
     7
176
     1
 62
   257
176
     1
 90
        1
176
     1
 90
        1
176
     1
 40
1.0
176
     1
 90
        0
176
     1
 62
   257
176
     1
 40
1.0
176
     1
 90
        1
176
     1
 90
        6
176
     1
 90
        2
176
     1
 62
     7
176
     1
 90
        5
176
     1
 90
        0
176
     1
 90
        0
176
     1
290
     0
176
     1
 90
       13
176
     1
 40
0.0
176
     1
 90
        0
176
     1
290
     0
176
     1
290
     1
176
     1
290
     1
176
     1
290
     0
176
     1
290
     0
176
     1
290
     0
176
     1
290
     0
176
     1
290
     0
176
     1
290
     0
176
     1
 90
       50
176
     1
 40
0.0
176
     1
 40
1.0
176
     1
 90
        0
176
     1
 62
    18
420
        0
176
     1
 90
       50
176
     1
 90
        3
176
     1
 62
     5
420
      255
176
     1
290
     0
176
     1
 90
       50
176
     1
 90
       50
176
     1
 90
       50
176
     1
290
     0
176
     1
 90
       50
176
     1
 62
   256
176
     0
 40
1.0
176
     0
 90
        2
176
     1
  1
strokes_ogs.tif
176
     1
290
     0
176
     1
 40
1.0
176
     1
 40
1.0
176
     1
  0
VISUALSTYLE
  5
31
102
{ACAD_REACTORS
330
2A
102
}
330
2A
100
AcDbVisualStyle
  2
Hidden
 70
     6
177
     3
291
     0
 70
    58
 90
        1
176
     1
 90
        2
176
     1
 90
        2
176
     1
 90
        0
176
     1
 40
0.6
176
     1
 40
30.0
176
     1
 62
     7
420
 16777215
176
     1
 90
        2
176
     1
 90
        2
176
     1
 62
     7
176
     1
 62
   257
176
     1
 90
        2
176
     1
 90
        1
176
     1
 40
40.0
176
     1
 90
        0
176
     1
 62
   257
176
     1
 40
1.0
176
     1
 90
        1
176
     1
 90
        6
176
     1
 90
        2
176
     1
 62
     7
176
     1
 90
        3
176
     1
 90
        0
176
     1
 90
        0
176
     1
290
     0
176
     1
 90
        1
176
     1
 40
0.0
176
     1
 90
        0
176
     1
290
     0
176
     1
290
     1
176
     1
290
     1
176
     1
290
     0
176
     1
290
     0
176
     1
290
     0
176
     1
290
     0
176
     1
290
     0
176
     1
290
     0
176
     1
 90
       50
176
     1
 40
0.0
176
     1
 40
1.0
176
     1
 90
        0
176
     1
 62
    18
420
        0
176
     1
 90
       50
176
     1
 90
        3
176
     1
 62
     5
420
      255
176
     1
290
     0
176
     1
 90
       50
176
     1
 90
       50
176
     1
 90
       50
176
     1
290
     0
176
     1
 90
       50
176
     1
 62
   256
176
     0
 40
1.0
176
     0
 90
        2
176
     1
  1
strokes_ogs.tif
176
     1
290
     0
176
     1
 40
1.0
176
     1
 40
1.0
176
     1
  0
VISUALSTYLE
  5
3B
102
{ACAD_REACTORS
330
2A
102
}
330
2A
100
AcDbVisualStyle
  2
JitterOff
 70
    20
177
     3
291
     1
 70
    58
 90
        2
176
     0
 90
        2
176
     0
 90
        0
176
     0
 90
        0
176
     0
 40
0.6
176
     0
 40
30.0
176
     0
 62
     7
420
 16777215
176
     0
 90
        1
176
     0
 90
        4
176
     0
 62
     7
176
     0
 62
   257
176
     0
 90
        1
176
     0
 90
        1
176
     0
 40
1.0
176
     0
 90
       10
176
     2
 62
     7
176
     0
 40
1.0
176
     0
 90
        1
176
     0
 90
        6
176
     0
 90
        2
176
     0
 62
     7
176
     0
 90
        5
176
     0
 90
        0
176
     0
 90
        0
176
     0
290
     0
176
     0
 90
        1
176
     0
 40
0.0
176
     0
 90
        0
176
     0
290
     0
176
     0
290
     1
176
     0
290
     1
176
     0
290
     0
176
     0
290
     0
176
     0
290
     0
176
     0
290
     0
176
     0
290
     0
176
     0
290
     0
176
     0
 90
       50
176
     0
 40
0.0
176
     0
 40
1.0
176
     0
 90
        0
176
     0
 62
    18
420
        0
176
     0
 90
       50
176
     0
 90
        3
176
     0
 62
     5
420
      255
176
     0
290
     0
176
     0
 90
       50
176
     0
 90
       50
176
     0
 90
       50
176
     0
290
     0
176
     0
 90
       50
176
     0
 62
   256
176
     0
 40
1.0
176
     0
 90
        2
176
     0
  1
strokes_ogs.tif
176
     0
290
     0
176
     0
 40
1.0
176
     0
 40
1.0
176
     0
  0
VISUALSTYLE
  5
38
102
{ACAD_REACTORS
330
2A
102
}
330
2A
100
AcDbVisualStyle
  2
Linepattern
 70
    14
177
     3
291
     1
 70
    58
 90
        2
176
     1
 90
        2
176
     1
 90
        0
176
     1
 90
        0
176
     1
 40
0.6
176
     1
 40
30.0
176
     1
 62
     7
420
 16777215
176
     1
 90
        1
176
     1
 90
        4
176
     1
 62
     7
176
     1
 62
   257
176
     1
 90
        7
176
     1
 90
        7
176
     1
 40
1.0
176
     1
 90
        8
176
     1
 62
     7
176
     1
 40
1.0
176
     1
 90
        1
176
     1
 90
        6
176
     1
 90
        2
176
     1
 62
     7
176
     1
 90
        5
176
     1
 90
        0
176
     1
 90
        0
176
     1
290
     0
176
     1
 90
        1
176
     1
 40
0.0
176
     1
 90
        0
176
     1
290
     0
176
     1
290
     1
176
     1
290
     1
176
     1
290
     0
176
     1
290
     0
176
     1
290
     0
176
     1
290
     0
176
     1
290
     0
176
     1
290
     0
176
     1
 90
       50
176
     1
 40
0.0
176
     1
 40
1.0
176
     1
 90
        0
176
     1
 62
    18
420
        0
176
     1
 90
       50
176
     1
 90
        3
176
     1
 62
     5
420
      255
176
     1
290
     0
176
     1
 90
       50
176
     1
 90
       50
176
     1
 90
       50
176
     1
290
     0
176
     1
 90
       50
176
     1
 62
   256
176
     0
 40
1.0
176
     0
 90
        2
176
     1
  1
strokes_ogs.tif
176
     1
290
     0
176
     1
 40
1.0
176
     1
 40
1.0
176
     1
  0
VISUALSTYLE
  5
3C
102
{ACAD_REACTORS
330
2A
102
}
330
2A
100
AcDbVisualStyle
  2
OverhangOff
 70
    21
177
     3
291
     1
 70
    58
 90
        2
176
     0
 90
        2
176
     0
 90
        0
176
     0
 90
        0
176
     0
 40
0.6
176
     0
 40
30.0
176
     0
 62
     7
420
 16777215
176
     0
 90
        1
176
     0
 90
        4
176
     0
 62
     7
176
     0
 62
   257
176
     0
 90
        1
176
     0
 90
        1
176
     0
 40
1.0
176
     0
 90
        9
176
     2
 62
     7
176
     0
 40
1.0
176
     0
 90
        1
176
     0
 90
        6
176
     0
 90
        2
176
     0
 62
     7
176
     0
 90
        5
176
     0
 90
        0
176
     0
 90
        0
176
     0
290
     0
176
     0
 90
        1
176
     0
 40
0.0
176
     0
 90
        0
176
     0
290
     0
176
     0
290
     1
176
     0
290
     1
176
     0
290
     0
176
     0
290
     0
176
     0
290
     0
176
     0
290
     0
176
     0
290
     0
176
     0
290
     0
176
     0
 90
       50
176
     0
 40
0.0
176
     0
 40
1.0
176
     0
 90
        0
176
     0
 62
    18
420
        0
176
     0
 90
       50
176
     0
 90
        3
176
     0
 62
     5
420
      255
176
     0
290
     0
176
     0
 90
       50
176
     0
 90
       50
176
     0
 90
       50
176
     0
290
     0
176
     0
 90
       50
176
     0
 62
   256
176
     0
 40
1.0
176
     0
 90
        2
176
     0
  1
strokes_ogs.tif
176
     0
290
     0
176
     0
 40
1.0
176
     0
 40
1.0
176
     0
  0
VISUALSTYLE
  5
33
102
{ACAD_REACTORS
330
2A
102
}
330
2A
100
AcDbVisualStyle
  2
Realistic
 70
     8
177
     3
291
     0
 70
    58
 90
        2
176
     1
 90
        3
176
     1
 90
        0
176
     1
 90
        2
176
     1
 40
0.6
176
     1
 40
30.0
176
     1
 62
     7
420
 16777215
176
     1
 90
        0
176
     1
 90
        0
176
     1
 62
     7
176
     1
 62
   257
176
     1
 90
        1
176
     1
 90
        1
176
     1
 40
1.0
176
     1
 90
        8
176
     1
 62
   257
176
     1
 40
1.0
176
     1
 90
        1
176
     1
 90
        6
176
     1
 90
        2
176
     1
 62
     7
176
     1
 90
        3
176
     1
 90
        0
176
     1
 90
        0
176
     1
290
     0
176
     1
 90
       13
176
     1
 40
0.0
176
     1
 90
        0
176
     1
290
     0
176
     1
290
     1
176
     1
290
     1
176
     1
290
     0
176
     1
290
     0
176
     1
290
     0
176
     1
290
     0
176
     1
290
     0
176
     1
290
     0
176
     1
 90
       50
176
     1
 40
0.0
176
     1
 40
1.0
176
     1
 90
        0
176
     1
 62
    18
420
        0
176
     1
 90
       50
176
     1
 90
        3
176
     1
 62
     5
420
      255
176
     1
290
     0
176
     1
 90
       50
176
     1
 90
       50
176
     1
 90
       50
176
     1
290
     0
176
     1
 90
       50
176
     1
 62
   256
176
     0
 40
1.0
176
     0
 90
        2
176
     1
  1
strokes_ogs.tif
176
     1
290
     0
176
     1
 40
1.0
176
     1
 40
1.0
176
     1
  0
VISUALSTYLE
  5
42
102
{ACAD_REACTORS
330
2A
102
}
330
2A
100
AcDbVisualStyle
  2
Shaded
 70
    27
177
     3
291
     0
 70
    58
 90
        2
176
     1
 90
        2
176
     1
 90
        1
176
     1
 90
        2
176
     1
 40
0.6
176
     1
 40
30.0
176
     1
 62
     7
420
 16777215
176
     1
 90
        0
176
     1
 90
        4
176
     1
 62
     7
176
     1
 62
   257
176
     1
 90
        1
176
     1
 90
        1
176
     1
 40
1.0
176
     1
 90
        8
176
     1
 62
   257
176
     1
 40
1.0
176
     1
 90
        1
176
     1
 90
        6
176
     1
 90
        2
176
     1
 62
     8
420
  7895160
176
     1
 90
        3
176
     1
 90
        0
176
     1
 90
        0
176
     1
290
     0
176
     1
 90
        5
176
     1
 40
0.0
176
     1
 90
        0
176
     1
290
     0
176
     1
290
     1
176
     1
290
     1
176
     1
290
     0
176
     1
290
     0
176
     1
290
     0
176
     1
290
     0
176
     1
290
     0
176
     1
290
     0
176
     1
 90
       50
176
     1
 40
0.0
176
     1
 40
1.0
176
     1
 90
        0
176
     1
 62
    18
420
        0
176
     1
 90
       50
176
     1
 90
        3
176
     1
 62
     5
420
      255
176
     1
290
     0
176
     1
 90
       50
176
     1
 90
       50
176
     1
 90
       50
176
     1
290
     0
176
     1
 90
       50
176
     1
 62
   256
176
     0
 40
1.0
176
     0
 90
        2
176
     1
  1
strokes_ogs.tif
176
     1
290
     0
176
     1
 40
1.0
176
     1
 40
1.0
176
     1
  0
VISUALSTYLE
  5
41
102
{ACAD_REACTORS
330
2A
102
}
330
2A
100
AcDbVisualStyle
  2
Shaded with edges
 70
    26
177
     3
291
     0
 70
    58
 90
        2
176
     1
 90
        2
176
     1
 90
        1
176
     1
 90
        2
176
     1
 40
0.6
176
     1
 40
30.0
176
     1
 62
     7
420
 16777215
176
     1
 90
        1
176
     1
 90
       10
176
     1
 62
     7
176
     1
 62
   257
176
     1
 90
        2
176
     1
 90
        1
176
     1
 40
1.0
176
     1
 90
        8
176
     1
 62
   257
176
     1
 40
1.0
176
     1
 90
        1
176
     1
 90
        6
176
     1
 90
        2
176
     1
 62
     7
176
     1
 90
        3
176
     1
 90
        0
176
     1
 90
        0
176
     1
290
     0
176
     1
 90
        5
176
     1
 40
0.0
176
     1
 90
        0
176
     1
290
     0
176
     1
290
     1
176
     1
290
     1
176
     1
290
     0
176
     1
290
     0
176
     1
290
     0
176
     1
290
     0
176
     1
290
     0
176
     1
290
     0
176
     1
 90
       50
176
     1
 40
0.0
176
     1
 40
1.0
176
     1
 90
        0
176
     1
 62
    18
420
        0
176
     1
 90
       50
176
     1
 90
        3
176
     1
 62
     5
420
      255
176
     1
290
     0
176
     1
 90
       50
176
     1
 90
       50
176
     1
 90
       50
176
     1
290
     0
176
     1
 90
       50
176
     1
 62
   256
176
     0
 40
1.0
176
     0
 90
        2
176
     1
  1
strokes_ogs.tif
176
     1
290
     0
176
     1
 40
1.0
176
     1
 40
1.0
176
     1
  0
VISUALSTYLE
  5
3E
102
{ACAD_REACTORS
330
2A
102
}
330
2A
100
AcDbVisualStyle
  2
Shades of Gray
 70
    23
177
     3
291
     0
 70
    58
 90
        2
176
     1
 90
        2
176
     1
 90
        3
176
     1
 90
        0
176
     1
 40
0.6
176
     1
 40
30.0
176
     1
 62
     7
420
 16777215
176
     1
 90
        2
176
     1
 90
        2
176
     1
 62
     7
176
     1
 62
     7
176
     1
 90
        1
176
     1
 90
        1
176
     1
 40
40.0
176
     1
 90
        8
176
     1
 62
     7
176
     1
 40
1.0
176
     1
 90
        1
176
     1
 90
        6
176
     1
 90
        2
176
     1
 62
     7
176
     1
 90
        3
176
     1
 90
        0
176
     1
 90
        0
176
     1
290
     0
176
     1
 90
        1
176
     1
 40
0.0
176
     1
 90
        0
176
     1
290
     0
176
     1
290
     1
176
     1
290
     1
176
     1
290
     0
176
     1
290
     0
176
     1
290
     0
176
     1
290
     0
176
     1
290
     0
176
     1
290
     0
176
     1
 90
       50
176
     1
 40
0.0
176
     1
 40
1.0
176
     1
 90
        0
176
     1
 62
    18
420
        0
176
     1
 90
       50
176
     1
 90
        3
176
     1
 62
     5
420
      255
176
     1
290
     0
176
     1
 90
       50
176
     1
 90
       50
176
     1
 90
       50
176
     1
290
     0
176
     1
 90
       50
176
     1
 62
   256
176
     0
 40
1.0
176
     0
 90
        2
176
     1
  1
strokes_ogs.tif
176
     1
290
     0
176
     1
 40
1.0
176
     1
 40
1.0
176
     1
  0
VISUALSTYLE
  5
3F
102
{ACAD_REACTORS
330
2A
102
}
330
2A
100
AcDbVisualStyle
  2
Sketchy
 70
    24
177
     3
291
     0
 70
    58
 90
        1
176
     1
 90
        2
176
     1
 90
        2
176
     1
 90
        0
176
     1
 40
0.6
176
     1
 40
30.0
176
     1
 62
     7
420
 16777215
176
     1
 90
        2
176
     1
 90
        2
176
     1
 62
     7
176
     1
 62
     7
176
     1
 90
        1
176
     1
 90
        1
176
     1
 40
40.0
176
     1
 90
       11
176
     1
 62
     7
176
     1
 40
1.0
176
     1
 90
        1
176
     1
 90
        6
176
     1
 90
        2
176
     1
 62
     7
176
     1
 90
        6
176
     1
 90
        0
176
     1
 90
        0
176
     1
290
     0
176
     1
 90
        1
176
     1
 40
0.0
176
     1
 90
        0
176
     1
290
     0
176
     1
290
     1
176
     1
290
     1
176
     1
290
     0
176
     1
290
     0
176
     1
290
     0
176
     1
290
     0
176
     1
290
     0
176
     1
290
     0
176
     1
 90
       50
176
     1
 40
0.0
176
     1
 40
1.0
176
     1
 90
        0
176
     1
 62
    18
420
        0
176
     1
 90
       50
176
     1
 90
        3
176
     1
 62
     5
420
      255
176
     1
290
     0
176
     1
 90
       50
176
     1
 90
       50
176
     1
 90
       50
176
     1
290
     0
176
     1
 90
       50
176
     1
 62
   256
176
     0
 40
1.0
176
     0
 90
        2
176
     1
  1
strokes_ogs.tif
176
     1
290
     0
176
     1
 40
1.0
176
     1
 40
1.0
176
     1
  0
VISUALSTYLE
  5
37
102
{ACAD_REACTORS
330
2A
102
}
330
2A
100
AcDbVisualStyle
  2
Thicken
 70
    13
177
     3
291
     1
 70
    58
 90
        2
176
     1
 90
        2
176
     1
 90
        0
176
     1
 90
        0
176
     1
 40
0.6
176
     1
 40
30.0
176
     1
 62
     7
420
 16777215
176
     1
 90
        1
176
     1
 90
        4
176
     1
 62
     7
176
     1
 62
   257
176
     1
 90
        1
176
     1
 90
        1
176
     1
 40
1.0
176
     1
 90
       12
176
     1
 62
     7
176
     1
 40
1.0
176
     1
 90
        1
176
     1
 90
        6
176
     1
 90
        2
176
     1
 62
     7
176
     1
 90
        5
176
     1
 90
        0
176
     1
 90
        0
176
     1
290
     0
176
     1
 90
        1
176
     1
 40
0.0
176
     1
 90
        0
176
     1
290
     0
176
     1
290
     1
176
     1
290
     1
176
     1
290
     0
176
     1
290
     0
176
     1
290
     0
176
     1
290
     0
176
     1
290
     0
176
     1
290
     0
176
     1
 90
       50
176
     1
 40
0.0
176
     1
 40
1.0
176
     1
 90
        0
176
     1
 62
    18
420
        0
176
     1
 90
       50
176
     1
 90
        3
176
     1
 62
     5
420
      255
176
     1
290
     0
176
     1
 90
       50
176
     1
 90
       50
176
     1
 90
       50
176
     1
290
     0
176
     1
 90
       50
176
     1
 62
   256
176
     0
 40
1.0
176
     0
 90
        2
176
     1
  1
strokes_ogs.tif
176
     1
290
     0
176
     1
 40
1.0
176
     1
 40
1.0
176
     1
  0
VISUALSTYLE
  5
30
102
{ACAD_REACTORS
330
2A
102
}
330
2A
100
AcDbVisualStyle
  2
Wireframe
 70
     5
177
     3
291
     0
 70
    58
 90
        0
176
     1
 90
        2
176
     1
 90
        0
176
     1
 90
        0
176
     1
 40
0.6
176
     1
 40
30.0
176
     1
 62
     7
420
 16777215
176
     1
 90
        1
176
     1
 90
        4
176
     1
 62
     7
176
     1
 62
   257
176
     1
 90
        1
176
     1
 90
        1
176
     1
 40
1.0
176
     1
 90
        0
176
     1
 62
   257
176
     1
 40
1.0
176
     1
 90
        1
176
     1
 90
        6
176
     1
 90
        2
176
     1
 62
     7
176
     1
 90
        3
176
     1
 90
        0
176
     1
 90
        0
176
     1
290
     0
176
     1
 90
        1
176
     1
 40
0.0
176
     1
 90
        0
176
     1
290
     0
176
     1
290
     1
176
     1
290
     1
176
     1
290
     0
176
     1
290
     0
176
     1
290
     0
176
     1
290
     0
176
     1
290
     0
176
     1
290
     0
176
     1
 90
       50
176
     1
 40
0.0
176
     1
 40
1.0
176
     1
 90
        0
176
     1
 62
    18
420
        0
176
     1
 90
       50
176
     1
 90
        3
176
     1
 62
     5
420
      255
176
     1
290
     0
176
     1
 90
       50
176
     1
 90
       50
176
     1
 90
       50
176
     1
290
     0
176
     1
 90
       50
176
     1
 62
   256
176
     0
 40
1.0
176
     0
 90
        2
176
     1
  1
strokes_ogs.tif
176
     1
290
     0
176
     1
 40
1.0
176
     1
 40
1.0
176
     1
  0
VISUALSTYLE
  5
40
102
{ACAD_REACTORS
330
2A
102
}
330
2A
100
AcDbVisualStyle
  2
X-Ray
 70
    25
177
     3
291
     0
 70
    58
 90
        2
176
     1
 90
        2
176
     1
 90
        1
176
     1
 90
        1
176
     1
 40
0.5
176
     1
 40
30.0
176
     1
 62
     7
420
 16777215
176
     1
 90
        1
176
     1
 90
        0
176
     1
 62
     7
176
     1
 62
   257
176
     1
 90
        1
176
     1
 90
        1
176
     1
 40
1.0
176
     1
 90
        8
176
     1
 62
     7
176
     1
 40
1.0
176
     1
 90
        1
176
     1
 90
        6
176
     1
 90
        2
176
     1
 62
     7
176
     1
 90
        3
176
     1
 90
        0
176
     1
 90
        0
176
     1
290
     0
176
     1
 90
       13
176
     1
 40
0.0
176
     1
 90
        0
176
     1
290
     0
176
     1
290
     1
176
     1
290
     1
176
     1
290
     0
176
     1
290
     0
176
     1
290
     0
176
     1
290
     0
176
     1
290
     0
176
     1
290
     0
176
     1
 90
       50
176
     1
 40
0.0
176
     1
 40
1.0
176
     1
 90
        0
176
     1
 62
    18
420
        0
176
     1
 90
       50
176
     1
 90
        3
176
     1
 62
     5
420
      255
176
     1
290
     0
176
     1
 90
       50
176
     1
 90
       50
176
     1
 90
       50
176
     1
290
     0
176
     1
 90
       50
176
     1
 62
   256
176
     0
 40
1.0
176
     0
 90
        2
176
     1
  1
strokes_ogs.tif
176
     1
290
     0
176
     1
 40
1.0
176
     1
 40
1.0
176
     1
  0
DICTIONARYVAR
  5
217
102
{ACAD_REACTORS
330
216
102
}
330
216
100
DictionaryVariables
280
     0
  1
1:1
  0
DICTIONARYVAR
  5
21C
102
{ACAD_REACTORS
330
216
102
}
330
216
100
DictionaryVariables
280
     0
  1
Standard
  0
DICTIONARYVAR
  5
21B
102
{ACAD_REACTORS
330
216
102
}
330
216
100
DictionaryVariables
280
     0
  1
Standard
  0
DICTIONARY
  5
218
330
6A
100
AcDbDictionary
280
     1
281
     1
  3
ACAD_ROUNDTRIP_2008_TABLESTYLE_CELLSTYLEMAP
360
219
  0
CELLSTYLEMAP
  5
219
102
{ACAD_REACTORS
330
218
102
}
330
218
100
AcDbCellStyleMap
 90
        3
300
CELLSTYLE
  1
TABLEFORMAT_BEGIN
 90
        5
170
     1
 91
        0
 92
    32768
 62
   257
 93
        1
300
CONTENTFORMAT
  1
CONTENTFORMAT_BEGIN
 90
        0
 91
        0
 92
        4
 93
        0
300

 40
0.0
140
1.0
 94
        5
 62
     0
340
11
144
0.25
309
CONTENTFORMAT_END
171
     1
301
MARGIN
  1
CELLMARGIN_BEGIN
 40
0.06
 40
0.06
 40
0.06
 40
0.06
 40
0.06
 40
0.06
309
CELLMARGIN_END
 94
        6
 95
        1
302
GRIDFORMAT
  1
GRIDFORMAT_BEGIN
 90
        0
 91
        1
 62
     0
 92
       -2
340
14
 93
        0
 40
0.045
309
GRIDFORMAT_END
 95
        2
302
GRIDFORMAT
  1
GRIDFORMAT_BEGIN
 90
        0
 91
        1
 62
     0
 92
       -2
340
14
 93
        0
 40
0.045
309
GRIDFORMAT_END
 95
        4
302
GRIDFORMAT
  1
GRIDFORMAT_BEGIN
 90
        0
 91
        1
 62
     0
 92
       -2
340
14
 93
        0
 40
0.045
309
GRIDFORMAT_END
 95
        8
302
GRIDFORMAT
  1
GRIDFORMAT_BEGIN
 90
        0
 91
        1
 62
     0
 92
       -2
340
14
 93
        0
 40
0.045
309
GRIDFORMAT_END
 95
       16
302
GRIDFORMAT
  1
GRIDFORMAT_BEGIN
 90
        0
 91
        1
 62
     0
 92
       -2
340
14
 93
        0
 40
0.045
309
GRIDFORMAT_END
 95
       32
302
GRIDFORMAT
  1
GRIDFORMAT_BEGIN
 90
        0
 91
        1
 62
     0
 92
       -2
340
14
 93
        0
 40
0.045
309
GRIDFORMAT_END
309
TABLEFORMAT_END
  1
CELLSTYLE_BEGIN
 90
        1
 91
        1
300
_TITLE
309
CELLSTYLE_END
300
CELLSTYLE
  1
TABLEFORMAT_BEGIN
 90
        5
170
     1
 91
        0
 92
        0
 62
   257
 93
        1
300
CONTENTFORMAT
  1
CONTENTFORMAT_BEGIN
 90
        0
 91
        0
 92
        4
 93
        0
300

 40
0.0
140
1.0
 94
        5
 62
     0
340
11
144
0.18
309
CONTENTFORMAT_END
171
     1
301
MARGIN
  1
CELLMARGIN_BEGIN
 40
0.06
 40
0.06
 40
0.06
 40
0.06
 40
0.06
 40
0.06
309
CELLMARGIN_END
 94
        6
 95
        1
302
GRIDFORMAT
  1
GRIDFORMAT_BEGIN
 90
        0
 91
        1
 62
     0
 92
       -2
340
14
 93
        0
 40
0.045
309
GRIDFORMAT_END
 95
        2
302
GRIDFORMAT
  1
GRIDFORMAT_BEGIN
 90
        0
 91
        1
 62
     0
 92
       -2
340
14
 93
        0
 40
0.045
309
GRIDFORMAT_END
 95
        4
302
GRIDFORMAT
  1
GRIDFORMAT_BEGIN
 90
        0
 91
        1
 62
     0
 92
       -2
340
14
 93
        0
 40
0.045
309
GRIDFORMAT_END
 95
        8
302
GRIDFORMAT
  1
GRIDFORMAT_BEGIN
 90
        0
 91
        1
 62
     0
 92
       -2
340
14
 93
        0
 40
0.045
309
GRIDFORMAT_END
 95
       16
302
GRIDFORMAT
  1
GRIDFORMAT_BEGIN
 90
        0
 91
        1
 62
     0
 92
       -2
340
14
 93
        0
 40
0.045
309
GRIDFORMAT_END
 95
       32
302
GRIDFORMAT
  1
GRIDFORMAT_BEGIN
 90
        0
 91
        1
 62
     0
 92
       -2
340
14
 93
        0
 40
0.045
309
GRIDFORMAT_END
309
TABLEFORMAT_END
  1
CELLSTYLE_BEGIN
 90
        2
 91
        1
300
_HEADER
309
CELLSTYLE_END
300
CELLSTYLE
  1
TABLEFORMAT_BEGIN
 90
        5
170
     1
 91
        0
 92
        0
 62
   257
 93
        1
300
CONTENTFORMAT
  1
CONTENTFORMAT_BEGIN
 90
        0
 91
        0
 92
        4
 93
        0
300

 40
0.0
140
1.0
 94
        2
 62
     0
340
11
144
0.18
309
CONTENTFORMAT_END
171
     1
301
MARGIN
  1
CELLMARGIN_BEGIN
 40
0.06
 40
0.06
 40
0.06
 40
0.06
 40
0.06
 40
0.06
309
CELLMARGIN_END
 94
        6
 95
        1
302
GRIDFORMAT
  1
GRIDFORMAT_BEGIN
 90
        0
 91
        1
 62
     0
 92
       -2
340
14
 93
        0
 40
0.045
309
GRIDFORMAT_END
 95
        2
302
GRIDFORMAT
  1
GRIDFORMAT_BEGIN
 90
        0
 91
        1
 62
     0
 92
       -2
340
14
 93
        0
 40
0.045
309
GRIDFORMAT_END
 95
        4
302
GRIDFORMAT
  1
GRIDFORMAT_BEGIN
 90
        0
 91
        1
 62
     0
 92
       -2
340
14
 93
        0
 40
0.045
309
GRIDFORMAT_END
 95
        8
302
GRIDFORMAT
  1
GRIDFORMAT_BEGIN
 90
        0
 91
        1
 62
     0
 92
       -2
340
14
 93
        0
 40
0.045
309
GRIDFORMAT_END
 95
       16
302
GRIDFORMAT
  1
GRIDFORMAT_BEGIN
 90
        0
 91
        1
 62
     0
 92
       -2
340
14
 93
        0
 40
0.045
309
GRIDFORMAT_END
 95
       32
302
GRIDFORMAT
  1
GRIDFORMAT_BEGIN
 90
        0
 91
        1
 62
     0
 92
       -2
340
14
 93
        0
 40
0.045
309
GRIDFORMAT_END
309
TABLEFORMAT_END
  1
CELLSTYLE_BEGIN
 90
        3
 91
        2
300
_DATA
309
CELLSTYLE_END
  0
ENDSEC
  0
EOF