0
SECTION
  2
HEADER
  9
$ACADVER
  1
AC1027
  9
$ACADMAINTVER
 70
     8
  9
$DWGCODEPAGE
  3
ANSI_1252
  9
$REQUIREDVERSIONS
160
                 0
  9
$COMMENTS
  1
File was created by Cadenas
  9
$CUSTOMPROPERTYTAG
  1
NN
  9
$CUSTOMPROPERTY
  1
S-2000 Piloted Flange Labyrinth Seal
  9
$CUSTOMPROPERTYTAG
  1
NT
  9
$CUSTOMPROPERTY
  1
S-2000 Piloted Flange Bearing -Inch
  9
$CUSTOMPROPERTYTAG
  1
NB
  9
$CUSTOMPROPERTY
  1
070747
  9
$CUSTOMPROPERTYTAG
  1
NBSYN
  9
$CUSTOMPROPERTY
  1
$PN.
  9
$CUSTOMPROPERTYTAG
  1
LINA
  9
$CUSTOMPROPERTY
  1
070747
  9
$CUSTOMPROPERTYTAG
  1
SS
  9
$CUSTOMPROPERTY
  1
4-15/16
  9
$CUSTOMPROPERTYTAG
  1
PN
  9
$CUSTOMPROPERTY
  1
070747
  9
$CUSTOMPROPERTYTAG
  1
DESCRIPTION
  9
$CUSTOMPROPERTY
  1
FC-S2-415LE
  9
$CUSTOMPROPERTYTAG
  1
EF
  9
$CUSTOMPROPERTY
  1
Expansion Type
  9
$CUSTOMPROPERTYTAG
  1
ST
  9
$CUSTOMPROPERTY
  1
Labyrinth Seal
  9
$CUSTOMPROPERTYTAG
  1
A
  9
$CUSTOMPROPERTY
  1
6-29/32
  9
$CUSTOMPROPERTYTAG
  1
B
  9
$CUSTOMPROPERTY
  1
14-27/32
  9
$CUSTOMPROPERTYTAG
  1
C
  9
$CUSTOMPROPERTY
  1
4-3/8
  9
$CUSTOMPROPERTYTAG
  1
D
  9
$CUSTOMPROPERTY
  1
9-1/64
  9
$CUSTOMPROPERTYTAG
  1
DD
  9
$CUSTOMPROPERTY
  1
12-3/4
  9
$CUSTOMPROPERTYTAG
  1
E
  9
$CUSTOMPROPERTY
  1
1-45/64
  9
$CUSTOMPROPERTYTAG
  1
F
  9
$CUSTOMPROPERTY
  1
7/8
  9
$CUSTOMPROPERTYTAG
  1
G
  9
$CUSTOMPROPERTY
  1
3-7/16
  9
$CUSTOMPROPERTYTAG
  1
H
  9
$CUSTOMPROPERTY
  1
1-1/4
  9
$CUSTOMPROPERTYTAG
  1
K
  9
$CUSTOMPROPERTY
  1
11.000
  9
$CUSTOMPROPERTYTAG
  1
L
  9
$CUSTOMPROPERTY
  1
7-29/64
  9
$CUSTOMPROPERTYTAG
  1
M
  9
$CUSTOMPROPERTY
  1
7/8-9
  9
$CUSTOMPROPERTYTAG
  1
N
  9
$CUSTOMPROPERTY
  1
5-55/64
  9
$CUSTOMPROPERTYTAG
  1
P
  9
$CUSTOMPROPERTY
  1
3-15/32
  9
$CUSTOMPROPERTYTAG
  1
Q
  9
$CUSTOMPROPERTY
  1
2-27/64
  9
$CUSTOMPROPERTYTAG
  1
X
  9
$CUSTOMPROPERTY
  1
3/8
  9
$CUSTOMPROPERTYTAG
  1
Y
  9
$CUSTOMPROPERTY
  1
0.036
  9
$CUSTOMPROPERTYTAG
  1
Z
  9
$CUSTOMPROPERTY
  1
5-27/32
  9
$CUSTOMPROPERTYTAG
  1
COMPANY
  9
$CUSTOMPROPERTY
  1
baldor
  9
$INSBASE
 10
0.0
 20
0.0
 30
0.0
  9
$EXTMIN
 10
1.000000000000000E+20
 20
1.000000000000000E+20
 30
1.000000000000000E+20
  9
$EXTMAX
 10
-1.000000000000000E+20
 20
-1.000000000000000E+20
 30
-1.000000000000000E+20
  9
$LIMMIN
 10
0.0
 20
0.0
  9
$LIMMAX
 10
12.0
 20
9.0
  9
$ORTHOMODE
 70
     0
  9
$REGENMODE
 70
     1
  9
$FILLMODE
 70
     1
  9
$QTEXTMODE
 70
     0
  9
$MIRRTEXT
 70
     1
  9
$LTSCALE
 40
1.0
  9
$ATTMODE
 70
     1
  9
$TEXTSIZE
 40
0.2
  9
$TRACEWID
 40
0.05
  9
$TEXTSTYLE
  7
Standard
  9
$CLAYER
  8
0
  9
$CELTYPE
  6
ByLayer
  9
$CECOLOR
 62
   256
  9
$CELTSCALE
 40
1.0
  9
$DISPSILH
 70
     0
  9
$DIMSCALE
 40
1.0
  9
$DIMASZ
 40
0.18
  9
$DIMEXO
 40
0.0625
  9
$DIMDLI
 40
0.38
  9
$DIMRND
 40
0.0
  9
$DIMDLE
 40
0.0
  9
$DIMEXE
 40
0.18
  9
$DIMTP
 40
0.0
  9
$DIMTM
 40
0.0
  9
$DIMTXT
 40
0.18
  9
$DIMCEN
 40
0.09
  9
$DIMTSZ
 40
0.0
  9
$DIMTOL
 70
     0
  9
$DIMLIM
 70
     0
  9
$DIMTIH
 70
     1
  9
$DIMTOH
 70
     1
  9
$DIMSE1
 70
     0
  9
$DIMSE2
 70
     0
  9
$DIMTAD
 70
     0
  9
$DIMZIN
 70
     0
  9
$DIMBLK
  1

  9
$DIMASO
 70
     1
  9
$DIMSHO
 70
     1
  9
$DIMPOST
  1

  9
$DIMAPOST
  1

  9
$DIMALT
 70
     0
  9
$DIMALTD
 70
     2
  9
$DIMALTF
 40
25.4
  9
$DIMLFAC
 40
1.0
  9
$DIMTOFL
 70
     0
  9
$DIMTVP
 40
0.0
  9
$DIMTIX
 70
     0
  9
$DIMSOXD
 70
     0
  9
$DIMSAH
 70
     0
  9
$DIMBLK1
  1

  9
$DIMBLK2
  1

  9
$DIMSTYLE
  2
Standard
  9
$DIMCLRD
 70
     0
  9
$DIMCLRE
 70
     0
  9
$DIMCLRT
 70
     0
  9
$DIMTFAC
 40
1.0
  9
$DIMGAP
 40
0.09
  9
$DIMJUST
 70
     0
  9
$DIMSD1
 70
     0
  9
$DIMSD2
 70
     0
  9
$DIMTOLJ
 70
     1
  9
$DIMTZIN
 70
     0
  9
$DIMALTZ
 70
     0
  9
$DIMALTTZ
 70
     0
  9
$DIMUPT
 70
     0
  9
$DIMDEC
 70
     4
  9
$DIMTDEC
 70
     4
  9
$DIMALTU
 70
     2
  9
$DIMALTTD
 70
     2
  9
$DIMTXSTY
  7
Standard
  9
$DIMAUNIT
 70
     0
  9
$DIMADEC
 70
     0
  9
$DIMALTRND
 40
0.0
  9
$DIMAZIN
 70
     0
  9
$DIMDSEP
 70
    46
  9
$DIMATFIT
 70
     3
  9
$DIMFRAC
 70
     0
  9
$DIMLDRBLK
  1

  9
$DIMLUNIT
 70
     2
  9
$DIMLWD
 70
    -2
  9
$DIMLWE
 70
    -2
  9
$DIMTMOVE
 70
     0
  9
$DIMFXL
 40
1.0
  9
$DIMFXLON
 70
     0
  9
$DIMJOGANG
 40
0.7853981633974483
  9
$DIMTFILL
 70
     0
  9
$DIMTFILLCLR
 70
     0
  9
$DIMARCSYM
 70
     0
  9
$DIMLTYPE
  6

  9
$DIMLTEX1
  6

  9
$DIMLTEX2
  6

  9
$DIMTXTDIRECTION
 70
     0
  9
$LUNITS
 70
     2
  9
$LUPREC
 70
     4
  9
$SKETCHINC
 40
0.1
  9
$FILLETRAD
 40
0.5
  9
$AUNITS
 70
     0
  9
$AUPREC
 70
     0
  9
$MENU
  1
.
  9
$ELEVATION
 40
0.0
  9
$PELEVATION
 40
0.0
  9
$THICKNESS
 40
0.0
  9
$LIMCHECK
 70
     0
  9
$CHAMFERA
 40
0.0
  9
$CHAMFERB
 40
0.0
  9
$CHAMFERC
 40
0.0
  9
$CHAMFERD
 40
0.0
  9
$SKPOLY
 70
     0
  9
$TDCREATE
 40
2458168.985342234
  9
$TDUCREATE
 40
2458168.943675567
  9
$TDUPDATE
 40
2458168.985342408
  9
$TDUUPDATE
 40
2458168.943675741
  9
$TDINDWG
 40
0.0000000116
  9
$TDUSRTIMER
 40
0.0000000116
  9
$USRTIMER
 70
     1
  9
$ANGBASE
 50
0.0
  9
$ANGDIR
 70
     0
  9
$PDMODE
 70
     0
  9
$PDSIZE
 40
0.0
  9
$PLINEWID
 40
0.0
  9
$SPLFRAME
 70
     0
  9
$SPLINETYPE
 70
     6
  9
$SPLINESEGS
 70
     8
  9
$HANDSEED
  5
273
  9
$SURFTAB1
 70
     6
  9
$SURFTAB2
 70
     6
  9
$SURFTYPE
 70
     6
  9
$SURFU
 70
     6
  9
$SURFV
 70
     6
  9
$UCSBASE
  2

  9
$UCSNAME
  2

  9
$UCSORG
 10
0.0
 20
0.0
 30
0.0
  9
$UCSXDIR
 10
1.0
 20
0.0
 30
0.0
  9
$UCSYDIR
 10
0.0
 20
1.0
 30
0.0
  9
$UCSORTHOREF
  2

  9
$UCSORTHOVIEW
 70
     0
  9
$UCSORGTOP
 10
0.0
 20
0.0
 30
0.0
  9
$UCSORGBOTTOM
 10
0.0
 20
0.0
 30
0.0
  9
$UCSORGLEFT
 10
0.0
 20
0.0
 30
0.0
  9
$UCSORGRIGHT
 10
0.0
 20
0.0
 30
0.0
  9
$UCSORGFRONT
 10
0.0
 20
0.0
 30
0.0
  9
$UCSORGBACK
 10
0.0
 20
0.0
 30
0.0
  9
$PUCSBASE
  2

  9
$PUCSNAME
  2

  9
$PUCSORG
 10
0.0
 20
0.0
 30
0.0
  9
$PUCSXDIR
 10
1.0
 20
0.0
 30
0.0
  9
$PUCSYDIR
 10
0.0
 20
1.0
 30
0.0
  9
$PUCSORTHOREF
  2

  9
$PUCSORTHOVIEW
 70
     0
  9
$PUCSORGTOP
 10
0.0
 20
0.0
 30
0.0
  9
$PUCSORGBOTTOM
 10
0.0
 20
0.0
 30
0.0
  9
$PUCSORGLEFT
 10
0.0
 20
0.0
 30
0.0
  9
$PUCSORGRIGHT
 10
0.0
 20
0.0
 30
0.0
  9
$PUCSORGFRONT
 10
0.0
 20
0.0
 30
0.0
  9
$PUCSORGBACK
 10
0.0
 20
0.0
 30
0.0
  9
$USERI1
 70
     0
  9
$USERI2
 70
     0
  9
$USERI3
 70
     0
  9
$USERI4
 70
     0
  9
$USERI5
 70
     0
  9
$USERR1
 40
0.0
  9
$USERR2
 40
0.0
  9
$USERR3
 40
0.0
  9
$USERR4
 40
0.0
  9
$USERR5
 40
0.0
  9
$WORLDVIEW
 70
     1
  9
$SHADEDGE
 70
     3
  9
$SHADEDIF
 70
    70
  9
$TILEMODE
 70
     1
  9
$MAXACTVP
 70
    64
  9
$PINSBASE
 10
0.0
 20
0.0
 30
0.0
  9
$PLIMCHECK
 70
     0
  9
$PEXTMIN
 10
1.000000000000000E+20
 20
1.000000000000000E+20
 30
1.000000000000000E+20
  9
$PEXTMAX
 10
-1.000000000000000E+20
 20
-1.000000000000000E+20
 30
-1.000000000000000E+20
  9
$PLIMMIN
 10
0.0
 20
0.0
  9
$PLIMMAX
 10
12.0
 20
9.0
  9
$UNITMODE
 70
     0
  9
$VISRETAIN
 70
     1
  9
$PLINEGEN
 70
     0
  9
$PSLTSCALE
 70
     1
  9
$TREEDEPTH
 70
  3020
  9
$CMLSTYLE
  2
Standard
  9
$CMLJUST
 70
     0
  9
$CMLSCALE
 40
1.0
  9
$PROXYGRAPHICS
 70
     1
  9
$MEASUREMENT
 70
     0
  9
$CELWEIGHT
370
    -1
  9
$ENDCAPS
280
     0
  9
$JOINSTYLE
280
     0
  9
$LWDISPLAY
290
     0
  9
$INSUNITS
 70
     1
  9
$HYPERLINKBASE
  1

  9
$STYLESHEET
  1

  9
$XEDIT
290
     1
  9
$CEPSNTYPE
380
     0
  9
$PSTYLEMODE
290
     1
  9
$FINGERPRINTGUID
  2
{FEBA3243-ED3F-4CC0-A4C4-E82F36CF2DA0}
  9
$VERSIONGUID
  2
{FAEB1C32-E019-11D5-929B-00C0DF256EC4}
  9
$EXTNAMES
290
     1
  9
$PSVPSCALE
 40
0.0
  9
$OLESTARTUP
290
     0
  9
$SORTENTS
280
   127
  9
$INDEXCTL
280
     0
  9
$HIDETEXT
280
     1
  9
$XCLIPFRAME
280
     2
  9
$HALOGAP
280
     0
  9
$OBSCOLOR
 70
   257
  9
$OBSLTYPE
280
     0
  9
$INTERSECTIONDISPLAY
280
     0
  9
$INTERSECTIONCOLOR
 70
   257
  9
$DIMASSOC
280
     2
  9
$PROJECTNAME
  1

  9
$CAMERADISPLAY
290
     0
  9
$LENSLENGTH
 40
50.0
  9
$CAMERAHEIGHT
 40
0.0
  9
$STEPSPERSEC
 40
2.0
  9
$STEPSIZE
 40
6.0
  9
$3DDWFPREC
 40
2.0
  9
$PSOLWIDTH
 40
0.25
  9
$PSOLHEIGHT
 40
4.0
  9
$LOFTANG1
 40
1.570796326794897
  9
$LOFTANG2
 40
1.570796326794897
  9
$LOFTMAG1
 40
0.0
  9
$LOFTMAG2
 40
0.0
  9
$LOFTPARAM
 70
     7
  9
$LOFTNORMALS
280
     1
  9
$LATITUDE
 40
37.795
  9
$LONGITUDE
 40
-122.394
  9
$NORTHDIRECTION
 40
0.0
  9
$TIMEZONE
 70
 -8000
  9
$LIGHTGLYPHDISPLAY
280
     1
  9
$TILEMODELIGHTSYNCH
280
     1
  9
$CMATERIAL
347
44
  9
$SOLIDHIST
280
     0
  9
$SHOWHIST
280
     1
  9
$DWFFRAME
280
     2
  9
$DGNFRAME
280
     2
  9
$REALWORLDSCALE
290
     1
  9
$INTERFERECOLOR
 62
   256
  9
$CSHADOW
280
     0
  9
$SHADOWPLANELOCATION
 40
0.0
  0
ENDSEC
  0
SECTION
  2
CLASSES
  0
CLASS
  1
ACDBDICTIONARYWDFLT
  2
AcDbDictionaryWithDefault
  3
ObjectDBX Classes
 90
        0
 91
        4
280
     0
281
     0
  0
CLASS
  1
VISUALSTYLE
  2
AcDbVisualStyle
  3
ObjectDBX Classes
 90
     4095
 91
        4
280
     0
281
     0
  0
CLASS
  1
MATERIAL
  2
AcDbMaterial
  3
ObjectDBX Classes
 90
     1153
 91
        4
280
     0
281
     0
  0
CLASS
  1
SCALE
  2
AcDbScale
  3
ObjectDBX Classes
 90
     1153
 91
        4
280
     0
281
     0
  0
CLASS
  1
TABLESTYLE
  2
AcDbTableStyle
  3
ObjectDBX Classes
 90
     4095
 91
        4
280
     0
281
     0
  0
CLASS
  1
MLEADERSTYLE
  2
AcDbMLeaderStyle
  3
ACDB_MLEADERSTYLE_CLASS
 90
     4095
 91
        4
280
     0
281
     0
  0
CLASS
  1
SUN
  2
AcDbSun
  3
SCENEOE
 90
     1153
 91
        4
280
     0
281
     0
  0
CLASS
  1
DICTIONARYVAR
  2
AcDbDictionaryVar
  3
ObjectDBX Classes
 90
        0
 91
        4
280
     0
281
     0
  0
CLASS
  1
CELLSTYLEMAP
  2
AcDbCellStyleMap
  3
ObjectDBX Classes
 90
     1152
 91
        4
280
     0
281
     0
  0
ENDSEC
  0
SECTION
  2
TABLES
  0
TABLE
  2
VPORT
  5
8
330
0
100
AcDbSymbolTable
 70
     1
  0
VPORT
  5
29
330
8
100
AcDbSymbolTableRecord
100
AcDbViewportTableRecord
  2
*Active
 70
     0
 10
0.0
 20
0.0
 11
1.0
 21
1.0
 12
0.3757812499999993
 22
0.0037465013273312
 13
0.0
 23
0.0
 14
0.5
 24
0.5
 15
0.5
 25
0.5
 16
0.0
 26
0.0
 36
1.0
 17
0.0
 27
0.0
 37
0.0
 40
15.13298213729224
 41
0.5140489613630059
 42
50.0
 43
0.0
 44
0.0
 50
0.0
 51
0.0
 71
     0
 72
   100
 73
     1
 74
     3
 75
     0
 76
     0
 77
     0
 78
     0
281
     0
 65
     1
110
0.0
120
0.0
130
0.0
111
1.0
121
0.0
131
0.0
112
0.0
122
1.0
132
0.0
 79
     0
146
0.0
348
2F
 60
     3
 61
     5
292
     1
282
     1
141
0.0
142
0.0
 63
   250
361
6D
  0
ENDTAB
  0
TABLE
  2
LTYPE
  5
5
330
0
100
AcDbSymbolTable
 70
     3
  0
LTYPE
  5
14
330
5
100
AcDbSymbolTableRecord
100
AcDbLinetypeTableRecord
  2
ByBlock
 70
     0
  3

 72
    65
 73
     0
 40
0.0
  0
LTYPE
  5
15
330
5
100
AcDbSymbolTableRecord
100
AcDbLinetypeTableRecord
  2
ByLayer
 70
     0
  3

 72
    65
 73
     0
 40
0.0
  0
LTYPE
  5
16
330
5
100
AcDbSymbolTableRecord
100
AcDbLinetypeTableRecord
  2
Continuous
 70
     0
  3
Solid line
 72
    65
 73
     0
 40
0.0
  0
LTYPE
  5
A9
330
5
100
AcDbSymbolTableRecord
100
AcDbLinetypeTableRecord
  2
Dashed
 70
     0
  3

 72
    65
 73
     2
 40
2.0
 49
1.0
 74
     0
 49
-1.0
 74
     0
  0
LTYPE
  5
1A1
330
5
100
AcDbSymbolTableRecord
100
AcDbLinetypeTableRecord
  2
Center
 70
     0
  3

 72
    65
 73
     4
 40
1.5
 49
0.45
 74
     0
 49
-0.5
 74
     0
 49
0.05
 74
     0
 49
-0.5
 74
     0
  0
ENDTAB
  0
TABLE
  2
LAYER
  5
2
330
0
100
AcDbSymbolTable
 70
     7
  0
LAYER
  5
10
330
2
100
AcDbSymbolTableRecord
100
AcDbLayerTableRecord
  2
0
 70
     0
 62
     7
  6
Continuous
370
    -3
390
F
347
46
348
0
  0
LAYER
  5
72
330
2
100
AcDbSymbolTableRecord
100
AcDbLayerTableRecord
  2
AM_6
 70
     0
 62
    -2
  6
Continuous
370
    35
390
F
347
46
348
0
  0
LAYER
  5
AA
330
2
100
AcDbSymbolTableRecord
100
AcDbLayerTableRecord
  2
AM_9
 70
     0
 62
     6
  6
Dashed
370
    25
390
F
347
46
348
0
  0
LAYER
  5
C3
330
2
100
AcDbSymbolTableRecord
100
AcDbLayerTableRecord
  2
AM_5
 70
     0
 62
     3
  6
Continuous
370
    25
390
F
347
46
348
0
  0
LAYER
  5
C8
330
2
100
AcDbSymbolTableRecord
100
AcDbLayerTableRecord
  2
AM_4
 70
     0
 62
     7
  6
Continuous
370
    50
390
F
347
46
348
0
  0
LAYER
  5
1A2
330
2
100
AcDbSymbolTableRecord
100
AcDbLayerTableRecord
  2
AM_7
 70
     0
 62
     7
  6
Center
370
    25
390
F
347
46
348
0
  0
LAYER
  5
25F
330
2
100
AcDbSymbolTableRecord
100
AcDbLayerTableRecord
  2
ConnectionPoints
 70
     0
 62
     7
  6
Continuous
370
    50
390
F
347
46
348
0
  0
ENDTAB
  0
TABLE
  2
STYLE
  5
3
330
0
100
AcDbSymbolTable
 70
     1
  0
STYLE
  5
11
330
3
100
AcDbSymbolTableRecord
100
AcDbTextStyleTableRecord
  2
Standard
 70
     0
 40
0.0
 41
1.0
 50
0.0
 71
     0
 42
0.2
  3
txt
  4

  0
ENDTAB
  0
TABLE
  2
VIEW
  5
6
330
0
100
AcDbSymbolTable
 70
     0
  0
ENDTAB
  0
TABLE
  2
UCS
  5
7
330
0
100
AcDbSymbolTable
 70
     0
  0
ENDTAB
  0
TABLE
  2
APPID
  5
9
330
0
100
AcDbSymbolTable
 70
     1
  0
APPID
  5
12
330
9
100
AcDbSymbolTableRecord
100
AcDbRegAppTableRecord
  2
ACAD
 70
     0
  0
ENDTAB
  0
TABLE
  2
DIMSTYLE
  5
A
330
0
100
AcDbSymbolTable
 70
     1
100
AcDbDimStyleTable
  0
DIMSTYLE
105
27
330
A
100
AcDbSymbolTableRecord
100
AcDbDimStyleTableRecord
  2
Standard
 70
     0
178
     0
340
11
  0
ENDTAB
  0
TABLE
  2
BLOCK_RECORD
  5
1
330
0
100
AcDbSymbolTable
 70
     7
  0
BLOCK_RECORD
  5
1F
330
1
100
AcDbSymbolTableRecord
100
AcDbBlockTableRecord
  2
*Model_Space
340
22
 70
     0
280
     1
281
     0
  0
BLOCK_RECORD
  5
1B
330
1
100
AcDbSymbolTableRecord
100
AcDbBlockTableRecord
  2
*Paper_Space
340
1E
 70
     0
280
     1
281
     0
  0
BLOCK_RECORD
  5
23
330
1
100
AcDbSymbolTableRecord
100
AcDbBlockTableRecord
  2
*Paper_Space0
340
26
 70
     0
280
     1
281
     0
  0
BLOCK_RECORD
  5
6E
330
1
100
AcDbSymbolTableRecord
100
AcDbBlockTableRecord
  2
1_070747_2
340
0
102
{BLKREFS
331
6F
102
}
 70
     0
280
     1
281
     0
  0
BLOCK_RECORD
  5
90
330
1
100
AcDbSymbolTableRecord
100
AcDbBlockTableRecord
  2
2_4_15_16CS2i_1_0_in_070747_2
340
0
102
{BLKREFS
331
91
102
}
 70
     0
280
     1
281
     0
  0
BLOCK_RECORD
  5
E0
330
1
100
AcDbSymbolTableRecord
100
AcDbBlockTableRecord
  2
3_4_15_16CS2i_2_0_in_070747_2
340
0
102
{BLKREFS
331
E1
102
}
 70
     0
280
     1
281
     0
  0
BLOCK_RECORD
  5
129
330
1
100
AcDbSymbolTableRecord
100
AcDbBlockTableRecord
  2
4_070031i_0_in_070747_2
340
0
102
{BLKREFS
331
12A
102
}
 70
     0
280
     1
281
     0
  0
BLOCK_RECORD
  5
1AA
330
1
100
AcDbSymbolTableRecord
100
AcDbBlockTableRecord
  2
5_405015E_Inch_0_in_070747_2
340
0
102
{BLKREFS
331
1AB
102
}
 70
     0
280
     1
281
     0
  0
BLOCK_RECORD
  5
1E3
330
1
100
AcDbSymbolTableRecord
100
AcDbBlockTableRecord
  2
6_070747H_0_in_070747_2
340
0
102
{BLKREFS
331
1E4
102
}
 70
     0
280
     1
281
     0
  0
ENDTAB
  0
ENDSEC
  0
SECTION
  2
BLOCKS
  0
BLOCK
  5
20
330
1F
100
AcDbEntity
  8
0
100
AcDbBlockBegin
  2
*Model_Space
 70
     0
 10
0.0
 20
0.0
 30
0.0
  3
*Model_Space
  1

  0
ENDBLK
  5
21
330
1F
100
AcDbEntity
  8
0
100
AcDbBlockEnd
  0
BLOCK
  5
1C
330
1B
100
AcDbEntity
 67
     1
  8
0
100
AcDbBlockBegin
  2
*Paper_Space
 70
     0
 10
0.0
 20
0.0
 30
0.0
  3
*Paper_Space
  1

  0
ENDBLK
  5
1D
330
1B
100
AcDbEntity
 67
     1
  8
0
100
AcDbBlockEnd
  0
BLOCK
  5
24
330
23
100
AcDbEntity
  8
0
100
AcDbBlockBegin
  2
*Paper_Space0
 70
     0
 10
0.0
 20
0.0
 30
0.0
  3
*Paper_Space0
  1

  0
ENDBLK
  5
25
330
23
100
AcDbEntity
  8
0
100
AcDbBlockEnd
  0
BLOCK
  5
70
330
6E
100
AcDbEntity
  8
0
100
AcDbBlockBegin
  2
1_070747_2
 70
     2
 10
0.0
 20
0.0
 30
0.0
  3
1_070747_2
  1

  0
ATTDEF
  5
73
330
6E
100
AcDbEntity
  8
AM_6
100
AcDbText
 10
9.189062499999999
 20
7.421874999999999
 30
0.0
 40
0.5
  1
S-2000 Piloted Flange Labyrinth Seal
100
AcDbAttributeDefinition
  3

  2
NN
 70
     8
280
     0
  0
ATTDEF
  5
74
330
6E
100
AcDbEntity
  8
AM_6
100
AcDbText
 10
9.189062499999999
 20
6.921874999999999
 30
0.0
 40
0.5
  1
S-2000 Piloted Flange Bearing -Inch
100
AcDbAttributeDefinition
  3

  2
NT
 70
     8
280
     0
  0
ATTDEF
  5
75
330
6E
100
AcDbEntity
  8
AM_6
100
AcDbText
 10
9.189062499999999
 20
6.421874999999999
 30
0.0
 40
0.5
  1
070747
100
AcDbAttributeDefinition
  3

  2
NB
 70
     8
280
     0
  0
ATTDEF
  5
76
330
6E
100
AcDbEntity
  8
AM_6
100
AcDbText
 10
9.189062499999999
 20
5.921874999999999
 30
0.0
 40
0.5
  1
$PN.
100
AcDbAttributeDefinition
  3

  2
NBSYN
 70
     8
280
     0
  0
ATTDEF
  5
77
330
6E
100
AcDbEntity
  8
AM_6
100
AcDbText
 10
9.189062499999999
 20
5.421874999999999
 30
0.0
 40
0.5
  1
070747
100
AcDbAttributeDefinition
  3

  2
LINA
 70
     8
280
     0
  0
ATTDEF
  5
78
330
6E
100
AcDbEntity
  8
AM_6
100
AcDbText
 10
9.189062499999999
 20
4.921874999999999
 30
0.0
 40
0.5
  1
4-15/16
100
AcDbAttributeDefinition
  3

  2
SS
 70
     8
280
     0
  0
ATTDEF
  5
79
330
6E
100
AcDbEntity
  8
AM_6
100
AcDbText
 10
9.189062499999999
 20
4.421874999999999
 30
0.0
 40
0.5
  1
070747
100
AcDbAttributeDefinition
  3

  2
PN
 70
     8
280
     0
  0
ATTDEF
  5
7A
330
6E
100
AcDbEntity
  8
AM_6
100
AcDbText
 10
9.189062499999999
 20
3.921874999999999
 30
0.0
 40
0.5
  1
FC-S2-415LE
100
AcDbAttributeDefinition
  3

  2
DESCRIPTION
 70
     8
280
     0
  0
ATTDEF
  5
7B
330
6E
100
AcDbEntity
  8
AM_6
100
AcDbText
 10
9.189062499999999
 20
3.421874999999999
 30
0.0
 40
0.5
  1
Expansion Type
100
AcDbAttributeDefinition
  3

  2
EF
 70
     8
280
     0
  0
ATTDEF
  5
7C
330
6E
100
AcDbEntity
  8
AM_6
100
AcDbText
 10
9.189062499999999
 20
2.921874999999999
 30
0.0
 40
0.5
  1
Labyrinth Seal
100
AcDbAttributeDefinition
  3

  2
ST
 70
     8
280
     0
  0
ATTDEF
  5
7D
330
6E
100
AcDbEntity
  8
AM_6
100
AcDbText
 10
9.189062499999999
 20
2.421874999999999
 30
0.0
 40
0.5
  1
6-29/32
100
AcDbAttributeDefinition
  3

  2
A
 70
     8
280
     0
  0
ATTDEF
  5
7E
330
6E
100
AcDbEntity
  8
AM_6
100
AcDbText
 10
9.189062499999999
 20
1.921874999999999
 30
0.0
 40
0.5
  1
14-27/32
100
AcDbAttributeDefinition
  3

  2
B
 70
     8
280
     0
  0
ATTDEF
  5
7F
330
6E
100
AcDbEntity
  8
AM_6
100
AcDbText
 10
9.189062499999999
 20
1.421874999999999
 30
0.0
 40
0.5
  1
4-3/8
100
AcDbAttributeDefinition
  3

  2
C
 70
     8
280
     0
  0
ATTDEF
  5
80
330
6E
100
AcDbEntity
  8
AM_6
100
AcDbText
 10
9.189062499999999
 20
0.9218749999999991
 30
0.0
 40
0.5
  1
9-1/64
100
AcDbAttributeDefinition
  3

  2
D
 70
     8
280
     0
  0
ATTDEF
  5
81
330
6E
100
AcDbEntity
  8
AM_6
100
AcDbText
 10
9.189062499999999
 20
0.4218749999999991
 30
0.0
 40
0.5
  1
12-3/4
100
AcDbAttributeDefinition
  3

  2
DD
 70
     8
280
     0
  0
ATTDEF
  5
82
330
6E
100
AcDbEntity
  8
AM_6
100
AcDbText
 10
9.189062499999999
 20
-0.0781250000000009
 30
0.0
 40
0.5
  1
1-45/64
100
AcDbAttributeDefinition
  3

  2
E
 70
     8
280
     0
  0
ATTDEF
  5
83
330
6E
100
AcDbEntity
  8
AM_6
100
AcDbText
 10
9.189062499999999
 20
-0.5781250000000009
 30
0.0
 40
0.5
  1
7/8
100
AcDbAttributeDefinition
  3

  2
F
 70
     8
280
     0
  0
ATTDEF
  5
84
330
6E
100
AcDbEntity
  8
AM_6
100
AcDbText
 10
9.189062499999999
 20
-1.078125000000001
 30
0.0
 40
0.5
  1
3-7/16
100
AcDbAttributeDefinition
  3

  2
G
 70
     8
280
     0
  0
ATTDEF
  5
85
330
6E
100
AcDbEntity
  8
AM_6
100
AcDbText
 10
9.189062499999999
 20
-1.578125000000001
 30
0.0
 40
0.5
  1
1-1/4
100
AcDbAttributeDefinition
  3

  2
H
 70
     8
280
     0
  0
ATTDEF
  5
86
330
6E
100
AcDbEntity
  8
AM_6
100
AcDbText
 10
9.189062499999999
 20
-2.078125000000001
 30
0.0
 40
0.5
  1
11.000
100
AcDbAttributeDefinition
  3

  2
K
 70
     8
280
     0
  0
ATTDEF
  5
87
330
6E
100
AcDbEntity
  8
AM_6
100
AcDbText
 10
9.189062499999999
 20
-2.578125000000001
 30
0.0
 40
0.5
  1
7-29/64
100
AcDbAttributeDefinition
  3

  2
L
 70
     8
280
     0
  0
ATTDEF
  5
88
330
6E
100
AcDbEntity
  8
AM_6
100
AcDbText
 10
9.189062499999999
 20
-3.078125000000001
 30
0.0
 40
0.5
  1
7/8-9
100
AcDbAttributeDefinition
  3

  2
M
 70
     8
280
     0
  0
ATTDEF
  5
89
330
6E
100
AcDbEntity
  8
AM_6
100
AcDbText
 10
9.189062499999999
 20
-3.578125000000001
 30
0.0
 40
0.5
  1
5-55/64
100
AcDbAttributeDefinition
  3

  2
N
 70
     8
280
     0
  0
ATTDEF
  5
8A
330
6E
100
AcDbEntity
  8
AM_6
100
AcDbText
 10
9.189062499999999
 20
-4.078125000000001
 30
0.0
 40
0.5
  1
3-15/32
100
AcDbAttributeDefinition
  3

  2
P
 70
     8
280
     0
  0
ATTDEF
  5
8B
330
6E
100
AcDbEntity
  8
AM_6
100
AcDbText
 10
9.189062499999999
 20
-4.578125000000001
 30
0.0
 40
0.5
  1
2-27/64
100
AcDbAttributeDefinition
  3

  2
Q
 70
     8
280
     0
  0
ATTDEF
  5
8C
330
6E
100
AcDbEntity
  8
AM_6
100
AcDbText
 10
9.189062499999999
 20
-5.078125000000001
 30
0.0
 40
0.5
  1
3/8
100
AcDbAttributeDefinition
  3

  2
X
 70
     8
280
     0
  0
ATTDEF
  5
8D
330
6E
100
AcDbEntity
  8
AM_6
100
AcDbText
 10
9.189062499999999
 20
-5.578125000000001
 30
0.0
 40
0.5
  1
0.036
100
AcDbAttributeDefinition
  3

  2
Y
 70
     8
280
     0
  0
ATTDEF
  5
8E
330
6E
100
AcDbEntity
  8
AM_6
100
AcDbText
 10
9.189062499999999
 20
-6.078125000000001
 30
0.0
 40
0.5
  1
5-27/32
100
AcDbAttributeDefinition
  3

  2
Z
 70
     8
280
     0
  0
ATTDEF
  5
8F
330
6E
100
AcDbEntity
  8
AM_6
100
AcDbText
 10
9.189062499999999
 20
-6.578125000000001
 30
0.0
 40
0.5
  1
baldor
100
AcDbAttributeDefinition
  3

  2
COMPANY
 70
     8
280
     0
  0
INSERT
  5
91
330
6E
100
AcDbEntity
  8
0
100
AcDbBlockReference
  2
2_4_15_16CS2i_1_0_in_070747_2
 10
0.0
 20
0.0
 30
0.0
  0
INSERT
  5
E1
330
6E
100
AcDbEntity
  8
0
100
AcDbBlockReference
  2
3_4_15_16CS2i_2_0_in_070747_2
 10
0.0
 20
0.0
 30
0.0
  0
INSERT
  5
12A
330
6E
100
AcDbEntity
  8
0
100
AcDbBlockReference
  2
4_070031i_0_in_070747_2
 10
0.0
 20
0.0
 30
0.0
  0
INSERT
  5
1AB
330
6E
100
AcDbEntity
  8
0
100
AcDbBlockReference
  2
5_405015E_Inch_0_in_070747_2
 10
0.0
 20
0.0
 30
0.0
  0
INSERT
  5
1E4
330
6E
100
AcDbEntity
  8
0
100
AcDbBlockReference
  2
6_070747H_0_in_070747_2
 10
0.0
 20
0.0
 30
0.0
  0
ENDBLK
  5
71
330
6E
100
AcDbEntity
  8
0
100
AcDbBlockEnd
  0
BLOCK
  5
92
330
90
100
AcDbEntity
  8
0
100
AcDbBlockBegin
  2
2_4_15_16CS2i_1_0_in_070747_2
 70
     2
 10
0.0
 20
0.0
 30
0.0
  3
2_4_15_16CS2i_1_0_in_070747_2
  1

  0
ATTDEF
  5
94
330
90
100
AcDbEntity
  8
AM_6
100
AcDbText
 10
3.1775
 20
3.72656
 30
0.0
 40
0.5
  1
S-2000 Collar -Inch
100
AcDbAttributeDefinition
  3

  2
NN
 70
     8
280
     0
  0
ATTDEF
  5
95
330
90
100
AcDbEntity
  8
AM_6
100
AcDbText
 10
3.1775
 20
3.22656
 30
0.0
 40
0.5
  1
S-2000 Bearings
100
AcDbAttributeDefinition
  3

  2
NT
 70
     8
280
     0
  0
ATTDEF
  5
96
330
90
100
AcDbEntity
  8
AM_6
100
AcDbText
 10
3.1775
 20
2.72656
 30
0.0
 40
0.5
  1
4-15/16CS2i
100
AcDbAttributeDefinition
  3

  2
NB
 70
     8
280
     0
  0
ATTDEF
  5
97
330
90
100
AcDbEntity
  8
AM_6
100
AcDbText
 10
3.1775
 20
2.22656
 30
0.0
 40
0.5
  1
$BORE.CS2i
100
AcDbAttributeDefinition
  3

  2
NBSYN
 70
     8
280
     0
  0
ATTDEF
  5
98
330
90
100
AcDbEntity
  8
AM_6
100
AcDbText
 10
3.1775
 20
1.72656
 30
0.0
 40
0.5
  1
4-15/16CS2i
100
AcDbAttributeDefinition
  3

  2
LINA
 70
     8
280
     0
  0
ATTDEF
  5
99
330
90
100
AcDbEntity
  8
AM_6
100
AcDbText
 10
3.1775
 20
1.22656
 30
0.0
 40
0.5
  1
4-15/16
100
AcDbAttributeDefinition
  3

  2
BORE
 70
     8
280
     0
  0
ATTDEF
  5
9A
330
90
100
AcDbEntity
  8
AM_6
100
AcDbText
 10
3.1775
 20
0.7265599999999997
 30
0.0
 40
0.5
  1
4.937500
100
AcDbAttributeDefinition
  3

  2
BORE1
 70
     8
280
     0
  0
ATTDEF
  5
9B
330
90
100
AcDbEntity
  8
AM_6
100
AcDbText
 10
3.1775
 20
0.2265599999999997
 30
0.0
 40
0.5
  1
7-29/64
100
AcDbAttributeDefinition
  3

  2
L1
 70
     8
280
     0
  0
ATTDEF
  5
9C
330
90
100
AcDbEntity
  8
AM_6
100
AcDbText
 10
3.1775
 20
-0.2734400000000003
 30
0.0
 40
0.5
  1
7.45313
100
AcDbAttributeDefinition
  3

  2
L
 70
     8
280
     0
  0
ATTDEF
  5
9D
330
90
100
AcDbEntity
  8
AM_6
100
AcDbText
 10
3.1775
 20
-0.7734400000000003
 30
0.0
 40
0.5
  1
7.45312
100
AcDbAttributeDefinition
  3

  2
L2
 70
     8
280
     0
  0
ATTDEF
  5
9E
330
90
100
AcDbEntity
  8
AM_6
100
AcDbText
 10
3.1775
 20
-1.27344
 30
0.0
 40
0.5
  1
7.25
100
AcDbAttributeDefinition
  3

  2
A
 70
     8
280
     0
  0
ATTDEF
  5
9F
330
90
100
AcDbEntity
  8
AM_6
100
AcDbText
 10
3.1775
 20
-1.77344
 30
0.0
 40
0.5
  1
3.75
100
AcDbAttributeDefinition
  3

  2
B
 70
     8
280
     0
  0
ATTDEF
  5
A0
330
90
100
AcDbEntity
  8
AM_6
100
AcDbText
 10
3.1775
 20
-2.27344
 30
0.0
 40
0.5
  1
5.79
100
AcDbAttributeDefinition
  3

  2
C
 70
     8
280
     0
  0
ATTDEF
  5
A1
330
90
100
AcDbEntity
  8
AM_6
100
AcDbText
 10
3.1775
 20
-2.77344
 30
0.0
 40
0.5
  1
8.12
100
AcDbAttributeDefinition
  3

  2
D
 70
     8
280
     0
  0
ATTDEF
  5
A2
330
90
100
AcDbEntity
  8
AM_6
100
AcDbText
 10
3.1775
 20
-3.27344
 30
0.0
 40
0.5
  1
0.78
100
AcDbAttributeDefinition
  3

  2
E
 70
     8
280
     0
  0
ATTDEF
  5
A3
330
90
100
AcDbEntity
  8
AM_6
100
AcDbText
 10
3.1775
 20
-3.77344
 30
0.0
 40
0.5
  1
0.620
100
AcDbAttributeDefinition
  3

  2
F
 70
     8
280
     0
  0
ATTDEF
  5
A4
330
90
100
AcDbEntity
  8
AM_6
100
AcDbText
 10
3.1775
 20
-4.273440000000001
 30
0.0
 40
0.5
  1
5/8-11
100
AcDbAttributeDefinition
  3

  2
CS
 70
     8
280
     0
  0
ATTDEF
  5
A5
330
90
100
AcDbEntity
  8
AM_6
100
AcDbText
 10
3.1775
 20
-4.773440000000001
 30
0.0
 40
0.5
  1
0.6250
100
AcDbAttributeDefinition
  3

  2
NDM
 70
     8
280
     0
  0
ATTDEF
  5
A6
330
90
100
AcDbEntity
  8
AM_6
100
AcDbText
 10
3.1775
 20
-5.273440000000001
 30
0.0
 40
0.5
  1
0.5270
100
AcDbAttributeDefinition
  3

  2
KDM
 70
     8
280
     0
  0
ATTDEF
  5
A7
330
90
100
AcDbEntity
  8
AM_6
100
AcDbText
 10
3.1775
 20
-5.773440000000001
 30
0.0
 40
0.5
  1
2
100
AcDbAttributeDefinition
  3

  2
DD
 70
     8
280
     0
  0
ATTDEF
  5
A8
330
90
100
AcDbEntity
  8
AM_6
100
AcDbText
 10
3.1775
 20
-6.273440000000001
 30
0.0
 40
0.5
  1
baldor
100
AcDbAttributeDefinition
  3

  2
COMPANY
 70
     8
280
     0
  0
LINE
  5
AB
330
90
100
AcDbEntity
  8
AM_9
100
AcDbLine
 10
-2.1792
 20
2.902533333333335
 30
0.0
 11
-2.1792
 21
3.677365
 31
0.0
  0
LINE
  5
AC
330
90
100
AcDbEntity
  8
AM_9
100
AcDbLine
 10
-2.7058
 20
3.677365
 30
0.0
 11
-2.7058
 21
2.902533333333335
 31
0.0
  0
LINE
  5
AD
330
90
100
AcDbEntity
  8
AM_9
100
AcDbLine
 10
-2.7058
 20
2.902533333333335
 30
0.0
 11
-2.1792
 21
2.902533333333335
 31
0.0
  0
LINE
  5
AE
330
90
100
AcDbEntity
  8
AM_9
100
AcDbLine
 10
-2.7058
 20
2.902533333333335
 30
0.0
 11
-2.712871793317937
 21
2.895461540015398
 31
0.0
  0
LINE
  5
AF
330
90
100
AcDbEntity
  8
AM_9
100
AcDbLine
 10
-2.171977621946038
 20
2.895310955279372
 30
0.0
 11
-2.1792
 21
2.902533333333335
 31
0.0
  0
LINE
  5
B0
330
90
100
AcDbEntity
  8
AM_9
100
AcDbLine
 10
-2.7058
 20
3.677365
 30
0.0
 11
-2.1792
 21
3.677365
 31
0.0
  0
LINE
  5
B1
330
90
100
AcDbEntity
  8
AM_9
100
AcDbLine
 10
-2.1792
 20
3.677365
 30
0.0
 11
-2.163270503998408
 21
3.693294496001593
 31
0.0
  0
LINE
  5
B2
330
90
100
AcDbEntity
  8
AM_9
100
AcDbLine
 10
-2.754689603281395
 20
3.726254603281395
 30
0.0
 11
-2.7058
 21
3.677365
 31
0.0
  0
LWPOLYLINE
  5
B3
330
90
100
AcDbEntity
  8
AM_9
100
AcDbPolyline
 90
       38
 70
     0
 43
0.0
 10
-2.240029807230671
 20
1.04952567694827
 10
-2.216115678513709
 20
1.080118077903639
 10
-2.196727261113207
 20
1.114095711949449
 10
-2.18111161704607
 20
1.155576491865165
 10
-2.172814363338735
 20
1.199720069660926
 10
-2.172539756346837
 20
1.244126751852358
 10
-2.180621151585503
 20
1.288848088033351
 10
-2.196559984792172
 20
1.330438805377415
 10
-2.220913645596692
 20
1.369834047468045
 10
-2.251116775602561
 20
1.403069248866439
 10
-2.288623945135252
 20
1.431836243734126
 10
-2.328347260419629
 20
1.452678000611975
 10
-2.373101304475706
 20
1.467481913859241
 10
-2.416338724184523
 20
1.474579428891888
 10
-2.46171679771286
 20
1.475112037733294
 10
-2.503772208332565
 20
1.469326789222844
 10
-2.545277060132174
 20
1.457229492913795
 10
-2.58315203010738
 20
1.439706394887067
 10
-2.618191758131179
 20
1.41642079610551
 10
-2.648935382635936
 20
1.387988365730463
 10
-2.674770348290475
 20
1.354558909456806
 10
-2.694651906473676
 20
1.316803137442961
 10
-2.70775703239843
 20
1.27528926844203
 10
-2.713195213263096
 20
1.23170657734476
 10
-2.710523533481696
 20
1.186316162771229
 10
-2.699748007924009
 20
1.142261667243649
 10
-2.680454209206105
 20
1.098969056863836
 10
-2.654459562803598
 20
1.060606274268844
 10
-2.620668665346456
 20
1.025786553407621
 10
-2.583368375107466
 20
0.9987231549157122
 10
-2.540195583472499
 20
0.9775544853085028
 10
-2.49747582396973
 20
0.9649850979544643
 10
-2.451671897729926
 20
0.9595038412535846
 10
-2.408852850521704
 20
0.9614467511029554
 10
-2.365765204321846
 20
0.9704369822404396
 10
-2.326249728480419
 20
0.985505505308534
 10
-2.288864794538955
 20
1.006930096792756
 10
-2.240029807230671
 20
1.04952567694827
  0
LINE
  5
B4
330
90
100
AcDbEntity
  8
AM_9
100
AcDbLine
 10
-3.0625
 20
-2.895
 30
0.0
 11
-1.8225
 21
-2.895
 31
0.0
  0
LINE
  5
B5
330
90
100
AcDbEntity
  8
AM_9
100
AcDbLine
 10
-1.8225
 20
2.895
 30
0.0
 11
-2.172363485025213
 21
2.895
 31
0.0
  0
LINE
  5
B6
330
90
100
AcDbEntity
  8
AM_9
100
AcDbLine
 10
-2.712302228578878
 20
2.895
 30
0.0
 11
-3.0625
 21
2.895
 31
0.0
  0
LWPOLYLINE
  5
B7
330
90
100
AcDbEntity
  8
AM_9
100
AcDbPolyline
 90
       21
 70
     0
 43
0.0
 10
-2.713333333333314
 20
2.894999999999998
 10
-2.712527761172808
 20
2.894913875293182
 10
-2.704855964910271
 20
2.894138483351734
 10
-2.688908416621112
 20
2.892588652609168
 10
-2.665178465270158
 20
2.890464056185083
 10
-2.634669855146209
 20
2.888042947915256
 10
-2.597923992568245
 20
2.885593002185899
 10
-2.557637138538641
 20
2.883503930484797
 10
-2.513652755146136
 20
2.881923473296767
 10
-2.469743589628993
 20
2.881097461514218
 10
-2.425013504108304
 20
2.881007655449107
 10
-2.382315192138756
 20
2.881650749005179
 10
-2.341292744831403
 20
2.882920043830845
 10
-2.302837094874623
 20
2.884702549012526
 10
-2.268117058241408
 20
2.886792439728302
 10
-2.236844565575436
 20
2.889069380361667
 10
-2.211147608219334
 20
2.891216819911405
 10
-2.190810037203872
 20
2.893090859321414
 10
-2.177620624592367
 20
2.894392121315764
 10
-2.171871849162958
 20
2.894975784932748
 10
-2.17166666666688
 20
2.894999999999978
  0
ELLIPSE
  5
B8
330
90
100
AcDbEntity
  8
AM_9
100
AcDbEllipse
 10
-2.442499999999996
 20
1.226663591977772
 30
0.0
 11
0.2633000000000036
 21
0.0
 31
0.0
210
0.0
220
0.0
230
1.0
 40
0.9063077870366482
 41
2.385452750858543
 42
6.283185307179586
  0
LINE
  5
B9
330
90
100
AcDbEntity
  8
AM_9
100
AcDbLine
 10
-2.1792
 20
1.226663591977772
 30
0.0
 11
-2.1792
 21
1.554121604086087
 31
0.0
  0
LINE
  5
BA
330
90
100
AcDbEntity
  8
AM_9
100
AcDbLine
 10
-2.7058
 20
1.554121604086087
 30
0.0
 11
-2.7058
 21
1.226663591977772
 31
0.0
  0
ELLIPSE
  5
BB
330
90
100
AcDbEntity
  8
AM_9
100
AcDbEllipse
 10
-2.442499999999995
 20
1.226663591977775
 30
0.0
 11
0.2632999999999956
 21
0.0
 31
0.0
210
0.0
220
0.0
230
1.0
 40
0.9063077870366485
 41
0.0
 42
0.7561399027312592
  0
LINE
  5
BC
330
90
100
AcDbEntity
  8
AM_9
100
AcDbLine
 10
-1.939269802555168
 20
-3.549104761904762
 30
0.0
 11
-1.8225
 21
-3.549104761904762
 31
0.0
  0
LINE
  5
BD
330
90
100
AcDbEntity
  8
AM_9
100
AcDbLine
 10
-1.8225
 20
3.549104761904762
 30
0.0
 11
-1.939269802555168
 21
3.549104761904762
 31
0.0
  0
LINE
  5
BE
330
90
100
AcDbEntity
  8
AM_9
100
AcDbLine
 10
-1.8225
 20
3.549104761904762
 30
0.0
 11
-1.8225
 21
-3.549104761904762
 31
0.0
  0
LINE
  5
BF
330
90
100
AcDbEntity
  8
AM_9
100
AcDbLine
 10
-1.939269802555168
 20
3.549104761904762
 30
0.0
 11
-1.953125
 21
3.562959959349594
 31
0.0
  0
LINE
  5
C0
330
90
100
AcDbEntity
  8
AM_9
100
AcDbLine
 10
-1.953125
 20
-3.562959959349594
 30
0.0
 11
-1.939269802555168
 21
-3.549104761904762
 31
0.0
  0
LINE
  5
C1
330
90
100
AcDbEntity
  8
AM_9
100
AcDbLine
 10
-1.939269802555168
 20
3.549104761904762
 30
0.0
 11
-1.939269802555168
 21
-3.549104761904762
 31
0.0
  0
LINE
  5
C2
330
90
100
AcDbEntity
  8
AM_9
100
AcDbLine
 10
-2.182476351686617
 20
1.422422438078714
 30
0.0
 11
-2.182476351686617
 21
1.724256020948545
 31
0.0
  0
LINE
  5
C4
330
90
100
AcDbEntity
  8
AM_5
100
AcDbLine
 10
-2.755
 20
3.72656
 30
0.0
 11
-2.755
 21
2.895
 31
0.0
  0
LINE
  5
C5
330
90
100
AcDbEntity
  8
AM_5
100
AcDbLine
 10
-2.59875
 20
2.853333333333333
 30
0.0
 11
-2.755
 21
2.853333333333333
 31
0.0
  0
LINE
  5
C6
330
90
100
AcDbEntity
  8
AM_5
100
AcDbLine
 10
-2.13
 20
3.635668292682927
 30
0.0
 11
-2.13
 21
2.895
 31
0.0
  0
LINE
  5
C7
330
90
100
AcDbEntity
  8
AM_5
100
AcDbLine
 10
-2.28625
 20
2.853333333333333
 30
0.0
 11
-2.13
 21
2.853333333333333
 31
0.0
  0
ELLIPSE
  5
C9
330
90
100
AcDbEntity
  8
AM_4
100
AcDbEllipse
 10
-2.4425
 20
1.226663591977774
 30
0.0
 11
0.2632999999999996
 21
0.0
 31
0.0
210
0.0
220
0.0
230
1.0
 40
0.9063077870366442
 41
1.570796326794897
 42
2.385452750858538
  0
ELLIPSE
  5
CA
330
90
100
AcDbEntity
  8
AM_4
100
AcDbEllipse
 10
-2.442499999999999
 20
1.226663591977775
 30
0.0
 11
0.2632999999999988
 21
0.0
 31
0.0
210
0.0
220
0.0
230
1.0
 40
0.906307787036643
 41
0.7561399027312534
 42
1.570796326794897
  0
LINE
  5
CB
330
90
100
AcDbEntity
  8
AM_4
100
AcDbLine
 10
-1.953125
 20
3.562959959349594
 30
0.0
 11
-2.025833333333333
 21
3.635668292682927
 31
0.0
  0
LINE
  5
CC
330
90
100
AcDbEntity
  8
AM_4
100
AcDbLine
 10
-2.025833333333333
 20
-3.635668292682927
 30
0.0
 11
-1.953125
 21
-3.562959959349594
 31
0.0
  0
LINE
  5
CD
330
90
100
AcDbEntity
  8
AM_4
100
AcDbLine
 10
-2.13
 20
-3.635668292682927
 30
0.0
 11
-2.025833333333333
 21
-3.635668292682927
 31
0.0
  0
LINE
  5
CE
330
90
100
AcDbEntity
  8
AM_4
100
AcDbLine
 10
-2.025833333333333
 20
3.635668292682927
 30
0.0
 11
-2.13
 21
3.635668292682927
 31
0.0
  0
LINE
  5
CF
330
90
100
AcDbEntity
  8
AM_4
100
AcDbLine
 10
-2.025833333333333
 20
3.635668292682927
 30
0.0
 11
-2.025833333333333
 21
-3.635668292682927
 31
0.0
  0
LWPOLYLINE
  5
D0
330
90
100
AcDbEntity
  8
AM_4
100
AcDbPolyline
 90
       32
 70
     0
 43
0.0
 10
-2.182476351686617
 20
1.422422438078714
 10
-2.19676264146561
 20
1.404862764853679
 10
-2.227865812293523
 20
1.374416444330256
 10
-2.264272192491933
 20
1.347898062743184
 10
-2.309019224188829
 20
1.324612762067495
 10
-2.358543531318455
 20
1.307953224110775
 10
-2.410496042167943
 20
1.299047691479655
 10
-2.464787669316745
 20
1.298280762820609
 10
-2.517819166306834
 20
1.305895139715437
 10
-2.570207422501931
 20
1.322217429386246
 10
-2.617297197545256
 20
1.345787229263405
 10
-2.660617346028298
 20
1.377408839219334
 10
-2.69544950443918
 20
1.413372778866876
 10
-2.723836160849968
 20
1.455511903006674
 10
-2.742460217857034
 20
1.49823090120493
 10
-2.753032749827387
 20
1.544409760613541
 10
-2.7546176853488
 20
1.588264329648751
 10
-2.747793971189458
 20
1.63274538849989
 10
-2.733399447845523
 20
1.673613399852675
 10
-2.711097313005974
 20
1.712639599816161
 10
-2.682205267825574
 20
1.747387508349662
 10
-2.64641248348441
 20
1.778196939608936
 10
-2.605044652568406
 20
1.803636615067893
 10
-2.558298207540117
 20
1.823316844069155
 10
-2.508066240020552
 20
1.836174331858169
 10
-2.454650048013778
 20
1.841817362792303
 10
-2.401210572639698
 20
1.839715459567343
 10
-2.347423934860027
 20
1.829569175074238
 10
-2.297688560421189
 20
1.812088974375187
 10
-2.250744322518478
 20
1.786614884785781
 10
-2.214204259336613
 20
1.758349076650177
 10
-2.182476351686581
 20
1.724256020948545
  0
LWPOLYLINE
  5
D1
330
90
100
AcDbEntity
  8
AM_4
100
AcDbPolyline
 90
       17
 70
     0
 43
0.0
 10
-2.182476351686618
 20
3.722837775711136
 10
-2.211468905492385
 20
3.721072040215132
 10
-2.245457075699061
 20
3.719264523836288
 10
-2.288389589864926
 20
3.717393522673066
 10
-2.335309988617497
 20
3.71586539748397
 10
-2.386801729826683
 20
3.71482590751975
 10
-2.43980027035527
 20
3.71443589867547
 10
-2.493962807896558
 20
3.714769811985904
 10
-2.546675912554227
 20
3.715786111352573
 10
-2.595751747087484
 20
3.717357799481761
 10
-2.641764140058868
 20
3.719373887414285
 10
-2.679890526596647
 20
3.72144107121952
 10
-2.712114364564498
 20
3.723467649845764
 10
-2.734922625927333
 20
3.72505496250231
 10
-2.749416917773467
 20
3.726132239475872
 10
-2.754867349760161
 20
3.726547974569801
 10
-2.754994999999925
 20
3.726559999999994
  0
LINE
  5
D2
330
90
100
AcDbEntity
  8
AM_4
100
AcDbLine
 10
-2.855833333333333
 20
-3.72656
 30
0.0
 11
-2.182476351686617
 21
-3.72656
 31
0.0
  0
LINE
  5
D3
330
90
100
AcDbEntity
  8
AM_4
100
AcDbLine
 10
-2.754428765731908
 20
3.72656
 30
0.0
 11
-2.855833333333333
 21
3.72656
 31
0.0
  0
LINE
  5
D4
330
90
100
AcDbEntity
  8
AM_4
100
AcDbLine
 10
-3.0625
 20
3.519893333333334
 30
0.0
 11
-3.0625
 21
-3.519893333333334
 31
0.0
  0
ARC
  5
D5
330
90
100
AcDbEntity
  8
AM_4
100
AcDbCircle
 10
-2.855833333333333
 20
-3.519893333333333
 30
0.0
 40
0.206666666666667
100
AcDbArc
 50
180.0
 51
270.0
  0
ARC
  5
D6
330
90
100
AcDbEntity
  8
AM_4
100
AcDbCircle
 10
-2.855833333333333
 20
3.519893333333333
 30
0.0
 40
0.206666666666667
100
AcDbArc
 50
90.0
 51
180.0
  0
LINE
  5
D7
330
90
100
AcDbEntity
  8
AM_4
100
AcDbLine
 10
-2.855833333333333
 20
3.72656
 30
0.0
 11
-2.855833333333333
 21
-3.72656
 31
0.0
  0
LINE
  5
D8
330
90
100
AcDbEntity
  8
AM_4
100
AcDbLine
 10
-2.182476351686617
 20
3.722837775711137
 30
0.0
 11
-2.182476351686581
 21
1.724256020948545
 31
0.0
  0
LWPOLYLINE
  5
D9
330
90
100
AcDbEntity
  8
AM_4
100
AcDbPolyline
 90
        6
 70
     0
 43
0.0
 10
-2.182476351686581
 20
1.724256020948545
 10
-2.169163133615147
 20
1.647773824858631
 10
-2.163357556053875
 20
1.57098191183146
 10
-2.165956799751792
 20
1.506586289613776
 10
-2.175990878035083
 20
1.446668165601062
 10
-2.182476351686617
 20
1.422422438078714
  0
LINE
  5
DA
330
90
100
AcDbEntity
  8
AM_4
100
AcDbLine
 10
-2.182476351686617
 20
1.422422438078714
 30
0.0
 11
-2.182476351686617
 21
-3.72656
 31
0.0
  0
LINE
  5
DB
330
90
100
AcDbEntity
  8
AM_4
100
AcDbLine
 10
-2.13
 20
3.635668292682927
 30
0.0
 11
-2.163270503998408
 21
3.693294496001592
 31
0.0
  0
LINE
  5
DC
330
90
100
AcDbEntity
  8
AM_4
100
AcDbLine
 10
-2.182476351686617
 20
-3.72656
 30
0.0
 11
-2.13
 21
-3.635668292682927
 31
0.0
  0
LINE
  5
DD
330
90
100
AcDbEntity
  8
AM_4
100
AcDbLine
 10
-2.163270503998425
 20
3.69329449600162
 30
0.0
 11
-2.182476351686617
 21
3.722837775711137
 31
0.0
  0
LINE
  5
DE
330
90
100
AcDbEntity
  8
AM_4
100
AcDbLine
 10
-2.13
 20
3.635668292682927
 30
0.0
 11
-2.13
 21
-3.635668292682927
 31
0.0
  0
ELLIPSE
  5
DF
330
90
100
AcDbEntity
  8
AM_4
100
AcDbEllipse
 10
-2.4425
 20
1.554121604086087
 30
0.0
 11
0.2633000000000001
 21
0.0
 31
0.0
210
0.0
220
0.0
230
1.0
 40
0.9063077870366502
 41
0.0
 42
6.283185307179586
  0
ENDBLK
  5
93
330
90
100
AcDbEntity
  8
0
100
AcDbBlockEnd
  0
BLOCK
  5
E2
330
E0
100
AcDbEntity
  8
0
100
AcDbBlockBegin
  2
3_4_15_16CS2i_2_0_in_070747_2
 70
     2
 10
0.0
 20
0.0
 30
0.0
  3
3_4_15_16CS2i_2_0_in_070747_2
  1

  0
ATTDEF
  5
E4
330
E0
100
AcDbEntity
  8
AM_6
100
AcDbText
 10
8.84375
 20
3.726560000000001
 30
0.0
 40
0.5
  1
S-2000 Collar -Inch
100
AcDbAttributeDefinition
  3

  2
NN
 70
     8
280
     0
  0
ATTDEF
  5
E5
330
E0
100
AcDbEntity
  8
AM_6
100
AcDbText
 10
8.84375
 20
3.226560000000001
 30
0.0
 40
0.5
  1
S-2000 Bearings
100
AcDbAttributeDefinition
  3

  2
NT
 70
     8
280
     0
  0
ATTDEF
  5
E6
330
E0
100
AcDbEntity
  8
AM_6
100
AcDbText
 10
8.84375
 20
2.726560000000001
 30
0.0
 40
0.5
  1
4-15/16CS2i
100
AcDbAttributeDefinition
  3

  2
NB
 70
     8
280
     0
  0
ATTDEF
  5
E7
330
E0
100
AcDbEntity
  8
AM_6
100
AcDbText
 10
8.84375
 20
2.226560000000001
 30
0.0
 40
0.5
  1
$BORE.CS2i
100
AcDbAttributeDefinition
  3

  2
NBSYN
 70
     8
280
     0
  0
ATTDEF
  5
E8
330
E0
100
AcDbEntity
  8
AM_6
100
AcDbText
 10
8.84375
 20
1.726560000000001
 30
0.0
 40
0.5
  1
4-15/16CS2i
100
AcDbAttributeDefinition
  3

  2
LINA
 70
     8
280
     0
  0
ATTDEF
  5
E9
330
E0
100
AcDbEntity
  8
AM_6
100
AcDbText
 10
8.84375
 20
1.226560000000001
 30
0.0
 40
0.5
  1
4-15/16
100
AcDbAttributeDefinition
  3

  2
BORE
 70
     8
280
     0
  0
ATTDEF
  5
EA
330
E0
100
AcDbEntity
  8
AM_6
100
AcDbText
 10
8.84375
 20
0.7265600000000005
 30
0.0
 40
0.5
  1
4.937500
100
AcDbAttributeDefinition
  3

  2
BORE1
 70
     8
280
     0
  0
ATTDEF
  5
EB
330
E0
100
AcDbEntity
  8
AM_6
100
AcDbText
 10
8.84375
 20
0.2265600000000005
 30
0.0
 40
0.5
  1
7-29/64
100
AcDbAttributeDefinition
  3

  2
L1
 70
     8
280
     0
  0
ATTDEF
  5
EC
330
E0
100
AcDbEntity
  8
AM_6
100
AcDbText
 10
8.84375
 20
-0.2734399999999995
 30
0.0
 40
0.5
  1
7.45313
100
AcDbAttributeDefinition
  3

  2
L
 70
     8
280
     0
  0
ATTDEF
  5
ED
330
E0
100
AcDbEntity
  8
AM_6
100
AcDbText
 10
8.84375
 20
-0.7734399999999995
 30
0.0
 40
0.5
  1
7.45312
100
AcDbAttributeDefinition
  3

  2
L2
 70
     8
280
     0
  0
ATTDEF
  5
EE
330
E0
100
AcDbEntity
  8
AM_6
100
AcDbText
 10
8.84375
 20
-1.273439999999999
 30
0.0
 40
0.5
  1
7.25
100
AcDbAttributeDefinition
  3

  2
A
 70
     8
280
     0
  0
ATTDEF
  5
EF
330
E0
100
AcDbEntity
  8
AM_6
100
AcDbText
 10
8.84375
 20
-1.773439999999999
 30
0.0
 40
0.5
  1
3.75
100
AcDbAttributeDefinition
  3

  2
B
 70
     8
280
     0
  0
ATTDEF
  5
F0
330
E0
100
AcDbEntity
  8
AM_6
100
AcDbText
 10
8.84375
 20
-2.273439999999999
 30
0.0
 40
0.5
  1
5.79
100
AcDbAttributeDefinition
  3

  2
C
 70
     8
280
     0
  0
ATTDEF
  5
F1
330
E0
100
AcDbEntity
  8
AM_6
100
AcDbText
 10
8.84375
 20
-2.773439999999999
 30
0.0
 40
0.5
  1
8.12
100
AcDbAttributeDefinition
  3

  2
D
 70
     8
280
     0
  0
ATTDEF
  5
F2
330
E0
100
AcDbEntity
  8
AM_6
100
AcDbText
 10
8.84375
 20
-3.273439999999999
 30
0.0
 40
0.5
  1
0.78
100
AcDbAttributeDefinition
  3

  2
E
 70
     8
280
     0
  0
ATTDEF
  5
F3
330
E0
100
AcDbEntity
  8
AM_6
100
AcDbText
 10
8.84375
 20
-3.773439999999999
 30
0.0
 40
0.5
  1
0.620
100
AcDbAttributeDefinition
  3

  2
F
 70
     8
280
     0
  0
ATTDEF
  5
F4
330
E0
100
AcDbEntity
  8
AM_6
100
AcDbText
 10
8.84375
 20
-4.273439999999999
 30
0.0
 40
0.5
  1
5/8-11
100
AcDbAttributeDefinition
  3

  2
CS
 70
     8
280
     0
  0
ATTDEF
  5
F5
330
E0
100
AcDbEntity
  8
AM_6
100
AcDbText
 10
8.84375
 20
-4.773439999999999
 30
0.0
 40
0.5
  1
0.6250
100
AcDbAttributeDefinition
  3

  2
NDM
 70
     8
280
     0
  0
ATTDEF
  5
F6
330
E0
100
AcDbEntity
  8
AM_6
100
AcDbText
 10
8.84375
 20
-5.273439999999999
 30
0.0
 40
0.5
  1
0.5270
100
AcDbAttributeDefinition
  3

  2
KDM
 70
     8
280
     0
  0
ATTDEF
  5
F7
330
E0
100
AcDbEntity
  8
AM_6
100
AcDbText
 10
8.84375
 20
-5.773439999999999
 30
0.0
 40
0.5
  1
2
100
AcDbAttributeDefinition
  3

  2
DD
 70
     8
280
     0
  0
ATTDEF
  5
F8
330
E0
100
AcDbEntity
  8
AM_6
100
AcDbText
 10
8.84375
 20
-6.273439999999999
 30
0.0
 40
0.5
  1
baldor
100
AcDbAttributeDefinition
  3

  2
COMPANY
 70
     8
280
     0
  0
LINE
  5
F9
330
E0
100
AcDbEntity
  8
AM_9
100
AcDbLine
 10
2.96045
 20
2.902533333333334
 30
0.0
 11
2.953365614886546
 21
2.895448948219881
 31
0.0
  0
LINE
  5
FA
330
E0
100
AcDbEntity
  8
AM_9
100
AcDbLine
 10
3.494303911892923
 20
2.895279421440411
 30
0.0
 11
3.48705
 21
2.902533333333334
 31
0.0
  0
LINE
  5
FB
330
E0
100
AcDbEntity
  8
AM_9
100
AcDbLine
 10
3.48705
 20
3.677364999999999
 30
0.0
 11
3.535781547066711
 21
3.726096547066711
 31
0.0
  0
LINE
  5
FC
330
E0
100
AcDbEntity
  8
AM_9
100
AcDbLine
 10
2.944520503998408
 20
3.693294496001592
 30
0.0
 11
2.96045
 21
3.677364999999999
 31
0.0
  0
LINE
  5
FD
330
E0
100
AcDbEntity
  8
AM_9
100
AcDbLine
 10
2.96045
 20
3.677364999999999
 30
0.0
 11
3.48705
 21
3.677364999999999
 31
0.0
  0
LINE
  5
FE
330
E0
100
AcDbEntity
  8
AM_9
100
AcDbLine
 10
2.96045
 20
2.902533333333334
 30
0.0
 11
3.48705
 21
2.902533333333334
 31
0.0
  0
LINE
  5
FF
330
E0
100
AcDbEntity
  8
AM_9
100
AcDbLine
 10
3.48705
 20
2.902533333333334
 30
0.0
 11
3.48705
 21
3.677364999999999
 31
0.0
  0
LINE
  5
100
330
E0
100
AcDbEntity
  8
AM_9
100
AcDbLine
 10
2.96045
 20
3.677364999999999
 30
0.0
 11
2.96045
 21
2.902533333333334
 31
0.0
  0
ELLIPSE
  5
101
330
E0
100
AcDbEntity
  8
AM_9
100
AcDbEllipse
 10
3.223749999999996
 20
1.226663591977775
 30
0.0
 11
0.2632999999999965
 21
0.0
 31
0.0
210
0.0
220
0.0
230
1.0
 40
0.9063077870366473
 41
2.385452750858537
 42
3.141592653589793
  0
ELLIPSE
  5
102
330
E0
100
AcDbEntity
  8
AM_9
100
AcDbEllipse
 10
3.223750000000001
 20
1.226663591977775
 30
0.0
 11
0.2632999999999988
 21
0.0
 31
0.0
210
0.0
220
0.0
230
1.0
 40
0.9063077870366473
 41
3.141592653589793
 42
7.039325209910836
  0
LINE
  5
103
330
E0
100
AcDbEntity
  8
AM_9
100
AcDbLine
 10
3.48705
 20
1.226663591977772
 30
0.0
 11
3.48705
 21
1.554121604086087
 31
0.0
  0
LINE
  5
104
330
E0
100
AcDbEntity
  8
AM_9
100
AcDbLine
 10
2.96045
 20
1.554121604086087
 30
0.0
 11
2.96045
 21
1.226663591977772
 31
0.0
  0
LWPOLYLINE
  5
105
330
E0
100
AcDbEntity
  8
AM_9
100
AcDbPolyline
 90
       39
 70
     0
 43
0.0
 10
3.030339506127451
 20
1.03997572884465
 10
3.060587626333885
 20
1.013756126533556
 10
3.094677983491366
 20
0.9919857206413987
 10
3.136617830314798
 20
0.9737653853737218
 10
3.181287771137256
 20
0.9626975714714859
 10
3.22521870248694
 20
0.9593831552669646
 10
3.269106558953874
 20
0.9631728987113417
 10
3.310725219402049
 20
0.9737037661585525
 10
3.349967420264186
 20
0.9904694186335552
 10
3.386464833398673
 20
1.013428534864538
 10
3.418614339861982
 20
1.041447253447668
 10
3.44679599490377
 20
1.075302216036002
 10
3.46885223825272
 20
1.112699933857052
 10
3.484826283557959
 20
1.154562264815502
 10
3.493258192293041
 20
1.197949465673027
 10
3.493777761172808
 20
1.242981823513757
 10
3.486105964910271
 20
1.287120865857245
 10
3.470158416621112
 20
1.329417694298896
 10
3.446428465270158
 20
1.368380672238592
 10
3.415919855146208
 20
1.402299125775351
 10
3.379173992568246
 20
1.430847085301231
 10
3.338887138538641
 20
1.452223613865363
 10
3.294902755146136
 20
1.467051477639642
 10
3.250993589628992
 20
1.47445404689962
 10
3.206263504108304
 20
1.475219229913084
 10
3.163565192138756
 20
1.469531453705613
 10
3.122542744831403
 20
1.457813252181811
 10
3.084087094874622
 20
1.440231219027287
 10
3.049367058241407
 20
1.417441591444169
 10
3.018094565575436
 20
1.388802847240329
 10
2.992397608219333
 20
1.355972626113647
 10
2.972060037203872
 20
1.317838536847395
 10
2.958870624592366
 20
1.276988091104127
 10
2.953121849162958
 20
1.232849155676267
 10
2.955461937046943
 20
1.188105783331458
 10
2.966157483448835
 20
1.143364831974092
 10
2.984890554507452
 20
1.100604243281964
 10
3.005350043695784
 20
1.0688888419845
 10
3.030339506127452
 20
1.03997572884465
  0
LINE
  5
106
330
E0
100
AcDbEntity
  8
AM_9
100
AcDbLine
 10
3.84375
 20
2.895
 30
0.0
 11
3.493959412852183
 21
2.895
 31
0.0
  0
LINE
  5
107
330
E0
100
AcDbEntity
  8
AM_9
100
AcDbLine
 10
2.953917704025295
 20
2.895
 30
0.0
 11
2.60375
 21
2.895
 31
0.0
  0
LINE
  5
108
330
E0
100
AcDbEntity
  8
AM_9
100
AcDbLine
 10
2.60375
 20
-2.895
 30
0.0
 11
3.84375
 21
-2.895
 31
0.0
  0
LWPOLYLINE
  5
109
330
E0
100
AcDbEntity
  8
AM_9
100
AcDbPolyline
 90
       21
 70
     0
 43
0.0
 10
2.952916666666672
 20
2.895
 10
2.953789756346837
 20
2.894910032871514
 10
2.961871151585503
 20
2.894090793932889
 10
2.977809984792172
 20
2.892546603682884
 10
3.002163645596691
 20
2.890371286383069
 10
3.032366775602561
 20
2.887984134531554
 10
3.069873945135252
 20
2.885501115567872
 10
3.109597260419628
 20
2.883456074130255
 10
3.154351304475707
 20
2.881876025483995
 10
3.197588724184523
 20
2.881080574871265
 10
3.24296679771286
 20
2.881019886386138
 10
3.285022208332565
 20
2.881671635144502
 10
3.326527060132174
 20
2.882981622133737
 10
3.364402030107379
 20
2.884753378076955
 10
3.399441758131178
 20
2.8868802870666
 10
3.430185382635935
 20
2.8891307034887
 10
3.456020348290476
 20
2.891298141518851
 10
3.475901906473676
 20
2.893137113140482
 10
3.489007032398429
 20
2.894430285737128
 10
3.494445213263096
 20
2.894985748548663
 10
3.494583333333126
 20
2.894999999999979
  0
LINE
  5
10A
330
E0
100
AcDbEntity
  8
AM_9
100
AcDbLine
 10
2.963726351686616
 20
1.724256020948594
 30
0.0
 11
2.963726351686616
 21
1.422422438078715
 31
0.0
  0
LINE
  5
10B
330
E0
100
AcDbEntity
  8
AM_5
100
AcDbLine
 10
3.53625
 20
3.726560000000001
 30
0.0
 11
3.53625
 21
2.895
 31
0.0
  0
LINE
  5
10C
330
E0
100
AcDbEntity
  8
AM_5
100
AcDbLine
 10
3.379999999999999
 20
2.853333333333333
 30
0.0
 11
3.53625
 21
2.853333333333333
 31
0.0
  0
LINE
  5
10D
330
E0
100
AcDbEntity
  8
AM_5
100
AcDbLine
 10
2.91125
 20
3.635668292682927
 30
0.0
 11
2.91125
 21
2.895
 31
0.0
  0
LINE
  5
10E
330
E0
100
AcDbEntity
  8
AM_5
100
AcDbLine
 10
3.0675
 20
2.853333333333333
 30
0.0
 11
2.91125
 21
2.853333333333333
 31
0.0
  0
ELLIPSE
  5
10F
330
E0
100
AcDbEntity
  8
AM_4
100
AcDbEllipse
 10
3.22375
 20
1.226663591977771
 30
0.0
 11
0.263300000000001
 21
0.0
 31
0.0
210
0.0
220
0.0
230
1.0
 40
0.9063077870366496
 41
0.7561399027312588
 42
2.385452750858535
  0
LINE
  5
110
330
E0
100
AcDbEntity
  8
AM_4
100
AcDbLine
 10
2.60375
 20
-3.549104761904762
 30
0.0
 11
2.60375
 21
3.549104761904762
 31
0.0
  0
LINE
  5
111
330
E0
100
AcDbEntity
  8
AM_4
100
AcDbLine
 10
2.720519802555168
 20
3.549104761904762
 30
0.0
 11
2.60375
 21
3.549104761904762
 31
0.0
  0
LINE
  5
112
330
E0
100
AcDbEntity
  8
AM_4
100
AcDbLine
 10
2.60375
 20
-3.549104761904762
 30
0.0
 11
2.720519802555168
 21
-3.549104761904762
 31
0.0
  0
LINE
  5
113
330
E0
100
AcDbEntity
  8
AM_4
100
AcDbLine
 10
2.720519802555168
 20
-3.549104761904762
 30
0.0
 11
2.720519802555168
 21
3.549104761904761
 31
0.0
  0
LINE
  5
114
330
E0
100
AcDbEntity
  8
AM_4
100
AcDbLine
 10
2.720519802555168
 20
-3.549104761904762
 30
0.0
 11
2.807083333333333
 21
-3.635668292682927
 31
0.0
  0
LINE
  5
115
330
E0
100
AcDbEntity
  8
AM_4
100
AcDbLine
 10
2.807083333333333
 20
3.635668292682927
 30
0.0
 11
2.720519802555168
 21
3.549104761904761
 31
0.0
  0
LINE
  5
116
330
E0
100
AcDbEntity
  8
AM_4
100
AcDbLine
 10
2.807083333333333
 20
-3.635668292682927
 30
0.0
 11
2.807083333333333
 21
3.635668292682927
 31
0.0
  0
LINE
  5
117
330
E0
100
AcDbEntity
  8
AM_4
100
AcDbLine
 10
2.91125
 20
3.635668292682927
 30
0.0
 11
2.807083333333333
 21
3.635668292682927
 31
0.0
  0
LINE
  5
118
330
E0
100
AcDbEntity
  8
AM_4
100
AcDbLine
 10
2.807083333333333
 20
-3.635668292682927
 30
0.0
 11
2.91125
 21
-3.635668292682927
 31
0.0
  0
LWPOLYLINE
  5
119
330
E0
100
AcDbEntity
  8
AM_4
100
AcDbPolyline
 90
       32
 70
     0
 43
0.0
 10
2.963726351686617
 20
1.724256020948594
 10
2.992718905492384
 20
1.755806707397405
 10
3.026707075699061
 20
1.783060728795064
 10
3.069639589864926
 20
1.807792815637596
 10
3.116559988617497
 20
1.826083480207574
 10
3.168051729826683
 20
1.837790400849366
 10
3.22105027035527
 20
1.842005931252152
 10
3.275212807896558
 20
1.838407619620516
 10
3.327925912554226
 20
1.826994657769105
 10
3.377001747087485
 20
1.808227473770006
 10
3.423014140058868
 20
1.781519264541762
 10
3.461140526596647
 20
1.749713035755733
 10
3.493364364564498
 20
1.711167585636664
 10
3.516172625927333
 20
1.670120116519899
 10
3.530666917773467
 20
1.62590356135173
 10
3.536117349760161
 20
1.581570738835181
 10
3.533174975937651
 20
1.536772998375563
 10
3.522109253302925
 20
1.493647629741192
 10
3.503440682277293
 20
1.452544315699408
 10
3.477340278670686
 20
1.414202337664543
 10
3.444892843927837
 20
1.380083649706022
 10
3.405592003427642
 20
1.350216592909322
 10
3.361643170794462
 20
1.326530398485684
 10
3.312330493786085
 20
1.30918098009817
 10
3.260655637306549
 20
1.299539819870688
 10
3.2066059458345
 20
1.298015247101811
 10
3.153033469217459
 20
1.304894972416218
 10
3.110743582580373
 20
1.316692706436591
 10
3.070582353128493
 20
1.333776506432586
 10
3.032669417090296
 20
1.356376669261644
 10
2.998617627233407
 20
1.383723258625928
 10
2.963726351686617
 20
1.422422438078715
  0
LINE
  5
11A
330
E0
100
AcDbEntity
  8
AM_4
100
AcDbLine
 10
3.637083333333333
 20
3.72656
 30
0.0
 11
3.535384124362614
 21
3.72656
 31
0.0
  0
LINE
  5
11B
330
E0
100
AcDbEntity
  8
AM_4
100
AcDbLine
 10
2.963726351686616
 20
-3.72656
 30
0.0
 11
3.637083333333333
 21
-3.72656
 31
0.0
  0
LWPOLYLINE
  5
11C
330
E0
100
AcDbEntity
  8
AM_4
100
AcDbPolyline
 90
       17
 70
     0
 43
0.0
 10
3.53624499999995
 20
3.726559999999997
 10
3.5358676853488
 20
3.726530825202944
 10
3.529043971189457
 20
3.726009212388249
 10
3.514649447845524
 20
3.724946275442887
 10
3.492347313005974
 20
3.723399782768882
 10
3.463455267825575
 20
3.72157812332438
 10
3.42766248348441
 20
3.719606700173533
 10
3.386294652568406
 20
3.7177227155188
 10
3.339548207540118
 20
3.716104269046219
 10
3.289316240020552
 20
3.714970304479752
 10
3.235900048013778
 20
3.714453375794889
 10
3.182460572639699
 20
3.714647296007845
 10
3.128673934860027
 20
3.715560441011775
 10
3.078938560421189
 20
3.717044922165643
 10
3.031994322518478
 20
3.719009110367762
 10
2.995454259336613
 20
3.720915374783504
 10
2.963726351686551
 20
3.722837775711142
  0
LINE
  5
11D
330
E0
100
AcDbEntity
  8
AM_4
100
AcDbLine
 10
3.84375
 20
-3.519893333333334
 30
0.0
 11
3.84375
 21
3.519893333333334
 31
0.0
  0
LINE
  5
11E
330
E0
100
AcDbEntity
  8
AM_4
100
AcDbLine
 10
3.637083333333333
 20
-3.72656
 30
0.0
 11
3.637083333333333
 21
3.72656
 31
0.0
  0
ARC
  5
11F
330
E0
100
AcDbEntity
  8
AM_4
100
AcDbCircle
 10
3.637083333333333
 20
3.519893333333334
 30
0.0
 40
0.2066666666666661
100
AcDbArc
 50
0.0
 51
90.0
  0
ARC
  5
120
330
E0
100
AcDbEntity
  8
AM_4
100
AcDbCircle
 10
3.637083333333333
 20
-3.519893333333334
 30
0.0
 40
0.2066666666666661
100
AcDbArc
 50
270.0
 51
0.0
  0
LWPOLYLINE
  5
121
330
E0
100
AcDbEntity
  8
AM_4
100
AcDbPolyline
 90
        6
 70
     0
 43
0.0
 10
2.963726351686617
 20
1.422422438078715
 10
2.950413133615151
 20
1.481601138984133
 10
2.944607556053876
 20
1.550838801171649
 10
2.947206799751792
 20
1.61861722881624
 10
2.957240878035083
 20
1.691584375424444
 10
2.963726351686617
 20
1.724256020948594
  0
LINE
  5
122
330
E0
100
AcDbEntity
  8
AM_4
100
AcDbLine
 10
2.963726351686617
 20
1.724256020948594
 30
0.0
 11
2.963726351686581
 21
3.722837775711139
 31
0.0
  0
LINE
  5
123
330
E0
100
AcDbEntity
  8
AM_4
100
AcDbLine
 10
2.963726351686605
 20
3.722837775711118
 30
0.0
 11
2.944520503998425
 21
3.69329449600162
 31
0.0
  0
LINE
  5
124
330
E0
100
AcDbEntity
  8
AM_4
100
AcDbLine
 10
2.91125
 20
-3.635668292682927
 30
0.0
 11
2.91125
 21
3.635668292682927
 31
0.0
  0
LINE
  5
125
330
E0
100
AcDbEntity
  8
AM_4
100
AcDbLine
 10
2.91125
 20
-3.635668292682927
 30
0.0
 11
2.963726351686616
 21
-3.726560000000001
 31
0.0
  0
LINE
  5
126
330
E0
100
AcDbEntity
  8
AM_4
100
AcDbLine
 10
2.944520503998408
 20
3.693294496001592
 30
0.0
 11
2.91125
 21
3.635668292682927
 31
0.0
  0
LINE
  5
127
330
E0
100
AcDbEntity
  8
AM_4
100
AcDbLine
 10
2.963726351686616
 20
-3.726560000000001
 30
0.0
 11
2.963726351686617
 21
1.422422438078715
 31
0.0
  0
ELLIPSE
  5
128
330
E0
100
AcDbEntity
  8
AM_4
100
AcDbEllipse
 10
3.22375
 20
1.554121604086087
 30
0.0
 11
0.2633000000000001
 21
0.0
 31
0.0
210
0.0
220
0.0
230
1.0
 40
0.9063077870366502
 41
0.0
 42
6.283185307179586
  0
ENDBLK
  5
E3
330
E0
100
AcDbEntity
  8
0
100
AcDbBlockEnd
  0
BLOCK
  5
12B
330
129
100
AcDbEntity
  8
0
100
AcDbBlockBegin
  2
4_070031i_0_in_070747_2
 70
     2
 10
0.0
 20
0.0
 30
0.0
  3
4_070031i_0_in_070747_2
  1

  0
ATTDEF
  5
12D
330
129
100
AcDbEntity
  8
AM_6
100
AcDbText
 10
9.189062499999999
 20
4.527550000000001
 30
0.0
 40
0.5
  1
S-2000 Insert -Inch
100
AcDbAttributeDefinition
  3

  2
NN
 70
     8
280
     0
  0
ATTDEF
  5
12E
330
129
100
AcDbEntity
  8
AM_6
100
AcDbText
 10
9.189062499999999
 20
4.027550000000001
 30
0.0
 40
0.5
  1
S-2000 Bearings
100
AcDbAttributeDefinition
  3

  2
NT
 70
     8
280
     0
  0
ATTDEF
  5
12F
330
129
100
AcDbEntity
  8
AM_6
100
AcDbText
 10
9.189062499999999
 20
3.527550000000001
 30
0.0
 40
0.5
  1
070031i
100
AcDbAttributeDefinition
  3

  2
NB
 70
     8
280
     0
  0
ATTDEF
  5
130
330
129
100
AcDbEntity
  8
AM_6
100
AcDbText
 10
9.189062499999999
 20
3.027550000000001
 30
0.0
 40
0.5
  1
$PN.i
100
AcDbAttributeDefinition
  3

  2
NBSYN
 70
     8
280
     0
  0
ATTDEF
  5
131
330
129
100
AcDbEntity
  8
AM_6
100
AcDbText
 10
9.189062499999999
 20
2.527550000000001
 30
0.0
 40
0.5
  1
070031i
100
AcDbAttributeDefinition
  3

  2
LINA
 70
     8
280
     0
  0
ATTDEF
  5
132
330
129
100
AcDbEntity
  8
AM_6
100
AcDbText
 10
9.189062499999999
 20
2.027550000000001
 30
0.0
 40
0.5
  1
4-15/16
100
AcDbAttributeDefinition
  3

  2
SS
 70
     8
280
     0
  0
ATTDEF
  5
133
330
129
100
AcDbEntity
  8
AM_6
100
AcDbText
 10
9.189062499999999
 20
1.527550000000001
 30
0.0
 40
0.5
  1
5.79
100
AcDbAttributeDefinition
  3

  2
CC
 70
     8
280
     0
  0
ATTDEF
  5
134
330
129
100
AcDbEntity
  8
AM_6
100
AcDbText
 10
9.189062499999999
 20
1.027550000000001
 30
0.0
 40
0.5
  1
4.937500
100
AcDbAttributeDefinition
  3

  2
SS1
 70
     8
280
     0
  0
ATTDEF
  5
135
330
129
100
AcDbEntity
  8
AM_6
100
AcDbText
 10
9.189062499999999
 20
0.5275500000000006
 30
0.0
 40
0.5
  1
070031
100
AcDbAttributeDefinition
  3

  2
PN
 70
     8
280
     0
  0
ATTDEF
  5
136
330
129
100
AcDbEntity
  8
AM_6
100
AcDbText
 10
9.189062499999999
 20
0.0275500000000006
 30
0.0
 40
0.5
  1
INS-S2-415L
100
AcDbAttributeDefinition
  3

  2
DESCRIPTION
 70
     8
280
     0
  0
ATTDEF
  5
137
330
129
100
AcDbEntity
  8
AM_6
100
AcDbText
 10
9.189062499999999
 20
-0.4724499999999994
 30
0.0
 40
0.5
  1
Labyrinth Seal
100
AcDbAttributeDefinition
  3

  2
ST
 70
     8
280
     0
  0
ATTDEF
  5
138
330
129
100
AcDbEntity
  8
AM_6
100
AcDbText
 10
9.189062499999999
 20
-0.9724499999999994
 30
0.0
 40
0.5
  1
2
100
AcDbAttributeDefinition
  3

  2
ST1
 70
     8
280
     0
  0
ATTDEF
  5
139
330
129
100
AcDbEntity
  8
AM_6
100
AcDbText
 10
9.189062499999999
 20
-1.472449999999999
 30
0.0
 40
0.5
  1
9.0551
100
AcDbAttributeDefinition
  3

  2
A
 70
     8
280
     0
  0
ATTDEF
  5
13A
330
129
100
AcDbEntity
  8
AM_6
100
AcDbText
 10
9.189062499999999
 20
-1.972449999999999
 30
0.0
 40
0.5
  1
2-19/32
100
AcDbAttributeDefinition
  3

  2
B
 70
     8
280
     0
  0
ATTDEF
  5
13B
330
129
100
AcDbEntity
  8
AM_6
100
AcDbText
 10
9.189062499999999
 20
-2.472449999999999
 30
0.0
 40
0.5
  1
6-29/32
100
AcDbAttributeDefinition
  3

  2
C
 70
     8
280
     0
  0
ATTDEF
  5
13C
330
129
100
AcDbEntity
  8
AM_6
100
AcDbText
 10
9.189062499999999
 20
-2.972449999999999
 30
0.0
 40
0.5
  1
3.453
100
AcDbAttributeDefinition
  3

  2
D
 70
     8
280
     0
  0
ATTDEF
  5
13D
330
129
100
AcDbEntity
  8
AM_6
100
AcDbText
 10
9.189062499999999
 20
-3.472449999999999
 30
0.0
 40
0.5
  1
7-29/64
100
AcDbAttributeDefinition
  3

  2
E
 70
     8
280
     0
  0
ATTDEF
  5
13E
330
129
100
AcDbEntity
  8
AM_6
100
AcDbText
 10
9.189062499999999
 20
-3.972449999999999
 30
0.0
 40
0.5
  1
0.37500
100
AcDbAttributeDefinition
  3

  2
F
 70
     8
280
     0
  0
ATTDEF
  5
13F
330
129
100
AcDbEntity
  8
AM_6
100
AcDbText
 10
9.189062499999999
 20
-4.472449999999999
 30
0.0
 40
0.5
  1
2
100
AcDbAttributeDefinition
  3

  2
DD
 70
     8
280
     0
  0
ATTDEF
  5
140
330
129
100
AcDbEntity
  8
AM_6
100
AcDbText
 10
9.189062499999999
 20
-4.972449999999999
 30
0.0
 40
0.5
  1
baldor
100
AcDbAttributeDefinition
  3

  2
COMPANY
 70
     8
280
     0
  0
LINE
  5
141
330
129
100
AcDbEntity
  8
AM_9
100
AcDbLine
 10
2.83375
 20
2.894827101397033
 30
0.0
 11
2.83375
 21
2.46875
 31
0.0
  0
LINE
  5
142
330
129
100
AcDbEntity
  8
AM_9
100
AcDbLine
 10
3.61375
 20
2.46875
 30
0.0
 11
3.61375
 21
2.894985303965464
 31
0.0
  0
LINE
  5
143
330
129
100
AcDbEntity
  8
AM_9
100
AcDbLine
 10
-2.8325
 20
2.894827101397034
 30
0.0
 11
-2.8325
 21
2.46875
 31
0.0
  0
LINE
  5
144
330
129
100
AcDbEntity
  8
AM_9
100
AcDbLine
 10
-2.0525
 20
2.46875
 30
0.0
 11
-2.0525
 21
2.894985303965464
 31
0.0
  0
LINE
  5
145
330
129
100
AcDbEntity
  8
AM_9
100
AcDbLine
 10
2.83375
 20
1.223479867739325
 30
0.0
 11
2.83375
 21
1.043320580263893
 31
0.0
  0
LINE
  5
146
330
129
100
AcDbEntity
  8
AM_9
100
AcDbLine
 10
3.61375
 20
1.043252327715305
 30
0.0
 11
3.61375
 21
1.223479867739325
 31
0.0
  0
LWPOLYLINE
  5
147
330
129
100
AcDbEntity
  8
AM_9
100
AcDbPolyline
 90
        4
 70
     0
 43
0.0
 10
2.846503051546711
 20
1.132150998811126
 10
2.839934226875294
 20
1.10541295487526
 10
2.833765174589229
 20
1.046455828841863
 10
2.833750000545757
 20
1.043357532827385
  0
LWPOLYLINE
  5
148
330
129
100
AcDbEntity
  8
AM_9
100
AcDbPolyline
 90
        6
 70
     0
 43
0.0
 10
2.979267023909121
 20
1.310792456814831
 10
2.967139982859488
 20
1.30205681769555
 10
2.921738186804003
 20
1.261751566872604
 10
2.884537106081691
 20
1.21450449568425
 10
2.856935032631279
 20
1.161889248328315
 10
2.846503051546711
 20
1.132150998811126
  0
LWPOLYLINE
  5
149
330
129
100
AcDbEntity
  8
AM_9
100
AcDbPolyline
 90
        3
 70
     0
 43
0.0
 10
3.075192009111178
 20
1.358961331581424
 10
3.019693614391209
 20
1.335058336995924
 10
2.979267023909121
 20
1.310792456814831
  0
LWPOLYLINE
  5
14A
330
129
100
AcDbEntity
  8
AM_9
100
AcDbPolyline
 90
        4
 70
     0
 43
0.0
 10
3.469670756084117
 20
1.309799715372579
 10
3.451847166791878
 20
1.321399886522163
 10
3.395460692192817
 20
1.350147567789292
 10
3.370775275948787
 20
1.359490967960523
  0
LWPOLYLINE
  5
14B
330
129
100
AcDbEntity
  8
AM_9
100
AcDbPolyline
 90
        6
 70
     0
 43
0.0
 10
3.600337655708317
 20
1.134357027113156
 10
3.598877333760021
 20
1.138915556109925
 10
3.576063502497613
 20
1.192528695084935
 10
3.543317660146877
 20
1.24160308538016
 10
3.501762353826969
 20
1.284802463206058
 10
3.469670756084117
 20
1.309799715372579
  0
LWPOLYLINE
  5
14C
330
129
100
AcDbEntity
  8
AM_9
100
AcDbPolyline
 90
        3
 70
     0
 43
0.0
 10
3.613749998658026
 20
1.043309511484195
 10
3.611391120733236
 20
1.081998473488233
 10
3.600337655708317
 20
1.134357027113156
  0
LWPOLYLINE
  5
14D
330
129
100
AcDbEntity
  8
AM_9
100
AcDbPolyline
 90
       11
 70
     0
 43
0.0
 10
2.833750000545757
 20
1.043357532827385
 10
2.838662146200996
 20
0.9873135179018903
 10
2.85419520101764
 20
0.9290679557934411
 10
2.880020798572372
 20
0.8735064734872939
 10
2.915272200401865
 20
0.8221867210913028
 10
2.959590477060444
 20
0.7762838930217697
 10
3.01132011340733
 20
0.7377176846375969
 10
3.069490880468902
 20
0.707706516156118
 10
3.132104909185102
 20
0.6874029722980729
 10
3.177596883040383
 20
0.6794566491652656
 10
3.22375
 20
0.6767777606371408
  0
LWPOLYLINE
  5
14E
330
129
100
AcDbEntity
  8
AM_9
100
AcDbPolyline
 90
        8
 70
     0
 43
0.0
 10
3.474448341232172
 20
1.487705553655203
 10
3.481946811689342
 20
1.482090109925198
 10
3.527175557447633
 20
1.441150201939378
 10
3.564039008947014
 20
1.3934364738144
 10
3.591282242737245
 20
1.340474668662743
 10
3.607933260516758
 20
1.28375427770687
 10
3.613747613254403
 20
1.224716320953079
 10
3.613749999893984
 20
1.223488109257157
  0
LWPOLYLINE
  5
14F
330
129
100
AcDbEntity
  8
AM_9
100
AcDbPolyline
 90
       10
 70
     0
 43
0.0
 10
2.972060362764088
 20
1.486985631023717
 10
2.996813326827421
 20
1.50353174698734
 10
3.053310410495052
 20
1.532384555176206
 10
3.114769607628577
 20
1.552547200434645
 10
3.179355466190448
 20
1.563634811322321
 10
3.244721352584248
 20
1.565276446735023
 10
3.309492178492311
 20
1.557680555269501
 10
3.371559125893965
 20
1.540992633089771
 10
3.429498786004746
 20
1.515711784901551
 10
3.474448341232172
 20
1.487705553655203
  0
LWPOLYLINE
  5
150
330
129
100
AcDbEntity
  8
AM_9
100
AcDbPolyline
 90
        7
 70
     0
 43
0.0
 10
2.833750001480583
 20
1.223449068454508
 10
2.836179231912396
 20
1.26273145950939
 10
2.848855061937747
 20
1.319925459159383
 10
2.871897575065861
 20
1.373876704632444
 10
2.904899121590127
 20
1.423268538549932
 10
2.94674489309477
 20
1.466777311098277
 10
2.972060362764088
 20
1.486985631023717
  0
LWPOLYLINE
  5
151
330
129
100
AcDbEntity
  8
AM_9
100
AcDbPolyline
 90
       10
 70
     0
 43
0.0
 10
3.613749999893984
 20
1.223488109257157
 10
3.608478741994526
 20
1.165480053975012
 10
3.592527416403823
 20
1.107294856323753
 10
3.566230017103363
 20
1.051919553489575
 10
3.530469417908398
 20
1.000925871619501
 10
3.485749592175388
 20
0.9555995406992888
 10
3.433665782457231
 20
0.9176767827519855
 10
3.37532149589314
 20
0.888387263276753
 10
3.312636187849759
 20
0.8687514705708177
 10
3.22375
 20
0.8588670577294569
  0
LINE
  5
152
330
129
100
AcDbEntity
  8
AM_9
100
AcDbLine
 10
-2.8325
 20
1.223479867739325
 30
0.0
 11
-2.8325
 21
1.043320580263893
 31
0.0
  0
LINE
  5
153
330
129
100
AcDbEntity
  8
AM_9
100
AcDbLine
 10
-2.052499999999999
 20
1.043252327715305
 30
0.0
 11
-2.052499999999999
 21
1.223479867739325
 31
0.0
  0
LWPOLYLINE
  5
154
330
129
100
AcDbEntity
  8
AM_9
100
AcDbPolyline
 90
        4
 70
     0
 43
0.0
 10
-2.81974694845329
 20
1.132150998811125
 10
-2.826315773124706
 20
1.10541295487526
 10
-2.832484825410771
 20
1.046455828841862
 10
-2.832499999454243
 20
1.043357532827385
  0
LWPOLYLINE
  5
155
330
129
100
AcDbEntity
  8
AM_9
100
AcDbPolyline
 90
        6
 70
     0
 43
0.0
 10
-2.688326997214663
 20
1.3098647540318
 10
-2.699110017140512
 20
1.30205681769555
 10
-2.744511813195996
 20
1.261751566872604
 10
-2.781712893918308
 20
1.21450449568425
 10
-2.809314967368721
 20
1.161889248328315
 10
-2.81974694845329
 20
1.132150998811125
  0
LWPOLYLINE
  5
156
330
129
100
AcDbEntity
  8
AM_9
100
AcDbPolyline
 90
        3
 70
     0
 43
0.0
 10
-2.590560484280274
 20
1.359133958095788
 10
-2.646556385608791
 20
1.335058336995924
 10
-2.688326997214663
 20
1.3098647540318
  0
LWPOLYLINE
  5
157
330
129
100
AcDbEntity
  8
AM_9
100
AcDbPolyline
 90
        4
 70
     0
 43
0.0
 10
-2.197902145250865
 20
1.31071349868814
 10
-2.214402833208122
 20
1.321399886522163
 10
-2.270789307807183
 20
1.350147567789292
 10
-2.293877027929718
 20
1.358938733641216
  0
LWPOLYLINE
  5
158
330
129
100
AcDbEntity
  8
AM_9
100
AcDbPolyline
 90
        6
 70
     0
 43
0.0
 10
-2.065912344291683
 20
1.134357027113157
 10
-2.067372666239978
 20
1.138915556109925
 10
-2.090186497502386
 20
1.192528695084935
 10
-2.122932339853123
 20
1.24160308538016
 10
-2.164487646173031
 20
1.284802463206058
 10
-2.197902145250865
 20
1.31071349868814
  0
LWPOLYLINE
  5
159
330
129
100
AcDbEntity
  8
AM_9
100
AcDbPolyline
 90
        3
 70
     0
 43
0.0
 10
-2.052500001341973
 20
1.043309511484195
 10
-2.054858879266764
 20
1.081998473488233
 10
-2.065912344291683
 20
1.134357027113157
  0
LWPOLYLINE
  5
15A
330
129
100
AcDbEntity
  8
AM_9
100
AcDbPolyline
 90
       11
 70
     0
 43
0.0
 10
-2.832499999454243
 20
1.043357532827385
 10
-2.827587853799004
 20
0.9873135179018901
 10
-2.81205479898236
 20
0.9290679557934411
 10
-2.786229201427628
 20
0.8735064734872939
 10
-2.750977799598135
 20
0.8221867210913028
 10
-2.706659522939556
 20
0.7762838930217697
 10
-2.654929886592669
 20
0.7377176846375969
 10
-2.596759119531097
 20
0.7077065161561179
 10
-2.534145090814897
 20
0.6874029722980725
 10
-2.488653116959616
 20
0.6794566491652654
 10
-2.4425
 20
0.6767777606371408
  0
LWPOLYLINE
  5
15B
330
129
100
AcDbEntity
  8
AM_9
100
AcDbPolyline
 90
        8
 70
     0
 43
0.0
 10
-2.191572502879451
 20
1.487539570902634
 10
-2.184303188310658
 20
1.482090109925198
 10
-2.139074442552367
 20
1.441150201939379
 10
-2.102210991052985
 20
1.3934364738144
 10
-2.074967757262755
 20
1.340474668662743
 10
-2.058316739483241
 20
1.28375427770687
 10
-2.052502386745596
 20
1.224716320953079
 10
-2.052500000106015
 20
1.223488109257157
  0
LWPOLYLINE
  5
15C
330
129
100
AcDbEntity
  8
AM_9
100
AcDbPolyline
 90
       10
 70
     0
 43
0.0
 10
-2.693192522318399
 20
1.487709764987929
 10
-2.669436673172579
 20
1.50353174698734
 10
-2.612939589504948
 20
1.532384555176206
 10
-2.551480392371423
 20
1.552547200434645
 10
-2.486894533809552
 20
1.563634811322322
 10
-2.421528647415752
 20
1.565276446735024
 10
-2.356757821507689
 20
1.557680555269501
 10
-2.294690874106035
 20
1.540992633089772
 10
-2.236751213995254
 20
1.515711784901551
 10
-2.191572502879451
 20
1.487539570902634
  0
LWPOLYLINE
  5
15D
330
129
100
AcDbEntity
  8
AM_9
100
AcDbPolyline
 90
        7
 70
     0
 43
0.0
 10
-2.832499998519416
 20
1.223449068454508
 10
-2.830070768087604
 20
1.26273145950939
 10
-2.817394938062253
 20
1.319925459159383
 10
-2.794352424934138
 20
1.373876704632444
 10
-2.761350878409873
 20
1.423268538549932
 10
-2.71950510690523
 20
1.466777311098277
 10
-2.693192522318399
 20
1.487709764987929
  0
LWPOLYLINE
  5
15E
330
129
100
AcDbEntity
  8
AM_9
100
AcDbPolyline
 90
       10
 70
     0
 43
0.0
 10
-2.052500000106015
 20
1.223488109257157
 10
-2.057771258005473
 20
1.165480053975012
 10
-2.073722583596177
 20
1.107294856323753
 10
-2.100019982896637
 20
1.051919553489575
 10
-2.135780582091601
 20
1.000925871619501
 10
-2.180500407824612
 20
0.9555995406992892
 10
-2.232584217542769
 20
0.9176767827519858
 10
-2.290928504106859
 20
0.8883872632767532
 10
-2.353613812150241
 20
0.8687514705708177
 10
-2.4425
 20
0.8588670577294572
  0
LWPOLYLINE
  5
15F
330
129
100
AcDbEntity
  8
AM_9
100
AcDbPolyline
 90
       11
 70
     0
 43
0.0
 10
-2.4425
 20
0.6767777606371408
 10
-2.377489928267862
 20
0.6821308086245724
 10
-2.314323475256622
 20
0.6978359233280023
 10
-2.254847621854705
 20
0.723472798906247
 10
-2.200611064205806
 20
0.7580354899447426
 10
-2.152826384519708
 20
0.8008727531614694
 10
-2.113159737724869
 20
0.8502787040352593
 10
-2.082705089252475
 20
0.905100121582797
 10
-2.062454223847114
 20
0.9633342241677139
 10
-2.053201115461354
 20
1.022729185065245
 10
-2.052500001341973
 20
1.043309511484195
  0
LWPOLYLINE
  5
160
330
129
100
AcDbEntity
  8
AM_9
100
AcDbPolyline
 90
       11
 70
     0
 43
0.0
 10
3.22375
 20
0.6767777606371408
 10
3.288760071732138
 20
0.6821308086245724
 10
3.351926524743378
 20
0.6978359233280023
 10
3.411402378145294
 20
0.723472798906247
 10
3.465638935794194
 20
0.7580354899447426
 10
3.513423615480292
 20
0.8008727531614694
 10
3.553090262275131
 20
0.8502787040352593
 10
3.583544910747524
 20
0.905100121582797
 10
3.603795776152886
 20
0.9633342241677137
 10
3.613048884538645
 20
1.022729185065245
 10
3.613749998658026
 20
1.043309511484195
  0
LWPOLYLINE
  5
161
330
129
100
AcDbEntity
  8
AM_9
100
AcDbPolyline
 90
       11
 70
     0
 43
0.0
 10
-2.4425
 20
2.437750307660733
 10
-2.378411737628311
 20
2.438592599815275
 10
-2.314323475256622
 20
2.441117732514204
 10
-2.255634751843186
 20
2.44490187604098
 10
-2.200611064205806
 20
2.449721784154202
 10
-2.153422108673662
 20
2.454830460490842
 10
-2.113159737724869
 20
2.459896658572358
 10
-2.083040799042715
 20
2.464109875726496
 10
-2.062454223847114
 20
2.467197064377235
 10
-2.053217377001338
 20
2.468636774227573
 10
-2.05250000000082
 20
2.46874999999987
  0
LWPOLYLINE
  5
162
330
129
100
AcDbEntity
  8
AM_9
100
AcDbPolyline
 90
       11
 70
     0
 43
0.0
 10
3.22375
 20
2.437750307660733
 10
3.287838262371689
 20
2.438592599815275
 10
3.351926524743378
 20
2.441117732514204
 10
3.410615248156814
 20
2.44490187604098
 10
3.465638935794194
 20
2.449721784154202
 10
3.512827891326337
 20
2.454830460490842
 10
3.553090262275131
 20
2.459896658572358
 10
3.583209200957285
 20
2.464109875726496
 10
3.603795776152886
 20
2.467197064377235
 10
3.613032622998662
 20
2.468636774227573
 10
3.61374999999918
 20
2.46874999999987
  0
LINE
  5
163
330
129
100
AcDbEntity
  8
AM_9
100
AcDbLine
 10
3.84375
 20
2.46875
 30
0.0
 11
3.612448775032124
 21
2.46875
 31
0.0
  0
LINE
  5
164
330
129
100
AcDbEntity
  8
AM_9
100
AcDbLine
 10
2.83375
 20
2.46875
 30
0.0
 11
-2.053801224967877
 21
2.46875
 31
0.0
  0
LINE
  5
165
330
129
100
AcDbEntity
  8
AM_9
100
AcDbLine
 10
-2.8325
 20
2.46875
 30
0.0
 11
-3.0625
 21
2.46875
 31
0.0
  0
LINE
  5
166
330
129
100
AcDbEntity
  8
AM_9
100
AcDbLine
 10
-3.0625
 20
-2.46875
 30
0.0
 11
3.84375
 21
-2.46875
 31
0.0
  0
LINE
  5
167
330
129
100
AcDbEntity
  8
AM_9
100
AcDbLine
 10
-2.811460923609899
 20
2.465513886728499
 30
0.0
 11
-2.832499999999694
 21
2.468749999999952
 31
0.0
  0
LINE
  5
168
330
129
100
AcDbEntity
  8
AM_9
100
AcDbLine
 10
-2.41945527784149
 20
2.437859229266399
 30
0.0
 11
-2.454094671913218
 21
2.437777881374096
 31
0.0
  0
LWPOLYLINE
  5
169
330
129
100
AcDbEntity
  8
AM_9
100
AcDbPolyline
 90
       11
 70
     0
 43
0.0
 10
-2.832499999999694
 20
2.468749999999952
 10
-2.827772774213256
 20
2.468007632291679
 10
-2.81205479898236
 20
2.465602829320021
 10
-2.786690874177987
 20
2.461928902378663
 10
-2.750977799598135
 20
2.457190492278714
 10
-2.707367317953081
 20
2.452097318341925
 10
-2.654929886592669
 20
2.446988561317313
 10
-2.597659072718298
 20
2.442683135477625
 10
-2.534145090814897
 20
2.43947235794351
 10
-2.488986135771866
 20
2.438193495873328
 10
-2.4425
 20
2.437750307660733
  0
LINE
  5
16A
330
129
100
AcDbEntity
  8
AM_9
100
AcDbLine
 10
2.854789076390028
 20
2.465513886728509
 30
0.0
 11
2.833750000000305
 21
2.468749999999952
 31
0.0
  0
LINE
  5
16B
330
129
100
AcDbEntity
  8
AM_9
100
AcDbLine
 10
3.246794722158509
 20
2.437859229266399
 30
0.0
 11
3.212155328086782
 21
2.437777881374096
 31
0.0
  0
LWPOLYLINE
  5
16C
330
129
100
AcDbEntity
  8
AM_9
100
AcDbPolyline
 90
       11
 70
     0
 43
0.0
 10
2.833750000000305
 20
2.468749999999952
 10
2.838477225786744
 20
2.468007632291679
 10
2.85419520101764
 20
2.465602829320021
 10
2.879559125822012
 20
2.461928902378663
 10
2.915272200401865
 20
2.457190492278714
 10
2.958882682046919
 20
2.452097318341925
 10
3.011320113407331
 20
2.446988561317313
 10
3.068590927281701
 20
2.442683135477625
 10
3.132104909185102
 20
2.43947235794351
 10
3.177263864228133
 20
2.438193495873328
 10
3.22375
 20
2.437750307660733
  0
LWPOLYLINE
  5
16D
330
129
100
AcDbEntity
  8
AM_9
100
AcDbPolyline
 90
       11
 70
     0
 43
0.0
 10
-2.4425
 20
0.8588670577294572
 10
-2.507635523670971
 20
0.8641847061965552
 10
-2.570926971765668
 20
0.8797955029812786
 10
-2.630527998357785
 20
0.9053029768354369
 10
-2.684865599412448
 20
0.9397268709827925
 10
-2.732611751794976
 20
0.982339891510619
 10
-2.772214474506062
 20
1.031526024753939
 10
-2.802537901728808
 20
1.086067750597518
 10
-2.822667609517291
 20
1.14405954406427
 10
-2.831833267119765
 20
1.203415195911018
 10
-2.832499998519416
 20
1.223449068454508
  0
LWPOLYLINE
  5
16E
330
129
100
AcDbEntity
  8
AM_9
100
AcDbPolyline
 90
       11
 70
     0
 43
0.0
 10
-2.4425
 20
2.868610290715698
 10
-2.506713485882833
 20
2.869328906167647
 10
-2.570926971765668
 20
2.871483673482561
 10
-2.629735782583108
 20
2.874714288112735
 10
-2.684865599412448
 20
2.878830679942562
 10
-2.73201531268329
 20
2.883182983488579
 10
-2.772214474506062
 20
2.887496603409052
 10
-2.802205678698929
 20
2.891074743981597
 10
-2.822667609517291
 20
2.893691830745992
 10
-2.831818323967398
 20
2.894908246797605
 10
-2.83249999999952
 20
2.894999999999935
  0
LINE
  5
16F
330
129
100
AcDbEntity
  8
AM_9
100
AcDbLine
 10
-1.4475
 20
2.895
 30
0.0
 11
-2.052610453505496
 21
2.895
 31
0.0
  0
LINE
  5
170
330
129
100
AcDbEntity
  8
AM_9
100
AcDbLine
 10
-2.831212735017403
 20
2.895
 30
0.0
 11
-3.0625
 21
2.895
 31
0.0
  0
LINE
  5
171
330
129
100
AcDbEntity
  8
AM_9
100
AcDbLine
 10
-3.0625
 20
-2.895
 30
0.0
 11
-1.4475
 21
-2.895
 31
0.0
  0
LINE
  5
172
330
129
100
AcDbEntity
  8
AM_9
100
AcDbLine
 10
-2.063458412488103
 20
2.893544111477055
 30
0.0
 11
-2.052500000000031
 21
2.894999999999995
 31
0.0
  0
LINE
  5
173
330
129
100
AcDbEntity
  8
AM_9
100
AcDbLine
 10
-2.464887268303284
 20
2.868697646978861
 30
0.0
 11
-2.434630415957599
 21
2.868621085182391
 31
0.0
  0
LWPOLYLINE
  5
174
330
129
100
AcDbEntity
  8
AM_9
100
AcDbPolyline
 90
       10
 70
     0
 43
0.0
 10
-2.052500000000031
 20
2.894999999999995
 10
-2.057580822577735
 20
2.894319915480566
 10
-2.073722583596177
 20
2.892217450823758
 10
-2.099548474026272
 20
2.889038031796693
 10
-2.135780582091601
 20
2.884961317127505
 10
-2.17978455134284
 20
2.880615282706653
 10
-2.232584217542768
 20
2.876280521041824
 10
-2.290030980349682
 20
2.872659360584392
 10
-2.353613812150241
 20
2.869987065195671
 10
-2.4425
 20
2.868610290715698
  0
LWPOLYLINE
  5
175
330
129
100
AcDbEntity
  8
AM_9
100
AcDbPolyline
 90
       11
 70
     0
 43
0.0
 10
3.22375
 20
0.8588670577294569
 10
3.158614476329029
 20
0.864184706196555
 10
3.095323028234332
 20
0.8797955029812783
 10
3.035722001642215
 20
0.9053029768354367
 10
2.981384400587551
 20
0.9397268709827923
 10
2.933638248205023
 20
0.9823398915106188
 10
2.894035525493937
 20
1.031526024753939
 10
2.863712098271192
 20
1.086067750597518
 10
2.843582390482709
 20
1.14405954406427
 10
2.834416732880234
 20
1.203415195911017
 10
2.833750001480583
 20
1.223449068454508
  0
LWPOLYLINE
  5
176
330
129
100
AcDbEntity
  8
AM_9
100
AcDbPolyline
 90
       11
 70
     0
 43
0.0
 10
3.22375
 20
2.868610290715698
 10
3.159536514117166
 20
2.869328906167647
 10
3.095323028234332
 20
2.87148367348256
 10
3.036514217416892
 20
2.874714288112735
 10
2.981384400587551
 20
2.878830679942562
 10
2.934234687316709
 20
2.883182983488579
 10
2.894035525493937
 20
2.887496603409051
 10
2.864044321301071
 20
2.891074743981596
 10
2.843582390482709
 20
2.893691830745992
 10
2.834431676032601
 20
2.894908246797604
 10
2.83375000000048
 20
2.894999999999935
  0
LINE
  5
177
330
129
100
AcDbEntity
  8
AM_9
100
AcDbLine
 10
3.84375
 20
2.895
 30
0.0
 11
3.613639546494503
 21
2.895
 31
0.0
  0
LINE
  5
178
330
129
100
AcDbEntity
  8
AM_9
100
AcDbLine
 10
2.421875
 20
2.895
 30
0.0
 11
2.228749999999999
 21
2.895
 31
0.0
  0
LINE
  5
179
330
129
100
AcDbEntity
  8
AM_9
100
AcDbLine
 10
2.835037264982596
 20
2.895
 30
0.0
 11
2.60375
 21
2.895
 31
0.0
  0
LINE
  5
17A
330
129
100
AcDbEntity
  8
AM_9
100
AcDbLine
 10
2.60375
 20
-2.895
 30
0.0
 11
3.84375
 21
-2.895
 31
0.0
  0
LINE
  5
17B
330
129
100
AcDbEntity
  8
AM_9
100
AcDbLine
 10
2.228749999999999
 20
-2.895
 30
0.0
 11
2.421875
 21
-2.895
 31
0.0
  0
LINE
  5
17C
330
129
100
AcDbEntity
  8
AM_9
100
AcDbLine
 10
3.592275738999881
 20
2.892185371013657
 30
0.0
 11
3.613749999999968
 21
2.894999999999995
 31
0.0
  0
LINE
  5
17D
330
129
100
AcDbEntity
  8
AM_9
100
AcDbLine
 10
3.20136273169669
 20
2.86869764697886
 30
0.0
 11
3.231619584042401
 21
2.868621085182391
 31
0.0
  0
LWPOLYLINE
  5
17E
330
129
100
AcDbEntity
  8
AM_9
100
AcDbPolyline
 90
       10
 70
     0
 43
0.0
 10
3.613749999999968
 20
2.894999999999995
 10
3.608669177422265
 20
2.894319915480566
 10
3.592527416403823
 20
2.892217450823758
 10
3.566701525973727
 20
2.889038031796692
 10
3.530469417908398
 20
2.884961317127503
 10
3.48646544865716
 20
2.880615282706653
 10
3.433665782457231
 20
2.876280521041824
 10
3.376219019650318
 20
2.872659360584392
 10
3.312636187849758
 20
2.86998706519567
 10
3.22375
 20
2.868610290715698
  0
LINE
  5
17F
330
129
100
AcDbEntity
  8
AM_9
100
AcDbLine
 10
2.228749999999999
 20
-3.362664999999999
 30
0.0
 11
2.228749999999999
 21
3.362664999999999
 31
0.0
  0
ARC
  5
180
330
129
100
AcDbEntity
  8
AM_9
100
AcDbCircle
 10
1.969375000000002
 20
3.362665
 30
0.0
 40
0.2593749999999986
100
AcDbArc
 50
0.0
 51
90.0
  0
ARC
  5
181
330
129
100
AcDbEntity
  8
AM_9
100
AcDbCircle
 10
1.969375000000002
 20
-3.362665
 30
0.0
 40
0.2593749999999986
100
AcDbArc
 50
270.0
 51
0.0
  0
LINE
  5
182
330
129
100
AcDbEntity
  8
AM_9
100
AcDbLine
 10
1.969374999999999
 20
-3.62204
 30
0.0
 11
1.969374999999999
 21
3.62204
 31
0.0
  0
LINE
  5
183
330
129
100
AcDbEntity
  8
AM_9
100
AcDbLine
 10
1.969374999999999
 20
3.62204
 30
0.0
 11
1.6875
 21
3.62204
 31
0.0
  0
LINE
  5
184
330
129
100
AcDbEntity
  8
AM_9
100
AcDbLine
 10
1.6875
 20
-3.62204
 30
0.0
 11
1.969374999999999
 21
-3.62204
 31
0.0
  0
LINE
  5
185
330
129
100
AcDbEntity
  8
AM_9
100
AcDbLine
 10
-1.4475
 20
-3.362664999999999
 30
0.0
 11
-1.4475
 21
3.362664999999999
 31
0.0
  0
ARC
  5
186
330
129
100
AcDbEntity
  8
AM_9
100
AcDbCircle
 10
-1.188125000000001
 20
3.362665000000001
 30
0.0
 40
0.2593749999999981
100
AcDbArc
 50
90.0
 51
180.0
  0
ARC
  5
187
330
129
100
AcDbEntity
  8
AM_9
100
AcDbCircle
 10
-1.188125000000001
 20
-3.362665000000001
 30
0.0
 40
0.2593749999999984
100
AcDbArc
 50
180.0
 51
270.0
  0
LINE
  5
188
330
129
100
AcDbEntity
  8
AM_9
100
AcDbLine
 10
-1.188124999999999
 20
-3.62204
 30
0.0
 11
-1.188124999999999
 21
3.62204
 31
0.0
  0
LINE
  5
189
330
129
100
AcDbEntity
  8
AM_9
100
AcDbLine
 10
-0.9062500000000001
 20
3.62204
 30
0.0
 11
-1.188124999999999
 21
3.62204
 31
0.0
  0
LINE
  5
18A
330
129
100
AcDbEntity
  8
AM_9
100
AcDbLine
 10
-1.188124999999999
 20
-3.62204
 30
0.0
 11
-0.9062500000000001
 21
-3.62204
 31
0.0
  0
LINE
  5
18B
330
129
100
AcDbEntity
  8
AM_9
100
AcDbLine
 10
0.5203124999999984
 20
4.346448
 30
0.0
 11
0.2609375000000017
 21
4.346448
 31
0.0
  0
LINE
  5
18C
330
129
100
AcDbEntity
  8
AM_9
100
AcDbLine
 10
0.2609375000000017
 20
-4.346448
 30
0.0
 11
0.5203124999999984
 21
-4.346448
 31
0.0
  0
LINE
  5
18D
330
129
100
AcDbEntity
  8
AM_9
100
AcDbLine
 10
-0.9062500000000001
 20
-4.268174999999999
 30
0.0
 11
-0.9062500000000001
 21
4.268174999999999
 31
0.0
  0
ARC
  5
18E
330
129
100
AcDbEntity
  8
AM_9
100
AcDbCircle
 10
-0.6468750000000001
 20
4.268175
 30
0.0
 40
0.2593749999999995
100
AcDbArc
 50
90.0
 51
180.0
  0
ARC
  5
18F
330
129
100
AcDbEntity
  8
AM_9
100
AcDbCircle
 10
-0.6468750000000001
 20
-4.268175
 30
0.0
 40
0.259375
100
AcDbArc
 50
180.0
 51
270.0
  0
LINE
  5
190
330
129
100
AcDbEntity
  8
AM_9
100
AcDbLine
 10
0.5203124999999984
 20
-4.346448
 30
0.0
 11
0.5203124999999984
 21
4.346448
 31
0.0
  0
LINE
  5
191
330
129
100
AcDbEntity
  8
AM_9
100
AcDbLine
 10
0.5203124999999984
 20
-4.346448
 30
0.0
 11
0.6248717884507783
 21
-4.52755
 31
0.0
  0
LINE
  5
192
330
129
100
AcDbEntity
  8
AM_9
100
AcDbLine
 10
0.6248717884507783
 20
4.527549999999999
 30
0.0
 11
0.5203124999999984
 21
4.346448
 31
0.0
  0
LINE
  5
193
330
129
100
AcDbEntity
  8
AM_9
100
AcDbLine
 10
-0.6468749999999995
 20
-4.52755
 30
0.0
 11
-0.6468749999999995
 21
4.52755
 31
0.0
  0
LINE
  5
194
330
129
100
AcDbEntity
  8
AM_9
100
AcDbLine
 10
0.1563782115492217
 20
4.52755
 30
0.0
 11
-0.6468749999999995
 21
4.52755
 31
0.0
  0
LINE
  5
195
330
129
100
AcDbEntity
  8
AM_9
100
AcDbLine
 10
-0.6468749999999995
 20
-4.52755
 30
0.0
 11
0.1563782115492217
 21
-4.52755
 31
0.0
  0
LINE
  5
196
330
129
100
AcDbEntity
  8
AM_9
100
AcDbLine
 10
1.6875
 20
-4.268174999999999
 30
0.0
 11
1.6875
 21
4.268174999999999
 31
0.0
  0
ARC
  5
197
330
129
100
AcDbEntity
  8
AM_9
100
AcDbCircle
 10
1.428124999999999
 20
4.268174999999999
 30
0.0
 40
0.2593750000000012
100
AcDbArc
 50
0.0
 51
90.0
  0
ARC
  5
198
330
129
100
AcDbEntity
  8
AM_9
100
AcDbCircle
 10
1.428124999999999
 20
-4.268174999999999
 30
0.0
 40
0.2593750000000004
100
AcDbArc
 50
270.0
 51
0.0
  0
LINE
  5
199
330
129
100
AcDbEntity
  8
AM_9
100
AcDbLine
 10
0.2609375000000017
 20
-4.346447999999999
 30
0.0
 11
0.2609375000000017
 21
4.346448
 31
0.0
  0
LINE
  5
19A
330
129
100
AcDbEntity
  8
AM_9
100
AcDbLine
 10
0.1563782115492217
 20
-4.527549999999999
 30
0.0
 11
0.1563782115492217
 21
4.52755
 31
0.0
  0
LINE
  5
19B
330
129
100
AcDbEntity
  8
AM_9
100
AcDbLine
 10
0.2609375000000017
 20
4.346448
 30
0.0
 11
0.1563782115492217
 21
4.52755
 31
0.0
  0
LINE
  5
19C
330
129
100
AcDbEntity
  8
AM_9
100
AcDbLine
 10
0.1563782115492217
 20
-4.527549999999999
 30
0.0
 11
0.2609375000000017
 21
-4.346447999999999
 31
0.0
  0
LINE
  5
19D
330
129
100
AcDbEntity
  8
AM_9
100
AcDbLine
 10
1.428125000000001
 20
-4.52755
 30
0.0
 11
1.428125000000001
 21
4.52755
 31
0.0
  0
LINE
  5
19E
330
129
100
AcDbEntity
  8
AM_9
100
AcDbLine
 10
0.6248717884507783
 20
-4.52755
 30
0.0
 11
0.6248717884507783
 21
4.52755
 31
0.0
  0
LINE
  5
19F
330
129
100
AcDbEntity
  8
AM_9
100
AcDbLine
 10
1.428125000000001
 20
4.52755
 30
0.0
 11
0.6248717884507783
 21
4.52755
 31
0.0
  0
LINE
  5
1A0
330
129
100
AcDbEntity
  8
AM_9
100
AcDbLine
 10
0.6248717884507783
 20
-4.52755
 30
0.0
 11
1.428125000000001
 21
-4.52755
 31
0.0
  0
LINE
  5
1A3
330
129
100
AcDbEntity
  8
AM_7
100
AcDbLine
 10
4.189062499999999
 20
0.0
 30
0.0
 11
-3.4078125
 21
0.0
 31
0.0
  0
LINE
  5
1A4
330
129
100
AcDbEntity
  8
AM_7
100
AcDbLine
 10
-2.4425
 20
-0.1484615384615385
 30
0.0
 11
-2.4425
 21
3.770226583333333
 31
0.0
  0
LINE
  5
1A5
330
129
100
AcDbEntity
  8
AM_7
100
AcDbLine
 10
3.22375
 20
-0.1484615384615385
 30
0.0
 11
3.22375
 21
3.770226583333333
 31
0.0
  0
LWPOLYLINE
  5
1A6
330
129
100
AcDbEntity
  8
AM_4
100
AcDbPolyline
 90
        7
 70
     0
 43
0.0
 10
3.370775275948787
 20
1.359490967960523
 10
3.334031441336065
 20
1.370291952109055
 10
3.26941692667107
 20
1.381447053262476
 10
3.204167288409041
 20
1.383254113301034
 10
3.139474867482921
 20
1.375962244139352
 10
3.077550054624065
 20
1.359740758328394
 10
3.075192009111178
 20
1.358961331581424
  0
LWPOLYLINE
  5
1A7
330
129
100
AcDbEntity
  8
AM_4
100
AcDbPolyline
 90
        7
 70
     0
 43
0.0
 10
-2.293877027929718
 20
1.358938733641216
 10
-2.332218558663936
 20
1.370291952109055
 10
-2.39683307332893
 20
1.381447053262476
 10
-2.462082711590958
 20
1.383254113301034
 10
-2.526775132517078
 20
1.375962244139352
 10
-2.588699945375935
 20
1.359740758328394
 10
-2.590560484280274
 20
1.359133958095788
  0
LINE
  5
1A8
330
129
100
AcDbEntity
  8
AM_4
100
AcDbLine
 10
2.60375
 20
2.895
 30
0.0
 11
2.421875
 21
2.895
 31
0.0
  0
LINE
  5
1A9
330
129
100
AcDbEntity
  8
AM_4
100
AcDbLine
 10
2.421875
 20
-2.895
 30
0.0
 11
2.60375
 21
-2.895
 31
0.0
  0
ENDBLK
  5
12C
330
129
100
AcDbEntity
  8
0
100
AcDbBlockEnd
  0
BLOCK
  5
1AC
330
1AA
100
AcDbEntity
  8
0
100
AcDbBlockBegin
  2
5_405015E_Inch_0_in_070747_2
 70
     2
 10
0.0
 20
0.0
 30
0.0
  3
5_405015E_Inch_0_in_070747_2
  1

  0
ATTDEF
  5
1AE
330
1AA
100
AcDbEntity
  8
AM_6
100
AcDbText
 10
3.647080834588555
 20
6.557046671481427
 30
0.0
 40
0.5
  1
405015E -Inch
100
AcDbAttributeDefinition
  3

  2
NN
 70
     8
280
     0
  0
ATTDEF
  5
1AF
330
1AA
100
AcDbEntity
  8
AM_6
100
AcDbText
 10
3.647080834588555
 20
6.057046671481427
 30
0.0
 40
0.5
  1
Grease Fitting
100
AcDbAttributeDefinition
  3

  2
NT
 70
     8
280
     0
  0
ATTDEF
  5
1B0
330
1AA
100
AcDbEntity
  8
AM_6
100
AcDbText
 10
3.647080834588555
 20
5.557046671481427
 30
0.0
 40
0.5
  1
405015E-Inch
100
AcDbAttributeDefinition
  3

  2
NB
 70
     8
280
     0
  0
ATTDEF
  5
1B1
330
1AA
100
AcDbEntity
  8
AM_6
100
AcDbText
 10
3.647080834588555
 20
5.057046671481427
 30
0.0
 40
0.5
  1
$MN.-Inch
100
AcDbAttributeDefinition
  3

  2
NBSYN
 70
     8
280
     0
  0
ATTDEF
  5
1B2
330
1AA
100
AcDbEntity
  8
AM_6
100
AcDbText
 10
3.647080834588555
 20
4.557046671481427
 30
0.0
 40
0.5
  1
405015E
100
AcDbAttributeDefinition
  3

  2
LINA
 70
     8
280
     0
  0
ATTDEF
  5
1B3
330
1AA
100
AcDbEntity
  8
AM_6
100
AcDbText
 10
3.647080834588555
 20
4.057046671481427
 30
0.0
 40
0.5
  1
405015E
100
AcDbAttributeDefinition
  3

  2
MN
 70
     8
280
     0
  0
ATTDEF
  5
1B4
330
1AA
100
AcDbEntity
  8
AM_6
100
AcDbText
 10
3.647080834588555
 20
3.557046671481427
 30
0.0
 40
0.5
  1
1/8 x 27PTF
100
AcDbAttributeDefinition
  3

  2
T
 70
     8
280
     0
  0
ATTDEF
  5
1B5
330
1AA
100
AcDbEntity
  8
AM_6
100
AcDbText
 10
3.647080834588555
 20
3.057046671481427
 30
0.0
 40
0.5
  1
baldor
100
AcDbAttributeDefinition
  3

  2
COMPANY
 70
     8
280
     0
  0
LINE
  5
1B6
330
1AA
100
AcDbEntity
  8
AM_9
100
AcDbLine
 10
-1.514822037883715
 20
6.007912999493342
 30
0.0
 11
-1.352919165411446
 21
6.288337000506656
 31
0.0
  0
LINE
  5
1B7
330
1AA
100
AcDbEntity
  8
AM_9
100
AcDbLine
 10
-1.352919165411446
 20
6.288337000506656
 30
0.0
 11
-1.366357698182225
 21
6.338490287586382
 31
0.0
  0
LINE
  5
1B8
330
1AA
100
AcDbEntity
  8
AM_9
100
AcDbLine
 10
-1.56497532496344
 20
5.994474466722564
 30
0.0
 11
-1.514822037883715
 21
6.007912999493342
 31
0.0
  0
LINE
  5
1B9
330
1AA
100
AcDbEntity
  8
AM_9
100
AcDbLine
 10
-1.56497532496344
 20
5.994474466722564
 30
0.0
 11
-1.366357698182225
 21
6.338490287586382
 31
0.0
  0
LINE
  5
1BA
330
1AA
100
AcDbEntity
  8
AM_9
100
AcDbLine
 10
-1.366357698182225
 20
6.338490287586382
 30
0.0
 11
-1.534979396350951
 21
6.442999430481713
 31
0.0
  0
LINE
  5
1BB
330
1AA
100
AcDbEntity
  8
AM_9
100
AcDbLine
 10
-1.739793746722897
 20
6.088250569518287
 30
0.0
 11
-1.56497532496344
 21
5.994474466722564
 31
0.0
  0
LINE
  5
1BC
330
1AA
100
AcDbEntity
  8
AM_5
100
AcDbLine
 10
-1.691037737520548
 20
6.102438630127977
 30
0.0
 11
-1.514822037883716
 21
6.007912999493342
 31
0.0
  0
LINE
  5
1BD
330
1AA
100
AcDbEntity
  8
AM_5
100
AcDbLine
 10
-1.731602266110614
 20
6.102438630127977
 30
0.0
 11
-1.691037737520548
 21
6.102438630127977
 31
0.0
  0
LINE
  5
1BE
330
1AA
100
AcDbEntity
  8
AM_5
100
AcDbLine
 10
-1.505104932218596
 20
6.42448369570477
 30
0.0
 11
-1.708821417970153
 21
6.071636392043692
 31
0.0
  0
LINE
  5
1BF
330
1AA
100
AcDbEntity
  8
AM_5
100
AcDbLine
 10
-1.522888612668201
 20
6.393681457620485
 30
0.0
 11
-1.352919165411446
 21
6.288337000506656
 31
0.0
  0
LINE
  5
1C0
330
1AA
100
AcDbEntity
  8
AM_5
100
AcDbLine
 10
-1.543170876963233
 20
6.428811369872022
 30
0.0
 11
-1.5228886126682
 21
6.393681457620485
 31
0.0
  0
LINE
  5
1C1
330
1AA
100
AcDbEntity
  8
AM_7
100
AcDbLine
 10
-2.015839672990723
 20
6.484125
 30
0.0
 11
-1.406157788726478
 21
6.132125
 31
0.0
  0
LINE
  5
1C2
330
1AA
100
AcDbEntity
  8
AM_4
100
AcDbLine
 10
-1.788402541426267
 20
6.474057667397365
 30
0.0
 11
-1.8143833035398
 21
6.489057667397366
 31
0.0
  0
LINE
  5
1C3
330
1AA
100
AcDbEntity
  8
AM_4
100
AcDbLine
 10
-1.9193833035398
 20
6.307192332602633
 30
0.0
 11
-1.893402541426267
 21
6.292192332602633
 31
0.0
  0
LINE
  5
1C4
330
1AA
100
AcDbEntity
  8
AM_4
100
AcDbLine
 10
-1.893402541426267
 20
6.292192332602633
 30
0.0
 11
-1.788402541426267
 21
6.474057667397365
 31
0.0
  0
LINE
  5
1C5
330
1AA
100
AcDbEntity
  8
AM_4
100
AcDbLine
 10
-1.893402541426267
 20
6.292192332602633
 30
0.0
 11
-1.872385970922652
 21
6.264100343752893
 31
0.0
  0
LINE
  5
1C6
330
1AA
100
AcDbEntity
  8
AM_4
100
AcDbLine
 10
-1.753565880187754
 20
6.469902777865679
 30
0.0
 11
-1.788402541426267
 21
6.474057667397365
 31
0.0
  0
LINE
  5
1C7
330
1AA
100
AcDbEntity
  8
AM_4
100
AcDbLine
 10
-1.9193833035398
 20
6.307192332602633
 30
0.0
 11
-1.8143833035398
 21
6.489057667397366
 31
0.0
  0
LINE
  5
1C8
330
1AA
100
AcDbEntity
  8
AM_4
100
AcDbLine
 10
-1.8143833035398
 20
6.489057667397366
 30
0.0
 11
-1.851344827766866
 21
6.5450384295109
 31
0.0
  0
LINE
  5
1C9
330
1AA
100
AcDbEntity
  8
AM_4
100
AcDbLine
 10
-1.986344827766866
 20
6.3112115704891
 30
0.0
 11
-1.9193833035398
 21
6.307192332602633
 31
0.0
  0
LINE
  5
1CA
330
1AA
100
AcDbEntity
  8
AM_4
100
AcDbLine
 10
-2.039465811036215
 20
6.379203328518571
 30
0.0
 11
-1.936787909103028
 21
6.557046671481427
 31
0.0
  0
LINE
  5
1CB
330
1AA
100
AcDbEntity
  8
AM_4
100
AcDbLine
 10
-1.986344827766866
 20
6.3112115704891
 30
0.0
 11
-1.851344827766866
 21
6.5450384295109
 31
0.0
  0
LINE
  5
1CC
330
1AA
100
AcDbEntity
  8
AM_4
100
AcDbLine
 10
-2.039465811036215
 20
6.379203328518571
 30
0.0
 11
-1.986344827766866
 21
6.3112115704891
 31
0.0
  0
LINE
  5
1CD
330
1AA
100
AcDbEntity
  8
AM_4
100
AcDbLine
 10
-1.851344827766866
 20
6.5450384295109
 30
0.0
 11
-1.936787909103028
 21
6.557046671481427
 31
0.0
  0
LINE
  5
1CE
330
1AA
100
AcDbEntity
  8
AM_4
100
AcDbLine
 10
-1.872385970922652
 20
6.264100343752893
 30
0.0
 11
-1.753565880187754
 21
6.469902777865679
 31
0.0
  0
LINE
  5
1CF
330
1AA
100
AcDbEntity
  8
AM_4
100
AcDbLine
 10
-1.872385970922652
 20
6.264100343752893
 30
0.0
 11
-1.852100925958379
 21
6.190365226109451
 31
0.0
  0
LINE
  5
1D0
330
1AA
100
AcDbEntity
  8
AM_4
100
AcDbLine
 10
-1.679566872675364
 20
6.489202972431429
 30
0.0
 11
-1.753565880187754
 21
6.469902777865679
 31
0.0
  0
LINE
  5
1D1
330
1AA
100
AcDbEntity
  8
AM_4
100
AcDbLine
 10
-1.772742333650457
 20
6.091181942922153
 30
0.0
 11
-1.553992333650457
 21
6.470068057077846
 31
0.0
  0
LINE
  5
1D2
330
1AA
100
AcDbEntity
  8
AM_4
100
AcDbLine
 10
-1.553992333650457
 20
6.470068057077846
 30
0.0
 11
-1.640594874028901
 21
6.520068057077846
 31
0.0
  0
LINE
  5
1D3
330
1AA
100
AcDbEntity
  8
AM_4
100
AcDbLine
 10
-1.8593448740289
 20
6.141181942922153
 30
0.0
 11
-1.640594874028901
 21
6.520068057077846
 31
0.0
  0
LINE
  5
1D4
330
1AA
100
AcDbEntity
  8
AM_4
100
AcDbLine
 10
-1.8593448740289
 20
6.141181942922153
 30
0.0
 11
-1.772742333650457
 21
6.091181942922153
 31
0.0
  0
LINE
  5
1D5
330
1AA
100
AcDbEntity
  8
AM_4
100
AcDbLine
 10
-1.534979396350951
 20
6.442999430481713
 30
0.0
 11
-1.560491385038922
 21
6.458811369872023
 31
0.0
  0
LINE
  5
1D6
330
1AA
100
AcDbEntity
  8
AM_4
100
AcDbLine
 10
-1.766243282261992
 20
6.102438630127977
 30
0.0
 11
-1.739793746722897
 21
6.088250569518287
 31
0.0
  0
LINE
  5
1D7
330
1AA
100
AcDbEntity
  8
AM_4
100
AcDbLine
 10
-1.852100925958379
 20
6.190365226109451
 30
0.0
 11
-1.679566872675364
 21
6.489202972431429
 31
0.0
  0
LINE
  5
1D8
330
1AA
100
AcDbEntity
  8
AM_4
100
AcDbLine
 10
-1.852100925958379
 20
6.190365226109451
 30
0.0
 11
-1.856844874028901
 21
6.145512069941076
 31
0.0
  0
LINE
  5
1D9
330
1AA
100
AcDbEntity
  8
AM_4
100
AcDbLine
 10
-1.643094874028901
 20
6.515737930058924
 30
0.0
 11
-1.679566872675364
 21
6.489202972431429
 31
0.0
  0
LWPOLYLINE
  5
1DA
330
1AA
100
AcDbEntity
  8
AM_4
100
AcDbPolyline
 90
        3
 70
     0
 43
0.0
 10
-1.8046573740289
 20
6.235903471461077
 10
-1.775240895468131
 20
6.282067545338021
 10
-1.742117102340284
 20
6.326091200151692
  0
LWPOLYLINE
  5
1DB
330
1AA
100
AcDbEntity
  8
AM_4
100
AcDbPolyline
 90
        3
 70
     0
 43
0.0
 10
-1.851492102340285
 20
6.136648143073846
 10
-1.830033028947383
 20
6.18712249796769
 10
-1.8046573740289
 20
6.235903471461077
  0
LWPOLYLINE
  5
1DC
330
1AA
100
AcDbEntity
  8
AM_4
100
AcDbPolyline
 90
        3
 70
     0
 43
0.0
 10
-1.718054833650457
 20
6.185903471461077
 10
-1.747471312211226
 20
6.139739397584132
 10
-1.780595105339073
 20
6.095715742770461
  0
LWPOLYLINE
  5
1DD
330
1AA
100
AcDbEntity
  8
AM_4
100
AcDbPolyline
 90
        3
 70
     0
 43
0.0
 10
-1.671220105339073
 20
6.285158799848307
 10
-1.692679178731974
 20
6.234684444954464
 10
-1.718054833650457
 20
6.185903471461077
  0
LWPOLYLINE
  5
1DE
330
1AA
100
AcDbEntity
  8
AM_4
100
AcDbPolyline
 90
        3
 70
     0
 43
0.0
 10
-1.6952823740289
 20
6.425346528538923
 10
-1.665865895468131
 20
6.471510602415867
 10
-1.632742102340284
 20
6.515534257229539
  0
LWPOLYLINE
  5
1DF
330
1AA
100
AcDbEntity
  8
AM_4
100
AcDbPolyline
 90
        3
 70
     0
 43
0.0
 10
-1.742117102340284
 20
6.326091200151692
 10
-1.720658028947383
 20
6.376565555045535
 10
-1.6952823740289
 20
6.425346528538923
  0
LINE
  5
1E0
330
1AA
100
AcDbEntity
  8
AM_4
100
AcDbLine
 10
-1.742117102340284
 20
6.326091200151692
 30
0.0
 11
-1.671220105339073
 21
6.285158799848307
 31
0.0
  0
LWPOLYLINE
  5
1E1
330
1AA
100
AcDbEntity
  8
AM_4
100
AcDbPolyline
 90
        3
 70
     0
 43
0.0
 10
-1.608679833650457
 20
6.375346528538922
 10
-1.638096312211226
 20
6.329182454661979
 10
-1.671220105339073
 20
6.285158799848307
  0
LWPOLYLINE
  5
1E2
330
1AA
100
AcDbEntity
  8
AM_4
100
AcDbPolyline
 90
        3
 70
     0
 43
0.0
 10
-1.561845105339073
 20
6.474601856926152
 10
-1.583304178731974
 20
6.42412750203231
 10
-1.608679833650457
 20
6.375346528538922
  0
ENDBLK
  5
1AD
330
1AA
100
AcDbEntity
  8
0
100
AcDbBlockEnd
  0
BLOCK
  5
1E5
330
1E3
100
AcDbEntity
  8
0
100
AcDbBlockBegin
  2
6_070747H_0_in_070747_2
 70
     2
 10
0.0
 20
0.0
 30
0.0
  3
6_070747H_0_in_070747_2
  1

  0
ATTDEF
  5
1E7
330
1E3
100
AcDbEntity
  8
AM_6
100
AcDbText
 10
7.421875
 20
7.421874999999999
 30
0.0
 40
0.5
  1
FC-S2 -(Labyrinth Seal)-Housing
100
AcDbAttributeDefinition
  3

  2
NN
 70
     8
280
     0
  0
ATTDEF
  5
1E8
330
1E3
100
AcDbEntity
  8
AM_6
100
AcDbText
 10
7.421875
 20
6.921874999999999
 30
0.0
 40
0.5
  1
S-2000 Piloted Flange Bearing -Inch
100
AcDbAttributeDefinition
  3

  2
NT
 70
     8
280
     0
  0
ATTDEF
  5
1E9
330
1E3
100
AcDbEntity
  8
AM_6
100
AcDbText
 10
7.421875
 20
6.421874999999999
 30
0.0
 40
0.5
  1
070747H
100
AcDbAttributeDefinition
  3

  2
NB
 70
     8
280
     0
  0
ATTDEF
  5
1EA
330
1E3
100
AcDbEntity
  8
AM_6
100
AcDbText
 10
7.421875
 20
5.921874999999999
 30
0.0
 40
0.5
  1
$PN.H
100
AcDbAttributeDefinition
  3

  2
NBSYN
 70
     8
280
     0
  0
ATTDEF
  5
1EB
330
1E3
100
AcDbEntity
  8
AM_6
100
AcDbText
 10
7.421875
 20
5.421874999999999
 30
0.0
 40
0.5
  1
070747
100
AcDbAttributeDefinition
  3

  2
LINA
 70
     8
280
     0
  0
ATTDEF
  5
1EC
330
1E3
100
AcDbEntity
  8
AM_6
100
AcDbText
 10
7.421875
 20
4.921874999999999
 30
0.0
 40
0.5
  1
4-15/16
100
AcDbAttributeDefinition
  3

  2
SS
 70
     8
280
     0
  0
ATTDEF
  5
1ED
330
1E3
100
AcDbEntity
  8
AM_6
100
AcDbText
 10
7.421875
 20
4.421874999999999
 30
0.0
 40
0.5
  1
070747
100
AcDbAttributeDefinition
  3

  2
PN
 70
     8
280
     0
  0
ATTDEF
  5
1EE
330
1E3
100
AcDbEntity
  8
AM_6
100
AcDbText
 10
7.421875
 20
3.921874999999999
 30
0.0
 40
0.5
  1
FC-S2-415LE
100
AcDbAttributeDefinition
  3

  2
DESCRIPTION
 70
     8
280
     0
  0
ATTDEF
  5
1EF
330
1E3
100
AcDbEntity
  8
AM_6
100
AcDbText
 10
7.421875
 20
3.421874999999999
 30
0.0
 40
0.5
  1
Expansion Type
100
AcDbAttributeDefinition
  3

  2
EF
 70
     8
280
     0
  0
ATTDEF
  5
1F0
330
1E3
100
AcDbEntity
  8
AM_6
100
AcDbText
 10
7.421875
 20
2.921874999999999
 30
0.0
 40
0.5
  1
6-29/32
100
AcDbAttributeDefinition
  3

  2
A
 70
     8
280
     0
  0
ATTDEF
  5
1F1
330
1E3
100
AcDbEntity
  8
AM_6
100
AcDbText
 10
7.421875
 20
2.421874999999999
 30
0.0
 40
0.5
  1
14-27/32
100
AcDbAttributeDefinition
  3

  2
B
 70
     8
280
     0
  0
ATTDEF
  5
1F2
330
1E3
100
AcDbEntity
  8
AM_6
100
AcDbText
 10
7.421875
 20
1.921874999999999
 30
0.0
 40
0.5
  1
4-3/8
100
AcDbAttributeDefinition
  3

  2
C
 70
     8
280
     0
  0
ATTDEF
  5
1F3
330
1E3
100
AcDbEntity
  8
AM_6
100
AcDbText
 10
7.421875
 20
1.421874999999999
 30
0.0
 40
0.5
  1
12-3/4
100
AcDbAttributeDefinition
  3

  2
DD
 70
     8
280
     0
  0
ATTDEF
  5
1F4
330
1E3
100
AcDbEntity
  8
AM_6
100
AcDbText
 10
7.421875
 20
0.9218749999999991
 30
0.0
 40
0.5
  1
1-45/64
100
AcDbAttributeDefinition
  3

  2
E
 70
     8
280
     0
  0
ATTDEF
  5
1F5
330
1E3
100
AcDbEntity
  8
AM_6
100
AcDbText
 10
7.421875
 20
0.4218749999999991
 30
0.0
 40
0.5
  1
7/8
100
AcDbAttributeDefinition
  3

  2
F
 70
     8
280
     0
  0
ATTDEF
  5
1F6
330
1E3
100
AcDbEntity
  8
AM_6
100
AcDbText
 10
7.421875
 20
-0.0781250000000009
 30
0.0
 40
0.5
  1
3-7/16
100
AcDbAttributeDefinition
  3

  2
G
 70
     8
280
     0
  0
ATTDEF
  5
1F7
330
1E3
100
AcDbEntity
  8
AM_6
100
AcDbText
 10
7.421875
 20
-0.5781250000000009
 30
0.0
 40
0.5
  1
1-1/4
100
AcDbAttributeDefinition
  3

  2
H
 70
     8
280
     0
  0
ATTDEF
  5
1F8
330
1E3
100
AcDbEntity
  8
AM_6
100
AcDbText
 10
7.421875
 20
-1.078125000000001
 30
0.0
 40
0.5
  1
11.000
100
AcDbAttributeDefinition
  3

  2
K
 70
     8
280
     0
  0
ATTDEF
  5
1F9
330
1E3
100
AcDbEntity
  8
AM_6
100
AcDbText
 10
7.421875
 20
-1.578125000000001
 30
0.0
 40
0.5
  1
7-29/64
100
AcDbAttributeDefinition
  3

  2
L
 70
     8
280
     0
  0
ATTDEF
  5
1FA
330
1E3
100
AcDbEntity
  8
AM_6
100
AcDbText
 10
7.421875
 20
-2.078125000000001
 30
0.0
 40
0.5
  1
7/8-9
100
AcDbAttributeDefinition
  3

  2
M
 70
     8
280
     0
  0
ATTDEF
  5
1FB
330
1E3
100
AcDbEntity
  8
AM_6
100
AcDbText
 10
7.421875
 20
-2.578125000000001
 30
0.0
 40
0.5
  1
0.8750
100
AcDbAttributeDefinition
  3

  2
MNDM
 70
     8
280
     0
  0
ATTDEF
  5
1FC
330
1E3
100
AcDbEntity
  8
AM_6
100
AcDbText
 10
7.421875
 20
-3.078125000000001
 30
0.0
 40
0.5
  1
0.7547
100
AcDbAttributeDefinition
  3

  2
MKDM
 70
     8
280
     0
  0
ATTDEF
  5
1FD
330
1E3
100
AcDbEntity
  8
AM_6
100
AcDbText
 10
7.421875
 20
-3.578125000000001
 30
0.0
 40
0.5
  1
5-55/64
100
AcDbAttributeDefinition
  3

  2
N
 70
     8
280
     0
  0
ATTDEF
  5
1FE
330
1E3
100
AcDbEntity
  8
AM_6
100
AcDbText
 10
7.421875
 20
-4.078125000000001
 30
0.0
 40
0.5
  1
5.859375
100
AcDbAttributeDefinition
  3

  2
N1
 70
     8
280
     0
  0
ATTDEF
  5
1FF
330
1E3
100
AcDbEntity
  8
AM_6
100
AcDbText
 10
7.421875
 20
-4.578125000000001
 30
0.0
 40
0.5
  1
3-15/32
100
AcDbAttributeDefinition
  3

  2
P
 70
     8
280
     0
  0
ATTDEF
  5
200
330
1E3
100
AcDbEntity
  8
AM_6
100
AcDbText
 10
7.421875
 20
-5.078125000000001
 30
0.0
 40
0.5
  1
2-27/64
100
AcDbAttributeDefinition
  3

  2
Q
 70
     8
280
     0
  0
ATTDEF
  5
201
330
1E3
100
AcDbEntity
  8
AM_6
100
AcDbText
 10
7.421875
 20
-5.578125000000001
 30
0.0
 40
0.5
  1
2.421875
100
AcDbAttributeDefinition
  3

  2
Q1
 70
     8
280
     0
  0
ATTDEF
  5
202
330
1E3
100
AcDbEntity
  8
AM_6
100
AcDbText
 10
7.421875
 20
-6.078125000000001
 30
0.0
 40
0.5
  1
3/8
100
AcDbAttributeDefinition
  3

  2
X
 70
     8
280
     0
  0
ATTDEF
  5
203
330
1E3
100
AcDbEntity
  8
AM_6
100
AcDbText
 10
7.421875
 20
-6.578125000000001
 30
0.0
 40
0.5
  1
0.036
100
AcDbAttributeDefinition
  3

  2
Y
 70
     8
280
     0
  0
ATTDEF
  5
204
330
1E3
100
AcDbEntity
  8
AM_6
100
AcDbText
 10
7.421875
 20
-7.078125000000001
 30
0.0
 40
0.5
  1
5-27/32
100
AcDbAttributeDefinition
  3

  2
Z
 70
     8
280
     0
  0
ATTDEF
  5
205
330
1E3
100
AcDbEntity
  8
AM_6
100
AcDbText
 10
7.421875
 20
-7.578125000000001
 30
0.0
 40
0.5
  1
baldor
100
AcDbAttributeDefinition
  3

  2
COMPANY
 70
     8
280
     0
  0
LINE
  5
206
330
1E3
100
AcDbEntity
  8
AM_9
100
AcDbLine
 10
-0.0601500000000021
 20
-2.81015
 30
0.0
 11
-1.064850000000002
 21
-2.81015
 31
0.0
  0
LINE
  5
207
330
1E3
100
AcDbEntity
  8
AM_9
100
AcDbLine
 10
-1.064850000000002
 20
-3.564849999999999
 30
0.0
 11
-0.0601500000000021
 21
-3.564849999999999
 31
0.0
  0
LINE
  5
208
330
1E3
100
AcDbEntity
  8
AM_9
100
AcDbLine
 10
-0.0601500000000021
 20
-3.564849999999999
 30
0.0
 11
-0.0601500000000021
 21
-2.81015
 31
0.0
  0
LINE
  5
209
330
1E3
100
AcDbEntity
  8
AM_9
100
AcDbLine
 10
-0.0601500000000021
 20
-3.564849999999999
 30
0.0
 11
-0.0000000000000016
 21
-3.625
 31
0.0
  0
LINE
  5
20A
330
1E3
100
AcDbEntity
  8
AM_9
100
AcDbLine
 10
-0.0000000000000016
 20
-2.75
 30
0.0
 11
-0.0601500000000021
 21
-2.81015
 31
0.0
  0
LINE
  5
20B
330
1E3
100
AcDbEntity
  8
AM_9
100
AcDbLine
 10
-1.064850000000002
 20
-3.564849999999999
 30
0.0
 11
-1.064850000000002
 21
-2.81015
 31
0.0
  0
LINE
  5
20C
330
1E3
100
AcDbEntity
  8
AM_9
100
AcDbLine
 10
-1.064850000000002
 20
-2.81015
 30
0.0
 11
-1.125000000000002
 21
-2.75
 31
0.0
  0
LINE
  5
20D
330
1E3
100
AcDbEntity
  8
AM_9
100
AcDbLine
 10
-1.125000000000002
 20
-3.625
 30
0.0
 11
-1.064850000000002
 21
-3.564849999999999
 31
0.0
  0
LINE
  5
20E
330
1E3
100
AcDbEntity
  8
AM_9
100
AcDbLine
 10
0.0000000000000003
 20
-7.170833333333318
 30
0.0
 11
-1.125
 21
-7.170833333333318
 31
0.0
  0
LINE
  5
20F
330
1E3
100
AcDbEntity
  8
AM_9
100
AcDbLine
 10
-1.125
 20
-5.477104903575039
 30
0.0
 11
-1.25
 21
-5.477104903575039
 31
0.0
  0
LINE
  5
210
330
1E3
100
AcDbEntity
  8
AM_9
100
AcDbLine
 10
-1.125
 20
-5.34315025720749
 30
0.0
 11
-1.25
 21
-5.34315025720749
 31
0.0
  0
LINE
  5
211
330
1E3
100
AcDbEntity
  8
AM_9
100
AcDbLine
 10
-1.125
 20
5.477104903575039
 30
0.0
 11
-1.25
 21
5.477104903575039
 31
0.0
  0
LINE
  5
212
330
1E3
100
AcDbEntity
  8
AM_9
100
AcDbLine
 10
-1.25
 20
5.34315025720749
 30
0.0
 11
-1.125
 21
5.34315025720749
 31
0.0
  0
LINE
  5
213
330
1E3
100
AcDbEntity
  8
AM_9
100
AcDbLine
 10
-1.125
 20
5.353161942917652
 30
0.0
 11
-1.25
 21
5.353161942917652
 31
0.0
  0
LINE
  5
214
330
1E3
100
AcDbEntity
  8
AM_9
100
AcDbLine
 10
-1.125
 20
5.5
 30
0.0
 11
-1.25
 21
5.5
 31
0.0
  0
LINE
  5
215
330
1E3
100
AcDbEntity
  8
AM_9
100
AcDbLine
 10
-1.125
 20
-5.353161942917651
 30
0.0
 11
-1.25
 21
-5.353161942917651
 31
0.0
  0
LINE
  5
216
330
1E3
100
AcDbEntity
  8
AM_9
100
AcDbLine
 10
-1.25
 20
-5.5
 30
0.0
 11
-1.125
 21
-5.5
 31
0.0
  0
LINE
  5
217
330
1E3
100
AcDbEntity
  8
AM_9
100
AcDbLine
 10
-1.125
 20
-5.865247445551312
 30
0.0
 11
-1.125
 21
-6.871192712721002
 31
0.0
  0
LINE
  5
218
330
1E3
100
AcDbEntity
  8
AM_9
100
AcDbLine
 10
-1.125
 20
6.871192712720998
 30
0.0
 11
-1.125
 21
5.865247445551307
 31
0.0
  0
LINE
  5
219
330
1E3
100
AcDbEntity
  8
AM_9
100
AcDbLine
 10
-1.953125
 20
4.357725796125457
 30
0.0
 11
-1.25
 21
4.357725796125457
 31
0.0
  0
LINE
  5
21A
330
1E3
100
AcDbEntity
  8
AM_9
100
AcDbLine
 10
-1.25
 20
-4.357725796125456
 30
0.0
 11
-1.953125
 21
-4.357725796125456
 31
0.0
  0
LINE
  5
21B
330
1E3
100
AcDbEntity
  8
AM_9
100
AcDbLine
 10
0.0000000000000005
 20
-5.083411949125797
 30
0.0
 11
-1.25
 21
-5.083411949125797
 31
0.0
  0
LINE
  5
21C
330
1E3
100
AcDbEntity
  8
AM_9
100
AcDbLine
 10
-1.25
 20
-5.958411949125797
 30
0.0
 11
0.0000000000000005
 21
-5.958411949125797
 31
0.0
  0
LINE
  5
21D
330
1E3
100
AcDbEntity
  8
AM_9
100
AcDbLine
 10
0.0000000000000005
 20
5.958411949125794
 30
0.0
 11
-1.25
 21
5.958411949125794
 31
0.0
  0
LINE
  5
21E
330
1E3
100
AcDbEntity
  8
AM_9
100
AcDbLine
 10
-1.25
 20
5.083411949125794
 30
0.0
 11
0.0000000000000005
 21
5.083411949125794
 31
0.0
  0
LINE
  5
21F
330
1E3
100
AcDbEntity
  8
AM_9
100
AcDbLine
 10
-1.433388157894737
 20
-4.52755
 30
0.0
 11
2.421875
 21
-4.52755
 31
0.0
  0
LINE
  5
220
330
1E3
100
AcDbEntity
  8
AM_9
100
AcDbLine
 10
2.421875
 20
4.52755
 30
0.0
 11
-1.433388157894737
 21
4.52755
 31
0.0
  0
LINE
  5
221
330
1E3
100
AcDbEntity
  8
AM_9
100
AcDbLine
 10
-1.433388157894737
 20
4.52755
 30
0.0
 11
-1.953125
 21
4.716718740177829
 31
0.0
  0
LINE
  5
222
330
1E3
100
AcDbEntity
  8
AM_9
100
AcDbLine
 10
-1.953125
 20
-4.716718740177829
 30
0.0
 11
-1.433388157894737
 21
-4.52755
 31
0.0
  0
LINE
  5
223
330
1E3
100
AcDbEntity
  8
AM_9
100
AcDbLine
 10
-1.433388157894737
 20
4.52755
 30
0.0
 11
-1.433388157894737
 21
-4.52755
 31
0.0
  0
LINE
  5
224
330
1E3
100
AcDbEntity
  8
AM_9
100
AcDbLine
 10
-1.064850000000001
 20
2.81015
 30
0.0
 11
-0.0601500000000021
 21
2.81015
 31
0.0
  0
LINE
  5
225
330
1E3
100
AcDbEntity
  8
AM_9
100
AcDbLine
 10
-0.0601500000000021
 20
3.564849999999999
 30
0.0
 11
-1.064850000000001
 21
3.564849999999999
 31
0.0
  0
LINE
  5
226
330
1E3
100
AcDbEntity
  8
AM_9
100
AcDbLine
 10
-1.064850000000001
 20
3.564849999999999
 30
0.0
 11
-1.125000000000002
 21
3.625
 31
0.0
  0
LINE
  5
227
330
1E3
100
AcDbEntity
  8
AM_9
100
AcDbLine
 10
-1.125000000000002
 20
2.75
 30
0.0
 11
-1.064850000000001
 21
2.81015
 31
0.0
  0
LINE
  5
228
330
1E3
100
AcDbEntity
  8
AM_9
100
AcDbLine
 10
-1.064850000000001
 20
3.564849999999999
 30
0.0
 11
-1.064850000000001
 21
2.81015
 31
0.0
  0
LINE
  5
229
330
1E3
100
AcDbEntity
  8
AM_9
100
AcDbLine
 10
-0.0601500000000021
 20
2.81015
 30
0.0
 11
-0.0000000000000019
 21
2.75
 31
0.0
  0
LINE
  5
22A
330
1E3
100
AcDbEntity
  8
AM_9
100
AcDbLine
 10
-0.0000000000000019
 20
3.625
 30
0.0
 11
-0.0601500000000021
 21
3.564849999999999
 31
0.0
  0
LINE
  5
22B
330
1E3
100
AcDbEntity
  8
AM_9
100
AcDbLine
 10
-0.0601500000000021
 20
3.564849999999999
 30
0.0
 11
-0.0601500000000021
 21
2.81015
 31
0.0
  0
LINE
  5
22C
330
1E3
100
AcDbEntity
  8
AM_9
100
AcDbLine
 10
0.0000000000000005
 20
0.4374999999999959
 30
0.0
 11
-1.249999999999999
 21
0.4374999999999959
 31
0.0
  0
LINE
  5
22D
330
1E3
100
AcDbEntity
  8
AM_9
100
AcDbLine
 10
-1.249999999999999
 20
-0.437500000000004
 30
0.0
 11
0.0000000000000005
 21
-0.437500000000004
 31
0.0
  0
LINE
  5
22E
330
1E3
100
AcDbEntity
  8
AM_5
100
AcDbLine
 10
0.0
 20
-3.40625
 30
0.0
 11
-1.125
 21
-3.40625
 31
0.0
  0
LINE
  5
22F
330
1E3
100
AcDbEntity
  8
AM_5
100
AcDbLine
 10
0.0
 20
-2.96875
 30
0.0
 11
-1.125
 21
-2.96875
 31
0.0
  0
LINE
  5
230
330
1E3
100
AcDbEntity
  8
AM_5
100
AcDbLine
 10
0.0000000000000005
 20
2.75
 30
0.0
 11
-1.124999999999999
 21
2.75
 31
0.0
  0
LINE
  5
231
330
1E3
100
AcDbEntity
  8
AM_5
100
AcDbLine
 10
0.0000000000000005
 20
3.625000000000001
 30
0.0
 11
-1.124999999999999
 21
3.625000000000001
 31
0.0
  0
LINE
  5
232
330
1E3
100
AcDbEntity
  8
AM_7
100
AcDbLine
 10
-1.3125
 20
5.520911949125796
 30
0.0
 11
0.0625000000000001
 21
5.520911949125796
 31
0.0
  0
LINE
  5
233
330
1E3
100
AcDbEntity
  8
AM_7
100
AcDbLine
 10
-1.3125
 20
-5.520911949125795
 30
0.0
 11
0.0625000000000001
 21
-5.520911949125795
 31
0.0
  0
LINE
  5
234
330
1E3
100
AcDbEntity
  8
AM_7
100
AcDbLine
 10
-1.181250000000002
 20
-3.1875
 30
0.0
 11
0.0562499999999983
 21
-3.1875
 31
0.0
  0
LINE
  5
235
330
1E3
100
AcDbEntity
  8
AM_7
100
AcDbLine
 10
-1.181250000000002
 20
3.1875
 30
0.0
 11
0.0562499999999982
 21
3.1875
 31
0.0
  0
LINE
  5
236
330
1E3
100
AcDbEntity
  8
AM_4
100
AcDbLine
 10
-1.25
 20
6.812499999999999
 30
0.0
 11
-1.321648143073847
 21
6.812499999999999
 31
0.0
  0
LINE
  5
237
330
1E3
100
AcDbEntity
  8
AM_4
100
AcDbLine
 10
-1.321648143073847
 20
6.812499999999999
 30
0.0
 11
-1.953125
 21
5.71875
 31
0.0
  0
LINE
  5
238
330
1E3
100
AcDbEntity
  8
AM_4
100
AcDbLine
 10
-1.25
 20
5.47722557505166
 30
0.0
 11
-1.953125
 21
5.477225575051661
 31
0.0
  0
LINE
  5
239
330
1E3
100
AcDbEntity
  8
AM_4
100
AcDbLine
 10
-1.953125
 20
-5.5
 30
0.0
 11
-1.25
 21
-5.5
 31
0.0
  0
LINE
  5
23A
330
1E3
100
AcDbEntity
  8
AM_4
100
AcDbLine
 10
-1.953125
 20
5.078431456721238
 30
0.0
 11
-1.25
 21
5.078431456721238
 31
0.0
  0
LINE
  5
23B
330
1E3
100
AcDbEntity
  8
AM_4
100
AcDbLine
 10
-1.953125
 20
-5.078431456721238
 30
0.0
 11
-1.25
 21
-5.078431456721238
 31
0.0
  0
LINE
  5
23C
330
1E3
100
AcDbEntity
  8
AM_4
100
AcDbLine
 10
-1.125
 20
-4.155145585601405
 30
0.0
 11
-1.25
 21
-4.155145585601405
 31
0.0
  0
LINE
  5
23D
330
1E3
100
AcDbEntity
  8
AM_4
100
AcDbLine
 10
-1.125
 20
4.155145585601405
 30
0.0
 11
-1.25
 21
4.155145585601405
 31
0.0
  0
LINE
  5
23E
330
1E3
100
AcDbEntity
  8
AM_4
100
AcDbLine
 10
2.421875
 20
-5.238095238095238
 30
0.0
 11
2.421875
 21
5.238095238095238
 31
0.0
  0
LINE
  5
23F
330
1E3
100
AcDbEntity
  8
AM_4
100
AcDbLine
 10
1.703125
 20
-5.238095238095238
 30
0.0
 11
2.421875
 21
-5.238095238095238
 31
0.0
  0
LINE
  5
240
330
1E3
100
AcDbEntity
  8
AM_4
100
AcDbLine
 10
2.421875
 20
5.238095238095238
 30
0.0
 11
1.703125
 21
5.238095238095238
 31
0.0
  0
LINE
  5
241
330
1E3
100
AcDbEntity
  8
AM_4
100
AcDbLine
 10
-1.953125
 20
-4.368054281797789
 30
0.0
 11
-1.25
 21
-4.368054281797789
 31
0.0
  0
LINE
  5
242
330
1E3
100
AcDbEntity
  8
AM_4
100
AcDbLine
 10
-1.125
 20
-3.769852610708541
 30
0.0
 11
-1.25
 21
-3.769852610708541
 31
0.0
  0
LINE
  5
243
330
1E3
100
AcDbEntity
  8
AM_4
100
AcDbLine
 10
-1.953125
 20
-0.7103771749234485
 30
0.0
 11
-1.249999999999999
 21
-0.7103771749234485
 31
0.0
  0
LINE
  5
244
330
1E3
100
AcDbEntity
  8
AM_4
100
AcDbLine
 10
-1.953125
 20
4.36805428179779
 30
0.0
 11
-1.25
 21
4.36805428179779
 31
0.0
  0
LINE
  5
245
330
1E3
100
AcDbEntity
  8
AM_4
100
AcDbLine
 10
-1.953125
 20
-5.5
 30
0.0
 11
-1.953125
 21
5.71875
 31
0.0
  0
LINE
  5
246
330
1E3
100
AcDbEntity
  8
AM_4
100
AcDbLine
 10
-1.953125
 20
0.710377174923448
 30
0.0
 11
-1.249999999999999
 21
0.710377174923448
 31
0.0
  0
LINE
  5
247
330
1E3
100
AcDbEntity
  8
AM_4
100
AcDbLine
 10
-1.125
 20
3.769852700737689
 30
0.0
 11
-1.25
 21
3.769852700737689
 31
0.0
  0
LINE
  5
248
330
1E3
100
AcDbEntity
  8
AM_4
100
AcDbLine
 10
1.703125
 20
-5.5
 30
0.0
 11
1.703125
 21
5.5
 31
0.0
  0
LINE
  5
249
330
1E3
100
AcDbEntity
  8
AM_4
100
AcDbLine
 10
0.0000000000000003
 20
-5.5
 30
0.0
 11
1.703125
 21
-5.5
 31
0.0
  0
LINE
  5
24A
330
1E3
100
AcDbEntity
  8
AM_4
100
AcDbLine
 10
1.703125
 20
5.5
 30
0.0
 11
0.0000000000000003
 21
5.5
 31
0.0
  0
LINE
  5
24B
330
1E3
100
AcDbEntity
  8
AM_4
100
AcDbLine
 10
-1.249999999999999
 20
1.583309336892445
 30
0.0
 11
-1.249999999999999
 21
-1.583309317351947
 31
0.0
  0
LINE
  5
24C
330
1E3
100
AcDbEntity
  8
AM_4
100
AcDbLine
 10
-1.124999999999999
 20
1.583309336892445
 30
0.0
 11
-1.249999999999999
 21
1.583309336892445
 31
0.0
  0
LINE
  5
24D
330
1E3
100
AcDbEntity
  8
AM_4
100
AcDbLine
 10
-1.124999999999999
 20
-1.583309317351947
 30
0.0
 11
-1.249999999999999
 21
-1.583309317351947
 31
0.0
  0
LINE
  5
24E
330
1E3
100
AcDbEntity
  8
AM_4
100
AcDbLine
 10
-1.124999999999999
 20
-1.321959317973637
 30
0.0
 11
-1.249999999999999
 21
-1.321959317973637
 31
0.0
  0
LINE
  5
24F
330
1E3
100
AcDbEntity
  8
AM_4
100
AcDbLine
 10
-1.124999999999999
 20
1.321959317973631
 30
0.0
 11
-1.249999999999999
 21
1.321959317973631
 31
0.0
  0
LINE
  5
250
330
1E3
100
AcDbEntity
  8
AM_4
100
AcDbLine
 10
0.0000000000000003
 20
-7.414381997345336
 30
0.0
 11
0.0000000000000003
 21
7.421874999999999
 31
0.0
  0
LINE
  5
251
330
1E3
100
AcDbEntity
  8
AM_4
100
AcDbLine
 10
-1.249999999999999
 20
-1.005945267169694
 30
0.0
 11
-1.124999999999999
 21
-1.005945267169694
 31
0.0
  0
LINE
  5
252
330
1E3
100
AcDbEntity
  8
AM_4
100
AcDbLine
 10
-1.124999999999999
 20
-1.005945267169694
 30
0.0
 11
-1.124999999999999
 21
-5.865247445551312
 31
0.0
  0
LINE
  5
253
330
1E3
100
AcDbEntity
  8
AM_4
100
AcDbLine
 10
-1.124999999999999
 20
-5.865247445551312
 30
0.0
 11
-1.249999999999999
 21
-5.865247445551312
 31
0.0
  0
LINE
  5
254
330
1E3
100
AcDbEntity
  8
AM_4
100
AcDbLine
 10
-1.25
 20
-6.871192712721002
 30
0.0
 11
-1.25
 21
-3.769852610708541
 31
0.0
  0
LINE
  5
255
330
1E3
100
AcDbEntity
  8
AM_4
100
AcDbLine
 10
-1.25
 20
-6.871192712721002
 30
0.0
 11
-1.125
 21
-6.871192712721002
 31
0.0
  0
LINE
  5
256
330
1E3
100
AcDbEntity
  8
AM_4
100
AcDbLine
 10
-1.125
 20
-6.871192712721002
 30
0.0
 11
-1.125
 21
-7.414381997345333
 31
0.0
  0
LINE
  5
257
330
1E3
100
AcDbEntity
  8
AM_4
100
AcDbLine
 10
0.0000000000000003
 20
-7.414381997345336
 30
0.0
 11
-1.125
 21
-7.414381997345333
 31
0.0
  0
LINE
  5
258
330
1E3
100
AcDbEntity
  8
AM_4
100
AcDbLine
 10
-1.125
 20
6.871192712720998
 30
0.0
 11
-1.25
 21
6.871192712720998
 31
0.0
  0
LINE
  5
259
330
1E3
100
AcDbEntity
  8
AM_4
100
AcDbLine
 10
-1.25
 20
3.769852700737689
 30
0.0
 11
-1.25
 21
6.871192712720998
 31
0.0
  0
LINE
  5
25A
330
1E3
100
AcDbEntity
  8
AM_4
100
AcDbLine
 10
-1.249999999999999
 20
5.865247445551308
 30
0.0
 11
-1.124999999999999
 21
5.865247445551308
 31
0.0
  0
LINE
  5
25B
330
1E3
100
AcDbEntity
  8
AM_4
100
AcDbLine
 10
-1.124999999999999
 20
5.865247445551308
 30
0.0
 11
-1.124999999999999
 21
1.005945267169686
 31
0.0
  0
LINE
  5
25C
330
1E3
100
AcDbEntity
  8
AM_4
100
AcDbLine
 10
-1.124999999999999
 20
1.005945267169686
 30
0.0
 11
-1.249999999999999
 21
1.005945267169686
 31
0.0
  0
LINE
  5
25D
330
1E3
100
AcDbEntity
  8
AM_4
100
AcDbLine
 10
0.0000000000000003
 20
7.421874999999999
 30
0.0
 11
-1.125
 21
7.421874999999999
 31
0.0
  0
LINE
  5
25E
330
1E3
100
AcDbEntity
  8
AM_4
100
AcDbLine
 10
-1.125
 20
7.421874999999999
 30
0.0
 11
-1.125
 21
6.871192712720998
 31
0.0
  0
ENDBLK
  5
1E6
330
1E3
100
AcDbEntity
  8
0
100
AcDbBlockEnd
  0
ENDSEC
  0
SECTION
  2
ENTITIES
  0
INSERT
  5
6F
330
1F
100
AcDbEntity
  8
0
100
AcDbBlockReference
  2
1_070747_2
 10
0.0
 20
0.0
 30
0.0
  0
POINT
  5
260
330
1F
100
AcDbEntity
  8
ConnectionPoints
100
AcDbPoint
 10
3.84375
 20
0.0
 30
-0.0000000000000002
  0
POINT
  5
261
330
1F
100
AcDbEntity
  8
ConnectionPoints
100
AcDbPoint
 10
-3.0625
 20
0.0
 30
0.0000000000000002
  0
POINT
  5
262
330
1F
100
AcDbEntity
  8
ConnectionPoints
100
AcDbPoint
 10
3.84375
 20
0.0
 30
-0.0000000000000002
  0
POINT
  5
263
330
1F
100
AcDbEntity
  8
ConnectionPoints
100
AcDbPoint
 10
-3.0625
 20
0.0
 30
0.0000000000000002
  0
POINT
  5
264
330
1F
100
AcDbEntity
  8
ConnectionPoints
100
AcDbPoint
 10
-1.663367333650457
 20
6.280625
 30
0.0000000000000001
  0
POINT
  5
265
330
1F
100
AcDbEntity
  8
ConnectionPoints
100
AcDbPoint
 10
2.375
 20
0.0
 30
-0.0000000000000001
  0
POINT
  5
266
330
1F
100
AcDbEntity
  8
ConnectionPoints
100
AcDbPoint
 10
-1.726515019343072
 20
5.660833333333333
 30
0.0000000000000001
  0
POINT
  5
267
330
1F
100
AcDbEntity
  8
ConnectionPoints
100
AcDbPoint
 10
-1.663367333650457
 20
6.280625
 30
0.0000000000000001
  0
POINT
  5
268
330
1F
100
AcDbEntity
  8
ConnectionPoints
100
AcDbPoint
 10
-3.0625
 20
0.0
 30
0.0000000000000002
  0
POINT
  5
269
330
1F
100
AcDbEntity
  8
ConnectionPoints
100
AcDbPoint
 10
-3.4375
 20
0.0
 30
0.0000000000000002
  0
ENDSEC
  0
SECTION
  2
OBJECTS
  0
DICTIONARY
  5
C
330
0
100
AcDbDictionary
281
     1
  3
ACAD_DETAILVIEWSTYLE
350
271
  3
ACAD_GROUP
350
D
  3
ACAD_LAYOUT
350
1A
  3
ACAD_MATERIAL
350
43
  3
ACAD_MLEADERSTYLE
350
6B
  3
ACAD_MLINESTYLE
350
17
  3
ACAD_PLOTSETTINGS
350
19
  3
ACAD_PLOTSTYLENAME
350
E
  3
ACAD_SCALELIST
350
47
  3
ACAD_SECTIONVIEWSTYLE
350
272
  3
ACAD_TABLESTYLE
350
69
  3
ACAD_VISUALSTYLE
350
2A
  3
ACDB_RECOMPOSE_DATA
350
26E
  3
AcDbVariableDictionary
350
26A
  0
SUN
  5
6D
330
29
100
AcDbSun
 90
        1
290
     0
 63
     7
421
 16777215
 40
1.0
291
     1
 91
  2455826
 92
 54000000
292
     0
 70
     2
 71
   256
280
     1
  0
DICTIONARY
  5
271
102
{ACAD_REACTORS
330
C
102
}
330
C
100
AcDbDictionary
281
     1
  0
DICTIONARY
  5
D
102
{ACAD_REACTORS
330
C
102
}
330
C
100
AcDbDictionary
281
     1
  0
DICTIONARY
  5
1A
102
{ACAD_REACTORS
330
C
102
}
330
C
100
AcDbDictionary
281
     1
  3
Layout1
350
1E
  3
Layout2
350
26
  3
Model
350
22
  0
DICTIONARY
  5
43
102
{ACAD_REACTORS
330
C
102
}
330
C
100
AcDbDictionary
281
     1
  3
ByBlock
350
45
  3
ByLayer
350
44
  3
Global
350
46
  0
DICTIONARY
  5
6B
102
{ACAD_REACTORS
330
C
102
}
330
C
100
AcDbDictionary
281
     1
  3
Standard
350
6C
  0
DICTIONARY
  5
17
102
{ACAD_REACTORS
330
C
102
}
330
C
100
AcDbDictionary
281
     1
  3
Standard
350
18
  0
DICTIONARY
  5
19
102
{ACAD_REACTORS
330
C
102
}
330
C
100
AcDbDictionary
281
     1
  0
ACDBDICTIONARYWDFLT
  5
E
102
{ACAD_REACTORS
330
C
102
}
330
C
100
AcDbDictionary
281
     1
  3
Normal
350
F
100
AcDbDictionaryWithDefault
340
F
  0
DICTIONARY
  5
47
102
{ACAD_REACTORS
330
C
102
}
330
C
100
AcDbDictionary
281
     1
  3
A0
350
48
  3
A1
350
49
  3
A2
350
4A
  3
A3
350
4B
  3
A4
350
4C
  3
A5
350
4D
  3
A6
350
4E
  3
A7
350
4F
  3
A8
350
50
  3
A9
350
51
  3
B0
350
52
  3
B1
350
53
  3
B2
350
54
  3
B3
350
55
  3
B4
350
56
  3
B5
350
57
  3
B6
350
58
  3
B7
350
59
  3
B8
350
5A
  3
B9
350
5B
  3
C0
350
5C
  3
C1
350
5D
  3
C2
350
5E
  3
C3
350
5F
  3
C4
350
60
  3
C5
350
61
  3
C6
350
62
  3
C7
350
63
  3
C8
350
64
  3
C9
350
65
  3
D0
350
66
  3
D1
350
67
  3
D2
350
68
  0
DICTIONARY
  5
272
102
{ACAD_REACTORS
330
C
102
}
330
C
100
AcDbDictionary
281
     1
  0
DICTIONARY
  5
69
102
{ACAD_REACTORS
330
C
102
}
330
C
100
AcDbDictionary
281
     1
  3
Standard
350
6A
  0
DICTIONARY
  5
2A
102
{ACAD_REACTORS
330
C
102
}
330
C
100
AcDbDictionary
281
     1
  3
2dWireframe
350
2F
  3
Basic
350
32
  3
Brighten
350
36
  3
ColorChange
350
3A
  3
Conceptual
350
34
  3
Dim
350
35
  3
EdgeColorOff
350
3D
  3
Facepattern
350
39
  3
Flat
350
2B
  3
FlatWithEdges
350
2C
  3
Gouraud
350
2D
  3
GouraudWithEdges
350
2E
  3
Hidden
350
31
  3
JitterOff
350
3B
  3
Linepattern
350
38
  3
OverhangOff
350
3C
  3
Realistic
350
33
  3
Shaded
350
42
  3
Shaded with edges
350
41
  3
Shades of Gray
350
3E
  3
Sketchy
350
3F
  3
Thicken
350
37
  3
Wireframe
350
30
  3
X-Ray
350
40
  0
XRECORD
  5
26E
102
{ACAD_REACTORS
330
C
102
}
330
C
100
AcDbXrecord
280
     1
 90
        1
330
6A
  0
DICTIONARY
  5
26A
102
{ACAD_REACTORS
330
C
102
}
330
C
100
AcDbDictionary
281
     1
  3
CANNOSCALE
350
26B
  3
CMLEADERSTYLE
350
270
  3
CTABLESTYLE
350
26F
  0
LAYOUT
  5
1E
102
{ACAD_REACTORS
330
1A
102
}
330
1A
100
AcDbPlotSettings
  1

  2
none_device
  4

  6

 40
0.0
 41
0.0
 42
0.0
 43
0.0
 44
0.0
 45
0.0
 46
0.0
 47
0.0
 48
0.0
 49
0.0
140
0.0
141
0.0
142
1.0
143
1.0
 70
   688
 72
     0
 73
     0
 74
     5
  7

 75
    16
 76
     0
 77
     2
 78
   300
147
1.0
148
0.0
149
0.0
100
AcDbLayout
  1
Layout1
 70
     1
 71
     1
 10
0.0
 20
0.0
 11
12.0
 21
9.0
 12
0.0
 22
0.0
 32
0.0
 14
1.000000000000000E+20
 24
1.000000000000000E+20
 34
1.000000000000000E+20
 15
-1.000000000000000E+20
 25
-1.000000000000000E+20
 35
-1.000000000000000E+20
146
0.0
 13
0.0
 23
0.0
 33
0.0
 16
1.0
 26
0.0
 36
0.0
 17
0.0
 27
1.0
 37
0.0
 76
     0
330
1B
  0
LAYOUT
  5
26
102
{ACAD_REACTORS
330
1A
102
}
330
1A
100
AcDbPlotSettings
  1

  2
none_device
  4

  6

 40
0.0
 41
0.0
 42
0.0
 43
0.0
 44
0.0
 45
0.0
 46
0.0
 47
0.0
 48
0.0
 49
0.0
140
0.0
141
0.0
142
1.0
143
1.0
 70
   688
 72
     0
 73
     0
 74
     5
  7

 75
    16
 76
     0
 77
     2
 78
   300
147
1.0
148
0.0
149
0.0
100
AcDbLayout
  1
Layout2
 70
     1
 71
     2
 10
0.0
 20
0.0
 11
0.0
 21
0.0
 12
0.0
 22
0.0
 32
0.0
 14
0.0
 24
0.0
 34
0.0
 15
0.0
 25
0.0
 35
0.0
146
0.0
 13
0.0
 23
0.0
 33
0.0
 16
1.0
 26
0.0
 36
0.0
 17
0.0
 27
1.0
 37
0.0
 76
     0
330
23
  0
LAYOUT
  5
22
102
{ACAD_REACTORS
330
1A
102
}
330
1A
100
AcDbPlotSettings
  1

  2
none_device
  4
Letter_(8.50_x_11.00_Inches)
  6

 40
6.35
 41
6.35
 42
6.35000508
 43
6.35000508
 44
215.9
 45
279.4
 46
0.0
 47
0.0
 48
0.0
 49
0.0
140
0.0
141
0.0
142
1.0
143
1.0
 70
  1712
 72
     0
 73
     0
 74
     0
  7

 75
     0
 76
     0
 77
     2
 78
   300
147
1.0
148
0.0
149
0.0
100
AcDbLayout
  1
Model
 70
     1
 71
     0
 10
0.0
 20
0.0
 11
12.0
 21
9.0
 12
0.0
 22
0.0
 32
0.0
 14
1.000000000000000E+20
 24
1.000000000000000E+20
 34
1.000000000000000E+20
 15
-1.000000000000000E+20
 25
-1.000000000000000E+20
 35
-1.000000000000000E+20
146
0.0
 13
0.0
 23
0.0
 33
0.0
 16
1.0
 26
0.0
 36
0.0
 17
0.0
 27
1.0
 37
0.0
 76
     0
330
1F
331
29
  0
MATERIAL
  5
45
102
{ACAD_REACTORS
330
43
102
}
330
43
100
AcDbMaterial
  1
ByBlock
 72
     1
 94
      127
  0
MATERIAL
  5
44
102
{ACAD_REACTORS
330
43
102
}
330
43
100
AcDbMaterial
  1
ByLayer
 72
     1
 94
      127
  0
MATERIAL
  5
46
102
{ACAD_REACTORS
330
43
102
}
330
43
100
AcDbMaterial
  1
Global
 72
     1
 94
      127
  0
MLEADERSTYLE
  5
6C
102
{ACAD_REACTORS
330
6B
102
}
330
6B
100
AcDbMLeaderStyle
179
     2
170
     2
171
     1
172
     0
 90
        2
 40
0.0
 41
0.0
173
     1
 91
-1056964608
340
14
 92
       -2
290
     1
 42
0.09
291
     1
 43
0.36
  3
Standard
341
0
 44
0.18
300

342
11
174
     1
178
     6
175
     1
176
     0
 93
-1056964608
 45
0.18
292
     0
297
     0
 46
0.18
343
0
 94
-1056964608
 47
1.0
 49
1.0
140
1.0
293
     1
141
0.0
294
     1
177
     0
142
1.0
295
     0
296
     0
143
0.125
271
     0
272
     9
273
     9
298
     0
  0
MLINESTYLE
  5
18
102
{ACAD_REACTORS
330
17
102
}
330
17
100
AcDbMlineStyle
  2
Standard
 70
     0
  3

 62
   256
 51
90.0
 52
90.0
 71
     2
 49
0.5
 62
   256
  6
BYLAYER
 49
-0.5
 62
   256
  6
BYLAYER
  0
ACDBPLACEHOLDER
  5
F
102
{ACAD_REACTORS
330
E
102
}
330
E
  0
SCALE
  5
48
102
{ACAD_REACTORS
330
47
102
}
330
47
100
AcDbScale
 70
     0
300
1:1
140
1.0
141
1.0
290
     1
  0
SCALE
  5
49
102
{ACAD_REACTORS
330
47
102
}
330
47
100
AcDbScale
 70
     0
300
1:2
140
1.0
141
2.0
290
     0
  0
SCALE
  5
4A
102
{ACAD_REACTORS
330
47
102
}
330
47
100
AcDbScale
 70
     0
300
1:4
140
1.0
141
4.0
290
     0
  0
SCALE
  5
4B
102
{ACAD_REACTORS
330
47
102
}
330
47
100
AcDbScale
 70
     0
300
1:5
140
1.0
141
5.0
290
     0
  0
SCALE
  5
4C
102
{ACAD_REACTORS
330
47
102
}
330
47
100
AcDbScale
 70
     0
300
1:8
140
1.0
141
8.0
290
     0
  0
SCALE
  5
4D
102
{ACAD_REACTORS
330
47
102
}
330
47
100
AcDbScale
 70
     0
300
1:10
140
1.0
141
10.0
290
     0
  0
SCALE
  5
4E
102
{ACAD_REACTORS
330
47
102
}
330
47
100
AcDbScale
 70
     0
300
1:16
140
1.0
141
16.0
290
     0
  0
SCALE
  5
4F
102
{ACAD_REACTORS
330
47
102
}
330
47
100
AcDbScale
 70
     0
300
1:20
140
1.0
141
20.0
290
     0
  0
SCALE
  5
50
102
{ACAD_REACTORS
330
47
102
}
330
47
100
AcDbScale
 70
     0
300
1:30
140
1.0
141
30.0
290
     0
  0
SCALE
  5
51
102
{ACAD_REACTORS
330
47
102
}
330
47
100
AcDbScale
 70
     0
300
1:40
140
1.0
141
40.0
290
     0
  0
SCALE
  5
52
102
{ACAD_REACTORS
330
47
102
}
330
47
100
AcDbScale
 70
     0
300
1:50
140
1.0
141
50.0
290
     0
  0
SCALE
  5
53
102
{ACAD_REACTORS
330
47
102
}
330
47
100
AcDbScale
 70
     0
300
1:100
140
1.0
141
100.0
290
     0
  0
SCALE
  5
54
102
{ACAD_REACTORS
330
47
102
}
330
47
100
AcDbScale
 70
     0
300
2:1
140
2.0
141
1.0
290
     0
  0
SCALE
  5
55
102
{ACAD_REACTORS
330
47
102
}
330
47
100
AcDbScale
 70
     0
300
4:1
140
4.0
141
1.0
290
     0
  0
SCALE
  5
56
102
{ACAD_REACTORS
330
47
102
}
330
47
100
AcDbScale
 70
     0
300
8:1
140
8.0
141
1.0
290
     0
  0
SCALE
  5
57
102
{ACAD_REACTORS
330
47
102
}
330
47
100
AcDbScale
 70
     0
300
10:1
140
10.0
141
1.0
290
     0
  0
SCALE
  5
58
102
{ACAD_REACTORS
330
47
102
}
330
47
100
AcDbScale
 70
     0
300
100:1
140
100.0
141
1.0
290
     0
  0
SCALE
  5
59
102
{ACAD_REACTORS
330
47
102
}
330
47
100
AcDbScale
 70
     0
300
1/128" = 1'-0"
140
0.0078125
141
12.0
290
     0
  0
SCALE
  5
5A
102
{ACAD_REACTORS
330
47
102
}
330
47
100
AcDbScale
 70
     0
300
1/64" = 1'-0"
140
0.015625
141
12.0
290
     0
  0
SCALE
  5
5B
102
{ACAD_REACTORS
330
47
102
}
330
47
100
AcDbScale
 70
     0
300
1/32" = 1'-0"
140
0.03125
141
12.0
290
     0
  0
SCALE
  5
5C
102
{ACAD_REACTORS
330
47
102
}
330
47
100
AcDbScale
 70
     0
300
1/16" = 1'-0"
140
0.0625
141
12.0
290
     0
  0
SCALE
  5
5D
102
{ACAD_REACTORS
330
47
102
}
330
47
100
AcDbScale
 70
     0
300
3/32" = 1'-0"
140
0.09375
141
12.0
290
     0
  0
SCALE
  5
5E
102
{ACAD_REACTORS
330
47
102
}
330
47
100
AcDbScale
 70
     0
300
1/8" = 1'-0"
140
0.125
141
12.0
290
     0
  0
SCALE
  5
5F
102
{ACAD_REACTORS
330
47
102
}
330
47
100
AcDbScale
 70
     0
300
3/16" = 1'-0"
140
0.1875
141
12.0
290
     0
  0
SCALE
  5
60
102
{ACAD_REACTORS
330
47
102
}
330
47
100
AcDbScale
 70
     0
300
1/4" = 1'-0"
140
0.25
141
12.0
290
     0
  0
SCALE
  5
61
102
{ACAD_REACTORS
330
47
102
}
330
47
100
AcDbScale
 70
     0
300
3/8" = 1'-0"
140
0.375
141
12.0
290
     0
  0
SCALE
  5
62
102
{ACAD_REACTORS
330
47
102
}
330
47
100
AcDbScale
 70
     0
300
1/2" = 1'-0"
140
0.5
141
12.0
290
     0
  0
SCALE
  5
63
102
{ACAD_REACTORS
330
47
102
}
330
47
100
AcDbScale
 70
     0
300
3/4" = 1'-0"
140
0.75
141
12.0
290
     0
  0
SCALE
  5
64
102
{ACAD_REACTORS
330
47
102
}
330
47
100
AcDbScale
 70
     0
300
1" = 1'-0"
140
1.0
141
12.0
290
     0
  0
SCALE
  5
65
102
{ACAD_REACTORS
330
47
102
}
330
47
100
AcDbScale
 70
     0
300
1-1/2" = 1'-0"
140
1.5
141
12.0
290
     0
  0
SCALE
  5
66
102
{ACAD_REACTORS
330
47
102
}
330
47
100
AcDbScale
 70
     0
300
3" = 1'-0"
140
3.0
141
12.0
290
     0
  0
SCALE
  5
67
102
{ACAD_REACTORS
330
47
102
}
330
47
100
AcDbScale
 70
     0
300
6" = 1'-0"
140
6.0
141
12.0
290
     0
  0
SCALE
  5
68
102
{ACAD_REACTORS
330
47
102
}
330
47
100
AcDbScale
 70
     0
300
1'-0" = 1'-0"
140
12.0
141
12.0
290
     0
  0
TABLESTYLE
  5
6A
102
{ACAD_REACTORS
330
69
102
}
102
{ACAD_XDICTIONARY
360
26C
102
}
330
69
100
AcDbTableStyle
  3
Standard
 70
     0
 71
     0
 40
0.06
 41
0.06
280
     0
281
     0
  7
Standard
140
0.18
170
     2
 62
     0
 63
   257
283
     0
 90
        4
 91
        0
  1

274
    -2
284
     1
 64
     0
275
    -2
285
     1
 65
     0
276
    -2
286
     1
 66
     0
277
    -2
287
     1
 67
     0
278
    -2
288
     1
 68
     0
279
    -2
289
     1
 69
     0
  7
Standard
140
0.25
170
     5
 62
     0
 63
   257
283
     0
 90
        4
 91
        0
  1

274
    -2
284
     1
 64
     0
275
    -2
285
     1
 65
     0
276
    -2
286
     1
 66
     0
277
    -2
287
     1
 67
     0
278
    -2
288
     1
 68
     0
279
    -2
289
     1
 69
     0
  7
Standard
140
0.18
170
     5
 62
     0
 63
   257
283
     0
 90
        4
 91
        0
  1

274
    -2
284
     1
 64
     0
275
    -2
285
     1
 65
     0
276
    -2
286
     1
 66
     0
277
    -2
287
     1
 67
     0
278
    -2
288
     1
 68
     0
279
    -2
289
     1
 69
     0
  0
VISUALSTYLE
  5
2F
102
{ACAD_REACTORS
330
2A
102
}
330
2A
100
AcDbVisualStyle
  2
2dWireframe
 70
     4
177
     3
291
     0
 70
    58
 90
        0
176
     1
 90
        2
176
     1
 90
        0
176
     1
 90
        0
176
     1
 40
0.6
176
     1
 40
30.0
176
     1
 62
     7
420
 16777215
176
     1
 90
        1
176
     1
 90
        4
176
     1
 62
     7
176
     1
 62
   257
176
     1
 90
        1
176
     1
 90
        1
176
     1
 40
1.0
176
     1
 90
        0
176
     1
 62
   257
176
     1
 40
1.0
176
     1
 90
        1
176
     1
 90
        6
176
     1
 90
        2
176
     1
 62
     7
176
     1
 90
        5
176
     1
 90
        0
176
     1
 90
        0
176
     1
290
     0
176
     1
 90
        1
176
     1
 40
0.0
176
     1
 90
        0
176
     1
290
     1
176
     1
290
     1
176
     1
290
     0
176
     1
290
     0
176
     1
290
     0
176
     1
290
     0
176
     1
290
     0
176
     1
290
     0
176
     1
290
     0
176
     1
 90
       50
176
     1
 40
0.0
176
     1
 40
1.0
176
     1
 90
        0
176
     1
 62
    18
420
        0
176
     1
 90
       50
176
     1
 90
        3
176
     1
 62
     5
420
      255
176
     1
290
     0
176
     1
 90
       50
176
     1
 90
       50
176
     1
 90
       50
176
     1
290
     0
176
     1
 90
       50
176
     1
 62
   256
176
     0
 40
1.0
176
     0
 90
        2
176
     1
  1
strokes_ogs.tif
176
     1
290
     0
176
     1
 40
1.0
176
     1
 40
1.0
176
     1
  0
VISUALSTYLE
  5
32
102
{ACAD_REACTORS
330
2A
102
}
330
2A
100
AcDbVisualStyle
  2
Basic
 70
     7
177
     3
291
     1
 70
    58
 90
        1
176
     1
 90
        0
176
     1
 90
        1
176
     1
 90
        0
176
     1
 40
0.6
176
     1
 40
30.0
176
     1
 62
     7
420
 16777215
176
     1
 90
        0
176
     1
 90
        4
176
     1
 62
     7
176
     1
 62
   257
176
     1
 90
        1
176
     1
 90
        1
176
     1
 40
1.0
176
     1
 90
        8
176
     1
 62
     7
176
     1
 40
1.0
176
     1
 90
        1
176
     1
 90
        6
176
     1
 90
        2
176
     1
 62
     7
176
     1
 90
        5
176
     1
 90
        0
176
     1
 90
        0
176
     1
290
     0
176
     1
 90
        1
176
     1
 40
0.0
176
     1
 90
        0
176
     1
290
     0
176
     1
290
     1
176
     1
290
     1
176
     1
290
     0
176
     1
290
     0
176
     1
290
     0
176
     1
290
     0
176
     1
290
     0
176
     1
290
     0
176
     1
 90
       50
176
     1
 40
0.0
176
     1
 40
1.0
176
     1
 90
        0
176
     1
 62
    18
420
        0
176
     1
 90
       50
176
     1
 90
        3
176
     1
 62
     5
420
      255
176
     1
290
     0
176
     1
 90
       50
176
     1
 90
       50
176
     1
 90
       50
176
     1
290
     0
176
     1
 90
       50
176
     1
 62
   256
176
     0
 40
1.0
176
     0
 90
        2
176
     1
  1
strokes_ogs.tif
176
     1
290
     0
176
     1
 40
1.0
176
     1
 40
1.0
176
     1
  0
VISUALSTYLE
  5
36
102
{ACAD_REACTORS
330
2A
102
}
330
2A
100
AcDbVisualStyle
  2
Brighten
 70
    12
177
     3
291
     1
 70
    58
 90
        2
176
     1
 90
        2
176
     1
 90
        0
176
     1
 90
        0
176
     1
 40
0.6
176
     1
 40
30.0
176
     1
 62
     7
420
 16777215
176
     1
 90
        1
176
     1
 90
        4
176
     1
 62
     7
176
     1
 62
   257
176
     1
 90
        1
176
     1
 90
        1
176
     1
 40
1.0
176
     1
 90
        8
176
     1
 62
     7
176
     1
 40
1.0
176
     1
 90
        1
176
     1
 90
        6
176
     1
 90
        2
176
     1
 62
     7
176
     1
 90
        5
176
     1
 90
        0
176
     1
 90
        0
176
     1
290
     0
176
     1
 90
        1
176
     1
 40
50.0
176
     1
 90
        0
176
     1
290
     0
176
     1
290
     1
176
     1
290
     1
176
     1
290
     0
176
     1
290
     0
176
     1
290
     0
176
     1
290
     0
176
     1
290
     0
176
     1
290
     0
176
     1
 90
       50
176
     1
 40
0.0
176
     1
 40
1.0
176
     1
 90
        0
176
     1
 62
    18
420
        0
176
     1
 90
       50
176
     1
 90
        3
176
     1
 62
     5
420
      255
176
     1
290
     0
176
     1
 90
       50
176
     1
 90
       50
176
     1
 90
       50
176
     1
290
     0
176
     1
 90
       50
176
     1
 62
   256
176
     0
 40
1.0
176
     0
 90
        2
176
     1
  1
strokes_ogs.tif
176
     1
290
     0
176
     1
 40
1.0
176
     1
 40
1.0
176
     1
  0
VISUALSTYLE
  5
3A
102
{ACAD_REACTORS
330
2A
102
}
330
2A
100
AcDbVisualStyle
  2
ColorChange
 70
    16
177
     3
291
     1
 70
    58
 90
        2
176
     1
 90
        2
176
     1
 90
        3
176
     1
 90
        0
176
     1
 40
0.6
176
     1
 40
30.0
176
     1
 62
     8
420
  8421504
176
     1
 90
        1
176
     1
 90
        4
176
     1
 62
     7
176
     1
 62
   257
176
     1
 90
        1
176
     1
 90
        1
176
     1
 40
1.0
176
     1
 90
        8
176
     1
 62
     8
420
  8421504
176
     1
 40
1.0
176
     1
 90
        1
176
     1
 90
        6
176
     1
 90
        2
176
     1
 62
     7
176
     1
 90
        5
176
     1
 90
        0
176
     1
 90
        0
176
     1
290
     0
176
     1
 90
        1
176
     1
 40
0.0
176
     1
 90
        0
176
     1
290
     0
176
     1
290
     1
176
     1
290
     1
176
     1
290
     0
176
     1
290
     0
176
     1
290
     0
176
     1
290
     0
176
     1
290
     0
176
     1
290
     0
176
     1
 90
       50
176
     1
 40
0.0
176
     1
 40
1.0
176
     1
 90
        0
176
     1
 62
    18
420
        0
176
     1
 90
       50
176
     1
 90
        3
176
     1
 62
     5
420
      255
176
     1
290
     0
176
     1
 90
       50
176
     1
 90
       50
176
     1
 90
       50
176
     1
290
     0
176
     1
 90
       50
176
     1
 62
   256
176
     0
 40
1.0
176
     0
 90
        2
176
     1
  1
strokes_ogs.tif
176
     1
290
     0
176
     1
 40
1.0
176
     1
 40
1.0
176
     1
  0
VISUALSTYLE
  5
34
102
{ACAD_REACTORS
330
2A
102
}
330
2A
100
AcDbVisualStyle
  2
Conceptual
 70
     9
177
     3
291
     0
 70
    58
 90
        3
176
     1
 90
        2
176
     1
 90
        0
176
     1
 90
        0
176
     1
 40
0.6
176
     1
 40
30.0
176
     1
 62
     7
420
 16777215
176
     1
 90
        2
176
     1
 90
        2
176
     1
 62
     7
176
     1
 62
   257
176
     1
 90
        1
176
     1
 90
        1
176
     1
 40
179.0
176
     1
 90
        8
176
     1
 62
     7
176
     1
 40
1.0
176
     1
 90
        1
176
     1
 90
        6
176
     1
 90
        2
176
     1
 62
     7
176
     1
 90
        3
176
     1
 90
        0
176
     1
 90
        0
176
     1
290
     0
176
     1
 90
        1
176
     1
 40
0.0
176
     1
 90
        0
176
     1
290
     0
176
     1
290
     1
176
     1
290
     1
176
     1
290
     0
176
     1
290
     0
176
     1
290
     0
176
     1
290
     0
176
     1
290
     0
176
     1
290
     0
176
     1
 90
       50
176
     1
 40
0.0
176
     1
 40
1.0
176
     1
 90
        0
176
     1
 62
    18
420
        0
176
     1
 90
       50
176
     1
 90
        3
176
     1
 62
     5
420
      255
176
     1
290
     0
176
     1
 90
       50
176
     1
 90
       50
176
     1
 90
       50
176
     1
290
     0
176
     1
 90
       50
176
     1
 62
   256
176
     0
 40
1.0
176
     0
 90
        2
176
     1
  1
strokes_ogs.tif
176
     1
290
     0
176
     1
 40
1.0
176
     1
 40
1.0
176
     1
  0
VISUALSTYLE
  5
35
102
{ACAD_REACTORS
330
2A
102
}
330
2A
100
AcDbVisualStyle
  2
Dim
 70
    11
177
     3
291
     1
 70
    58
 90
        2
176
     1
 90
        2
176
     1
 90
        0
176
     1
 90
        0
176
     1
 40
0.6
176
     1
 40
30.0
176
     1
 62
     7
420
 16777215
176
     1
 90
        1
176
     1
 90
        4
176
     1
 62
     7
176
     1
 62
   257
176
     1
 90
        1
176
     1
 90
        1
176
     1
 40
1.0
176
     1
 90
        8
176
     1
 62
     7
176
     1
 40
1.0
176
     1
 90
        1
176
     1
 90
        6
176
     1
 90
        2
176
     1
 62
     7
176
     1
 90
        5
176
     1
 90
        0
176
     1
 90
        0
176
     1
290
     0
176
     1
 90
        1
176
     1
 40
-50.0
176
     1
 90
        0
176
     1
290
     0
176
     1
290
     1
176
     1
290
     1
176
     1
290
     0
176
     1
290
     0
176
     1
290
     0
176
     1
290
     0
176
     1
290
     0
176
     1
290
     0
176
     1
 90
       50
176
     1
 40
0.0
176
     1
 40
1.0
176
     1
 90
        0
176
     1
 62
    18
420
        0
176
     1
 90
       50
176
     1
 90
        3
176
     1
 62
     5
420
      255
176
     1
290
     0
176
     1
 90
       50
176
     1
 90
       50
176
     1
 90
       50
176
     1
290
     0
176
     1
 90
       50
176
     1
 62
   256
176
     0
 40
1.0
176
     0
 90
        2
176
     1
  1
strokes_ogs.tif
176
     1
290
     0
176
     1
 40
1.0
176
     1
 40
1.0
176
     1
  0
VISUALSTYLE
  5
3D
102
{ACAD_REACTORS
330
2A
102
}
330
2A
100
AcDbVisualStyle
  2
EdgeColorOff
 70
    22
177
     3
291
     1
 70
    58
 90
        2
176
     0
 90
        2
176
     0
 90
        0
176
     0
 90
        0
176
     0
 40
0.6
176
     0
 40
30.0
176
     0
 62
     7
420
 16777215
176
     0
 90
        1
176
     0
 90
        4
176
     0
 62
     7
176
     0
 62
   257
176
     0
 90
        1
176
     0
 90
        1
176
     0
 40
1.0
176
     0
 90
        8
176
     2
 62
     7
176
     0
 40
1.0
176
     0
 90
        1
176
     0
 90
        6
176
     0
 90
        2
176
     0
 62
     7
176
     0
 90
        5
176
     0
 90
        0
176
     0
 90
        0
176
     0
290
     0
176
     0
 90
        1
176
     0
 40
0.0
176
     0
 90
        0
176
     0
290
     0
176
     0
290
     1
176
     0
290
     1
176
     0
290
     0
176
     0
290
     0
176
     0
290
     0
176
     0
290
     0
176
     0
290
     0
176
     0
290
     0
176
     0
 90
       50
176
     0
 40
0.0
176
     0
 40
1.0
176
     0
 90
        0
176
     0
 62
    18
420
        0
176
     0
 90
       50
176
     0
 90
        3
176
     0
 62
     5
420
      255
176
     0
290
     0
176
     0
 90
       50
176
     0
 90
       50
176
     0
 90
       50
176
     0
290
     0
176
     0
 90
       50
176
     0
 62
   256
176
     0
 40
1.0
176
     0
 90
        2
176
     0
  1
strokes_ogs.tif
176
     0
290
     0
176
     0
 40
1.0
176
     0
 40
1.0
176
     0
  0
VISUALSTYLE
  5
39
102
{ACAD_REACTORS
330
2A
102
}
330
2A
100
AcDbVisualStyle
  2
Facepattern
 70
    15
177
     3
291
     1
 70
    58
 90
        2
176
     1
 90
        2
176
     1
 90
        0
176
     1
 90
        0
176
     1
 40
0.6
176
     1
 40
30.0
176
     1
 62
     7
420
 16777215
176
     1
 90
        1
176
     1
 90
        4
176
     1
 62
     7
176
     1
 62
   257
176
     1
 90
        1
176
     1
 90
        1
176
     1
 40
1.0
176
     1
 90
        8
176
     1
 62
     7
176
     1
 40
1.0
176
     1
 90
        1
176
     1
 90
        6
176
     1
 90
        2
176
     1
 62
     7
176
     1
 90
        5
176
     1
 90
        0
176
     1
 90
        0
176
     1
290
     0
176
     1
 90
        1
176
     1
 40
0.0
176
     1
 90
        0
176
     1
290
     0
176
     1
290
     1
176
     1
290
     1
176
     1
290
     0
176
     1
290
     0
176
     1
290
     0
176
     1
290
     0
176
     1
290
     0
176
     1
290
     0
176
     1
 90
       50
176
     1
 40
0.0
176
     1
 40
1.0
176
     1
 90
        0
176
     1
 62
    18
420
        0
176
     1
 90
       50
176
     1
 90
        3
176
     1
 62
     5
420
      255
176
     1
290
     0
176
     1
 90
       50
176
     1
 90
       50
176
     1
 90
       50
176
     1
290
     0
176
     1
 90
       50
176
     1
 62
   256
176
     0
 40
1.0
176
     0
 90
        2
176
     1
  1
strokes_ogs.tif
176
     1
290
     0
176
     1
 40
1.0
176
     1
 40
1.0
176
     1
  0
VISUALSTYLE
  5
2B
102
{ACAD_REACTORS
330
2A
102
}
330
2A
100
AcDbVisualStyle
  2
Flat
 70
     0
177
     3
291
     1
 70
    58
 90
        2
176
     1
 90
        1
176
     1
 90
        1
176
     1
 90
        2
176
     1
 40
0.6
176
     1
 40
30.0
176
     1
 62
     7
420
 16777215
176
     1
 90
        0
176
     1
 90
        0
176
     1
 62
     7
176
     1
 62
   257
176
     1
 90
        1
176
     1
 90
        1
176
     1
 40
1.0
176
     1
 90
        8
176
     1
 62
     7
176
     1
 40
1.0
176
     1
 90
        1
176
     1
 90
        6
176
     1
 90
        2
176
     1
 62
     7
176
     1
 90
        5
176
     1
 90
        0
176
     1
 90
        0
176
     1
290
     0
176
     1
 90
       13
176
     1
 40
0.0
176
     1
 90
        0
176
     1
290
     0
176
     1
290
     1
176
     1
290
     1
176
     1
290
     0
176
     1
290
     0
176
     1
290
     0
176
     1
290
     0
176
     1
290
     0
176
     1
290
     0
176
     1
 90
       50
176
     1
 40
0.0
176
     1
 40
1.0
176
     1
 90
        0
176
     1
 62
    18
420
        0
176
     1
 90
       50
176
     1
 90
        3
176
     1
 62
     5
420
      255
176
     1
290
     0
176
     1
 90
       50
176
     1
 90
       50
176
     1
 90
       50
176
     1
290
     0
176
     1
 90
       50
176
     1
 62
   256
176
     0
 40
1.0
176
     0
 90
        2
176
     1
  1
strokes_ogs.tif
176
     1
290
     0
176
     1
 40
1.0
176
     1
 40
1.0
176
     1
  0
VISUALSTYLE
  5
2C
102
{ACAD_REACTORS
330
2A
102
}
330
2A
100
AcDbVisualStyle
  2
FlatWithEdges
 70
     1
177
     3
291
     1
 70
    58
 90
        2
176
     1
 90
        1
176
     1
 90
        1
176
     1
 90
        2
176
     1
 40
0.6
176
     1
 40
30.0
176
     1
 62
     7
420
 16777215
176
     1
 90
        1
176
     1
 90
        0
176
     1
 62
     7
176
     1
 62
   257
176
     1
 90
        1
176
     1
 90
        1
176
     1
 40
1.0
176
     1
 90
        0
176
     1
 62
   257
176
     1
 40
1.0
176
     1
 90
        1
176
     1
 90
        6
176
     1
 90
        2
176
     1
 62
     7
176
     1
 90
        5
176
     1
 90
        0
176
     1
 90
        0
176
     1
290
     0
176
     1
 90
       13
176
     1
 40
0.0
176
     1
 90
        0
176
     1
290
     0
176
     1
290
     1
176
     1
290
     1
176
     1
290
     0
176
     1
290
     0
176
     1
290
     0
176
     1
290
     0
176
     1
290
     0
176
     1
290
     0
176
     1
 90
       50
176
     1
 40
0.0
176
     1
 40
1.0
176
     1
 90
        0
176
     1
 62
    18
420
        0
176
     1
 90
       50
176
     1
 90
        3
176
     1
 62
     5
420
      255
176
     1
290
     0
176
     1
 90
       50
176
     1
 90
       50
176
     1
 90
       50
176
     1
290
     0
176
     1
 90
       50
176
     1
 62
   256
176
     0
 40
1.0
176
     0
 90
        2
176
     1
  1
strokes_ogs.tif
176
     1
290
     0
176
     1
 40
1.0
176
     1
 40
1.0
176
     1
  0
VISUALSTYLE
  5
2D
102
{ACAD_REACTORS
330
2A
102
}
330
2A
100
AcDbVisualStyle
  2
Gouraud
 70
     2
177
     3
291
     1
 70
    58
 90
        2
176
     1
 90
        2
176
     1
 90
        1
176
     1
 90
        2
176
     1
 40
0.6
176
     1
 40
30.0
176
     1
 62
     7
420
 16777215
176
     1
 90
        0
176
     1
 90
        0
176
     1
 62
     7
176
     1
 62
   257
176
     1
 90
        1
176
     1
 90
        1
176
     1
 40
1.0
176
     1
 90
        0
176
     1
 62
     7
176
     1
 40
1.0
176
     1
 90
        1
176
     1
 90
        6
176
     1
 90
        2
176
     1
 62
     7
176
     1
 90
        5
176
     1
 90
        0
176
     1
 90
        0
176
     1
290
     0
176
     1
 90
       13
176
     1
 40
0.0
176
     1
 90
        0
176
     1
290
     0
176
     1
290
     1
176
     1
290
     1
176
     1
290
     0
176
     1
290
     0
176
     1
290
     0
176
     1
290
     0
176
     1
290
     0
176
     1
290
     0
176
     1
 90
       50
176
     1
 40
0.0
176
     1
 40
1.0
176
     1
 90
        0
176
     1
 62
    18
420
        0
176
     1
 90
       50
176
     1
 90
        3
176
     1
 62
     5
420
      255
176
     1
290
     0
176
     1
 90
       50
176
     1
 90
       50
176
     1
 90
       50
176
     1
290
     0
176
     1
 90
       50
176
     1
 62
   256
176
     0
 40
1.0
176
     0
 90
        2
176
     1
  1
strokes_ogs.tif
176
     1
290
     0
176
     1
 40
1.0
176
     1
 40
1.0
176
     1
  0
VISUALSTYLE
  5
2E
102
{ACAD_REACTORS
330
2A
102
}
330
2A
100
AcDbVisualStyle
  2
GouraudWithEdges
 70
     3
177
     3
291
     1
 70
    58
 90
        2
176
     1
 90
        2
176
     1
 90
        1
176
     1
 90
        2
176
     1
 40
0.6
176
     1
 40
30.0
176
     1
 62
     7
420
 16777215
176
     1
 90
        1
176
     1
 90
        0
176
     1
 62
     7
176
     1
 62
   257
176
     1
 90
        1
176
     1
 90
        1
176
     1
 40
1.0
176
     1
 90
        0
176
     1
 62
   257
176
     1
 40
1.0
176
     1
 90
        1
176
     1
 90
        6
176
     1
 90
        2
176
     1
 62
     7
176
     1
 90
        5
176
     1
 90
        0
176
     1
 90
        0
176
     1
290
     0
176
     1
 90
       13
176
     1
 40
0.0
176
     1
 90
        0
176
     1
290
     0
176
     1
290
     1
176
     1
290
     1
176
     1
290
     0
176
     1
290
     0
176
     1
290
     0
176
     1
290
     0
176
     1
290
     0
176
     1
290
     0
176
     1
 90
       50
176
     1
 40
0.0
176
     1
 40
1.0
176
     1
 90
        0
176
     1
 62
    18
420
        0
176
     1
 90
       50
176
     1
 90
        3
176
     1
 62
     5
420
      255
176
     1
290
     0
176
     1
 90
       50
176
     1
 90
       50
176
     1
 90
       50
176
     1
290
     0
176
     1
 90
       50
176
     1
 62
   256
176
     0
 40
1.0
176
     0
 90
        2
176
     1
  1
strokes_ogs.tif
176
     1
290
     0
176
     1
 40
1.0
176
     1
 40
1.0
176
     1
  0
VISUALSTYLE
  5
31
102
{ACAD_REACTORS
330
2A
102
}
330
2A
100
AcDbVisualStyle
  2
Hidden
 70
     6
177
     3
291
     0
 70
    58
 90
        1
176
     1
 90
        2
176
     1
 90
        2
176
     1
 90
        0
176
     1
 40
0.6
176
     1
 40
30.0
176
     1
 62
     7
420
 16777215
176
     1
 90
        2
176
     1
 90
        2
176
     1
 62
     7
176
     1
 62
   257
176
     1
 90
        2
176
     1
 90
        1
176
     1
 40
40.0
176
     1
 90
        0
176
     1
 62
   257
176
     1
 40
1.0
176
     1
 90
        1
176
     1
 90
        6
176
     1
 90
        2
176
     1
 62
     7
176
     1
 90
        3
176
     1
 90
        0
176
     1
 90
        0
176
     1
290
     0
176
     1
 90
        1
176
     1
 40
0.0
176
     1
 90
        0
176
     1
290
     0
176
     1
290
     1
176
     1
290
     1
176
     1
290
     0
176
     1
290
     0
176
     1
290
     0
176
     1
290
     0
176
     1
290
     0
176
     1
290
     0
176
     1
 90
       50
176
     1
 40
0.0
176
     1
 40
1.0
176
     1
 90
        0
176
     1
 62
    18
420
        0
176
     1
 90
       50
176
     1
 90
        3
176
     1
 62
     5
420
      255
176
     1
290
     0
176
     1
 90
       50
176
     1
 90
       50
176
     1
 90
       50
176
     1
290
     0
176
     1
 90
       50
176
     1
 62
   256
176
     0
 40
1.0
176
     0
 90
        2
176
     1
  1
strokes_ogs.tif
176
     1
290
     0
176
     1
 40
1.0
176
     1
 40
1.0
176
     1
  0
VISUALSTYLE
  5
3B
102
{ACAD_REACTORS
330
2A
102
}
330
2A
100
AcDbVisualStyle
  2
JitterOff
 70
    20
177
     3
291
     1
 70
    58
 90
        2
176
     0
 90
        2
176
     0
 90
        0
176
     0
 90
        0
176
     0
 40
0.6
176
     0
 40
30.0
176
     0
 62
     7
420
 16777215
176
     0
 90
        1
176
     0
 90
        4
176
     0
 62
     7
176
     0
 62
   257
176
     0
 90
        1
176
     0
 90
        1
176
     0
 40
1.0
176
     0
 90
       10
176
     2
 62
     7
176
     0
 40
1.0
176
     0
 90
        1
176
     0
 90
        6
176
     0
 90
        2
176
     0
 62
     7
176
     0
 90
        5
176
     0
 90
        0
176
     0
 90
        0
176
     0
290
     0
176
     0
 90
        1
176
     0
 40
0.0
176
     0
 90
        0
176
     0
290
     0
176
     0
290
     1
176
     0
290
     1
176
     0
290
     0
176
     0
290
     0
176
     0
290
     0
176
     0
290
     0
176
     0
290
     0
176
     0
290
     0
176
     0
 90
       50
176
     0
 40
0.0
176
     0
 40
1.0
176
     0
 90
        0
176
     0
 62
    18
420
        0
176
     0
 90
       50
176
     0
 90
        3
176
     0
 62
     5
420
      255
176
     0
290
     0
176
     0
 90
       50
176
     0
 90
       50
176
     0
 90
       50
176
     0
290
     0
176
     0
 90
       50
176
     0
 62
   256
176
     0
 40
1.0
176
     0
 90
        2
176
     0
  1
strokes_ogs.tif
176
     0
290
     0
176
     0
 40
1.0
176
     0
 40
1.0
176
     0
  0
VISUALSTYLE
  5
38
102
{ACAD_REACTORS
330
2A
102
}
330
2A
100
AcDbVisualStyle
  2
Linepattern
 70
    14
177
     3
291
     1
 70
    58
 90
        2
176
     1
 90
        2
176
     1
 90
        0
176
     1
 90
        0
176
     1
 40
0.6
176
     1
 40
30.0
176
     1
 62
     7
420
 16777215
176
     1
 90
        1
176
     1
 90
        4
176
     1
 62
     7
176
     1
 62
   257
176
     1
 90
        7
176
     1
 90
        7
176
     1
 40
1.0
176
     1
 90
        8
176
     1
 62
     7
176
     1
 40
1.0
176
     1
 90
        1
176
     1
 90
        6
176
     1
 90
        2
176
     1
 62
     7
176
     1
 90
        5
176
     1
 90
        0
176
     1
 90
        0
176
     1
290
     0
176
     1
 90
        1
176
     1
 40
0.0
176
     1
 90
        0
176
     1
290
     0
176
     1
290
     1
176
     1
290
     1
176
     1
290
     0
176
     1
290
     0
176
     1
290
     0
176
     1
290
     0
176
     1
290
     0
176
     1
290
     0
176
     1
 90
       50
176
     1
 40
0.0
176
     1
 40
1.0
176
     1
 90
        0
176
     1
 62
    18
420
        0
176
     1
 90
       50
176
     1
 90
        3
176
     1
 62
     5
420
      255
176
     1
290
     0
176
     1
 90
       50
176
     1
 90
       50
176
     1
 90
       50
176
     1
290
     0
176
     1
 90
       50
176
     1
 62
   256
176
     0
 40
1.0
176
     0
 90
        2
176
     1
  1
strokes_ogs.tif
176
     1
290
     0
176
     1
 40
1.0
176
     1
 40
1.0
176
     1
  0
VISUALSTYLE
  5
3C
102
{ACAD_REACTORS
330
2A
102
}
330
2A
100
AcDbVisualStyle
  2
OverhangOff
 70
    21
177
     3
291
     1
 70
    58
 90
        2
176
     0
 90
        2
176
     0
 90
        0
176
     0
 90
        0
176
     0
 40
0.6
176
     0
 40
30.0
176
     0
 62
     7
420
 16777215
176
     0
 90
        1
176
     0
 90
        4
176
     0
 62
     7
176
     0
 62
   257
176
     0
 90
        1
176
     0
 90
        1
176
     0
 40
1.0
176
     0
 90
        9
176
     2
 62
     7
176
     0
 40
1.0
176
     0
 90
        1
176
     0
 90
        6
176
     0
 90
        2
176
     0
 62
     7
176
     0
 90
        5
176
     0
 90
        0
176
     0
 90
        0
176
     0
290
     0
176
     0
 90
        1
176
     0
 40
0.0
176
     0
 90
        0
176
     0
290
     0
176
     0
290
     1
176
     0
290
     1
176
     0
290
     0
176
     0
290
     0
176
     0
290
     0
176
     0
290
     0
176
     0
290
     0
176
     0
290
     0
176
     0
 90
       50
176
     0
 40
0.0
176
     0
 40
1.0
176
     0
 90
        0
176
     0
 62
    18
420
        0
176
     0
 90
       50
176
     0
 90
        3
176
     0
 62
     5
420
      255
176
     0
290
     0
176
     0
 90
       50
176
     0
 90
       50
176
     0
 90
       50
176
     0
290
     0
176
     0
 90
       50
176
     0
 62
   256
176
     0
 40
1.0
176
     0
 90
        2
176
     0
  1
strokes_ogs.tif
176
     0
290
     0
176
     0
 40
1.0
176
     0
 40
1.0
176
     0
  0
VISUALSTYLE
  5
33
102
{ACAD_REACTORS
330
2A
102
}
330
2A
100
AcDbVisualStyle
  2
Realistic
 70
     8
177
     3
291
     0
 70
    58
 90
        2
176
     1
 90
        3
176
     1
 90
        0
176
     1
 90
        2
176
     1
 40
0.6
176
     1
 40
30.0
176
     1
 62
     7
420
 16777215
176
     1
 90
        0
176
     1
 90
        0
176
     1
 62
     7
176
     1
 62
   257
176
     1
 90
        1
176
     1
 90
        1
176
     1
 40
1.0
176
     1
 90
        8
176
     1
 62
   257
176
     1
 40
1.0
176
     1
 90
        1
176
     1
 90
        6
176
     1
 90
        2
176
     1
 62
     7
176
     1
 90
        3
176
     1
 90
        0
176
     1
 90
        0
176
     1
290
     0
176
     1
 90
       13
176
     1
 40
0.0
176
     1
 90
        0
176
     1
290
     0
176
     1
290
     1
176
     1
290
     1
176
     1
290
     0
176
     1
290
     0
176
     1
290
     0
176
     1
290
     0
176
     1
290
     0
176
     1
290
     0
176
     1
 90
       50
176
     1
 40
0.0
176
     1
 40
1.0
176
     1
 90
        0
176
     1
 62
    18
420
        0
176
     1
 90
       50
176
     1
 90
        3
176
     1
 62
     5
420
      255
176
     1
290
     0
176
     1
 90
       50
176
     1
 90
       50
176
     1
 90
       50
176
     1
290
     0
176
     1
 90
       50
176
     1
 62
   256
176
     0
 40
1.0
176
     0
 90
        2
176
     1
  1
strokes_ogs.tif
176
     1
290
     0
176
     1
 40
1.0
176
     1
 40
1.0
176
     1
  0
VISUALSTYLE
  5
42
102
{ACAD_REACTORS
330
2A
102
}
330
2A
100
AcDbVisualStyle
  2
Shaded
 70
    27
177
     3
291
     0
 70
    58
 90
        2
176
     1
 90
        2
176
     1
 90
        1
176
     1
 90
        2
176
     1
 40
0.6
176
     1
 40
30.0
176
     1
 62
     7
420
 16777215
176
     1
 90
        0
176
     1
 90
        4
176
     1
 62
     7
176
     1
 62
   257
176
     1
 90
        1
176
     1
 90
        1
176
     1
 40
1.0
176
     1
 90
        8
176
     1
 62
   257
176
     1
 40
1.0
176
     1
 90
        1
176
     1
 90
        6
176
     1
 90
        2
176
     1
 62
     8
420
  7895160
176
     1
 90
        3
176
     1
 90
        0
176
     1
 90
        0
176
     1
290
     0
176
     1
 90
        5
176
     1
 40
0.0
176
     1
 90
        0
176
     1
290
     0
176
     1
290
     1
176
     1
290
     1
176
     1
290
     0
176
     1
290
     0
176
     1
290
     0
176
     1
290
     0
176
     1
290
     0
176
     1
290
     0
176
     1
 90
       50
176
     1
 40
0.0
176
     1
 40
1.0
176
     1
 90
        0
176
     1
 62
    18
420
        0
176
     1
 90
       50
176
     1
 90
        3
176
     1
 62
     5
420
      255
176
     1
290
     0
176
     1
 90
       50
176
     1
 90
       50
176
     1
 90
       50
176
     1
290
     0
176
     1
 90
       50
176
     1
 62
   256
176
     0
 40
1.0
176
     0
 90
        2
176
     1
  1
strokes_ogs.tif
176
     1
290
     0
176
     1
 40
1.0
176
     1
 40
1.0
176
     1
  0
VISUALSTYLE
  5
41
102
{ACAD_REACTORS
330
2A
102
}
330
2A
100
AcDbVisualStyle
  2
Shaded with edges
 70
    26
177
     3
291
     0
 70
    58
 90
        2
176
     1
 90
        2
176
     1
 90
        1
176
     1
 90
        2
176
     1
 40
0.6
176
     1
 40
30.0
176
     1
 62
     7
420
 16777215
176
     1
 90
        1
176
     1
 90
       10
176
     1
 62
     7
176
     1
 62
   257
176
     1
 90
        2
176
     1
 90
        1
176
     1
 40
1.0
176
     1
 90
        8
176
     1
 62
   257
176
     1
 40
1.0
176
     1
 90
        1
176
     1
 90
        6
176
     1
 90
        2
176
     1
 62
     7
176
     1
 90
        3
176
     1
 90
        0
176
     1
 90
        0
176
     1
290
     0
176
     1
 90
        5
176
     1
 40
0.0
176
     1
 90
        0
176
     1
290
     0
176
     1
290
     1
176
     1
290
     1
176
     1
290
     0
176
     1
290
     0
176
     1
290
     0
176
     1
290
     0
176
     1
290
     0
176
     1
290
     0
176
     1
 90
       50
176
     1
 40
0.0
176
     1
 40
1.0
176
     1
 90
        0
176
     1
 62
    18
420
        0
176
     1
 90
       50
176
     1
 90
        3
176
     1
 62
     5
420
      255
176
     1
290
     0
176
     1
 90
       50
176
     1
 90
       50
176
     1
 90
       50
176
     1
290
     0
176
     1
 90
       50
176
     1
 62
   256
176
     0
 40
1.0
176
     0
 90
        2
176
     1
  1
strokes_ogs.tif
176
     1
290
     0
176
     1
 40
1.0
176
     1
 40
1.0
176
     1
  0
VISUALSTYLE
  5
3E
102
{ACAD_REACTORS
330
2A
102
}
330
2A
100
AcDbVisualStyle
  2
Shades of Gray
 70
    23
177
     3
291
     0
 70
    58
 90
        2
176
     1
 90
        2
176
     1
 90
        3
176
     1
 90
        0
176
     1
 40
0.6
176
     1
 40
30.0
176
     1
 62
     7
420
 16777215
176
     1
 90
        2
176
     1
 90
        2
176
     1
 62
     7
176
     1
 62
     7
176
     1
 90
        1
176
     1
 90
        1
176
     1
 40
40.0
176
     1
 90
        8
176
     1
 62
     7
176
     1
 40
1.0
176
     1
 90
        1
176
     1
 90
        6
176
     1
 90
        2
176
     1
 62
     7
176
     1
 90
        3
176
     1
 90
        0
176
     1
 90
        0
176
     1
290
     0
176
     1
 90
        1
176
     1
 40
0.0
176
     1
 90
        0
176
     1
290
     0
176
     1
290
     1
176
     1
290
     1
176
     1
290
     0
176
     1
290
     0
176
     1
290
     0
176
     1
290
     0
176
     1
290
     0
176
     1
290
     0
176
     1
 90
       50
176
     1
 40
0.0
176
     1
 40
1.0
176
     1
 90
        0
176
     1
 62
    18
420
        0
176
     1
 90
       50
176
     1
 90
        3
176
     1
 62
     5
420
      255
176
     1
290
     0
176
     1
 90
       50
176
     1
 90
       50
176
     1
 90
       50
176
     1
290
     0
176
     1
 90
       50
176
     1
 62
   256
176
     0
 40
1.0
176
     0
 90
        2
176
     1
  1
strokes_ogs.tif
176
     1
290
     0
176
     1
 40
1.0
176
     1
 40
1.0
176
     1
  0
VISUALSTYLE
  5
3F
102
{ACAD_REACTORS
330
2A
102
}
330
2A
100
AcDbVisualStyle
  2
Sketchy
 70
    24
177
     3
291
     0
 70
    58
 90
        1
176
     1
 90
        2
176
     1
 90
        2
176
     1
 90
        0
176
     1
 40
0.6
176
     1
 40
30.0
176
     1
 62
     7
420
 16777215
176
     1
 90
        2
176
     1
 90
        2
176
     1
 62
     7
176
     1
 62
     7
176
     1
 90
        1
176
     1
 90
        1
176
     1
 40
40.0
176
     1
 90
       11
176
     1
 62
     7
176
     1
 40
1.0
176
     1
 90
        1
176
     1
 90
        6
176
     1
 90
        2
176
     1
 62
     7
176
     1
 90
        6
176
     1
 90
        0
176
     1
 90
        0
176
     1
290
     0
176
     1
 90
        1
176
     1
 40
0.0
176
     1
 90
        0
176
     1
290
     0
176
     1
290
     1
176
     1
290
     1
176
     1
290
     0
176
     1
290
     0
176
     1
290
     0
176
     1
290
     0
176
     1
290
     0
176
     1
290
     0
176
     1
 90
       50
176
     1
 40
0.0
176
     1
 40
1.0
176
     1
 90
        0
176
     1
 62
    18
420
        0
176
     1
 90
       50
176
     1
 90
        3
176
     1
 62
     5
420
      255
176
     1
290
     0
176
     1
 90
       50
176
     1
 90
       50
176
     1
 90
       50
176
     1
290
     0
176
     1
 90
       50
176
     1
 62
   256
176
     0
 40
1.0
176
     0
 90
        2
176
     1
  1
strokes_ogs.tif
176
     1
290
     0
176
     1
 40
1.0
176
     1
 40
1.0
176
     1
  0
VISUALSTYLE
  5
37
102
{ACAD_REACTORS
330
2A
102
}
330
2A
100
AcDbVisualStyle
  2
Thicken
 70
    13
177
     3
291
     1
 70
    58
 90
        2
176
     1
 90
        2
176
     1
 90
        0
176
     1
 90
        0
176
     1
 40
0.6
176
     1
 40
30.0
176
     1
 62
     7
420
 16777215
176
     1
 90
        1
176
     1
 90
        4
176
     1
 62
     7
176
     1
 62
   257
176
     1
 90
        1
176
     1
 90
        1
176
     1
 40
1.0
176
     1
 90
       12
176
     1
 62
     7
176
     1
 40
1.0
176
     1
 90
        1
176
     1
 90
        6
176
     1
 90
        2
176
     1
 62
     7
176
     1
 90
        5
176
     1
 90
        0
176
     1
 90
        0
176
     1
290
     0
176
     1
 90
        1
176
     1
 40
0.0
176
     1
 90
        0
176
     1
290
     0
176
     1
290
     1
176
     1
290
     1
176
     1
290
     0
176
     1
290
     0
176
     1
290
     0
176
     1
290
     0
176
     1
290
     0
176
     1
290
     0
176
     1
 90
       50
176
     1
 40
0.0
176
     1
 40
1.0
176
     1
 90
        0
176
     1
 62
    18
420
        0
176
     1
 90
       50
176
     1
 90
        3
176
     1
 62
     5
420
      255
176
     1
290
     0
176
     1
 90
       50
176
     1
 90
       50
176
     1
 90
       50
176
     1
290
     0
176
     1
 90
       50
176
     1
 62
   256
176
     0
 40
1.0
176
     0
 90
        2
176
     1
  1
strokes_ogs.tif
176
     1
290
     0
176
     1
 40
1.0
176
     1
 40
1.0
176
     1
  0
VISUALSTYLE
  5
30
102
{ACAD_REACTORS
330
2A
102
}
330
2A
100
AcDbVisualStyle
  2
Wireframe
 70
     5
177
     3
291
     0
 70
    58
 90
        0
176
     1
 90
        2
176
     1
 90
        0
176
     1
 90
        0
176
     1
 40
0.6
176
     1
 40
30.0
176
     1
 62
     7
420
 16777215
176
     1
 90
        1
176
     1
 90
        4
176
     1
 62
     7
176
     1
 62
   257
176
     1
 90
        1
176
     1
 90
        1
176
     1
 40
1.0
176
     1
 90
        0
176
     1
 62
   257
176
     1
 40
1.0
176
     1
 90
        1
176
     1
 90
        6
176
     1
 90
        2
176
     1
 62
     7
176
     1
 90
        3
176
     1
 90
        0
176
     1
 90
        0
176
     1
290
     0
176
     1
 90
        1
176
     1
 40
0.0
176
     1
 90
        0
176
     1
290
     0
176
     1
290
     1
176
     1
290
     1
176
     1
290
     0
176
     1
290
     0
176
     1
290
     0
176
     1
290
     0
176
     1
290
     0
176
     1
290
     0
176
     1
 90
       50
176
     1
 40
0.0
176
     1
 40
1.0
176
     1
 90
        0
176
     1
 62
    18
420
        0
176
     1
 90
       50
176
     1
 90
        3
176
     1
 62
     5
420
      255
176
     1
290
     0
176
     1
 90
       50
176
     1
 90
       50
176
     1
 90
       50
176
     1
290
     0
176
     1
 90
       50
176
     1
 62
   256
176
     0
 40
1.0
176
     0
 90
        2
176
     1
  1
strokes_ogs.tif
176
     1
290
     0
176
     1
 40
1.0
176
     1
 40
1.0
176
     1
  0
VISUALSTYLE
  5
40
102
{ACAD_REACTORS
330
2A
102
}
330
2A
100
AcDbVisualStyle
  2
X-Ray
 70
    25
177
     3
291
     0
 70
    58
 90
        2
176
     1
 90
        2
176
     1
 90
        1
176
     1
 90
        1
176
     1
 40
0.5
176
     1
 40
30.0
176
     1
 62
     7
420
 16777215
176
     1
 90
        1
176
     1
 90
        0
176
     1
 62
     7
176
     1
 62
   257
176
     1
 90
        1
176
     1
 90
        1
176
     1
 40
1.0
176
     1
 90
        8
176
     1
 62
     7
176
     1
 40
1.0
176
     1
 90
        1
176
     1
 90
        6
176
     1
 90
        2
176
     1
 62
     7
176
     1
 90
        3
176
     1
 90
        0
176
     1
 90
        0
176
     1
290
     0
176
     1
 90
       13
176
     1
 40
0.0
176
     1
 90
        0
176
     1
290
     0
176
     1
290
     1
176
     1
290
     1
176
     1
290
     0
176
     1
290
     0
176
     1
290
     0
176
     1
290
     0
176
     1
290
     0
176
     1
290
     0
176
     1
 90
       50
176
     1
 40
0.0
176
     1
 40
1.0
176
     1
 90
        0
176
     1
 62
    18
420
        0
176
     1
 90
       50
176
     1
 90
        3
176
     1
 62
     5
420
      255
176
     1
290
     0
176
     1
 90
       50
176
     1
 90
       50
176
     1
 90
       50
176
     1
290
     0
176
     1
 90
       50
176
     1
 62
   256
176
     0
 40
1.0
176
     0
 90
        2
176
     1
  1
strokes_ogs.tif
176
     1
290
     0
176
     1
 40
1.0
176
     1
 40
1.0
176
     1
  0
DICTIONARYVAR
  5
26B
102
{ACAD_REACTORS
330
26A
102
}
330
26A
100
DictionaryVariables
280
     0
  1
1:1
  0
DICTIONARYVAR
  5
270
102
{ACAD_REACTORS
330
26A
102
}
330
26A
100
DictionaryVariables
280
     0
  1
Standard
  0
DICTIONARYVAR
  5
26F
102
{ACAD_REACTORS
330
26A
102
}
330
26A
100
DictionaryVariables
280
     0
  1
Standard
  0
DICTIONARY
  5
26C
330
6A
100
AcDbDictionary
280
     1
281
     1
  3
ACAD_ROUNDTRIP_2008_TABLESTYLE_CELLSTYLEMAP
360
26D
  0
CELLSTYLEMAP
  5
26D
102
{ACAD_REACTORS
330
26C
102
}
330
26C
100
AcDbCellStyleMap
 90
        3
300
CELLSTYLE
  1
TABLEFORMAT_BEGIN
 90
        5
170
     1
 91
        0
 92
    32768
 62
   257
 93
        1
300
CONTENTFORMAT
  1
CONTENTFORMAT_BEGIN
 90
        0
 91
        0
 92
        4
 93
        0
300

 40
0.0
140
1.0
 94
        5
 62
     0
340
11
144
0.25
309
CONTENTFORMAT_END
171
     1
301
MARGIN
  1
CELLMARGIN_BEGIN
 40
0.06
 40
0.06
 40
0.06
 40
0.06
 40
0.06
 40
0.06
309
CELLMARGIN_END
 94
        6
 95
        1
302
GRIDFORMAT
  1
GRIDFORMAT_BEGIN
 90
        0
 91
        1
 62
     0
 92
       -2
340
14
 93
        0
 40
0.045
309
GRIDFORMAT_END
 95
        2
302
GRIDFORMAT
  1
GRIDFORMAT_BEGIN
 90
        0
 91
        1
 62
     0
 92
       -2
340
14
 93
        0
 40
0.045
309
GRIDFORMAT_END
 95
        4
302
GRIDFORMAT
  1
GRIDFORMAT_BEGIN
 90
        0
 91
        1
 62
     0
 92
       -2
340
14
 93
        0
 40
0.045
309
GRIDFORMAT_END
 95
        8
302
GRIDFORMAT
  1
GRIDFORMAT_BEGIN
 90
        0
 91
        1
 62
     0
 92
       -2
340
14
 93
        0
 40
0.045
309
GRIDFORMAT_END
 95
       16
302
GRIDFORMAT
  1
GRIDFORMAT_BEGIN
 90
        0
 91
        1
 62
     0
 92
       -2
340
14
 93
        0
 40
0.045
309
GRIDFORMAT_END
 95
       32
302
GRIDFORMAT
  1
GRIDFORMAT_BEGIN
 90
        0
 91
        1
 62
     0
 92
       -2
340
14
 93
        0
 40
0.045
309
GRIDFORMAT_END
309
TABLEFORMAT_END
  1
CELLSTYLE_BEGIN
 90
        1
 91
        1
300
_TITLE
309
CELLSTYLE_END
300
CELLSTYLE
  1
TABLEFORMAT_BEGIN
 90
        5
170
     1
 91
        0
 92
        0
 62
   257
 93
        1
300
CONTENTFORMAT
  1
CONTENTFORMAT_BEGIN
 90
        0
 91
        0
 92
        4
 93
        0
300

 40
0.0
140
1.0
 94
        5
 62
     0
340
11
144
0.18
309
CONTENTFORMAT_END
171
     1
301
MARGIN
  1
CELLMARGIN_BEGIN
 40
0.06
 40
0.06
 40
0.06
 40
0.06
 40
0.06
 40
0.06
309
CELLMARGIN_END
 94
        6
 95
        1
302
GRIDFORMAT
  1
GRIDFORMAT_BEGIN
 90
        0
 91
        1
 62
     0
 92
       -2
340
14
 93
        0
 40
0.045
309
GRIDFORMAT_END
 95
        2
302
GRIDFORMAT
  1
GRIDFORMAT_BEGIN
 90
        0
 91
        1
 62
     0
 92
       -2
340
14
 93
        0
 40
0.045
309
GRIDFORMAT_END
 95
        4
302
GRIDFORMAT
  1
GRIDFORMAT_BEGIN
 90
        0
 91
        1
 62
     0
 92
       -2
340
14
 93
        0
 40
0.045
309
GRIDFORMAT_END
 95
        8
302
GRIDFORMAT
  1
GRIDFORMAT_BEGIN
 90
        0
 91
        1
 62
     0
 92
       -2
340
14
 93
        0
 40
0.045
309
GRIDFORMAT_END
 95
       16
302
GRIDFORMAT
  1
GRIDFORMAT_BEGIN
 90
        0
 91
        1
 62
     0
 92
       -2
340
14
 93
        0
 40
0.045
309
GRIDFORMAT_END
 95
       32
302
GRIDFORMAT
  1
GRIDFORMAT_BEGIN
 90
        0
 91
        1
 62
     0
 92
       -2
340
14
 93
        0
 40
0.045
309
GRIDFORMAT_END
309
TABLEFORMAT_END
  1
CELLSTYLE_BEGIN
 90
        2
 91
        1
300
_HEADER
309
CELLSTYLE_END
300
CELLSTYLE
  1
TABLEFORMAT_BEGIN
 90
        5
170
     1
 91
        0
 92
        0
 62
   257
 93
        1
300
CONTENTFORMAT
  1
CONTENTFORMAT_BEGIN
 90
        0
 91
        0
 92
        4
 93
        0
300

 40
0.0
140
1.0
 94
        2
 62
     0
340
11
144
0.18
309
CONTENTFORMAT_END
171
     1
301
MARGIN
  1
CELLMARGIN_BEGIN
 40
0.06
 40
0.06
 40
0.06
 40
0.06
 40
0.06
 40
0.06
309
CELLMARGIN_END
 94
        6
 95
        1
302
GRIDFORMAT
  1
GRIDFORMAT_BEGIN
 90
        0
 91
        1
 62
     0
 92
       -2
340
14
 93
        0
 40
0.045
309
GRIDFORMAT_END
 95
        2
302
GRIDFORMAT
  1
GRIDFORMAT_BEGIN
 90
        0
 91
        1
 62
     0
 92
       -2
340
14
 93
        0
 40
0.045
309
GRIDFORMAT_END
 95
        4
302
GRIDFORMAT
  1
GRIDFORMAT_BEGIN
 90
        0
 91
        1
 62
     0
 92
       -2
340
14
 93
        0
 40
0.045
309
GRIDFORMAT_END
 95
        8
302
GRIDFORMAT
  1
GRIDFORMAT_BEGIN
 90
        0
 91
        1
 62
     0
 92
       -2
340
14
 93
        0
 40
0.045
309
GRIDFORMAT_END
 95
       16
302
GRIDFORMAT
  1
GRIDFORMAT_BEGIN
 90
        0
 91
        1
 62
     0
 92
       -2
340
14
 93
        0
 40
0.045
309
GRIDFORMAT_END
 95
       32
302
GRIDFORMAT
  1
GRIDFORMAT_BEGIN
 90
        0
 91
        1
 62
     0
 92
       -2
340
14
 93
        0
 40
0.045
309
GRIDFORMAT_END
309
TABLEFORMAT_END
  1
CELLSTYLE_BEGIN
 90
        3
 91
        2
300
_DATA
309
CELLSTYLE_END
  0
ENDSEC
  0
EOF