0
SECTION
  2
HEADER
  9
$ACADVER
  1
AC1027
  9
$ACADMAINTVER
 70
     8
  9
$DWGCODEPAGE
  3
ANSI_1252
  9
$REQUIREDVERSIONS
160
                 0
  9
$COMMENTS
  1
File was created by Cadenas
  9
$CUSTOMPROPERTYTAG
  1
NN
  9
$CUSTOMPROPERTY
  1
S-2000 Piloted Flange Labyrinth Seal
  9
$CUSTOMPROPERTYTAG
  1
NT
  9
$CUSTOMPROPERTY
  1
S-2000 Piloted Flange Bearing -Inch
  9
$CUSTOMPROPERTYTAG
  1
NB
  9
$CUSTOMPROPERTY
  1
070732
  9
$CUSTOMPROPERTYTAG
  1
NBSYN
  9
$CUSTOMPROPERTY
  1
$PN.
  9
$CUSTOMPROPERTYTAG
  1
LINA
  9
$CUSTOMPROPERTY
  1
070732
  9
$CUSTOMPROPERTYTAG
  1
SS
  9
$CUSTOMPROPERTY
  1
2
  9
$CUSTOMPROPERTYTAG
  1
PN
  9
$CUSTOMPROPERTY
  1
070732
  9
$CUSTOMPROPERTYTAG
  1
DESCRIPTION
  9
$CUSTOMPROPERTY
  1
FC-S2-200LE
  9
$CUSTOMPROPERTYTAG
  1
EF
  9
$CUSTOMPROPERTY
  1
Expansion Type
  9
$CUSTOMPROPERTYTAG
  1
ST
  9
$CUSTOMPROPERTY
  1
Labyrinth Seal
  9
$CUSTOMPROPERTYTAG
  1
A
  9
$CUSTOMPROPERTY
  1
2-27/32
  9
$CUSTOMPROPERTYTAG
  1
B
  9
$CUSTOMPROPERTY
  1
6-3/8
  9
$CUSTOMPROPERTYTAG
  1
C
  9
$CUSTOMPROPERTY
  1
2
  9
$CUSTOMPROPERTYTAG
  1
D
  9
$CUSTOMPROPERTY
  1
3-51/64
  9
$CUSTOMPROPERTYTAG
  1
DD
  9
$CUSTOMPROPERTY
  1
5-3/8
  9
$CUSTOMPROPERTYTAG
  1
E
  9
$CUSTOMPROPERTY
  1
7/8
  9
$CUSTOMPROPERTYTAG
  1
F
  9
$CUSTOMPROPERTY
  1
7/16
  9
$CUSTOMPROPERTYTAG
  1
G
  9
$CUSTOMPROPERTY
  1
1-19/32
  9
$CUSTOMPROPERTYTAG
  1
H
  9
$CUSTOMPROPERTY
  1
9/16
  9
$CUSTOMPROPERTYTAG
  1
K
  9
$CUSTOMPROPERTY
  1
4.500
  9
$CUSTOMPROPERTYTAG
  1
L
  9
$CUSTOMPROPERTY
  1
3-7/16
  9
$CUSTOMPROPERTYTAG
  1
M
  9
$CUSTOMPROPERTY
  1
7/16-14
  9
$CUSTOMPROPERTYTAG
  1
N
  9
$CUSTOMPROPERTY
  1
2-55/64
  9
$CUSTOMPROPERTYTAG
  1
P
  9
$CUSTOMPROPERTY
  1
1-1/4
  9
$CUSTOMPROPERTYTAG
  1
Q
  9
$CUSTOMPROPERTY
  1
1-17/64
  9
$CUSTOMPROPERTYTAG
  1
X
  9
$CUSTOMPROPERTY
  1
1/4
  9
$CUSTOMPROPERTYTAG
  1
Y
  9
$CUSTOMPROPERTY
  1
0.020
  9
$CUSTOMPROPERTYTAG
  1
Z
  9
$CUSTOMPROPERTY
  1
2-19/64
  9
$CUSTOMPROPERTYTAG
  1
COMPANY
  9
$CUSTOMPROPERTY
  1
baldor
  9
$INSBASE
 10
0.0
 20
0.0
 30
0.0
  9
$EXTMIN
 10
1.000000000000000E+20
 20
1.000000000000000E+20
 30
1.000000000000000E+20
  9
$EXTMAX
 10
-1.000000000000000E+20
 20
-1.000000000000000E+20
 30
-1.000000000000000E+20
  9
$LIMMIN
 10
0.0
 20
0.0
  9
$LIMMAX
 10
12.0
 20
9.0
  9
$ORTHOMODE
 70
     0
  9
$REGENMODE
 70
     1
  9
$FILLMODE
 70
     1
  9
$QTEXTMODE
 70
     0
  9
$MIRRTEXT
 70
     1
  9
$LTSCALE
 40
1.0
  9
$ATTMODE
 70
     1
  9
$TEXTSIZE
 40
0.2
  9
$TRACEWID
 40
0.05
  9
$TEXTSTYLE
  7
Standard
  9
$CLAYER
  8
0
  9
$CELTYPE
  6
ByLayer
  9
$CECOLOR
 62
   256
  9
$CELTSCALE
 40
1.0
  9
$DISPSILH
 70
     0
  9
$DIMSCALE
 40
1.0
  9
$DIMASZ
 40
0.18
  9
$DIMEXO
 40
0.0625
  9
$DIMDLI
 40
0.38
  9
$DIMRND
 40
0.0
  9
$DIMDLE
 40
0.0
  9
$DIMEXE
 40
0.18
  9
$DIMTP
 40
0.0
  9
$DIMTM
 40
0.0
  9
$DIMTXT
 40
0.18
  9
$DIMCEN
 40
0.09
  9
$DIMTSZ
 40
0.0
  9
$DIMTOL
 70
     0
  9
$DIMLIM
 70
     0
  9
$DIMTIH
 70
     1
  9
$DIMTOH
 70
     1
  9
$DIMSE1
 70
     0
  9
$DIMSE2
 70
     0
  9
$DIMTAD
 70
     0
  9
$DIMZIN
 70
     0
  9
$DIMBLK
  1

  9
$DIMASO
 70
     1
  9
$DIMSHO
 70
     1
  9
$DIMPOST
  1

  9
$DIMAPOST
  1

  9
$DIMALT
 70
     0
  9
$DIMALTD
 70
     2
  9
$DIMALTF
 40
25.4
  9
$DIMLFAC
 40
1.0
  9
$DIMTOFL
 70
     0
  9
$DIMTVP
 40
0.0
  9
$DIMTIX
 70
     0
  9
$DIMSOXD
 70
     0
  9
$DIMSAH
 70
     0
  9
$DIMBLK1
  1

  9
$DIMBLK2
  1

  9
$DIMSTYLE
  2
Standard
  9
$DIMCLRD
 70
     0
  9
$DIMCLRE
 70
     0
  9
$DIMCLRT
 70
     0
  9
$DIMTFAC
 40
1.0
  9
$DIMGAP
 40
0.09
  9
$DIMJUST
 70
     0
  9
$DIMSD1
 70
     0
  9
$DIMSD2
 70
     0
  9
$DIMTOLJ
 70
     1
  9
$DIMTZIN
 70
     0
  9
$DIMALTZ
 70
     0
  9
$DIMALTTZ
 70
     0
  9
$DIMUPT
 70
     0
  9
$DIMDEC
 70
     4
  9
$DIMTDEC
 70
     4
  9
$DIMALTU
 70
     2
  9
$DIMALTTD
 70
     2
  9
$DIMTXSTY
  7
Standard
  9
$DIMAUNIT
 70
     0
  9
$DIMADEC
 70
     0
  9
$DIMALTRND
 40
0.0
  9
$DIMAZIN
 70
     0
  9
$DIMDSEP
 70
    46
  9
$DIMATFIT
 70
     3
  9
$DIMFRAC
 70
     0
  9
$DIMLDRBLK
  1

  9
$DIMLUNIT
 70
     2
  9
$DIMLWD
 70
    -2
  9
$DIMLWE
 70
    -2
  9
$DIMTMOVE
 70
     0
  9
$DIMFXL
 40
1.0
  9
$DIMFXLON
 70
     0
  9
$DIMJOGANG
 40
0.7853981633974483
  9
$DIMTFILL
 70
     0
  9
$DIMTFILLCLR
 70
     0
  9
$DIMARCSYM
 70
     0
  9
$DIMLTYPE
  6

  9
$DIMLTEX1
  6

  9
$DIMLTEX2
  6

  9
$DIMTXTDIRECTION
 70
     0
  9
$LUNITS
 70
     2
  9
$LUPREC
 70
     4
  9
$SKETCHINC
 40
0.1
  9
$FILLETRAD
 40
0.5
  9
$AUNITS
 70
     0
  9
$AUPREC
 70
     0
  9
$MENU
  1
.
  9
$ELEVATION
 40
0.0
  9
$PELEVATION
 40
0.0
  9
$THICKNESS
 40
0.0
  9
$LIMCHECK
 70
     0
  9
$CHAMFERA
 40
0.0
  9
$CHAMFERB
 40
0.0
  9
$CHAMFERC
 40
0.0
  9
$CHAMFERD
 40
0.0
  9
$SKPOLY
 70
     0
  9
$TDCREATE
 40
2458168.985543785
  9
$TDUCREATE
 40
2458168.943877118
  9
$TDUPDATE
 40
2458168.98554397
  9
$TDUUPDATE
 40
2458168.943877303
  9
$TDINDWG
 40
0.0000000116
  9
$TDUSRTIMER
 40
0.0000000116
  9
$USRTIMER
 70
     1
  9
$ANGBASE
 50
0.0
  9
$ANGDIR
 70
     0
  9
$PDMODE
 70
     0
  9
$PDSIZE
 40
0.0
  9
$PLINEWID
 40
0.0
  9
$SPLFRAME
 70
     0
  9
$SPLINETYPE
 70
     6
  9
$SPLINESEGS
 70
     8
  9
$HANDSEED
  5
233
  9
$SURFTAB1
 70
     6
  9
$SURFTAB2
 70
     6
  9
$SURFTYPE
 70
     6
  9
$SURFU
 70
     6
  9
$SURFV
 70
     6
  9
$UCSBASE
  2

  9
$UCSNAME
  2

  9
$UCSORG
 10
0.0
 20
0.0
 30
0.0
  9
$UCSXDIR
 10
1.0
 20
0.0
 30
0.0
  9
$UCSYDIR
 10
0.0
 20
1.0
 30
0.0
  9
$UCSORTHOREF
  2

  9
$UCSORTHOVIEW
 70
     0
  9
$UCSORGTOP
 10
0.0
 20
0.0
 30
0.0
  9
$UCSORGBOTTOM
 10
0.0
 20
0.0
 30
0.0
  9
$UCSORGLEFT
 10
0.0
 20
0.0
 30
0.0
  9
$UCSORGRIGHT
 10
0.0
 20
0.0
 30
0.0
  9
$UCSORGFRONT
 10
0.0
 20
0.0
 30
0.0
  9
$UCSORGBACK
 10
0.0
 20
0.0
 30
0.0
  9
$PUCSBASE
  2

  9
$PUCSNAME
  2

  9
$PUCSORG
 10
0.0
 20
0.0
 30
0.0
  9
$PUCSXDIR
 10
1.0
 20
0.0
 30
0.0
  9
$PUCSYDIR
 10
0.0
 20
1.0
 30
0.0
  9
$PUCSORTHOREF
  2

  9
$PUCSORTHOVIEW
 70
     0
  9
$PUCSORGTOP
 10
0.0
 20
0.0
 30
0.0
  9
$PUCSORGBOTTOM
 10
0.0
 20
0.0
 30
0.0
  9
$PUCSORGLEFT
 10
0.0
 20
0.0
 30
0.0
  9
$PUCSORGRIGHT
 10
0.0
 20
0.0
 30
0.0
  9
$PUCSORGFRONT
 10
0.0
 20
0.0
 30
0.0
  9
$PUCSORGBACK
 10
0.0
 20
0.0
 30
0.0
  9
$USERI1
 70
     0
  9
$USERI2
 70
     0
  9
$USERI3
 70
     0
  9
$USERI4
 70
     0
  9
$USERI5
 70
     0
  9
$USERR1
 40
0.0
  9
$USERR2
 40
0.0
  9
$USERR3
 40
0.0
  9
$USERR4
 40
0.0
  9
$USERR5
 40
0.0
  9
$WORLDVIEW
 70
     1
  9
$SHADEDGE
 70
     3
  9
$SHADEDIF
 70
    70
  9
$TILEMODE
 70
     1
  9
$MAXACTVP
 70
    64
  9
$PINSBASE
 10
0.0
 20
0.0
 30
0.0
  9
$PLIMCHECK
 70
     0
  9
$PEXTMIN
 10
1.000000000000000E+20
 20
1.000000000000000E+20
 30
1.000000000000000E+20
  9
$PEXTMAX
 10
-1.000000000000000E+20
 20
-1.000000000000000E+20
 30
-1.000000000000000E+20
  9
$PLIMMIN
 10
0.0
 20
0.0
  9
$PLIMMAX
 10
12.0
 20
9.0
  9
$UNITMODE
 70
     0
  9
$VISRETAIN
 70
     1
  9
$PLINEGEN
 70
     0
  9
$PSLTSCALE
 70
     1
  9
$TREEDEPTH
 70
  3020
  9
$CMLSTYLE
  2
Standard
  9
$CMLJUST
 70
     0
  9
$CMLSCALE
 40
1.0
  9
$PROXYGRAPHICS
 70
     1
  9
$MEASUREMENT
 70
     0
  9
$CELWEIGHT
370
    -1
  9
$ENDCAPS
280
     0
  9
$JOINSTYLE
280
     0
  9
$LWDISPLAY
290
     0
  9
$INSUNITS
 70
     1
  9
$HYPERLINKBASE
  1

  9
$STYLESHEET
  1

  9
$XEDIT
290
     1
  9
$CEPSNTYPE
380
     0
  9
$PSTYLEMODE
290
     1
  9
$FINGERPRINTGUID
  2
{54809B3E-811A-4952-AA16-7907CE8C7004}
  9
$VERSIONGUID
  2
{FAEB1C32-E019-11D5-929B-00C0DF256EC4}
  9
$EXTNAMES
290
     1
  9
$PSVPSCALE
 40
0.0
  9
$OLESTARTUP
290
     0
  9
$SORTENTS
280
   127
  9
$INDEXCTL
280
     0
  9
$HIDETEXT
280
     1
  9
$XCLIPFRAME
280
     2
  9
$HALOGAP
280
     0
  9
$OBSCOLOR
 70
   257
  9
$OBSLTYPE
280
     0
  9
$INTERSECTIONDISPLAY
280
     0
  9
$INTERSECTIONCOLOR
 70
   257
  9
$DIMASSOC
280
     2
  9
$PROJECTNAME
  1

  9
$CAMERADISPLAY
290
     0
  9
$LENSLENGTH
 40
50.0
  9
$CAMERAHEIGHT
 40
0.0
  9
$STEPSPERSEC
 40
2.0
  9
$STEPSIZE
 40
6.0
  9
$3DDWFPREC
 40
2.0
  9
$PSOLWIDTH
 40
0.25
  9
$PSOLHEIGHT
 40
4.0
  9
$LOFTANG1
 40
1.570796326794897
  9
$LOFTANG2
 40
1.570796326794897
  9
$LOFTMAG1
 40
0.0
  9
$LOFTMAG2
 40
0.0
  9
$LOFTPARAM
 70
     7
  9
$LOFTNORMALS
280
     1
  9
$LATITUDE
 40
37.795
  9
$LONGITUDE
 40
-122.394
  9
$NORTHDIRECTION
 40
0.0
  9
$TIMEZONE
 70
 -8000
  9
$LIGHTGLYPHDISPLAY
280
     1
  9
$TILEMODELIGHTSYNCH
280
     1
  9
$CMATERIAL
347
44
  9
$SOLIDHIST
280
     0
  9
$SHOWHIST
280
     1
  9
$DWFFRAME
280
     2
  9
$DGNFRAME
280
     2
  9
$REALWORLDSCALE
290
     1
  9
$INTERFERECOLOR
 62
   256
  9
$CSHADOW
280
     0
  9
$SHADOWPLANELOCATION
 40
0.0
  0
ENDSEC
  0
SECTION
  2
CLASSES
  0
CLASS
  1
ACDBDICTIONARYWDFLT
  2
AcDbDictionaryWithDefault
  3
ObjectDBX Classes
 90
        0
 91
        4
280
     0
281
     0
  0
CLASS
  1
VISUALSTYLE
  2
AcDbVisualStyle
  3
ObjectDBX Classes
 90
     4095
 91
        4
280
     0
281
     0
  0
CLASS
  1
MATERIAL
  2
AcDbMaterial
  3
ObjectDBX Classes
 90
     1153
 91
        4
280
     0
281
     0
  0
CLASS
  1
SCALE
  2
AcDbScale
  3
ObjectDBX Classes
 90
     1153
 91
        4
280
     0
281
     0
  0
CLASS
  1
TABLESTYLE
  2
AcDbTableStyle
  3
ObjectDBX Classes
 90
     4095
 91
        4
280
     0
281
     0
  0
CLASS
  1
MLEADERSTYLE
  2
AcDbMLeaderStyle
  3
ACDB_MLEADERSTYLE_CLASS
 90
     4095
 91
        4
280
     0
281
     0
  0
CLASS
  1
SUN
  2
AcDbSun
  3
SCENEOE
 90
     1153
 91
        4
280
     0
281
     0
  0
CLASS
  1
DICTIONARYVAR
  2
AcDbDictionaryVar
  3
ObjectDBX Classes
 90
        0
 91
        4
280
     0
281
     0
  0
CLASS
  1
CELLSTYLEMAP
  2
AcDbCellStyleMap
  3
ObjectDBX Classes
 90
     1152
 91
        4
280
     0
281
     0
  0
ENDSEC
  0
SECTION
  2
TABLES
  0
TABLE
  2
VPORT
  5
8
330
0
100
AcDbSymbolTable
 70
     1
  0
VPORT
  5
29
330
8
100
AcDbSymbolTableRecord
100
AcDbViewportTableRecord
  2
*Active
 70
     0
 10
0.0
 20
0.0
 11
1.0
 21
1.0
 12
-0.0000000000000036
 22
0.3979999999999997
 13
0.0
 23
0.0
 14
0.5
 24
0.5
 15
0.5
 25
0.5
 16
0.0
 26
0.0
 36
1.0
 17
0.0
 27
0.0
 37
0.0
 40
4.06317
 41
1.600351449730137
 42
50.0
 43
0.0
 44
0.0
 50
0.0
 51
0.0
 71
     0
 72
   100
 73
     1
 74
     3
 75
     0
 76
     0
 77
     0
 78
     0
281
     0
 65
     1
110
0.0
120
0.0
130
0.0
111
1.0
121
0.0
131
0.0
112
0.0
122
1.0
132
0.0
 79
     0
146
0.0
348
2F
 60
     3
 61
     5
292
     1
282
     1
141
0.0
142
0.0
 63
   250
361
6D
  0
ENDTAB
  0
TABLE
  2
LTYPE
  5
5
330
0
100
AcDbSymbolTable
 70
     3
  0
LTYPE
  5
14
330
5
100
AcDbSymbolTableRecord
100
AcDbLinetypeTableRecord
  2
ByBlock
 70
     0
  3

 72
    65
 73
     0
 40
0.0
  0
LTYPE
  5
15
330
5
100
AcDbSymbolTableRecord
100
AcDbLinetypeTableRecord
  2
ByLayer
 70
     0
  3

 72
    65
 73
     0
 40
0.0
  0
LTYPE
  5
16
330
5
100
AcDbSymbolTableRecord
100
AcDbLinetypeTableRecord
  2
Continuous
 70
     0
  3
Solid line
 72
    65
 73
     0
 40
0.0
  0
LTYPE
  5
A7
330
5
100
AcDbSymbolTableRecord
100
AcDbLinetypeTableRecord
  2
Dashed
 70
     0
  3

 72
    65
 73
     2
 40
2.0
 49
1.0
 74
     0
 49
-1.0
 74
     0
  0
LTYPE
  5
E5
330
5
100
AcDbSymbolTableRecord
100
AcDbLinetypeTableRecord
  2
Center
 70
     0
  3

 72
    65
 73
     4
 40
1.5
 49
0.45
 74
     0
 49
-0.5
 74
     0
 49
0.05
 74
     0
 49
-0.5
 74
     0
  0
ENDTAB
  0
TABLE
  2
LAYER
  5
2
330
0
100
AcDbSymbolTable
 70
     7
  0
LAYER
  5
10
330
2
100
AcDbSymbolTableRecord
100
AcDbLayerTableRecord
  2
0
 70
     0
 62
     7
  6
Continuous
370
    -3
390
F
347
46
348
0
  0
LAYER
  5
72
330
2
100
AcDbSymbolTableRecord
100
AcDbLayerTableRecord
  2
AM_6
 70
     0
 62
    -2
  6
Continuous
370
    35
390
F
347
46
348
0
  0
LAYER
  5
A8
330
2
100
AcDbSymbolTableRecord
100
AcDbLayerTableRecord
  2
AM_9
 70
     0
 62
     6
  6
Dashed
370
    25
390
F
347
46
348
0
  0
LAYER
  5
E6
330
2
100
AcDbSymbolTableRecord
100
AcDbLayerTableRecord
  2
AM_7
 70
     0
 62
     7
  6
Center
370
    25
390
F
347
46
348
0
  0
LAYER
  5
E8
330
2
100
AcDbSymbolTableRecord
100
AcDbLayerTableRecord
  2
AM_4
 70
     0
 62
     7
  6
Continuous
370
    50
390
F
347
46
348
0
  0
LAYER
  5
FE
330
2
100
AcDbSymbolTableRecord
100
AcDbLayerTableRecord
  2
AM_5
 70
     0
 62
     3
  6
Continuous
370
    25
390
F
347
46
348
0
  0
LAYER
  5
21F
330
2
100
AcDbSymbolTableRecord
100
AcDbLayerTableRecord
  2
ConnectionPoints
 70
     0
 62
     7
  6
Continuous
370
    50
390
F
347
46
348
0
  0
ENDTAB
  0
TABLE
  2
STYLE
  5
3
330
0
100
AcDbSymbolTable
 70
     1
  0
STYLE
  5
11
330
3
100
AcDbSymbolTableRecord
100
AcDbTextStyleTableRecord
  2
Standard
 70
     0
 40
0.0
 41
1.0
 50
0.0
 71
     0
 42
0.2
  3
txt
  4

  0
ENDTAB
  0
TABLE
  2
VIEW
  5
6
330
0
100
AcDbSymbolTable
 70
     0
  0
ENDTAB
  0
TABLE
  2
UCS
  5
7
330
0
100
AcDbSymbolTable
 70
     0
  0
ENDTAB
  0
TABLE
  2
APPID
  5
9
330
0
100
AcDbSymbolTable
 70
     1
  0
APPID
  5
12
330
9
100
AcDbSymbolTableRecord
100
AcDbRegAppTableRecord
  2
ACAD
 70
     0
  0
ENDTAB
  0
TABLE
  2
DIMSTYLE
  5
A
330
0
100
AcDbSymbolTable
 70
     1
100
AcDbDimStyleTable
  0
DIMSTYLE
105
27
330
A
100
AcDbSymbolTableRecord
100
AcDbDimStyleTableRecord
  2
Standard
 70
     0
178
     0
340
11
  0
ENDTAB
  0
TABLE
  2
BLOCK_RECORD
  5
1
330
0
100
AcDbSymbolTable
 70
     7
  0
BLOCK_RECORD
  5
1F
330
1
100
AcDbSymbolTableRecord
100
AcDbBlockTableRecord
  2
*Model_Space
340
22
 70
     0
280
     1
281
     0
  0
BLOCK_RECORD
  5
1B
330
1
100
AcDbSymbolTableRecord
100
AcDbBlockTableRecord
  2
*Paper_Space
340
1E
 70
     0
280
     1
281
     0
  0
BLOCK_RECORD
  5
23
330
1
100
AcDbSymbolTableRecord
100
AcDbBlockTableRecord
  2
*Paper_Space0
340
26
 70
     0
280
     1
281
     0
  0
BLOCK_RECORD
  5
6E
330
1
100
AcDbSymbolTableRecord
100
AcDbBlockTableRecord
  2
1_070732_4
340
0
102
{BLKREFS
331
6F
102
}
 70
     0
280
     1
281
     0
  0
BLOCK_RECORD
  5
90
330
1
100
AcDbSymbolTableRecord
100
AcDbBlockTableRecord
  2
2_2_Disc_0_in_070732_4
340
0
102
{BLKREFS
331
91
102
}
 70
     0
280
     1
281
     0
  0
BLOCK_RECORD
  5
B4
330
1
100
AcDbSymbolTableRecord
100
AcDbBlockTableRecord
  2
3_2CS2i_0_in_070732_4
340
0
102
{BLKREFS
331
B5
102
}
 70
     0
280
     1
281
     0
  0
BLOCK_RECORD
  5
100
330
1
100
AcDbSymbolTableRecord
100
AcDbBlockTableRecord
  2
4_070022i_0_in_070732_4
340
0
102
{BLKREFS
331
101
102
}
 70
     0
280
     1
281
     0
  0
BLOCK_RECORD
  5
159
330
1
100
AcDbSymbolTableRecord
100
AcDbBlockTableRecord
  2
5_405015E_Inch_0_in_070732_4
340
0
102
{BLKREFS
331
15A
102
}
 70
     0
280
     1
281
     0
  0
BLOCK_RECORD
  5
1AE
330
1
100
AcDbSymbolTableRecord
100
AcDbBlockTableRecord
  2
6_070732H_0_in_070732_4
340
0
102
{BLKREFS
331
1AF
102
}
 70
     0
280
     1
281
     0
  0
ENDTAB
  0
ENDSEC
  0
SECTION
  2
BLOCKS
  0
BLOCK
  5
20
330
1F
100
AcDbEntity
  8
0
100
AcDbBlockBegin
  2
*Model_Space
 70
     0
 10
0.0
 20
0.0
 30
0.0
  3
*Model_Space
  1

  0
ENDBLK
  5
21
330
1F
100
AcDbEntity
  8
0
100
AcDbBlockEnd
  0
BLOCK
  5
1C
330
1B
100
AcDbEntity
 67
     1
  8
0
100
AcDbBlockBegin
  2
*Paper_Space
 70
     0
 10
0.0
 20
0.0
 30
0.0
  3
*Paper_Space
  1

  0
ENDBLK
  5
1D
330
1B
100
AcDbEntity
 67
     1
  8
0
100
AcDbBlockEnd
  0
BLOCK
  5
24
330
23
100
AcDbEntity
  8
0
100
AcDbBlockBegin
  2
*Paper_Space0
 70
     0
 10
0.0
 20
0.0
 30
0.0
  3
*Paper_Space0
  1

  0
ENDBLK
  5
25
330
23
100
AcDbEntity
  8
0
100
AcDbBlockEnd
  0
BLOCK
  5
70
330
6E
100
AcDbEntity
  8
0
100
AcDbBlockBegin
  2
1_070732_4
 70
     2
 10
0.0
 20
0.0
 30
0.0
  3
1_070732_4
  1

  0
ATTDEF
  5
73
330
6E
100
AcDbEntity
  8
AM_6
100
AcDbText
 10
8.187499999999996
 20
1.6421875
 30
0.0
 40
0.5
  1
S-2000 Piloted Flange Labyrinth Seal
100
AcDbAttributeDefinition
  3

  2
NN
 70
     8
280
     0
  0
ATTDEF
  5
74
330
6E
100
AcDbEntity
  8
AM_6
100
AcDbText
 10
8.187499999999996
 20
1.1421875
 30
0.0
 40
0.5
  1
S-2000 Piloted Flange Bearing -Inch
100
AcDbAttributeDefinition
  3

  2
NT
 70
     8
280
     0
  0
ATTDEF
  5
75
330
6E
100
AcDbEntity
  8
AM_6
100
AcDbText
 10
8.187499999999996
 20
0.6421874999999997
 30
0.0
 40
0.5
  1
070732
100
AcDbAttributeDefinition
  3

  2
NB
 70
     8
280
     0
  0
ATTDEF
  5
76
330
6E
100
AcDbEntity
  8
AM_6
100
AcDbText
 10
8.187499999999996
 20
0.1421874999999997
 30
0.0
 40
0.5
  1
$PN.
100
AcDbAttributeDefinition
  3

  2
NBSYN
 70
     8
280
     0
  0
ATTDEF
  5
77
330
6E
100
AcDbEntity
  8
AM_6
100
AcDbText
 10
8.187499999999996
 20
-0.3578125000000003
 30
0.0
 40
0.5
  1
070732
100
AcDbAttributeDefinition
  3

  2
LINA
 70
     8
280
     0
  0
ATTDEF
  5
78
330
6E
100
AcDbEntity
  8
AM_6
100
AcDbText
 10
8.187499999999996
 20
-0.8578125000000003
 30
0.0
 40
0.5
  1
2
100
AcDbAttributeDefinition
  3

  2
SS
 70
     8
280
     0
  0
ATTDEF
  5
79
330
6E
100
AcDbEntity
  8
AM_6
100
AcDbText
 10
8.187499999999996
 20
-1.3578125
 30
0.0
 40
0.5
  1
070732
100
AcDbAttributeDefinition
  3

  2
PN
 70
     8
280
     0
  0
ATTDEF
  5
7A
330
6E
100
AcDbEntity
  8
AM_6
100
AcDbText
 10
8.187499999999996
 20
-1.8578125
 30
0.0
 40
0.5
  1
FC-S2-200LE
100
AcDbAttributeDefinition
  3

  2
DESCRIPTION
 70
     8
280
     0
  0
ATTDEF
  5
7B
330
6E
100
AcDbEntity
  8
AM_6
100
AcDbText
 10
8.187499999999996
 20
-2.357812500000001
 30
0.0
 40
0.5
  1
Expansion Type
100
AcDbAttributeDefinition
  3

  2
EF
 70
     8
280
     0
  0
ATTDEF
  5
7C
330
6E
100
AcDbEntity
  8
AM_6
100
AcDbText
 10
8.187499999999996
 20
-2.857812500000001
 30
0.0
 40
0.5
  1
Labyrinth Seal
100
AcDbAttributeDefinition
  3

  2
ST
 70
     8
280
     0
  0
ATTDEF
  5
7D
330
6E
100
AcDbEntity
  8
AM_6
100
AcDbText
 10
8.187499999999996
 20
-3.357812500000001
 30
0.0
 40
0.5
  1
2-27/32
100
AcDbAttributeDefinition
  3

  2
A
 70
     8
280
     0
  0
ATTDEF
  5
7E
330
6E
100
AcDbEntity
  8
AM_6
100
AcDbText
 10
8.187499999999996
 20
-3.857812500000001
 30
0.0
 40
0.5
  1
6-3/8
100
AcDbAttributeDefinition
  3

  2
B
 70
     8
280
     0
  0
ATTDEF
  5
7F
330
6E
100
AcDbEntity
  8
AM_6
100
AcDbText
 10
8.187499999999996
 20
-4.357812500000001
 30
0.0
 40
0.5
  1
2
100
AcDbAttributeDefinition
  3

  2
C
 70
     8
280
     0
  0
ATTDEF
  5
80
330
6E
100
AcDbEntity
  8
AM_6
100
AcDbText
 10
8.187499999999996
 20
-4.857812500000001
 30
0.0
 40
0.5
  1
3-51/64
100
AcDbAttributeDefinition
  3

  2
D
 70
     8
280
     0
  0
ATTDEF
  5
81
330
6E
100
AcDbEntity
  8
AM_6
100
AcDbText
 10
8.187499999999996
 20
-5.357812500000001
 30
0.0
 40
0.5
  1
5-3/8
100
AcDbAttributeDefinition
  3

  2
DD
 70
     8
280
     0
  0
ATTDEF
  5
82
330
6E
100
AcDbEntity
  8
AM_6
100
AcDbText
 10
8.187499999999996
 20
-5.857812500000001
 30
0.0
 40
0.5
  1
7/8
100
AcDbAttributeDefinition
  3

  2
E
 70
     8
280
     0
  0
ATTDEF
  5
83
330
6E
100
AcDbEntity
  8
AM_6
100
AcDbText
 10
8.187499999999996
 20
-6.357812500000001
 30
0.0
 40
0.5
  1
7/16
100
AcDbAttributeDefinition
  3

  2
F
 70
     8
280
     0
  0
ATTDEF
  5
84
330
6E
100
AcDbEntity
  8
AM_6
100
AcDbText
 10
8.187499999999996
 20
-6.857812500000001
 30
0.0
 40
0.5
  1
1-19/32
100
AcDbAttributeDefinition
  3

  2
G
 70
     8
280
     0
  0
ATTDEF
  5
85
330
6E
100
AcDbEntity
  8
AM_6
100
AcDbText
 10
8.187499999999996
 20
-7.357812500000001
 30
0.0
 40
0.5
  1
9/16
100
AcDbAttributeDefinition
  3

  2
H
 70
     8
280
     0
  0
ATTDEF
  5
86
330
6E
100
AcDbEntity
  8
AM_6
100
AcDbText
 10
8.187499999999996
 20
-7.857812500000001
 30
0.0
 40
0.5
  1
4.500
100
AcDbAttributeDefinition
  3

  2
K
 70
     8
280
     0
  0
ATTDEF
  5
87
330
6E
100
AcDbEntity
  8
AM_6
100
AcDbText
 10
8.187499999999996
 20
-8.357812500000001
 30
0.0
 40
0.5
  1
3-7/16
100
AcDbAttributeDefinition
  3

  2
L
 70
     8
280
     0
  0
ATTDEF
  5
88
330
6E
100
AcDbEntity
  8
AM_6
100
AcDbText
 10
8.187499999999996
 20
-8.857812500000001
 30
0.0
 40
0.5
  1
7/16-14
100
AcDbAttributeDefinition
  3

  2
M
 70
     8
280
     0
  0
ATTDEF
  5
89
330
6E
100
AcDbEntity
  8
AM_6
100
AcDbText
 10
8.187499999999996
 20
-9.357812500000001
 30
0.0
 40
0.5
  1
2-55/64
100
AcDbAttributeDefinition
  3

  2
N
 70
     8
280
     0
  0
ATTDEF
  5
8A
330
6E
100
AcDbEntity
  8
AM_6
100
AcDbText
 10
8.187499999999996
 20
-9.857812500000001
 30
0.0
 40
0.5
  1
1-1/4
100
AcDbAttributeDefinition
  3

  2
P
 70
     8
280
     0
  0
ATTDEF
  5
8B
330
6E
100
AcDbEntity
  8
AM_6
100
AcDbText
 10
8.187499999999996
 20
-10.3578125
 30
0.0
 40
0.5
  1
1-17/64
100
AcDbAttributeDefinition
  3

  2
Q
 70
     8
280
     0
  0
ATTDEF
  5
8C
330
6E
100
AcDbEntity
  8
AM_6
100
AcDbText
 10
8.187499999999996
 20
-10.8578125
 30
0.0
 40
0.5
  1
1/4
100
AcDbAttributeDefinition
  3

  2
X
 70
     8
280
     0
  0
ATTDEF
  5
8D
330
6E
100
AcDbEntity
  8
AM_6
100
AcDbText
 10
8.187499999999996
 20
-11.3578125
 30
0.0
 40
0.5
  1
0.020
100
AcDbAttributeDefinition
  3

  2
Y
 70
     8
280
     0
  0
ATTDEF
  5
8E
330
6E
100
AcDbEntity
  8
AM_6
100
AcDbText
 10
8.187499999999996
 20
-11.8578125
 30
0.0
 40
0.5
  1
2-19/64
100
AcDbAttributeDefinition
  3

  2
Z
 70
     8
280
     0
  0
ATTDEF
  5
8F
330
6E
100
AcDbEntity
  8
AM_6
100
AcDbText
 10
8.187499999999996
 20
-12.3578125
 30
0.0
 40
0.5
  1
baldor
100
AcDbAttributeDefinition
  3

  2
COMPANY
 70
     8
280
     0
  0
INSERT
  5
91
330
6E
100
AcDbEntity
  8
0
100
AcDbBlockReference
  2
2_2_Disc_0_in_070732_4
 10
0.0
 20
0.0
 30
0.0
  0
INSERT
  5
B5
330
6E
100
AcDbEntity
  8
0
100
AcDbBlockReference
  2
3_2CS2i_0_in_070732_4
 10
0.0
 20
0.0
 30
0.0
  0
INSERT
  5
101
330
6E
100
AcDbEntity
  8
0
100
AcDbBlockReference
  2
4_070022i_0_in_070732_4
 10
0.0
 20
0.0
 30
0.0
  0
INSERT
  5
15A
330
6E
100
AcDbEntity
  8
0
100
AcDbBlockReference
  2
5_405015E_Inch_0_in_070732_4
 10
0.0
 20
0.0
 30
0.0
  0
INSERT
  5
1AF
330
6E
100
AcDbEntity
  8
0
100
AcDbBlockReference
  2
6_070732H_0_in_070732_4
 10
0.0
 20
0.0
 30
0.0
  0
ENDBLK
  5
71
330
6E
100
AcDbEntity
  8
0
100
AcDbBlockEnd
  0
BLOCK
  5
92
330
90
100
AcDbEntity
  8
0
100
AcDbBlockBegin
  2
2_2_Disc_0_in_070732_4
 70
     2
 10
0.0
 20
0.0
 30
0.0
  3
2_2_Disc_0_in_070732_4
  1

  0
ATTDEF
  5
94
330
90
100
AcDbEntity
  8
AM_6
100
AcDbText
 10
6.77165
 20
1.21875
 30
0.0
 40
0.5
  1
S-2000 -Disc -Inch
100
AcDbAttributeDefinition
  3

  2
NN
 70
     8
280
     0
  0
ATTDEF
  5
95
330
90
100
AcDbEntity
  8
AM_6
100
AcDbText
 10
6.77165
 20
0.71875
 30
0.0
 40
0.5
  1
S-2000 Bearings
100
AcDbAttributeDefinition
  3

  2
NT
 70
     8
280
     0
  0
ATTDEF
  5
96
330
90
100
AcDbEntity
  8
AM_6
100
AcDbText
 10
6.77165
 20
0.21875
 30
0.0
 40
0.5
  1
2-Disc
100
AcDbAttributeDefinition
  3

  2
NB
 70
     8
280
     0
  0
ATTDEF
  5
97
330
90
100
AcDbEntity
  8
AM_6
100
AcDbText
 10
6.77165
 20
-0.28125
 30
0.0
 40
0.5
  1
$SS.-Disc
100
AcDbAttributeDefinition
  3

  2
NBSYN
 70
     8
280
     0
  0
ATTDEF
  5
98
330
90
100
AcDbEntity
  8
AM_6
100
AcDbText
 10
6.77165
 20
-0.78125
 30
0.0
 40
0.5
  1
2-Disc
100
AcDbAttributeDefinition
  3

  2
LINA
 70
     8
280
     0
  0
ATTDEF
  5
99
330
90
100
AcDbEntity
  8
AM_6
100
AcDbText
 10
6.77165
 20
-1.28125
 30
0.0
 40
0.5
  1
2
100
AcDbAttributeDefinition
  3

  2
SS
 70
     8
280
     0
  0
ATTDEF
  5
9A
330
90
100
AcDbEntity
  8
AM_6
100
AcDbText
 10
6.77165
 20
-1.78125
 30
0.0
 40
0.5
  1
2.31
100
AcDbAttributeDefinition
  3

  2
CC
 70
     8
280
     0
  0
ATTDEF
  5
9B
330
90
100
AcDbEntity
  8
AM_6
100
AcDbText
 10
6.77165
 20
-2.28125
 30
0.0
 40
0.5
  1
0.41
100
AcDbAttributeDefinition
  3

  2
CSD
 70
     8
280
     0
  0
ATTDEF
  5
9C
330
90
100
AcDbEntity
  8
AM_6
100
AcDbText
 10
6.77165
 20
-2.78125
 30
0.0
 40
0.5
  1
2.000000
100
AcDbAttributeDefinition
  3

  2
SS1
 70
     8
280
     0
  0
ATTDEF
  5
9D
330
90
100
AcDbEntity
  8
AM_6
100
AcDbText
 10
6.77165
 20
-3.28125
 30
0.0
 40
0.5
  1
3.5433
100
AcDbAttributeDefinition
  3

  2
A
 70
     8
280
     0
  0
ATTDEF
  5
9E
330
90
100
AcDbEntity
  8
AM_6
100
AcDbText
 10
6.77165
 20
-3.78125
 30
0.0
 40
0.5
  1
61/64
100
AcDbAttributeDefinition
  3

  2
B
 70
     8
280
     0
  0
ATTDEF
  5
9F
330
90
100
AcDbEntity
  8
AM_6
100
AcDbText
 10
6.77165
 20
-4.28125
 30
0.0
 40
0.5
  1
0.953125
100
AcDbAttributeDefinition
  3

  2
B1
 70
     8
280
     0
  0
ATTDEF
  5
A0
330
90
100
AcDbEntity
  8
AM_6
100
AcDbText
 10
6.77165
 20
-4.78125
 30
0.0
 40
0.5
  1
2-27/32
100
AcDbAttributeDefinition
  3

  2
C
 70
     8
280
     0
  0
ATTDEF
  5
A1
330
90
100
AcDbEntity
  8
AM_6
100
AcDbText
 10
6.77165
 20
-5.28125
 30
0.0
 40
0.5
  1
2.843750
100
AcDbAttributeDefinition
  3

  2
C1
 70
     8
280
     0
  0
ATTDEF
  5
A2
330
90
100
AcDbEntity
  8
AM_6
100
AcDbText
 10
6.77165
 20
-5.78125
 30
0.0
 40
0.5
  1
0.977
100
AcDbAttributeDefinition
  3

  2
D
 70
     8
280
     0
  0
ATTDEF
  5
A3
330
90
100
AcDbEntity
  8
AM_6
100
AcDbText
 10
6.77165
 20
-6.28125
 30
0.0
 40
0.5
  1
3-11/32
100
AcDbAttributeDefinition
  3

  2
E
 70
     8
280
     0
  0
ATTDEF
  5
A4
330
90
100
AcDbEntity
  8
AM_6
100
AcDbText
 10
6.77165
 20
-6.78125
 30
0.0
 40
0.5
  1
3.343750
100
AcDbAttributeDefinition
  3

  2
E1
 70
     8
280
     0
  0
ATTDEF
  5
A5
330
90
100
AcDbEntity
  8
AM_6
100
AcDbText
 10
6.77165
 20
-7.28125
 30
0.0
 40
0.5
  1
0.317
100
AcDbAttributeDefinition
  3

  2
F
 70
     8
280
     0
  0
ATTDEF
  5
A6
330
90
100
AcDbEntity
  8
AM_6
100
AcDbText
 10
6.77165
 20
-7.78125
 30
0.0
 40
0.5
  1
baldor
100
AcDbAttributeDefinition
  3

  2
COMPANY
 70
     8
280
     0
  0
LINE
  5
A9
330
90
100
AcDbEntity
  8
AM_9
100
AcDbLine
 10
1.155
 20
1.125
 30
0.0
 11
1.155
 21
1.21875
 31
0.0
  0
LINE
  5
AA
330
90
100
AcDbEntity
  8
AM_9
100
AcDbLine
 10
-1.155
 20
1.21875
 30
0.0
 11
-1.155
 21
1.125
 31
0.0
  0
LINE
  5
AB
330
90
100
AcDbEntity
  8
AM_9
100
AcDbLine
 10
1.6779
 20
0.8187499999999999
 30
0.0
 11
1.6779
 21
1.125
 31
0.0
  0
LINE
  5
AC
330
90
100
AcDbEntity
  8
AM_9
100
AcDbLine
 10
-1.6779
 20
1.125
 30
0.0
 11
-1.6779
 21
0.8187499999999999
 31
0.0
  0
LINE
  5
AD
330
90
100
AcDbEntity
  8
AM_9
100
AcDbLine
 10
-1.6779
 20
1.21875
 30
0.0
 11
1.677899999995356
 21
1.21875
 31
0.0
  0
ARC
  5
AE
330
90
100
AcDbEntity
  8
AM_9
100
AcDbCircle
 10
1.6779
 20
1.125
 30
0.0
 40
0.0937500000000002
100
AcDbArc
 50
0.0
 51
90.0
  0
ARC
  5
AF
330
90
100
AcDbEntity
  8
AM_9
100
AcDbCircle
 10
-1.6779
 20
1.125
 30
0.0
 40
0.0937500000000004
100
AcDbArc
 50
90.0
 51
180.0
  0
LINE
  5
B0
330
90
100
AcDbEntity
  8
AM_9
100
AcDbLine
 10
-1.77165
 20
0.8187499999999999
 30
0.0
 11
1.77165
 21
0.8187499999999999
 31
0.0
  0
LINE
  5
B1
330
90
100
AcDbEntity
  8
AM_9
100
AcDbLine
 10
-1.77165
 20
1.125
 30
0.0
 11
1.77165
 21
1.125
 31
0.0
  0
LINE
  5
B2
330
90
100
AcDbEntity
  8
AM_9
100
AcDbLine
 10
1.77165
 20
0.8187499999999999
 30
0.0
 11
1.77165
 21
1.125
 31
0.0
  0
LINE
  5
B3
330
90
100
AcDbEntity
  8
AM_9
100
AcDbLine
 10
-1.77165
 20
1.125
 30
0.0
 11
-1.77165
 21
0.8187499999999999
 31
0.0
  0
ENDBLK
  5
93
330
90
100
AcDbEntity
  8
0
100
AcDbBlockEnd
  0
BLOCK
  5
B6
330
B4
100
AcDbEntity
  8
0
100
AcDbBlockBegin
  2
3_2CS2i_0_in_070732_4
 70
     2
 10
0.0
 20
0.0
 30
0.0
  3
3_2CS2i_0_in_070732_4
  1

  0
ATTDEF
  5
B8
330
B4
100
AcDbEntity
  8
AM_6
100
AcDbText
 10
6.71875
 20
-0.7097499999999998
 30
0.0
 40
0.5
  1
S-2000 Collar -Inch
100
AcDbAttributeDefinition
  3

  2
NN
 70
     8
280
     0
  0
ATTDEF
  5
B9
330
B4
100
AcDbEntity
  8
AM_6
100
AcDbText
 10
6.71875
 20
-1.20975
 30
0.0
 40
0.5
  1
S-2000 Bearings
100
AcDbAttributeDefinition
  3

  2
NT
 70
     8
280
     0
  0
ATTDEF
  5
BA
330
B4
100
AcDbEntity
  8
AM_6
100
AcDbText
 10
6.71875
 20
-1.70975
 30
0.0
 40
0.5
  1
2CS2i
100
AcDbAttributeDefinition
  3

  2
NB
 70
     8
280
     0
  0
ATTDEF
  5
BB
330
B4
100
AcDbEntity
  8
AM_6
100
AcDbText
 10
6.71875
 20
-2.20975
 30
0.0
 40
0.5
  1
$BORE.CS2i
100
AcDbAttributeDefinition
  3

  2
NBSYN
 70
     8
280
     0
  0
ATTDEF
  5
BC
330
B4
100
AcDbEntity
  8
AM_6
100
AcDbText
 10
6.71875
 20
-2.70975
 30
0.0
 40
0.5
  1
2CS2i
100
AcDbAttributeDefinition
  3

  2
LINA
 70
     8
280
     0
  0
ATTDEF
  5
BD
330
B4
100
AcDbEntity
  8
AM_6
100
AcDbText
 10
6.71875
 20
-3.20975
 30
0.0
 40
0.5
  1
2
100
AcDbAttributeDefinition
  3

  2
BORE
 70
     8
280
     0
  0
ATTDEF
  5
BE
330
B4
100
AcDbEntity
  8
AM_6
100
AcDbText
 10
6.71875
 20
-3.70975
 30
0.0
 40
0.5
  1
2.000000
100
AcDbAttributeDefinition
  3

  2
BORE1
 70
     8
280
     0
  0
ATTDEF
  5
BF
330
B4
100
AcDbEntity
  8
AM_6
100
AcDbText
 10
6.71875
 20
-4.20975
 30
0.0
 40
0.5
  1
3-7/16
100
AcDbAttributeDefinition
  3

  2
L1
 70
     8
280
     0
  0
ATTDEF
  5
C0
330
B4
100
AcDbEntity
  8
AM_6
100
AcDbText
 10
6.71875
 20
-4.70975
 30
0.0
 40
0.5
  1
3.43750
100
AcDbAttributeDefinition
  3

  2
L
 70
     8
280
     0
  0
ATTDEF
  5
C1
330
B4
100
AcDbEntity
  8
AM_6
100
AcDbText
 10
6.71875
 20
-5.20975
 30
0.0
 40
0.5
  1
3.34375
100
AcDbAttributeDefinition
  3

  2
L2
 70
     8
280
     0
  0
ATTDEF
  5
C2
330
B4
100
AcDbEntity
  8
AM_6
100
AcDbText
 10
6.71875
 20
-5.70975
 30
0.0
 40
0.5
  1
3.50
100
AcDbAttributeDefinition
  3

  2
A
 70
     8
280
     0
  0
ATTDEF
  5
C3
330
B4
100
AcDbEntity
  8
AM_6
100
AcDbText
 10
6.71875
 20
-6.20975
 30
0.0
 40
0.5
  1
1.62
100
AcDbAttributeDefinition
  3

  2
B
 70
     8
280
     0
  0
ATTDEF
  5
C4
330
B4
100
AcDbEntity
  8
AM_6
100
AcDbText
 10
6.71875
 20
-6.70975
 30
0.0
 40
0.5
  1
2.31
100
AcDbAttributeDefinition
  3

  2
C
 70
     8
280
     0
  0
ATTDEF
  5
C5
330
B4
100
AcDbEntity
  8
AM_6
100
AcDbText
 10
6.71875
 20
-7.20975
 30
0.0
 40
0.5
  1
3.50
100
AcDbAttributeDefinition
  3

  2
D
 70
     8
280
     0
  0
ATTDEF
  5
C6
330
B4
100
AcDbEntity
  8
AM_6
100
AcDbText
 10
6.71875
 20
-7.70975
 30
0.0
 40
0.5
  1
0.41
100
AcDbAttributeDefinition
  3

  2
E
 70
     8
280
     0
  0
ATTDEF
  5
C7
330
B4
100
AcDbEntity
  8
AM_6
100
AcDbText
 10
6.71875
 20
-8.20975
 30
0.0
 40
0.5
  1
0.317
100
AcDbAttributeDefinition
  3

  2
F
 70
     8
280
     0
  0
ATTDEF
  5
C8
330
B4
100
AcDbEntity
  8
AM_6
100
AcDbText
 10
6.71875
 20
-8.70975
 30
0.0
 40
0.5
  1
3/8-16
100
AcDbAttributeDefinition
  3

  2
CS
 70
     8
280
     0
  0
ATTDEF
  5
C9
330
B4
100
AcDbEntity
  8
AM_6
100
AcDbText
 10
6.71875
 20
-9.20975
 30
0.0
 40
0.5
  1
0.3750
100
AcDbAttributeDefinition
  3

  2
NDM
 70
     8
280
     0
  0
ATTDEF
  5
CA
330
B4
100
AcDbEntity
  8
AM_6
100
AcDbText
 10
6.71875
 20
-9.70975
 30
0.0
 40
0.5
  1
0.3070
100
AcDbAttributeDefinition
  3

  2
KDM
 70
     8
280
     0
  0
ATTDEF
  5
CB
330
B4
100
AcDbEntity
  8
AM_6
100
AcDbText
 10
6.71875
 20
-10.20975
 30
0.0
 40
0.5
  1
1
100
AcDbAttributeDefinition
  3

  2
DD
 70
     8
280
     0
  0
ATTDEF
  5
CC
330
B4
100
AcDbEntity
  8
AM_6
100
AcDbText
 10
6.71875
 20
-10.70975
 30
0.0
 40
0.5
  1
baldor
100
AcDbAttributeDefinition
  3

  2
COMPANY
 70
     8
280
     0
  0
LINE
  5
CD
330
B4
100
AcDbEntity
  8
AM_9
100
AcDbLine
 10
1.08508614371301
 20
-0.8908277354678222
 30
0.0
 11
1.076997333078978
 21
-0.8807386704697473
 31
0.0
  0
LINE
  5
CE
330
B4
100
AcDbEntity
  8
AM_9
100
AcDbLine
 10
1.077118752485536
 20
-1.172609884733209
 30
0.0
 11
1.08508614371301
 21
-1.162672264532177
 31
0.0
  0
LWPOLYLINE
  5
CF
330
B4
100
AcDbEntity
  8
AM_9
100
AcDbPolyline
 90
       26
 70
     0
 43
0.0
 10
1.076987422341317
 20
-0.8807263089636327
 10
1.076852235758493
 20
-0.8805582714436828
 10
1.066278981138374
 20
-0.8705514325370477
 10
1.054569711275849
 20
-0.8651816587539377
 10
1.041481947595278
 20
-0.8646728277351381
 10
1.0278006900604
 20
-0.8692568408840393
 10
1.013830421402534
 20
-0.8790142554747372
 10
1.000232460804837
 20
-0.8936660298468584
 10
0.987830224755597
 20
-0.912578571350549
 10
0.9769926350917173
 20
-0.9354909250883913
 10
0.9688299740288342
 20
-0.9602593561118817
 10
0.9631497418277855
 20
-0.9873657952237771
 10
0.9605386608941846
 20
-1.013421165229202
 10
0.9605148356925725
 20
-1.039897638067584
 10
0.962909491879545
 20
-1.064447315440199
 10
0.9674605839073526
 20
-1.087962472618771
 10
0.9740576435160456
 20
-1.11015029802289
 10
0.9822865829736409
 20
-1.130187085965838
 10
0.9925219865207319
 20
-1.148814809653995
 10
1.003775738539055
 20
-1.164195301954541
 10
1.016601818437457
 20
-1.176830868890706
 10
1.029653900797198
 20
-1.185154421512373
 10
1.043155529328197
 20
-1.189042849706191
 10
1.056026013204927
 20
-1.187926650013289
 10
1.068107647222918
 20
-1.181608942332216
 10
1.076985474286909
 20
-1.17277612059274
  0
LWPOLYLINE
  5
D0
330
B4
100
AcDbEntity
  8
AM_9
100
AcDbPolyline
 90
        7
 70
     0
 43
0.0
 10
1.108937853387737
 20
-1.02675
 10
1.108513499617112
 20
-1.005771520915244
 10
1.106903610330475
 20
-0.9811692420359703
 10
1.104130104245032
 20
-0.9581053220393713
 10
1.100216007379131
 20
-0.9368283842573348
 10
1.096179993962825
 20
-0.9210862697312583
 10
1.091418091293067
 20
-0.907020700757612
  0
LWPOLYLINE
  5
D1
330
B4
100
AcDbEntity
  8
AM_9
100
AcDbPolyline
 90
        8
 70
     0
 43
0.0
 10
1.081025625483829
 20
-1.167196261301079
 10
1.088143681974203
 20
-1.154182303738319
 10
1.095791412491812
 20
-1.133722829888135
 10
1.101517109163569
 20
-1.110428283758052
 10
1.105650976577941
 20
-1.084161069580451
 10
1.107986640313107
 20
-1.058086514347769
 10
1.108920889922899
 20
-1.03097461584844
 10
1.108937853387737
 20
-1.02675
  0
LWPOLYLINE
  5
D2
330
B4
100
AcDbEntity
  8
AM_9
100
AcDbPolyline
 90
        3
 70
     0
 43
0.0
 10
1.076985474286909
 20
-1.17277612059274
 10
1.07891168616397
 20
-1.170254583658788
 10
1.081025625483829
 20
-1.167196261301079
  0
LINE
  5
D3
330
B4
100
AcDbEntity
  8
AM_9
100
AcDbLine
 10
1.054806317942603
 20
-1.1804
 30
0.0
 11
1.515191975249613
 21
-1.1804
 31
0.0
  0
LINE
  5
D4
330
B4
100
AcDbEntity
  8
AM_9
100
AcDbLine
 10
1.527037990378052
 20
-0.8730999999999998
 30
0.0
 11
1.054806317942603
 21
-0.8730999999999998
 31
0.0
  0
ELLIPSE
  5
D5
330
B4
100
AcDbEntity
  8
AM_9
100
AcDbEllipse
 10
1.527037990378054
 20
-1.026749999999971
 30
0.0
 11
-2.822504710334292E-17
 21
-0.153649999999969
 31
0.0
210
0.0
220
0.0
230
1.0
 40
0.4226182617407194
 41
3.451025432774909
 42
4.71238898038469
  0
LINE
  5
D6
330
B4
100
AcDbEntity
  8
AM_9
100
AcDbLine
 10
1.518973950997345
 20
-0.8631182831132317
 30
0.0
 11
1.496758164607646
 21
-0.89082773546782
 31
0.0
  0
LWPOLYLINE
  5
D7
330
B4
100
AcDbEntity
  8
AM_9
100
AcDbPolyline
 90
       39
 70
     0
 43
0.0
 10
-0.1218661424184465
 20
-0.9097381044736788
 10
-0.1391103719975643
 20
-0.9274633671601569
 10
-0.1538241570126183
 20
-0.948046829177464
 10
-0.1659591348966734
 20
-0.9728733687546361
 10
-0.173643560517859
 20
-1.000426700585799
 10
-0.1759834116462795
 20
-1.025847550752589
 10
-0.1738155228219684
 20
-1.052094761521261
 10
-0.1677103660053227
 20
-1.075817654958649
 10
-0.1575987202424182
 20
-1.098836348440226
 10
-0.1438821518135295
 20
-1.120072772457577
 10
-0.1266166456928774
 20
-1.139379049811223
 10
-0.105504820089655
 20
-1.156625588346392
 10
-0.0813558454577697
 20
-1.170722487909666
 10
-0.0539914003972061
 20
-1.181356359131617
 10
-0.0244872070150616
 20
-1.187657010899619
 10
0.0061185726449097
 20
-1.189150986662971
 10
0.0374137059144485
 20
-1.18550712012805
 10
0.0671175628243077
 20
-1.176881994249787
 10
0.0957253333484078
 20
-1.162948885410672
 10
0.1203013277651083
 20
-1.145135052348584
 10
0.1419776755493766
 20
-1.122521329989636
 10
0.1577445699724264
 20
-1.098565148278001
 10
0.1692317451698796
 20
-1.071173654001466
 10
0.1747996578234413
 20
-1.045513695572541
 10
0.1757512957912935
 20
-1.018391036554752
 10
0.1723446896408934
 20
-0.9939897331608953
 10
0.1647554934992659
 20
-0.9698288037511985
 10
0.1535827526292065
 20
-0.9476475467854902
 10
0.1387143058527731
 20
-0.9269929288707426
 10
0.1200516691142442
 20
-0.9081489425078082
 10
0.0981529894304415
 20
-0.8920370175886414
 10
0.0726576953317616
 20
-0.8788452503530405
 10
0.044658099968931
 20
-0.8696088380420867
 10
0.0147106004738815
 20
-0.8648231511416239
 10
-0.0164706900634701
 20
-0.8649688215113852
 10
-0.0469582668698165
 20
-0.8701854771344371
 10
-0.0769691017304316
 20
-0.8807259471943011
 10
-0.1002663144367957
 20
-0.8933744640308784
 10
-0.1218661424184465
 20
-0.9097381044736788
  0
LINE
  5
D8
330
B4
100
AcDbEntity
  8
AM_9
100
AcDbLine
 10
1.082413270440977
 20
-0.8884908537610824
 30
0.0
 11
1.076987422341317
 21
-0.8807263089636327
 31
0.0
  0
LWPOLYLINE
  5
D9
330
B4
100
AcDbEntity
  8
AM_9
100
AcDbPolyline
 90
        3
 70
     0
 43
0.0
 10
1.091418091293067
 20
-0.907020700757612
 10
1.084631795879397
 20
-0.8923232780821847
 10
1.082413270440977
 20
-0.8884908537610824
  0
LINE
  5
DA
330
B4
100
AcDbEntity
  8
AM_9
100
AcDbLine
 10
1.155
 20
-1.34375
 30
0.0
 11
1.155
 21
-0.7097499999999998
 31
0.0
  0
LINE
  5
DB
330
B4
100
AcDbEntity
  8
AM_9
100
AcDbLine
 10
-1.155
 20
-0.7097499999999998
 30
0.0
 11
-1.155
 21
-1.34375
 31
0.0
  0
LINE
  5
DC
330
B4
100
AcDbEntity
  8
AM_9
100
AcDbLine
 10
0.15365
 20
-1.02675
 30
0.0
 11
-0.15365
 21
-1.02675
 31
0.0
  0
LINE
  5
DD
330
B4
100
AcDbEntity
  8
AM_9
100
AcDbLine
 10
1.573756133159429
 20
-1.02675
 30
0.0
 11
1.473993545755674
 21
-1.02675
 31
0.0
  0
LINE
  5
DE
330
B4
100
AcDbEntity
  8
AM_9
100
AcDbLine
 10
-1.71875
 20
-0.7097499999999998
 30
0.0
 11
1.71875
 21
-0.7097499999999998
 31
0.0
  0
LINE
  5
DF
330
B4
100
AcDbEntity
  8
AM_9
100
AcDbLine
 10
1.71875
 20
-0.734375
 30
0.0
 11
1.71875
 21
-0.7097499999999998
 31
0.0
  0
LINE
  5
E0
330
B4
100
AcDbEntity
  8
AM_9
100
AcDbLine
 10
-1.71875
 20
-0.7097499999999998
 30
0.0
 11
-1.71875
 21
-0.734375
 31
0.0
  0
LWPOLYLINE
  5
E1
330
B4
100
AcDbEntity
  8
AM_9
100
AcDbPolyline
 90
        6
 70
     0
 43
0.0
 10
0.0235498116950902
 20
-0.8408974282185033
 10
0.0394569760159933
 20
-0.8439119806179948
 10
0.0668434714206103
 20
-0.8529619594686031
 10
0.0918356627371703
 20
-0.8661019939820142
 10
0.1149820182676184
 20
-0.8835497295063653
 10
0.1320844398385382
 20
-0.9009337266513286
  0
LWPOLYLINE
  5
E2
330
B4
100
AcDbEntity
  8
AM_9
100
AcDbPolyline
 90
        6
 70
     0
 43
0.0
 10
-0.1324413608899532
 20
-0.9013495606880734
 10
-0.1266290430121704
 20
-0.8948731235403875
 10
-0.1020456390273909
 20
-0.8730778490046535
 10
-0.0759816788828216
 20
-0.8571748115121532
 10
-0.0465835641519924
 20
-0.8457808138208066
 10
-0.0241380834759639
 20
-0.8409811462464806
  0
ARC
  5
E3
330
B4
100
AcDbEntity
  8
AM_9
100
AcDbCircle
 10
0.0
 20
-1.02675
 30
0.0
 40
0.1536500000000001
100
AcDbArc
 50
39.00641862409629
 51
140.9935813759037
  0
ELLIPSE
  5
E4
330
B4
100
AcDbEntity
  8
AM_9
100
AcDbEllipse
 10
1.054806317942603
 20
-1.02675
 30
0.0
 11
-2.822504710334867E-17
 21
-0.1536500000000003
 31
0.0
210
0.0
220
0.0
230
1.0
 40
0.4226182617406997
 41
0.0
 42
6.283185307179586
  0
LINE
  5
E7
330
B4
100
AcDbEntity
  8
AM_7
100
AcDbLine
 10
-0.1613325000000001
 20
-1.02675
 30
0.0
 11
0.1613325000000006
 21
-1.02675
 31
0.0
  0
LWPOLYLINE
  5
E9
330
B4
100
AcDbEntity
  8
AM_4
100
AcDbPolyline
 90
       11
 70
     0
 43
0.0
 10
1.515239356550272
 20
-1.18039999933858
 10
1.507763524485459
 20
-1.1794025561079
 10
1.496667547102831
 20
-1.174316316752001
 10
1.485781387980508
 20
-1.165107698273059
 10
1.475458036057593
 20
-1.151961551078411
 10
1.466073414835014
 20
-1.13531201614388
 10
1.457965860580665
 20
-1.115502309063228
 10
1.451470006097114
 20
-1.093184647229059
 10
1.446877023847643
 20
-1.068953436775501
 10
1.444350174859911
 20
-1.04352282237596
 10
1.443885541326512
 20
-1.02675
  0
ELLIPSE
  5
EA
330
B4
100
AcDbEntity
  8
AM_4
100
AcDbEllipse
 10
1.527037990378052
 20
-1.02675
 30
0.0
 11
-2.822504710334872E-17
 21
-0.1536500000000005
 31
0.0
210
0.0
220
0.0
230
1.0
 40
0.4226182617406977
 41
1.570796326794897
 42
3.451025432774847
  0
LWPOLYLINE
  5
EB
330
B4
100
AcDbEntity
  8
AM_4
100
AcDbPolyline
 90
       14
 70
     0
 43
0.0
 10
1.519213707271476
 20
-0.8628192403052635
 10
1.524290685623603
 20
-0.8569746877193811
 10
1.537457204063934
 20
-0.8457808138208067
 10
1.550154160379468
 20
-0.8401995391954782
 10
1.562639184269448
 20
-0.8396576541166579
 10
1.574133807459225
 20
-0.844023576111536
 10
1.58478731941901
 20
-0.8529619594686032
 10
1.594417443009241
 20
-0.8663173955364865
 10
1.602820377984683
 20
-0.8835497295063655
 10
1.610141559725512
 20
-0.9050721655308699
 10
1.615985871747971
 20
-0.9295923733316848
 10
1.62049977674168
 20
-0.9578699914386909
 10
1.623369631490096
 20
-0.9879357096323903
 10
1.624643131723091
 20
-1.02675
  0
LWPOLYLINE
  5
EC
330
B4
100
AcDbEntity
  8
AM_4
100
AcDbPolyline
 90
       20
 70
     0
 43
0.0
 10
0.15365
 20
-1.02675
 10
0.1515412694445523
 20
-1.052118605699438
 10
0.1450312307038234
 20
-1.077487211398877
 10
0.1346708348373996
 20
-1.100723567875274
 10
0.1201655527325503
 20
-1.122502610598775
 10
0.1026765235323728
 20
-1.141055966665376
 10
0.0817333511065433
 20
-1.156857577861147
 10
0.0590450685483378
 20
-1.168602043975834
 10
0.0339867986220785
 20
-1.176593985596427
 10
0.0087460581217331
 20
-1.180150876683711
 10
-0.0174791193635276
 20
-1.1794025561079
 10
-0.0424028756734224
 20
-1.174433169774434
 10
-0.0668241709906001
 20
-1.165107698273059
 10
-0.0887358475497578
 20
-1.15218632591728
 10
-0.1087318313594313
 20
-1.13531201614388
 10
-0.1252034677818453
 20
-1.115814101384342
 10
-0.1385451556264255
 20
-1.093184647229059
 10
-0.1476357031138611
 20
-1.069317847797085
 10
-0.1527317744594899
 20
-1.04352282237596
 10
-0.15365
 20
-1.02675
  0
LWPOLYLINE
  5
ED
330
B4
100
AcDbEntity
  8
AM_4
100
AcDbPolyline
 90
       11
 70
     0
 43
0.0
 10
1.573756133159429
 20
-1.02675
 10
1.573015071878
 20
-1.052482005179206
 10
1.570814229013893
 20
-1.077487211398877
 10
1.567157603925145
 20
-1.101038552679179
 10
1.562098591303606
 20
-1.122502610598775
 10
1.555660497643052
 20
-1.141291329003416
 10
1.547963579992137
 20
-1.156857577861147
 10
1.539102244394075
 20
-1.168730991528922
 10
1.529283655734509
 20
-1.176593985596427
 10
1.518750153668723
 20
-1.18015603294159
 10
1.515239356550272
 20
-1.18039999933858
  0
LINE
  5
EE
330
B4
100
AcDbEntity
  8
AM_4
100
AcDbLine
 10
1.671875
 20
-1.238083333333333
 30
0.0
 11
1.671875
 21
-1.02675
 31
0.0
  0
LINE
  5
EF
330
B4
100
AcDbEntity
  8
AM_4
100
AcDbLine
 10
-1.671875
 20
-1.02675
 30
0.0
 11
-1.671875
 21
-1.238083333333333
 31
0.0
  0
LINE
  5
F0
330
B4
100
AcDbEntity
  8
AM_4
100
AcDbLine
 10
-1.566208333333333
 20
-1.34375
 30
0.0
 11
1.566208333323451
 21
-1.34375
 31
0.0
  0
LINE
  5
F1
330
B4
100
AcDbEntity
  8
AM_4
100
AcDbLine
 10
-1.671875
 20
-1.238083333333333
 30
0.0
 11
1.671875
 21
-1.238083333333333
 31
0.0
  0
ARC
  5
F2
330
B4
100
AcDbEntity
  8
AM_4
100
AcDbCircle
 10
1.566208333333333
 20
-1.238083333333333
 30
0.0
 40
0.1056666666666668
100
AcDbArc
 50
270.0
 51
0.0
  0
ARC
  5
F3
330
B4
100
AcDbEntity
  8
AM_4
100
AcDbCircle
 10
-1.566208333333334
 20
-1.238083333333333
 30
0.0
 40
0.1056666666666664
100
AcDbArc
 50
180.0
 51
270.0
  0
LINE
  5
F4
330
B4
100
AcDbEntity
  8
AM_4
100
AcDbLine
 10
1.573756133159429
 20
-1.02675
 30
0.0
 11
1.71875
 21
-1.02675
 31
0.0
  0
LINE
  5
F5
330
B4
100
AcDbEntity
  8
AM_4
100
AcDbLine
 10
0.15365
 20
-1.02675
 30
0.0
 11
1.473993545755674
 21
-1.02675
 31
0.0
  0
LWPOLYLINE
  5
F6
330
B4
100
AcDbEntity
  8
AM_4
100
AcDbPolyline
 90
        8
 70
     0
 43
0.0
 10
1.473993545755674
 20
-1.02675
 10
1.474727029096502
 20
-1.003206540255968
 10
1.476901296848806
 20
-0.9800050595948913
 10
1.48229234462532
 20
-0.9488054684578213
 10
1.490192371020866
 20
-0.9198607895652186
 10
1.500144557017985
 20
-0.8945189363872016
 10
1.511842231730635
 20
-0.8730778490046535
 10
1.519213707271476
 20
-0.8628192403052635
  0
LINE
  5
F7
330
B4
100
AcDbEntity
  8
AM_4
100
AcDbLine
 10
1.71875
 20
-1.02675
 30
0.0
 11
1.71875
 21
-0.734375
 31
0.0
  0
LINE
  5
F8
330
B4
100
AcDbEntity
  8
AM_4
100
AcDbLine
 10
-1.71875
 20
-0.734375
 30
0.0
 11
-1.71875
 21
-1.02675
 31
0.0
  0
LINE
  5
F9
330
B4
100
AcDbEntity
  8
AM_4
100
AcDbLine
 10
-1.71875
 20
-1.02675
 30
0.0
 11
-0.15365
 21
-1.02675
 31
0.0
  0
LWPOLYLINE
  5
FA
330
B4
100
AcDbEntity
  8
AM_4
100
AcDbPolyline
 90
        6
 70
     0
 43
0.0
 10
0.1320844398385382
 20
-0.9009337266513286
 10
0.1352928976098358
 20
-0.904763923217217
 10
0.1523940596023233
 20
-0.9295923733316844
 10
0.1655979895872318
 20
-0.957475531611538
 10
0.1743647230742378
 20
-0.9879357096323902
 10
0.1782336444086846
 20
-1.02675
  0
LWPOLYLINE
  5
FB
330
B4
100
AcDbEntity
  8
AM_4
100
AcDbPolyline
 90
        6
 70
     0
 43
0.0
 10
-0.1782336444086849
 20
-1.02675
 10
-0.1768404770250377
 20
-1.003377529797445
 10
-0.172594104448499
 20
-0.9800050595948913
 10
-0.1622643682690862
 20
-0.9492471359149773
 10
-0.1463833419380951
 20
-0.9198607895652186
 10
-0.1324413608899532
 20
-0.9013495606880734
  0
ARC
  5
FC
330
B4
100
AcDbEntity
  8
AM_4
100
AcDbCircle
 10
0.0000000000000002
 20
-1.02675
 30
0.0
 40
0.1536500000000003
100
AcDbArc
 50
140.9935813759037
 51
180.0
  0
ARC
  5
FD
330
B4
100
AcDbEntity
  8
AM_4
100
AcDbCircle
 10
0.0000000000000007
 20
-1.026749999999999
 30
0.0
 40
0.1536499999999993
100
AcDbArc
 50
0.0
 51
39.00641862409631
  0
CIRCLE
  5
FF
330
B4
100
AcDbEntity
  8
AM_5
100
AcDbCircle
 10
0.0000000000000001
 20
-1.02675
 30
0.0
 40
0.1875
  0
ENDBLK
  5
B7
330
B4
100
AcDbEntity
  8
0
100
AcDbBlockEnd
  0
BLOCK
  5
102
330
100
100
AcDbEntity
  8
0
100
AcDbBlockBegin
  2
4_070022i_0_in_070732_4
 70
     2
 10
0.0
 20
0.0
 30
0.0
  3
4_070022i_0_in_070732_4
  1

  0
ATTDEF
  5
104
330
100
100
AcDbEntity
  8
AM_6
100
AcDbText
 10
6.77165
 20
1.6421875
 30
0.0
 40
0.5
  1
S-2000 Insert -Inch
100
AcDbAttributeDefinition
  3

  2
NN
 70
     8
280
     0
  0
ATTDEF
  5
105
330
100
100
AcDbEntity
  8
AM_6
100
AcDbText
 10
6.77165
 20
1.1421875
 30
0.0
 40
0.5
  1
S-2000 Bearings
100
AcDbAttributeDefinition
  3

  2
NT
 70
     8
280
     0
  0
ATTDEF
  5
106
330
100
100
AcDbEntity
  8
AM_6
100
AcDbText
 10
6.77165
 20
0.6421874999999997
 30
0.0
 40
0.5
  1
070022i
100
AcDbAttributeDefinition
  3

  2
NB
 70
     8
280
     0
  0
ATTDEF
  5
107
330
100
100
AcDbEntity
  8
AM_6
100
AcDbText
 10
6.77165
 20
0.1421874999999997
 30
0.0
 40
0.5
  1
$PN.i
100
AcDbAttributeDefinition
  3

  2
NBSYN
 70
     8
280
     0
  0
ATTDEF
  5
108
330
100
100
AcDbEntity
  8
AM_6
100
AcDbText
 10
6.77165
 20
-0.3578125000000003
 30
0.0
 40
0.5
  1
070022i
100
AcDbAttributeDefinition
  3

  2
LINA
 70
     8
280
     0
  0
ATTDEF
  5
109
330
100
100
AcDbEntity
  8
AM_6
100
AcDbText
 10
6.77165
 20
-0.8578125000000003
 30
0.0
 40
0.5
  1
2
100
AcDbAttributeDefinition
  3

  2
SS
 70
     8
280
     0
  0
ATTDEF
  5
10A
330
100
100
AcDbEntity
  8
AM_6
100
AcDbText
 10
6.77165
 20
-1.3578125
 30
0.0
 40
0.5
  1
2.31
100
AcDbAttributeDefinition
  3

  2
CC
 70
     8
280
     0
  0
ATTDEF
  5
10B
330
100
100
AcDbEntity
  8
AM_6
100
AcDbText
 10
6.77165
 20
-1.8578125
 30
0.0
 40
0.5
  1
2.000000
100
AcDbAttributeDefinition
  3

  2
SS1
 70
     8
280
     0
  0
ATTDEF
  5
10C
330
100
100
AcDbEntity
  8
AM_6
100
AcDbText
 10
6.77165
 20
-2.357812500000001
 30
0.0
 40
0.5
  1
070022
100
AcDbAttributeDefinition
  3

  2
PN
 70
     8
280
     0
  0
ATTDEF
  5
10D
330
100
100
AcDbEntity
  8
AM_6
100
AcDbText
 10
6.77165
 20
-2.857812500000001
 30
0.0
 40
0.5
  1
INS-S2-200L
100
AcDbAttributeDefinition
  3

  2
DESCRIPTION
 70
     8
280
     0
  0
ATTDEF
  5
10E
330
100
100
AcDbEntity
  8
AM_6
100
AcDbText
 10
6.77165
 20
-3.357812500000001
 30
0.0
 40
0.5
  1
Labyrinth Seal
100
AcDbAttributeDefinition
  3

  2
ST
 70
     8
280
     0
  0
ATTDEF
  5
10F
330
100
100
AcDbEntity
  8
AM_6
100
AcDbText
 10
6.77165
 20
-3.857812500000001
 30
0.0
 40
0.5
  1
2
100
AcDbAttributeDefinition
  3

  2
ST1
 70
     8
280
     0
  0
ATTDEF
  5
110
330
100
100
AcDbEntity
  8
AM_6
100
AcDbText
 10
6.77165
 20
-4.357812500000001
 30
0.0
 40
0.5
  1
3.5433
100
AcDbAttributeDefinition
  3

  2
A
 70
     8
280
     0
  0
ATTDEF
  5
111
330
100
100
AcDbEntity
  8
AM_6
100
AcDbText
 10
6.77165
 20
-4.857812500000001
 30
0.0
 40
0.5
  1
61/64
100
AcDbAttributeDefinition
  3

  2
B
 70
     8
280
     0
  0
ATTDEF
  5
112
330
100
100
AcDbEntity
  8
AM_6
100
AcDbText
 10
6.77165
 20
-5.357812500000001
 30
0.0
 40
0.5
  1
2-27/32
100
AcDbAttributeDefinition
  3

  2
C
 70
     8
280
     0
  0
ATTDEF
  5
113
330
100
100
AcDbEntity
  8
AM_6
100
AcDbText
 10
6.77165
 20
-5.857812500000001
 30
0.0
 40
0.5
  1
0.977
100
AcDbAttributeDefinition
  3

  2
D
 70
     8
280
     0
  0
ATTDEF
  5
114
330
100
100
AcDbEntity
  8
AM_6
100
AcDbText
 10
6.77165
 20
-6.357812500000001
 30
0.0
 40
0.5
  1
3-11/32
100
AcDbAttributeDefinition
  3

  2
E
 70
     8
280
     0
  0
ATTDEF
  5
115
330
100
100
AcDbEntity
  8
AM_6
100
AcDbText
 10
6.77165
 20
-6.857812500000001
 30
0.0
 40
0.5
  1
0.53125
100
AcDbAttributeDefinition
  3

  2
F
 70
     8
280
     0
  0
ATTDEF
  5
116
330
100
100
AcDbEntity
  8
AM_6
100
AcDbText
 10
6.77165
 20
-7.357812500000001
 30
0.0
 40
0.5
  1
1
100
AcDbAttributeDefinition
  3

  2
DD
 70
     8
280
     0
  0
ATTDEF
  5
117
330
100
100
AcDbEntity
  8
AM_6
100
AcDbText
 10
6.77165
 20
-7.857812500000001
 30
0.0
 40
0.5
  1
baldor
100
AcDbAttributeDefinition
  3

  2
COMPANY
 70
     8
280
     0
  0
LINE
  5
118
330
100
100
AcDbEntity
  8
AM_9
100
AcDbLine
 10
1.046785494027331
 20
-0.8217500000000001
 30
0.0
 11
0.906178221660684
 21
-0.8217500000000001
 31
0.0
  0
LINE
  5
119
330
100
100
AcDbEntity
  8
AM_9
100
AcDbLine
 10
0.9062466860935546
 20
-1.23175
 30
0.0
 11
1.046785494027331
 21
-1.23175
 31
0.0
  0
LWPOLYLINE
  5
11A
330
100
100
AcDbEntity
  8
AM_9
100
AcDbPolyline
 90
       21
 70
     0
 43
0.0
 10
0.9063140065485755
 20
-0.8217500005282578
 10
0.8969301504047628
 20
-0.822900161941116
 10
0.8817157754029037
 20
-0.8292686605926322
 10
0.8662760315492313
 20
-0.8409659620224854
 10
0.8510884305388179
 20
-0.8578444489141854
 10
0.8368762994675917
 20
-0.8793061130613091
 10
0.8240656538175006
 20
-0.9053348037723499
 10
0.8135271807593438
 20
-0.9348183161565374
 10
0.8058393704696409
 20
-0.9670717202207507
 10
0.8014099300972712
 20
-1.001078299168185
 10
0.800547305560433
 20
-1.035231065290766
 10
0.8031269379961339
 20
-1.069140609368116
 10
0.8089845393627937
 20
-1.101497119315967
 10
0.8177540324758535
 20
-1.131790800011407
 10
0.8291939089667477
 20
-1.159537843964381
 10
0.8426034758536937
 20
-1.183615257303498
 10
0.8576323840517827
 20
-1.203609810253069
 10
0.8733961606546183
 20
-1.218589287254995
 10
0.8891427874043513
 20
-1.227989445524966
 10
0.9043840476555319
 20
-1.23169994397566
 10
0.9062992284920279
 20
-1.231749998999768
  0
LWPOLYLINE
  5
11B
330
100
100
AcDbEntity
  8
AM_9
100
AcDbPolyline
 90
        6
 70
     0
 43
0.0
 10
0.9645765099285565
 20
-1.143421713267324
 10
0.9648923741830504
 20
-1.141694248219814
 10
0.9692775051933961
 20
-1.111356578002177
 10
0.972126416725536
 20
-1.078548784148368
 10
0.9733055721770503
 20
-1.05286953880751
 10
0.9736963415389313
 20
-1.02675
  0
LWPOLYLINE
  5
11C
330
100
100
AcDbEntity
  8
AM_9
100
AcDbPolyline
 90
        7
 70
     0
 43
0.0
 10
0.9062992284920279
 20
-1.231749998999768
 10
0.9183398095507092
 20
-1.229607763211015
 10
0.9309596956682323
 20
-1.221981369249133
 10
0.9419435911744443
 20
-1.209018271809793
 10
0.9512408757607727
 20
-1.191152110309404
 10
0.9589202100761257
 20
-1.168398046698552
 10
0.9645765099285565
 20
-1.143421713267324
  0
LWPOLYLINE
  5
11D
330
100
100
AcDbEntity
  8
AM_9
100
AcDbPolyline
 90
       12
 70
     0
 43
0.0
 10
0.9435286779417971
 20
-1.02675
 10
0.9436760816826895
 20
-1.017154582061244
 10
0.9462636383494187
 20
-0.9831875554190728
 10
0.9520253790500312
 20
-0.950710575943977
 10
0.9606178153233743
 20
-0.9203427453645213
 10
0.9717845859103307
 20
-0.8926685599392268
 10
0.9848882345298691
 20
-0.8687194047857173
 10
0.9995452976131667
 20
-0.8489953354354691
 10
1.014971602783868
 20
-0.8343056249171021
 10
1.030474736511694
 20
-0.8251919070986318
 10
1.045575929214714
 20
-0.8217698746843641
 10
1.046778995239891
 20
-0.821750000576729
  0
LWPOLYLINE
  5
11E
330
100
100
AcDbEntity
  8
AM_9
100
AcDbPolyline
 90
       11
 70
     0
 43
0.0
 10
1.046792319612884
 20
-1.231749999363772
 10
1.037212380740092
 20
-1.230544998115517
 10
1.022073626267102
 20
-1.224048212665202
 10
1.006831899331695
 20
-1.212170443226721
 10
0.9919710612922391
 20
-1.19508651427101
 10
0.9781609653212457
 20
-1.173389899355452
 10
0.9658545939737122
 20
-1.147231352391878
 10
0.9558004459324833
 20
-1.117650303144283
 10
0.9485317704945354
 20
-1.08537500327932
 10
0.944399170130095
 20
-1.051395425831918
 10
0.9435286779417971
 20
-1.02675
  0
LWPOLYLINE
  5
11F
330
100
100
AcDbEntity
  8
AM_9
100
AcDbPolyline
 90
        4
 70
     0
 43
0.0
 10
1.11460659328926
 20
-0.9688012370420656
 10
1.115210699933459
 20
-0.9771852648907333
 10
1.116404845571593
 20
-1.001776989680055
 10
1.116802165255484
 20
-1.02675
  0
LWPOLYLINE
  5
120
330
100
100
AcDbEntity
  8
AM_9
100
AcDbPolyline
 90
        9
 70
     0
 43
0.0
 10
1.046778995239891
 20
-0.821750000576729
 10
1.05957968897145
 20
-0.8241577612939784
 10
1.072357626657006
 20
-0.832113953789169
 10
1.083608099732247
 20
-0.845452571434621
 10
1.093234560244893
 20
-0.8637263601267827
 10
1.101246283655223
 20
-0.8868161969855137
 10
1.107543787395097
 20
-0.9138238891912444
 10
1.112189287714433
 20
-0.9443109593456968
 10
1.11460659328926
 20
-0.9688012370420656
  0
LWPOLYLINE
  5
121
330
100
100
AcDbEntity
  8
AM_9
100
AcDbPolyline
 90
        8
 70
     0
 43
0.0
 10
0.9646434713120429
 20
-0.9104407513942552
 10
0.9626093336276506
 20
-0.900234367114789
 10
0.9559182312626052
 20
-0.8750674082408637
 10
0.9474837886512549
 20
-0.8541338401150972
 10
0.9371433101591392
 20
-0.8379511948729954
 10
0.9250637692869256
 20
-0.8271453537608413
 10
0.9115954900908542
 20
-0.8221658697009511
 10
0.9063140065485755
 20
-0.8217500005282578
  0
LWPOLYLINE
  5
122
330
100
100
AcDbEntity
  8
AM_9
100
AcDbPolyline
 90
        5
 70
     0
 43
0.0
 10
0.9736963415389313
 20
-1.02675
 10
0.9730297064245785
 20
-0.9927439125764188
 10
0.9710107888305127
 20
-0.9597063884626156
 10
0.9675666547698376
 20
-0.9286091478748548
 10
0.9646434713120429
 20
-0.9104407513942552
  0
LINE
  5
123
330
100
100
AcDbEntity
  8
AM_9
100
AcDbLine
 10
-1.0
 20
1.5
 30
0.0
 11
-1.0
 21
-1.34375
 31
0.0
  0
LINE
  5
124
330
100
100
AcDbEntity
  8
AM_9
100
AcDbLine
 10
1.0
 20
-1.34375
 30
0.0
 11
1.0
 21
1.5
 31
0.0
  0
LINE
  5
125
330
100
100
AcDbEntity
  8
AM_9
100
AcDbLine
 10
-1.155
 20
1.265625
 30
0.0
 11
-1.155
 21
1.224500000000001
 31
0.0
  0
LINE
  5
126
330
100
100
AcDbEntity
  8
AM_9
100
AcDbLine
 10
1.155
 20
1.224500000000001
 30
0.0
 11
1.155
 21
1.265625
 31
0.0
  0
LWPOLYLINE
  5
127
330
100
100
AcDbEntity
  8
AM_9
100
AcDbPolyline
 90
       10
 70
     0
 43
0.0
 10
1.114528462792065
 20
-1.08568574033868
 10
1.113809380737061
 20
-1.093998002252064
 10
1.110009442682595
 20
-1.125197523479572
 10
1.104606423986586
 20
-1.153655193923415
 10
1.097442290854296
 20
-1.17879195531181
 10
1.088549139716656
 20
-1.199674449120014
 10
1.077839767615082
 20
-1.215749307750009
 10
1.065507167045844
 20
-1.226455549264894
 10
1.051886068210213
 20
-1.231363652474625
 10
1.046792319612884
 20
-1.231749999363772
  0
LWPOLYLINE
  5
128
330
100
100
AcDbEntity
  8
AM_9
100
AcDbPolyline
 90
        3
 70
     0
 43
0.0
 10
1.116802165255484
 20
-1.02675
 10
1.116055710871377
 20
-1.06085843538501
 10
1.114528462792065
 20
-1.08568574033868
  0
LWPOLYLINE
  5
129
330
100
100
AcDbEntity
  8
AM_9
100
AcDbPolyline
 90
        7
 70
     0
 43
0.0
 10
0.1308496494683593
 20
-0.8689419861540358
 10
0.1494672277504475
 20
-0.8864483684036575
 10
0.1710926459483536
 20
-0.9138238891912444
 10
0.1874844207229779
 20
-0.9438368406935939
 10
0.1989179153157107
 20
-0.9771852648907333
 10
0.2034495371294953
 20
-1.001584828794659
 10
0.205
 20
-1.02675
  0
LINE
  5
12A
330
100
100
AcDbEntity
  8
AM_9
100
AcDbLine
 10
0.1269643413619131
 20
-0.8657995230745319
 30
0.0
 11
0.1308496494683593
 21
-0.8689419861540358
 31
0.0
  0
LINE
  5
12B
330
100
100
AcDbEntity
  8
AM_9
100
AcDbLine
 10
0.1227467614355623
 20
-0.8625603762198061
 30
0.0
 11
0.1269643413619131
 21
-0.8657995230745319
 31
0.0
  0
LWPOLYLINE
  5
12C
330
100
100
AcDbEntity
  8
AM_9
100
AcDbPolyline
 90
        3
 70
     0
 43
0.0
 10
-0.0503782787720461
 20
-0.8280365655574187
 10
-0.0377943961290886
 20
-0.8252640609838057
 10
-0.0161026438158207
 20
-0.8223834057089053
  0
LWPOLYLINE
  5
12D
330
100
100
AcDbEntity
  8
AM_9
100
AcDbPolyline
 90
        4
 70
     0
 43
0.0
 10
-0.1271139378728603
 20
-0.8659176438074271
 10
-0.1025237405266754
 20
-0.8492285009402551
 10
-0.0706410822323172
 20
-0.8343056249171021
 10
-0.0503782787720461
 20
-0.8280365655574187
  0
LINE
  5
12E
330
100
100
AcDbEntity
  8
AM_9
100
AcDbLine
 10
-0.1307727216425284
 20
-0.8688782315478587
 30
0.0
 11
-0.1271139378728603
 21
-0.8659176438074271
 31
0.0
  0
LWPOLYLINE
  5
12F
330
100
100
AcDbEntity
  8
AM_9
100
AcDbPolyline
 90
        7
 70
     0
 43
0.0
 10
-0.205
 20
-1.02675
 10
-0.2047980003563592
 20
-1.017651700706359
 10
-0.2003180306965243
 20
-0.9831875554190728
 10
-0.190549195096018
 20
-0.9511457392188796
 10
-0.1752212777060494
 20
-0.9203427453645213
 10
-0.1553738176201076
 20
-0.893019013320945
 10
-0.1307727216425284
 20
-0.8688782315478587
  0
LWPOLYLINE
  5
130
330
100
100
AcDbEntity
  8
AM_9
100
AcDbPolyline
 90
       20
 70
     0
 43
0.0
 10
0.205
 20
-1.02675
 10
0.2022237042195512
 20
-1.060374001126032
 10
0.1936561545448695
 20
-1.093998002252064
 10
0.180038543542081
 20
-1.12478633428095
 10
0.1609971172265529
 20
-1.153655193923415
 10
0.1378522813137548
 20
-1.178479194740476
 10
0.1101005671944507
 20
-1.199674449120014
 10
0.0798223260686158
 20
-1.215571069430812
 10
0.0462892384124773
 20
-1.226455549264894
 10
0.0127289676164412
 20
-1.231354431485292
 10
-0.0221945656208091
 20
-1.230544998115517
 10
-0.0551308921996137
 20
-1.224197675917633
 10
-0.0874314544863926
 20
-1.212170443226721
 10
-0.1165818286953598
 20
-1.195372884621411
 10
-0.143254109599072
 20
-1.173389899355452
 10
-0.165559226669151
 20
-1.147643103462161
 10
-0.1837447547231688
 20
-1.117650303144283
 10
-0.1962895823481186
 20
-1.085871906782521
 10
-0.2035131518736895
 20
-1.051395425831918
 10
-0.205
 20
-1.02675
  0
LINE
  5
131
330
100
100
AcDbEntity
  8
AM_9
100
AcDbLine
 10
-1.155
 20
-0.1785000000000002
 30
0.0
 11
-1.155
 21
-1.34375
 31
0.0
  0
LINE
  5
132
330
100
100
AcDbEntity
  8
AM_9
100
AcDbLine
 10
1.155
 20
-1.34375
 30
0.0
 11
1.155
 21
-0.1785000000000002
 31
0.0
  0
LINE
  5
133
330
100
100
AcDbEntity
  8
AM_9
100
AcDbLine
 10
1.3220075
 20
1.224500000000001
 30
0.0
 11
-1.3220075
 21
1.224500000000001
 31
0.0
  0
ARC
  5
134
330
100
100
AcDbEntity
  8
AM_9
100
AcDbCircle
 10
-1.3220075
 20
1.129187500000001
 30
0.0
 40
0.0953124999999995
100
AcDbArc
 50
90.0
 51
179.9999991462263
  0
ARC
  5
135
330
100
100
AcDbEntity
  8
AM_9
100
AcDbCircle
 10
1.322007500000006
 20
1.129187500000007
 30
0.0
 40
0.0953124999999939
100
AcDbArc
 50
0.0000008537736463
 51
90.0
  0
LINE
  5
136
330
100
100
AcDbEntity
  8
AM_9
100
AcDbLine
 10
-1.41732
 20
1.1291875
 30
0.0
 11
-1.41732
 21
0.9995625
 31
0.0
  0
LINE
  5
137
330
100
100
AcDbEntity
  8
AM_9
100
AcDbLine
 10
1.41732
 20
0.9995625
 30
0.0
 11
1.41732
 21
1.1291875
 31
0.0
  0
LINE
  5
138
330
100
100
AcDbEntity
  8
AM_9
100
AcDbLine
 10
1.41732
 20
1.1291875
 30
0.0
 11
-1.41732
 21
1.1291875
 31
0.0
  0
LINE
  5
139
330
100
100
AcDbEntity
  8
AM_9
100
AcDbLine
 10
-1.41732
 20
0.0464375000000003
 30
0.0
 11
-1.41732
 21
-0.0831875000000004
 31
0.0
  0
LINE
  5
13A
330
100
100
AcDbEntity
  8
AM_9
100
AcDbLine
 10
1.41732
 20
-0.0831875000000004
 30
0.0
 11
1.41732
 21
0.0464375000000003
 31
0.0
  0
LINE
  5
13B
330
100
100
AcDbEntity
  8
AM_9
100
AcDbLine
 10
1.3220075
 20
-0.1785000000000002
 30
0.0
 11
-1.3220075
 21
-0.1785000000000002
 31
0.0
  0
ARC
  5
13C
330
100
100
AcDbEntity
  8
AM_9
100
AcDbCircle
 10
-1.3220075
 20
-0.0831875000000007
 30
0.0
 40
0.0953124999999997
100
AcDbArc
 50
180.0
 51
270.0
  0
ARC
  5
13D
330
100
100
AcDbEntity
  8
AM_9
100
AcDbCircle
 10
1.3220075
 20
-0.0831875000000009
 30
0.0
 40
0.0953124999999993
100
AcDbArc
 50
270.0
 51
0.0
  0
LINE
  5
13E
330
100
100
AcDbEntity
  8
AM_9
100
AcDbLine
 10
1.41732
 20
-0.0831875000000004
 30
0.0
 11
-1.41732
 21
-0.0831875000000004
 31
0.0
  0
LINE
  5
13F
330
100
100
AcDbEntity
  8
AM_9
100
AcDbLine
 10
-1.700784
 20
0.5706562500000009
 30
0.0
 11
-1.700784
 21
0.4753437499999996
 31
0.0
  0
LINE
  5
140
330
100
100
AcDbEntity
  8
AM_9
100
AcDbLine
 10
1.700784
 20
0.4753437499999996
 30
0.0
 11
1.700784
 21
0.5706562500000009
 31
0.0
  0
LINE
  5
141
330
100
100
AcDbEntity
  8
AM_9
100
AcDbLine
 10
1.6763375
 20
0.0464375000000003
 30
0.0
 11
-1.6763375
 21
0.0464375000000003
 31
0.0
  0
ARC
  5
142
330
100
100
AcDbEntity
  8
AM_9
100
AcDbCircle
 10
-1.6763375
 20
0.1417500000000005
 30
0.0
 40
0.0953125000000004
100
AcDbArc
 50
179.9999991462263
 51
270.0
  0
ARC
  5
143
330
100
100
AcDbEntity
  8
AM_9
100
AcDbCircle
 10
1.6763375
 20
0.1417500000000005
 30
0.0
 40
0.0953125000000003
100
AcDbArc
 50
270.0
 51
0.0000008537736463
  0
LINE
  5
144
330
100
100
AcDbEntity
  8
AM_9
100
AcDbLine
 10
-1.77165
 20
0.9042500000000001
 30
0.0
 11
-1.77165
 21
0.6115707541763927
 31
0.0
  0
LINE
  5
145
330
100
100
AcDbEntity
  8
AM_9
100
AcDbLine
 10
1.77165
 20
0.6115707541763927
 30
0.0
 11
1.77165
 21
0.9042500000000001
 31
0.0
  0
LINE
  5
146
330
100
100
AcDbEntity
  8
AM_9
100
AcDbLine
 10
-1.77165
 20
0.4344292458236075
 30
0.0
 11
-1.77165
 21
0.1417499999999999
 31
0.0
  0
LINE
  5
147
330
100
100
AcDbEntity
  8
AM_9
100
AcDbLine
 10
1.77165
 20
0.1417499999999999
 30
0.0
 11
1.77165
 21
0.4344292458236075
 31
0.0
  0
LINE
  5
148
330
100
100
AcDbEntity
  8
AM_9
100
AcDbLine
 10
1.77165
 20
0.1417499999999999
 30
0.0
 11
-1.77165
 21
0.1417499999999999
 31
0.0
  0
LINE
  5
149
330
100
100
AcDbEntity
  8
AM_9
100
AcDbLine
 10
1.700784
 20
0.5706562500000009
 30
0.0
 11
1.77165
 21
0.6115707541763927
 31
0.0
  0
LINE
  5
14A
330
100
100
AcDbEntity
  8
AM_9
100
AcDbLine
 10
-1.77165
 20
0.6115707541763927
 30
0.0
 11
-1.700784
 21
0.5706562500000009
 31
0.0
  0
LINE
  5
14B
330
100
100
AcDbEntity
  8
AM_9
100
AcDbLine
 10
1.77165
 20
0.6115707541763927
 30
0.0
 11
-1.77165
 21
0.6115707541763927
 31
0.0
  0
LINE
  5
14C
330
100
100
AcDbEntity
  8
AM_9
100
AcDbLine
 10
1.700784
 20
0.5706562500000009
 30
0.0
 11
-1.700784
 21
0.5706562500000009
 31
0.0
  0
LINE
  5
14D
330
100
100
AcDbEntity
  8
AM_9
100
AcDbLine
 10
-1.700784
 20
0.4753437499999996
 30
0.0
 11
-1.77165
 21
0.4344292458236075
 31
0.0
  0
LINE
  5
14E
330
100
100
AcDbEntity
  8
AM_9
100
AcDbLine
 10
1.77165
 20
0.4344292458236075
 30
0.0
 11
1.700784
 21
0.4753437499999996
 31
0.0
  0
LINE
  5
14F
330
100
100
AcDbEntity
  8
AM_9
100
AcDbLine
 10
1.700784
 20
0.4753437499999996
 30
0.0
 11
-1.700784
 21
0.4753437499999996
 31
0.0
  0
LINE
  5
150
330
100
100
AcDbEntity
  8
AM_9
100
AcDbLine
 10
1.77165
 20
0.4344292458236075
 30
0.0
 11
-1.77165
 21
0.4344292458236075
 31
0.0
  0
LINE
  5
151
330
100
100
AcDbEntity
  8
AM_9
100
AcDbLine
 10
1.676337499999999
 20
0.9995625
 30
0.0
 11
-1.676337499999999
 21
0.9995625
 31
0.0
  0
ARC
  5
152
330
100
100
AcDbEntity
  8
AM_9
100
AcDbCircle
 10
-1.676337499999999
 20
0.9042499999999993
 30
0.0
 40
0.0953125000000007
100
AcDbArc
 50
90.0
 51
180.0
  0
ARC
  5
153
330
100
100
AcDbEntity
  8
AM_9
100
AcDbCircle
 10
1.676337499997418
 20
0.9042499999974185
 30
0.0
 40
0.0953125000025816
100
AcDbArc
 50
0.0000008537736463
 51
90.0
  0
LINE
  5
154
330
100
100
AcDbEntity
  8
AM_9
100
AcDbLine
 10
1.77165
 20
0.9042500000000001
 30
0.0
 11
-1.77165
 21
0.9042500000000001
 31
0.0
  0
LINE
  5
155
330
100
100
AcDbEntity
  8
AM_7
100
AcDbLine
 10
0.0
 20
1.6421875
 30
0.0
 11
0.0
 21
-1.4859375
 31
0.0
  0
LINE
  5
156
330
100
100
AcDbEntity
  8
AM_4
100
AcDbLine
 10
-1.155
 20
1.5
 30
0.0
 11
-1.155
 21
1.265625
 31
0.0
  0
LINE
  5
157
330
100
100
AcDbEntity
  8
AM_4
100
AcDbLine
 10
1.155
 20
1.265625
 30
0.0
 11
1.155
 21
1.5
 31
0.0
  0
LINE
  5
158
330
100
100
AcDbEntity
  8
AM_4
100
AcDbLine
 10
1.155
 20
1.5
 30
0.0
 11
-1.155
 21
1.5
 31
0.0
  0
ENDBLK
  5
103
330
100
100
AcDbEntity
  8
0
100
AcDbBlockEnd
  0
BLOCK
  5
15B
330
159
100
AcDbEntity
  8
0
100
AcDbBlockBegin
  2
5_405015E_Inch_0_in_070732_4
 70
     2
 10
0.0
 20
0.0
 30
0.0
  3
5_405015E_Inch_0_in_070732_4
  1

  0
ATTDEF
  5
15D
330
159
100
AcDbEntity
  8
AM_6
100
AcDbText
 10
5.252590742770462
 20
-0.3236122224892911
 30
0.0
 40
0.5
  1
405015E -Inch
100
AcDbAttributeDefinition
  3

  2
NN
 70
     8
280
     0
  0
ATTDEF
  5
15E
330
159
100
AcDbEntity
  8
AM_6
100
AcDbText
 10
5.252590742770462
 20
-0.823612222489291
 30
0.0
 40
0.5
  1
Grease Fitting
100
AcDbAttributeDefinition
  3

  2
NT
 70
     8
280
     0
  0
ATTDEF
  5
15F
330
159
100
AcDbEntity
  8
AM_6
100
AcDbText
 10
5.252590742770462
 20
-1.323612222489291
 30
0.0
 40
0.5
  1
405015E-Inch
100
AcDbAttributeDefinition
  3

  2
NB
 70
     8
280
     0
  0
ATTDEF
  5
160
330
159
100
AcDbEntity
  8
AM_6
100
AcDbText
 10
5.252590742770462
 20
-1.823612222489291
 30
0.0
 40
0.5
  1
$MN.-Inch
100
AcDbAttributeDefinition
  3

  2
NBSYN
 70
     8
280
     0
  0
ATTDEF
  5
161
330
159
100
AcDbEntity
  8
AM_6
100
AcDbText
 10
5.252590742770462
 20
-2.323612222489291
 30
0.0
 40
0.5
  1
405015E
100
AcDbAttributeDefinition
  3

  2
LINA
 70
     8
280
     0
  0
ATTDEF
  5
162
330
159
100
AcDbEntity
  8
AM_6
100
AcDbText
 10
5.252590742770462
 20
-2.823612222489291
 30
0.0
 40
0.5
  1
405015E
100
AcDbAttributeDefinition
  3

  2
MN
 70
     8
280
     0
  0
ATTDEF
  5
163
330
159
100
AcDbEntity
  8
AM_6
100
AcDbText
 10
5.252590742770462
 20
-3.323612222489291
 30
0.0
 40
0.5
  1
1/8 x 27PTF
100
AcDbAttributeDefinition
  3

  2
T
 70
     8
280
     0
  0
ATTDEF
  5
164
330
159
100
AcDbEntity
  8
AM_6
100
AcDbText
 10
5.252590742770462
 20
-3.823612222489291
 30
0.0
 40
0.5
  1
baldor
100
AcDbAttributeDefinition
  3

  2
COMPANY
 70
     8
280
     0
  0
LINE
  5
165
330
159
100
AcDbEntity
  8
AM_9
100
AcDbLine
 10
0.1262953713852306
 20
-0.82218515941813
 30
0.0
 11
0.1262953713852306
 21
-0.7512881624169184
 31
0.0
  0
LINE
  5
166
330
159
100
AcDbEntity
  8
AM_9
100
AcDbLine
 10
-0.1262953713852306
 20
-0.82218515941813
 30
0.0
 11
-0.1262953713852306
 21
-0.7512881624169184
 31
0.0
  0
LWPOLYLINE
  5
167
330
159
100
AcDbEntity
  8
AM_9
100
AcDbPolyline
 90
        3
 70
     0
 43
0.0
 10
0.1262953713852306
 20
-0.7512881624169184
 10
0.0634316146914367
 20
-0.7455264306727445
 10
0.0
 20
-0.7434353907283022
  0
LWPOLYLINE
  5
168
330
159
100
AcDbEntity
  8
AM_9
100
AcDbPolyline
 90
        4
 70
     0
 43
0.0
 10
0.0
 20
-0.7434353907283022
 10
-0.0483998160558989
 20
-0.7446630343207502
 10
-0.0967996321117978
 20
-0.7481832992427807
 10
-0.1262953713852306
 20
-0.7512881624169184
  0
LWPOLYLINE
  5
169
330
159
100
AcDbEntity
  8
AM_9
100
AcDbPolyline
 90
        3
 70
     0
 43
0.0
 10
-0.1262953713852306
 20
-0.7512881624169184
 10
-0.1577272497321276
 20
-0.7183056255356698
 10
-0.1894430570778459
 20
-0.6887478907283022
  0
LWPOLYLINE
  5
16A
330
159
100
AcDbEntity
  8
AM_9
100
AcDbPolyline
 90
        3
 70
     0
 43
0.0
 10
0.1894430570778459
 20
-0.6887478907283022
 10
0.1578692142315383
 20
-0.7181643692890718
 10
0.1262953713852306
 20
-0.7512881624169184
  0
LWPOLYLINE
  5
16B
330
159
100
AcDbEntity
  8
AM_9
100
AcDbPolyline
 90
        4
 70
     0
 43
0.0
 10
-0.1018596543934584
 20
-0.8248045787335536
 10
-0.0967996321117978
 20
-0.8252900225922676
 10
-0.0485424412477544
 20
-0.8288031276268126
 10
0.0
 20
-0.8300379311067461
  0
LINE
  5
16C
330
159
100
AcDbEntity
  8
AM_9
100
AcDbLine
 10
-0.1050087569988762
 20
-0.8244922137214751
 30
0.0
 11
-0.1018596543934584
 21
-0.8248045787335536
 31
0.0
  0
LINE
  5
16D
330
159
100
AcDbEntity
  8
AM_9
100
AcDbLine
 10
0.101866192704947
 20
-0.8248039382613052
 30
0.0
 11
0.1050474083588161
 21
-0.8244883316786303
 31
0.0
  0
LWPOLYLINE
  5
16E
330
159
100
AcDbEntity
  8
AM_9
100
AcDbPolyline
 90
        3
 70
     0
 43
0.0
 10
0.0
 20
-0.8300379311067461
 10
0.0631476856926153
 20
-0.8279652025459766
 10
0.101866192704947
 20
-0.8248039382613052
  0
LWPOLYLINE
  5
16F
330
159
100
AcDbEntity
  8
AM_9
100
AcDbPolyline
 90
        3
 70
     0
 43
0.0
 10
-0.1894430570778459
 20
-0.6887478907283022
 10
-0.2210168999241536
 20
-0.6634768692890718
 10
-0.2525907427704612
 20
-0.6419131624169184
  0
LWPOLYLINE
  5
170
330
159
100
AcDbEntity
  8
AM_9
100
AcDbPolyline
 90
        3
 70
     0
 43
0.0
 10
0.2525907427704612
 20
-0.6419131624169184
 10
0.2211588644235643
 20
-0.6633722358098193
 10
0.1894430570778459
 20
-0.6887478907283022
  0
LINE
  5
171
330
159
100
AcDbEntity
  8
AM_9
100
AcDbLine
 10
-0.1321931418159853
 20
-0.357826325223207
 30
0.0
 11
-0.1621706131788416
 21
-0.3790235985067081
 31
0.0
  0
LINE
  5
172
330
159
100
AcDbEntity
  8
AM_9
100
AcDbLine
 10
0.1621706131788416
 20
-0.3790235985067081
 30
0.0
 11
0.1321931418159853
 21
-0.357826325223207
 31
0.0
  0
LINE
  5
173
330
159
100
AcDbEntity
  8
AM_9
100
AcDbLine
 10
-0.1985852938306408
 20
-0.4345677300418579
 30
0.0
 11
-0.2057184028850727
 21
-0.6322041899506727
 31
0.0
  0
LINE
  5
174
330
159
100
AcDbEntity
  8
AM_9
100
AcDbLine
 10
0.2057184028850727
 20
-0.6322041899506727
 30
0.0
 11
0.1985852938306408
 21
-0.4345677300418579
 31
0.0
  0
LINE
  5
175
330
159
100
AcDbEntity
  8
AM_9
100
AcDbLine
 10
0.1017810272422101
 20
-0.8244957648925892
 30
0.0
 11
0.105
 21
-0.8181933702530618
 31
0.0
  0
LINE
  5
176
330
159
100
AcDbEntity
  8
AM_9
100
AcDbLine
 10
-0.105
 20
-0.8181933702530618
 30
0.0
 11
-0.1017810272422101
 21
-0.8244957648925892
 31
0.0
  0
ELLIPSE
  5
177
330
159
100
AcDbEntity
  8
AM_9
100
AcDbEllipse
 10
0.0
 20
-0.8115955985041123
 30
0.0
 11
-0.1050000000000001
 21
1.285879139104722E-17
 31
0.0
210
0.0
220
0.0
230
1.0
 40
0.4999999999999973
 41
0.0
 42
3.141592653589793
  0
LINE
  5
178
330
159
100
AcDbEntity
  8
AM_9
100
AcDbLine
 10
-0.105
 20
-0.8298338273165716
 30
0.0
 11
-0.105
 21
-0.8375763606176453
 31
0.0
  0
LINE
  5
179
330
159
100
AcDbEntity
  8
AM_9
100
AcDbLine
 10
0.105
 20
-0.8375763606176453
 30
0.0
 11
0.105
 21
-0.8298338273165717
 31
0.0
  0
ELLIPSE
  5
17A
330
159
100
AcDbEntity
  8
AM_9
100
AcDbEllipse
 10
0.0
 20
-0.8375763606176454
 30
0.0
 11
-0.1050000000000002
 21
1.285879139104723E-17
 31
0.0
210
0.0
220
0.0
230
1.0
 40
0.5000000000000001
 41
5.990342535451008
 42
9.717620732497958
  0
LINE
  5
17B
330
159
100
AcDbEntity
  8
AM_9
100
AcDbLine
 10
0.0976523208201058
 20
-0.8175150983654944
 30
0.0
 11
0.1098343496897825
 21
-0.8087282452386445
 31
0.0
  0
LINE
  5
17C
330
159
100
AcDbEntity
  8
AM_9
100
AcDbLine
 10
-0.1098343496897825
 20
-0.8087282452386445
 30
0.0
 11
-0.0976523208201058
 21
-0.8175150983654944
 31
0.0
  0
ELLIPSE
  5
17D
330
159
100
AcDbEntity
  8
AM_9
100
AcDbEllipse
 10
-0.0000000000000048
 20
-0.7836689826330482
 30
0.0
 11
-0.1188200907349029
 21
1.455126437928969E-17
 31
0.0
210
0.0
220
0.0
230
1.0
 40
0.4999999999999998
 41
0.2500328930988234
 42
2.891559760490992
  0
ELLIPSE
  5
17E
330
159
100
AcDbEntity
  8
AM_9
100
AcDbEllipse
 10
0.0
 20
-0.7365269563947165
 30
0.0
 11
-0.1725340532830155
 21
2.112932760969638E-17
 31
0.0
210
0.0
220
0.0
230
1.0
 40
0.5000000000000026
 41
0.6061451401950881
 42
2.535447513394705
  0
ELLIPSE
  5
17F
330
159
100
AcDbEntity
  8
AM_9
100
AcDbEllipse
 10
0.0000000000000014
 20
-0.7206629311067365
 30
0.0
 11
-0.2187500000000062
 21
2.678914873134911E-17
 31
0.0
210
0.0
220
0.0
230
1.0
 40
0.5000000000000301
 41
1.065244638251245
 42
2.076348015338538
  0
ELLIPSE
  5
180
330
159
100
AcDbEntity
  8
AM_9
100
AcDbEllipse
 10
-0.0000000000010636
 20
-0.7206629311073688
 30
0.0
 11
-0.2137499999978513
 21
3.185123231329743E-9
 31
0.0
210
0.0
220
0.0
230
1.0
 40
0.5000000000012732
 41
1.04297213728823
 42
2.098620542551174
  0
ELLIPSE
  5
181
330
159
100
AcDbEntity
  8
AM_9
100
AcDbEllipse
 10
0.0
 20
-0.8895378848447117
 30
0.0
 11
-0.1350000000000001
 21
1.653273178848929E-17
 31
0.0
210
0.0
220
0.0
230
1.0
 40
0.499999999999997
 41
0.2354336045415621
 42
2.906159049048231
  0
ELLIPSE
  5
182
330
159
100
AcDbEntity
  8
AM_9
100
AcDbEllipse
 10
0.000000000000002
 20
-0.404563658725424
 30
0.0
 11
-0.1619028724722669
 21
1.982738345459238E-17
 31
0.0
210
0.0
220
0.0
230
1.0
 40
0.4999999999999967
 41
0.0
 42
6.283185307179586
  0
ELLIPSE
  5
183
330
159
100
AcDbEntity
  8
AM_9
100
AcDbEllipse
 10
-0.0000000000000006
 20
-0.6340603907283036
 30
0.0
 11
-0.2187500000000008
 21
2.678914873134845E-17
 31
0.0
210
0.0
220
0.0
230
1.0
 40
0.5000000000000037
 41
0.0
 42
6.283185307179586
  0
ELLIPSE
  5
184
330
159
100
AcDbEntity
  8
AM_9
100
AcDbEllipse
 10
-0.0000000000003043
 20
-0.6340603907267742
 30
0.0
 11
-0.2057518972233738
 21
2.519734023531000E-17
 31
0.0
210
0.0
220
0.0
230
1.0
 40
0.4999999999999541
 41
0.0
 42
6.283185307179586
  0
ELLIPSE
  5
185
330
159
100
AcDbEntity
  8
AM_9
100
AcDbEllipse
 10
-0.0000000000010167
 20
-0.4363595686494385
 30
0.0
 11
-0.1986176267822321
 21
2.432364408931041E-17
 31
0.0
210
0.0
220
0.0
230
1.0
 40
0.4999999999999336
 41
0.0
 42
6.283185307179586
  0
LWPOLYLINE
  5
186
330
159
100
AcDbEntity
  8
AM_4
100
AcDbPolyline
 90
        3
 70
     0
 43
0.0
 10
-0.1894430570778459
 20
-0.7753504311067462
 10
-0.1578692142315383
 20
-0.8006214525459766
 10
-0.1262953713852306
 20
-0.82218515941813
  0
LINE
  5
187
330
159
100
AcDbEntity
  8
AM_4
100
AcDbLine
 10
-0.1262953713852306
 20
-0.82218515941813
 30
0.0
 11
-0.1050087569988762
 21
-0.8244922137214751
 31
0.0
  0
LWPOLYLINE
  5
188
330
159
100
AcDbEntity
  8
AM_4
100
AcDbPolyline
 90
        3
 70
     0
 43
0.0
 10
0.1262953713852306
 20
-0.82218515941813
 10
0.1577272497321276
 20
-0.8007260860252291
 10
0.1894430570778459
 20
-0.7753504311067462
  0
LINE
  5
189
330
159
100
AcDbEntity
  8
AM_4
100
AcDbLine
 10
0.1050474083588161
 20
-0.8244883316786303
 30
0.0
 11
0.1262953713852306
 21
-0.82218515941813
 31
0.0
  0
LWPOLYLINE
  5
18A
330
159
100
AcDbEntity
  8
AM_4
100
AcDbPolyline
 90
        3
 70
     0
 43
0.0
 10
0.1894430570778459
 20
-0.7753504311067462
 10
0.2210168999241535
 20
-0.7459339525459766
 10
0.2525907427704612
 20
-0.71281015941813
  0
LWPOLYLINE
  5
18B
330
159
100
AcDbEntity
  8
AM_4
100
AcDbPolyline
 90
        3
 70
     0
 43
0.0
 10
-0.2525907427704612
 20
-0.71281015941813
 10
-0.2211588644235643
 20
-0.7457926962993786
 10
-0.1894430570778459
 20
-0.7753504311067462
  0
LINE
  5
18C
330
159
100
AcDbEntity
  8
AM_4
100
AcDbLine
 10
0.105
 20
-0.8181933702530618
 30
0.0
 11
0.1151252948555658
 21
-0.7983691564982478
 31
0.0
  0
LINE
  5
18D
330
159
100
AcDbEntity
  8
AM_4
100
AcDbLine
 10
-0.1151252948555658
 20
-0.7983691564982478
 30
0.0
 11
-0.105
 21
-0.8181933702530618
 31
0.0
  0
ELLIPSE
  5
18E
330
159
100
AcDbEntity
  8
AM_4
100
AcDbEllipse
 10
-0.0000000000000034
 20
-0.7836689826330456
 30
0.0
 11
-0.1188200907349009
 21
1.455126437928945E-17
 31
0.0
210
0.0
220
0.0
230
1.0
 40
0.5000000000000036
 41
2.891559760490948
 42
6.533218200278446
  0
ELLIPSE
  5
18F
330
159
100
AcDbEntity
  8
AM_4
100
AcDbEllipse
 10
0.0
 20
-0.8115955985041122
 30
0.0
 11
-0.1049999999999998
 21
1.564621938212793E-9
 31
0.0
210
0.0
220
0.0
230
1.0
 40
0.5000000000000007
 41
3.141592679399361
 42
6.283185332989154
  0
LINE
  5
190
330
159
100
AcDbEntity
  8
AM_4
100
AcDbLine
 10
-0.105
 20
-0.8115955985041121
 30
0.0
 11
-0.105
 21
-0.8298338273165716
 31
0.0
  0
LINE
  5
191
330
159
100
AcDbEntity
  8
AM_4
100
AcDbLine
 10
0.105
 20
-0.8298338273165717
 30
0.0
 11
0.105
 21
-0.8115955985041121
 31
0.0
  0
LINE
  5
192
330
159
100
AcDbEntity
  8
AM_4
100
AcDbLine
 10
0.1098343496897825
 20
-0.8087282452386445
 30
0.0
 11
0.1417971541629018
 21
-0.7856735905967879
 31
0.0
  0
LINE
  5
193
330
159
100
AcDbEntity
  8
AM_4
100
AcDbLine
 10
-0.1417971541629018
 20
-0.7856735905967879
 30
0.0
 11
-0.1098343496897825
 21
-0.8087282452386445
 31
0.0
  0
ELLIPSE
  5
194
330
159
100
AcDbEntity
  8
AM_4
100
AcDbEllipse
 10
-0.0000000000000027
 20
-0.7365269563947142
 30
0.0
 11
-0.1725340532830182
 21
2.112932760969671E-17
 31
0.0
210
0.0
220
0.0
230
1.0
 40
0.5000000000000027
 41
2.535447513394693
 42
6.889330447374705
  0
LWPOLYLINE
  5
195
330
159
100
AcDbEntity
  8
AM_4
100
AcDbPolyline
 90
        3
 70
     0
 43
0.0
 10
0.2525907427704612
 20
-0.71281015941813
 10
0.2211588644235643
 20
-0.691351086025229
 10
0.1894430570778459
 20
-0.6659754311067462
  0
LINE
  5
196
330
159
100
AcDbEntity
  8
AM_4
100
AcDbLine
 10
0.2525907427704612
 20
-0.71281015941813
 30
0.0
 11
0.2525907427704612
 21
-0.6419131624169184
 31
0.0
  0
LWPOLYLINE
  5
197
330
159
100
AcDbEntity
  8
AM_4
100
AcDbPolyline
 90
        3
 70
     0
 43
0.0
 10
0.1894430570778459
 20
-0.5793728907283023
 10
0.2210168999241536
 20
-0.6087893692890718
 10
0.2525907427704612
 20
-0.6419131624169184
  0
LWPOLYLINE
  5
198
330
159
100
AcDbEntity
  8
AM_4
100
AcDbPolyline
 90
        3
 70
     0
 43
0.0
 10
0.1262953713852306
 20
-0.5325381624169184
 10
0.1577272497321276
 20
-0.5539972358098193
 10
0.1894430570778459
 20
-0.5793728907283023
  0
ELLIPSE
  5
199
330
159
100
AcDbEntity
  8
AM_4
100
AcDbEllipse
 10
-0.0000000000000002
 20
-0.7206629311067452
 30
0.0
 11
-0.2187499999999994
 21
2.678914873134828E-17
 31
0.0
210
0.0
220
0.0
230
1.0
 40
0.4999999999999968
 41
2.076348015338554
 42
7.348429945430826
  0
LWPOLYLINE
  5
19A
330
159
100
AcDbEntity
  8
AM_4
100
AcDbPolyline
 90
        3
 70
     0
 43
0.0
 10
0.1894430570778459
 20
-0.6659754311067462
 10
0.1578692142315383
 20
-0.6365589525459766
 10
0.1262953713852306
 20
-0.60343515941813
  0
LWPOLYLINE
  5
19B
330
159
100
AcDbEntity
  8
AM_4
100
AcDbPolyline
 90
        4
 70
     0
 43
0.0
 10
0.0
 20
-0.6112879311067461
 10
-0.0483998160558989
 20
-0.6100602875142983
 10
-0.0967996321117978
 20
-0.6065400225922676
 10
-0.1262953713852306
 20
-0.60343515941813
  0
LWPOLYLINE
  5
19C
330
159
100
AcDbEntity
  8
AM_4
100
AcDbPolyline
 90
        3
 70
     0
 43
0.0
 10
0.1262953713852306
 20
-0.60343515941813
 10
0.0634316146914367
 20
-0.6091968911623038
 10
0.0
 20
-0.6112879311067461
  0
LINE
  5
19D
330
159
100
AcDbEntity
  8
AM_4
100
AcDbLine
 10
0.1262953713852306
 20
-0.60343515941813
 30
0.0
 11
0.1262953713852306
 21
-0.5325381624169184
 31
0.0
  0
LWPOLYLINE
  5
19E
330
159
100
AcDbEntity
  8
AM_4
100
AcDbPolyline
 90
        3
 70
     0
 43
0.0
 10
0.0
 20
-0.5246853907283023
 10
0.0631476856926153
 20
-0.5267581192890718
 10
0.1262953713852306
 20
-0.5325381624169184
  0
LWPOLYLINE
  5
19F
330
159
100
AcDbEntity
  8
AM_4
100
AcDbPolyline
 90
        4
 70
     0
 43
0.0
 10
-0.1262953713852306
 20
-0.5325381624169184
 10
-0.0967996321117978
 20
-0.5294332992427807
 10
-0.0485424412477544
 20
-0.5259201942082359
 10
0.0
 20
-0.5246853907283023
  0
LINE
  5
1A0
330
159
100
AcDbEntity
  8
AM_4
100
AcDbLine
 10
-0.2525907427704612
 20
-0.71281015941813
 30
0.0
 11
-0.2525907427704612
 21
-0.6419131624169184
 31
0.0
  0
LWPOLYLINE
  5
1A1
330
159
100
AcDbEntity
  8
AM_4
100
AcDbPolyline
 90
        3
 70
     0
 43
0.0
 10
-0.1894430570778459
 20
-0.6659754311067462
 10
-0.2210168999241536
 20
-0.6912464525459766
 10
-0.2525907427704612
 20
-0.71281015941813
  0
LWPOLYLINE
  5
1A2
330
159
100
AcDbEntity
  8
AM_4
100
AcDbPolyline
 90
        3
 70
     0
 43
0.0
 10
-0.1262953713852306
 20
-0.60343515941813
 10
-0.1577272497321276
 20
-0.6364176962993786
 10
-0.1894430570778459
 20
-0.6659754311067462
  0
LINE
  5
1A3
330
159
100
AcDbEntity
  8
AM_4
100
AcDbLine
 10
-0.1262953713852306
 20
-0.60343515941813
 30
0.0
 11
-0.1262953713852306
 21
-0.5325381624169184
 31
0.0
  0
LWPOLYLINE
  5
1A4
330
159
100
AcDbEntity
  8
AM_4
100
AcDbPolyline
 90
        3
 70
     0
 43
0.0
 10
-0.1894430570778459
 20
-0.5793728907283023
 10
-0.1578692142315383
 20
-0.5541018692890718
 10
-0.1262953713852306
 20
-0.5325381624169184
  0
LWPOLYLINE
  5
1A5
330
159
100
AcDbEntity
  8
AM_4
100
AcDbPolyline
 90
        3
 70
     0
 43
0.0
 10
-0.2525907427704612
 20
-0.6419131624169184
 10
-0.2211588644235643
 20
-0.6089306255356697
 10
-0.1894430570778459
 20
-0.5793728907283023
  0
ELLIPSE
  5
1A6
330
159
100
AcDbEntity
  8
AM_4
100
AcDbEllipse
 10
-0.0000000000000002
 20
-0.7206629311067455
 30
0.0
 11
-0.2137500000000002
 21
2.617682533177471E-17
 31
0.0
210
0.0
220
0.0
230
1.0
 40
0.5000000000000012
 41
2.098620529422325
 42
7.326157431347056
  0
LINE
  5
1A7
330
159
100
AcDbEntity
  8
AM_4
100
AcDbLine
 10
-0.1005298463144155
 20
-0.8224209160514175
 30
0.0
 11
-0.1292526595471057
 21
-0.8700523132595618
 31
0.0
  0
LINE
  5
1A8
330
159
100
AcDbEntity
  8
AM_4
100
AcDbLine
 10
0.1292526595471057
 20
-0.8700523132595618
 30
0.0
 11
0.1005298463144155
 21
-0.8224209160514175
 31
0.0
  0
ELLIPSE
  5
1A9
330
159
100
AcDbEntity
  8
AM_4
100
AcDbEllipse
 10
0.0
 20
-0.8375763606176451
 30
0.0
 11
-0.1050000000000001
 21
1.285879139104722E-17
 31
0.0
210
0.0
220
0.0
230
1.0
 40
0.4999999999999984
 41
3.434435425318366
 42
5.990342535451012
  0
LINE
  5
1AA
330
159
100
AcDbEntity
  8
AM_4
100
AcDbLine
 10
0.0998453562378797
 20
-0.9707954795886651
 30
0.0
 11
0.1312757938985219
 21
-0.9052832487362895
 31
0.0
  0
LINE
  5
1AB
330
159
100
AcDbEntity
  8
AM_4
100
AcDbLine
 10
-0.1312757938985219
 20
-0.9052832487362895
 30
0.0
 11
-0.0998453562378797
 21
-0.9707954795886651
 31
0.0
  0
ELLIPSE
  5
1AC
330
159
100
AcDbEntity
  8
AM_4
100
AcDbEllipse
 10
0.0000000000000007
 20
-0.8895378848447322
 30
0.0
 11
-0.1349999999999993
 21
1.653273178848919E-17
 31
0.0
210
0.0
220
0.0
230
1.0
 40
0.4999999999999786
 41
2.906159049048516
 42
6.518618911720862
  0
ELLIPSE
  5
1AD
330
159
100
AcDbEntity
  8
AM_4
100
AcDbEllipse
 10
0.0000000000000002
 20
-0.958819917147467
 30
0.0
 11
-0.1026779019331873
 21
1.257441639456437E-17
 31
0.0
210
0.0
220
0.0
230
1.0
 40
0.5000000000000078
 41
0.0
 42
6.283185307179586
  0
ENDBLK
  5
15C
330
159
100
AcDbEntity
  8
0
100
AcDbBlockEnd
  0
BLOCK
  5
1B0
330
1AE
100
AcDbEntity
  8
0
100
AcDbBlockBegin
  2
6_070732H_0_in_070732_4
 70
     2
 10
0.0
 20
0.0
 30
0.0
  3
6_070732H_0_in_070732_4
  1

  0
ATTDEF
  5
1B2
330
1AE
100
AcDbEntity
  8
AM_6
100
AcDbText
 10
8.187499999999996
 20
1.265625
 30
0.0
 40
0.5
  1
FC-S2 -(Labyrinth Seal)-Housing
100
AcDbAttributeDefinition
  3

  2
NN
 70
     8
280
     0
  0
ATTDEF
  5
1B3
330
1AE
100
AcDbEntity
  8
AM_6
100
AcDbText
 10
8.187499999999996
 20
0.765625
 30
0.0
 40
0.5
  1
S-2000 Piloted Flange Bearing -Inch
100
AcDbAttributeDefinition
  3

  2
NT
 70
     8
280
     0
  0
ATTDEF
  5
1B4
330
1AE
100
AcDbEntity
  8
AM_6
100
AcDbText
 10
8.187499999999996
 20
0.265625
 30
0.0
 40
0.5
  1
070732H
100
AcDbAttributeDefinition
  3

  2
NB
 70
     8
280
     0
  0
ATTDEF
  5
1B5
330
1AE
100
AcDbEntity
  8
AM_6
100
AcDbText
 10
8.187499999999996
 20
-0.234375
 30
0.0
 40
0.5
  1
$PN.H
100
AcDbAttributeDefinition
  3

  2
NBSYN
 70
     8
280
     0
  0
ATTDEF
  5
1B6
330
1AE
100
AcDbEntity
  8
AM_6
100
AcDbText
 10
8.187499999999996
 20
-0.734375
 30
0.0
 40
0.5
  1
070732
100
AcDbAttributeDefinition
  3

  2
LINA
 70
     8
280
     0
  0
ATTDEF
  5
1B7
330
1AE
100
AcDbEntity
  8
AM_6
100
AcDbText
 10
8.187499999999996
 20
-1.234375
 30
0.0
 40
0.5
  1
2
100
AcDbAttributeDefinition
  3

  2
SS
 70
     8
280
     0
  0
ATTDEF
  5
1B8
330
1AE
100
AcDbEntity
  8
AM_6
100
AcDbText
 10
8.187499999999996
 20
-1.734375
 30
0.0
 40
0.5
  1
070732
100
AcDbAttributeDefinition
  3

  2
PN
 70
     8
280
     0
  0
ATTDEF
  5
1B9
330
1AE
100
AcDbEntity
  8
AM_6
100
AcDbText
 10
8.187499999999996
 20
-2.234375
 30
0.0
 40
0.5
  1
FC-S2-200LE
100
AcDbAttributeDefinition
  3

  2
DESCRIPTION
 70
     8
280
     0
  0
ATTDEF
  5
1BA
330
1AE
100
AcDbEntity
  8
AM_6
100
AcDbText
 10
8.187499999999996
 20
-2.734375
 30
0.0
 40
0.5
  1
Expansion Type
100
AcDbAttributeDefinition
  3

  2
EF
 70
     8
280
     0
  0
ATTDEF
  5
1BB
330
1AE
100
AcDbEntity
  8
AM_6
100
AcDbText
 10
8.187499999999996
 20
-3.234375
 30
0.0
 40
0.5
  1
2-27/32
100
AcDbAttributeDefinition
  3

  2
A
 70
     8
280
     0
  0
ATTDEF
  5
1BC
330
1AE
100
AcDbEntity
  8
AM_6
100
AcDbText
 10
8.187499999999996
 20
-3.734375
 30
0.0
 40
0.5
  1
6-3/8
100
AcDbAttributeDefinition
  3

  2
B
 70
     8
280
     0
  0
ATTDEF
  5
1BD
330
1AE
100
AcDbEntity
  8
AM_6
100
AcDbText
 10
8.187499999999996
 20
-4.234375
 30
0.0
 40
0.5
  1
2
100
AcDbAttributeDefinition
  3

  2
C
 70
     8
280
     0
  0
ATTDEF
  5
1BE
330
1AE
100
AcDbEntity
  8
AM_6
100
AcDbText
 10
8.187499999999996
 20
-4.734375
 30
0.0
 40
0.5
  1
5-3/8
100
AcDbAttributeDefinition
  3

  2
DD
 70
     8
280
     0
  0
ATTDEF
  5
1BF
330
1AE
100
AcDbEntity
  8
AM_6
100
AcDbText
 10
8.187499999999996
 20
-5.234375
 30
0.0
 40
0.5
  1
7/8
100
AcDbAttributeDefinition
  3

  2
E
 70
     8
280
     0
  0
ATTDEF
  5
1C0
330
1AE
100
AcDbEntity
  8
AM_6
100
AcDbText
 10
8.187499999999996
 20
-5.734375
 30
0.0
 40
0.5
  1
7/16
100
AcDbAttributeDefinition
  3

  2
F
 70
     8
280
     0
  0
ATTDEF
  5
1C1
330
1AE
100
AcDbEntity
  8
AM_6
100
AcDbText
 10
8.187499999999996
 20
-6.234375
 30
0.0
 40
0.5
  1
1-19/32
100
AcDbAttributeDefinition
  3

  2
G
 70
     8
280
     0
  0
ATTDEF
  5
1C2
330
1AE
100
AcDbEntity
  8
AM_6
100
AcDbText
 10
8.187499999999996
 20
-6.734375
 30
0.0
 40
0.5
  1
9/16
100
AcDbAttributeDefinition
  3

  2
H
 70
     8
280
     0
  0
ATTDEF
  5
1C3
330
1AE
100
AcDbEntity
  8
AM_6
100
AcDbText
 10
8.187499999999996
 20
-7.234375
 30
0.0
 40
0.5
  1
4.500
100
AcDbAttributeDefinition
  3

  2
K
 70
     8
280
     0
  0
ATTDEF
  5
1C4
330
1AE
100
AcDbEntity
  8
AM_6
100
AcDbText
 10
8.187499999999996
 20
-7.734375
 30
0.0
 40
0.5
  1
3-7/16
100
AcDbAttributeDefinition
  3

  2
L
 70
     8
280
     0
  0
ATTDEF
  5
1C5
330
1AE
100
AcDbEntity
  8
AM_6
100
AcDbText
 10
8.187499999999996
 20
-8.234375
 30
0.0
 40
0.5
  1
7/16-14
100
AcDbAttributeDefinition
  3

  2
M
 70
     8
280
     0
  0
ATTDEF
  5
1C6
330
1AE
100
AcDbEntity
  8
AM_6
100
AcDbText
 10
8.187499999999996
 20
-8.734375
 30
0.0
 40
0.5
  1
0.4375
100
AcDbAttributeDefinition
  3

  2
MNDM
 70
     8
280
     0
  0
ATTDEF
  5
1C7
330
1AE
100
AcDbEntity
  8
AM_6
100
AcDbText
 10
8.187499999999996
 20
-9.234375
 30
0.0
 40
0.5
  1
0.3602
100
AcDbAttributeDefinition
  3

  2
MKDM
 70
     8
280
     0
  0
ATTDEF
  5
1C8
330
1AE
100
AcDbEntity
  8
AM_6
100
AcDbText
 10
8.187499999999996
 20
-9.734375
 30
0.0
 40
0.5
  1
2-55/64
100
AcDbAttributeDefinition
  3

  2
N
 70
     8
280
     0
  0
ATTDEF
  5
1C9
330
1AE
100
AcDbEntity
  8
AM_6
100
AcDbText
 10
8.187499999999996
 20
-10.234375
 30
0.0
 40
0.5
  1
2.859375
100
AcDbAttributeDefinition
  3

  2
N1
 70
     8
280
     0
  0
ATTDEF
  5
1CA
330
1AE
100
AcDbEntity
  8
AM_6
100
AcDbText
 10
8.187499999999996
 20
-10.734375
 30
0.0
 40
0.5
  1
1-1/4
100
AcDbAttributeDefinition
  3

  2
P
 70
     8
280
     0
  0
ATTDEF
  5
1CB
330
1AE
100
AcDbEntity
  8
AM_6
100
AcDbText
 10
8.187499999999996
 20
-11.234375
 30
0.0
 40
0.5
  1
1-17/64
100
AcDbAttributeDefinition
  3

  2
Q
 70
     8
280
     0
  0
ATTDEF
  5
1CC
330
1AE
100
AcDbEntity
  8
AM_6
100
AcDbText
 10
8.187499999999996
 20
-11.734375
 30
0.0
 40
0.5
  1
1.265625
100
AcDbAttributeDefinition
  3

  2
Q1
 70
     8
280
     0
  0
ATTDEF
  5
1CD
330
1AE
100
AcDbEntity
  8
AM_6
100
AcDbText
 10
8.187499999999996
 20
-12.234375
 30
0.0
 40
0.5
  1
1/4
100
AcDbAttributeDefinition
  3

  2
X
 70
     8
280
     0
  0
ATTDEF
  5
1CE
330
1AE
100
AcDbEntity
  8
AM_6
100
AcDbText
 10
8.187499999999996
 20
-12.734375
 30
0.0
 40
0.5
  1
0.020
100
AcDbAttributeDefinition
  3

  2
Y
 70
     8
280
     0
  0
ATTDEF
  5
1CF
330
1AE
100
AcDbEntity
  8
AM_6
100
AcDbText
 10
8.187499999999996
 20
-13.234375
 30
0.0
 40
0.5
  1
2-19/64
100
AcDbAttributeDefinition
  3

  2
Z
 70
     8
280
     0
  0
ATTDEF
  5
1D0
330
1AE
100
AcDbEntity
  8
AM_6
100
AcDbText
 10
8.187499999999996
 20
-13.734375
 30
0.0
 40
0.5
  1
baldor
100
AcDbAttributeDefinition
  3

  2
COMPANY
 70
     8
280
     0
  0
LINE
  5
1D1
330
1AE
100
AcDbEntity
  8
AM_9
100
AcDbLine
 10
2.507400000000001
 20
-0.0386500000000001
 30
0.0
 11
2.507400000000001
 21
-0.4676
 31
0.0
  0
LINE
  5
1D2
330
1AE
100
AcDbEntity
  8
AM_9
100
AcDbLine
 10
2.8676
 20
-0.4676
 30
0.0
 11
2.8676
 21
-0.0386500000000001
 31
0.0
  0
LINE
  5
1D3
330
1AE
100
AcDbEntity
  8
AM_9
100
AcDbLine
 10
-2.507400000000001
 20
-0.4676
 30
0.0
 11
-2.507400000000001
 21
-0.038650000000001
 31
0.0
  0
LINE
  5
1D4
330
1AE
100
AcDbEntity
  8
AM_9
100
AcDbLine
 10
-2.8676
 20
-0.038650000000001
 30
0.0
 11
-2.8676
 21
-0.4676
 31
0.0
  0
LINE
  5
1D5
330
1AE
100
AcDbEntity
  8
AM_9
100
AcDbLine
 10
-2.8676
 20
-0.038650000000001
 30
0.0
 11
-2.507400000000001
 21
-0.038650000000001
 31
0.0
  0
LINE
  5
1D6
330
1AE
100
AcDbEntity
  8
AM_9
100
AcDbLine
 10
-2.507400000000001
 20
-0.038650000000001
 30
0.0
 11
-2.46875
 21
0.0
 31
0.0
  0
LINE
  5
1D7
330
1AE
100
AcDbEntity
  8
AM_9
100
AcDbLine
 10
-2.90625
 20
0.0
 30
0.0
 11
-2.8676
 21
-0.038650000000001
 31
0.0
  0
LINE
  5
1D8
330
1AE
100
AcDbEntity
  8
AM_9
100
AcDbLine
 10
2.8676
 20
-0.0386500000000001
 30
0.0
 11
2.507400000000001
 21
-0.0386500000000001
 31
0.0
  0
LINE
  5
1D9
330
1AE
100
AcDbEntity
  8
AM_9
100
AcDbLine
 10
2.8676
 20
-0.0386500000000001
 30
0.0
 11
2.90625
 21
0.0
 31
0.0
  0
LINE
  5
1DA
330
1AE
100
AcDbEntity
  8
AM_9
100
AcDbLine
 10
2.46875
 20
0.0
 30
0.0
 11
2.507400000000001
 21
-0.0386500000000001
 31
0.0
  0
LINE
  5
1DB
330
1AE
100
AcDbEntity
  8
AM_9
100
AcDbLine
 10
-2.8676
 20
-0.4676
 30
0.0
 11
-2.507400000000001
 21
-0.4676
 31
0.0
  0
LINE
  5
1DC
330
1AE
100
AcDbEntity
  8
AM_9
100
AcDbLine
 10
-2.8676
 20
-0.4676
 30
0.0
 11
-2.90625
 21
-0.5062500000000009
 31
0.0
  0
LINE
  5
1DD
330
1AE
100
AcDbEntity
  8
AM_9
100
AcDbLine
 10
-2.46875
 20
-0.5062500000000009
 30
0.0
 11
-2.507400000000001
 21
-0.4676
 31
0.0
  0
LINE
  5
1DE
330
1AE
100
AcDbEntity
  8
AM_9
100
AcDbLine
 10
2.8676
 20
-0.4676
 30
0.0
 11
2.507400000000001
 21
-0.4676
 31
0.0
  0
LINE
  5
1DF
330
1AE
100
AcDbEntity
  8
AM_9
100
AcDbLine
 10
2.507400000000001
 20
-0.4676
 30
0.0
 11
2.46875
 21
-0.5062500000000001
 31
0.0
  0
LINE
  5
1E0
330
1AE
100
AcDbEntity
  8
AM_9
100
AcDbLine
 10
2.90625
 20
-0.5062500000000001
 30
0.0
 11
2.8676
 21
-0.4676
 31
0.0
  0
LINE
  5
1E1
330
1AE
100
AcDbEntity
  8
AM_9
100
AcDbLine
 10
2.083502583865509
 20
-0.5062500000000001
 30
0.0
 11
2.083502583865509
 21
-0.5625000000000001
 31
0.0
  0
LINE
  5
1E2
330
1AE
100
AcDbEntity
  8
AM_9
100
AcDbLine
 10
2.038290594937757
 20
-0.5062500000000001
 30
0.0
 11
2.038290594937757
 21
-0.5625000000000001
 31
0.0
  0
LINE
  5
1E3
330
1AE
100
AcDbEntity
  8
AM_9
100
AcDbLine
 10
-2.083502583865509
 20
-0.5062500000000001
 30
0.0
 11
-2.083502583865509
 21
-0.5625000000000001
 31
0.0
  0
LINE
  5
1E4
330
1AE
100
AcDbEntity
  8
AM_9
100
AcDbLine
 10
-2.038290594937756
 20
-0.5625000000000001
 30
0.0
 11
-2.038290594937756
 21
-0.5062500000000001
 31
0.0
  0
LINE
  5
1E5
330
1AE
100
AcDbEntity
  8
AM_9
100
AcDbLine
 10
-2.05946153544398
 20
-0.5062500000000001
 30
0.0
 11
-2.05946153544398
 21
-0.5625000000000001
 31
0.0
  0
LINE
  5
1E6
330
1AE
100
AcDbEntity
  8
AM_9
100
AcDbLine
 10
-2.25
 20
-0.5062500000000001
 30
0.0
 11
-2.25
 21
-0.5624999999999999
 31
0.0
  0
LINE
  5
1E7
330
1AE
100
AcDbEntity
  8
AM_9
100
AcDbLine
 10
2.059461535443981
 20
-0.5062500000000001
 30
0.0
 11
2.059461535443981
 21
-0.5625000000000001
 31
0.0
  0
LINE
  5
1E8
330
1AE
100
AcDbEntity
  8
AM_9
100
AcDbLine
 10
2.25
 20
-0.5624999999999999
 30
0.0
 11
2.25
 21
-0.5062500000000001
 31
0.0
  0
LINE
  5
1E9
330
1AE
100
AcDbEntity
  8
AM_9
100
AcDbLine
 10
1.77165
 20
-0.5021381578947369
 30
0.0
 11
1.77165
 21
1.265625
 31
0.0
  0
LINE
  5
1EA
330
1AE
100
AcDbEntity
  8
AM_9
100
AcDbLine
 10
-1.77165
 20
1.265625
 30
0.0
 11
-1.77165
 21
-0.5021381578947369
 31
0.0
  0
LINE
  5
1EB
330
1AE
100
AcDbEntity
  8
AM_9
100
AcDbLine
 10
-1.77165
 20
-0.5021381578947369
 30
0.0
 11
1.77165
 21
-0.5021381578947369
 31
0.0
  0
LINE
  5
1EC
330
1AE
100
AcDbEntity
  8
AM_9
100
AcDbLine
 10
-1.77165
 20
-0.5021381578947369
 30
0.0
 11
-1.856177297826296
 21
-0.734375
 31
0.0
  0
LINE
  5
1ED
330
1AE
100
AcDbEntity
  8
AM_9
100
AcDbLine
 10
1.856177297826296
 20
-0.734375
 30
0.0
 11
1.77165
 21
-0.5021381578947369
 31
0.0
  0
LINE
  5
1EE
330
1AE
100
AcDbEntity
  8
AM_9
100
AcDbLine
 10
2.038290594937757
 20
-0.5062500000000001
 30
0.0
 11
2.584458005925786
 21
-0.5062500000000001
 31
0.0
  0
LINE
  5
1EF
330
1AE
100
AcDbEntity
  8
AM_9
100
AcDbLine
 10
-2.584458005925789
 20
-0.5062500000000001
 30
0.0
 11
-2.038290594937756
 21
-0.5062500000000001
 31
0.0
  0
LINE
  5
1F0
330
1AE
100
AcDbEntity
  8
AM_9
100
AcDbLine
 10
-2.119099474438846
 20
0.0
 30
0.0
 11
-2.119099474438846
 21
-0.5625000000000001
 31
0.0
  0
LINE
  5
1F1
330
1AE
100
AcDbEntity
  8
AM_9
100
AcDbLine
 10
-1.681599474438846
 20
-0.5625000000000001
 30
0.0
 11
-1.681599474438846
 21
0.0
 31
0.0
  0
LINE
  5
1F2
330
1AE
100
AcDbEntity
  8
AM_9
100
AcDbLine
 10
1.681599474438847
 20
0.0
 30
0.0
 11
1.681599474438847
 21
-0.5625000000000001
 31
0.0
  0
LINE
  5
1F3
330
1AE
100
AcDbEntity
  8
AM_9
100
AcDbLine
 10
2.119099474438847
 20
-0.5625000000000001
 30
0.0
 11
2.119099474438847
 21
0.0
 31
0.0
  0
LINE
  5
1F4
330
1AE
100
AcDbEntity
  8
AM_9
100
AcDbLine
 10
0.2320349783714487
 20
-0.734375
 30
0.0
 11
-0.232039763075357
 21
-0.734375
 31
0.0
  0
LINE
  5
1F5
330
1AE
100
AcDbEntity
  8
AM_9
100
AcDbLine
 10
0.168581299221097
 20
-0.0000000000000003
 30
0.0
 11
0.1685812992210948
 21
-0.5062500000000004
 31
0.0
  0
LINE
  5
1F6
330
1AE
100
AcDbEntity
  8
AM_9
100
AcDbLine
 10
-0.1685812992211032
 20
-0.0000000000000003
 30
0.0
 11
-0.1685812992211032
 21
-0.5062500000000004
 31
0.0
  0
LINE
  5
1F7
330
1AE
100
AcDbEntity
  8
AM_5
100
AcDbLine
 10
2.90625
 20
0.0
 30
0.0
 11
2.90625
 21
-0.5062500000000001
 31
0.0
  0
LINE
  5
1F8
330
1AE
100
AcDbEntity
  8
AM_5
100
AcDbLine
 10
2.46875
 20
0.0000000000000005
 30
0.0
 11
2.46875
 21
-0.5062500000000001
 31
0.0
  0
LINE
  5
1F9
330
1AE
100
AcDbEntity
  8
AM_5
100
AcDbLine
 10
-2.90625
 20
0.0
 30
0.0
 11
-2.90625
 21
-0.5062500000000001
 31
0.0
  0
LINE
  5
1FA
330
1AE
100
AcDbEntity
  8
AM_5
100
AcDbLine
 10
-2.46875
 20
0.0000000000000005
 30
0.0
 11
-2.46875
 21
-0.5062500000000001
 31
0.0
  0
LINE
  5
1FB
330
1AE
100
AcDbEntity
  8
AM_7
100
AcDbLine
 10
1.900349474438846
 20
-0.5906250000000002
 30
0.0
 11
1.900349474438846
 21
0.0281249999999999
 31
0.0
  0
LINE
  5
1FC
330
1AE
100
AcDbEntity
  8
AM_7
100
AcDbLine
 10
-1.900349474438847
 20
-0.5906250000000002
 30
0.0
 11
-1.900349474438847
 21
0.0281249999999999
 31
0.0
  0
LINE
  5
1FD
330
1AE
100
AcDbEntity
  8
AM_7
100
AcDbLine
 10
2.6875
 20
0.0253125
 30
0.0
 11
2.6875
 21
-0.5315625
 31
0.0
  0
LINE
  5
1FE
330
1AE
100
AcDbEntity
  8
AM_7
100
AcDbLine
 10
-2.6875
 20
0.0253124999999998
 30
0.0
 11
-2.6875
 21
-0.5315625000000009
 31
0.0
  0
LINE
  5
1FF
330
1AE
100
AcDbEntity
  8
AM_4
100
AcDbLine
 10
-2.25
 20
-0.5624999999999999
 30
0.0
 11
-2.25
 21
-0.734375
 31
0.0
  0
LINE
  5
200
330
1AE
100
AcDbEntity
  8
AM_4
100
AcDbLine
 10
2.25
 20
-0.734375
 30
0.0
 11
2.25
 21
-0.5624999999999999
 31
0.0
  0
LINE
  5
201
330
1AE
100
AcDbEntity
  8
AM_4
100
AcDbLine
 10
1.798546250991327
 20
-0.734375
 30
0.0
 11
1.798546250991327
 21
-0.5625000000000001
 31
0.0
  0
LINE
  5
202
330
1AE
100
AcDbEntity
  8
AM_4
100
AcDbLine
 10
-1.798546250991327
 20
-0.734375
 30
0.0
 11
-1.798546250991327
 21
-0.5625000000000001
 31
0.0
  0
LINE
  5
203
330
1AE
100
AcDbEntity
  8
AM_4
100
AcDbLine
 10
2.142857142857143
 20
1.265625
 30
0.0
 11
-2.142857142857143
 21
1.265625
 31
0.0
  0
LINE
  5
204
330
1AE
100
AcDbEntity
  8
AM_4
100
AcDbLine
 10
2.142857142857143
 20
0.875
 30
0.0
 11
2.142857142857143
 21
1.265625
 31
0.0
  0
LINE
  5
205
330
1AE
100
AcDbEntity
  8
AM_4
100
AcDbLine
 10
-2.142857142857143
 20
1.265625
 30
0.0
 11
-2.142857142857143
 21
0.875
 31
0.0
  0
LINE
  5
206
330
1AE
100
AcDbEntity
  8
AM_4
100
AcDbLine
 10
-0.5
 20
-0.5062499999999999
 30
0.0
 11
-0.5
 21
-0.734375
 31
0.0
  0
LINE
  5
207
330
1AE
100
AcDbEntity
  8
AM_4
100
AcDbLine
 10
-0.9061557173172395
 20
-0.5062500000000001
 30
0.0
 11
-0.9061557173172395
 21
-0.5625000000000001
 31
0.0
  0
LINE
  5
208
330
1AE
100
AcDbEntity
  8
AM_4
100
AcDbLine
 10
-1.351936160861541
 20
-0.734375
 30
0.0
 11
-1.351936160861541
 21
-0.5625000000000001
 31
0.0
  0
LINE
  5
209
330
1AE
100
AcDbEntity
  8
AM_4
100
AcDbLine
 10
0.5
 20
-0.5062499999999999
 30
0.0
 11
0.5
 21
-0.734375
 31
0.0
  0
LINE
  5
20A
330
1AE
100
AcDbEntity
  8
AM_4
100
AcDbLine
 10
1.351936160861541
 20
-0.734375
 30
0.0
 11
1.351936160861541
 21
-0.5625000000000001
 31
0.0
  0
LINE
  5
20B
330
1AE
100
AcDbEntity
  8
AM_4
100
AcDbLine
 10
0.9061557173172402
 20
-0.5062500000000001
 30
0.0
 11
0.9061557173172402
 21
-0.5625000000000001
 31
0.0
  0
LINE
  5
20C
330
1AE
100
AcDbEntity
  8
AM_4
100
AcDbLine
 10
2.25
 20
0.875
 30
0.0
 11
-2.25
 21
0.875
 31
0.0
  0
LINE
  5
20D
330
1AE
100
AcDbEntity
  8
AM_4
100
AcDbLine
 10
2.25
 20
0.0
 30
0.0
 11
2.25
 21
0.875
 31
0.0
  0
LINE
  5
20E
330
1AE
100
AcDbEntity
  8
AM_4
100
AcDbLine
 10
-2.25
 20
0.875
 30
0.0
 11
-2.25
 21
0.0
 31
0.0
  0
LINE
  5
20F
330
1AE
100
AcDbEntity
  8
AM_4
100
AcDbLine
 10
-0.232039763075357
 20
-0.734375
 30
0.0
 11
-2.25
 21
-0.734375
 31
0.0
  0
LINE
  5
210
330
1AE
100
AcDbEntity
  8
AM_4
100
AcDbLine
 10
2.25
 20
-0.734375
 30
0.0
 11
0.2320349783714487
 21
-0.734375
 31
0.0
  0
LINE
  5
211
330
1AE
100
AcDbEntity
  8
AM_4
100
AcDbLine
 10
1.150233794995806
 20
-0.5062500000000001
 30
0.0
 11
1.150233794995806
 21
-0.5625000000000001
 31
0.0
  0
LINE
  5
212
330
1AE
100
AcDbEntity
  8
AM_4
100
AcDbLine
 10
-1.150233794995806
 20
-0.5062500000000001
 30
0.0
 11
-1.150233794995806
 21
-0.5625000000000001
 31
0.0
  0
LINE
  5
213
330
1AE
100
AcDbEntity
  8
AM_4
100
AcDbLine
 10
-1.865672282477849
 20
-0.5062499999999999
 30
0.0
 11
1.865672282477846
 21
-0.5062499999999999
 31
0.0
  0
LINE
  5
214
330
1AE
100
AcDbEntity
  8
AM_4
100
AcDbLine
 10
-2.584458005925789
 20
-0.5062500000000001
 30
0.0
 11
-2.584458005925789
 21
-0.5625000000000001
 31
0.0
  0
LINE
  5
215
330
1AE
100
AcDbEntity
  8
AM_4
100
AcDbLine
 10
-0.9061557173172395
 20
-0.5625000000000001
 30
0.0
 11
-2.584458005925789
 21
-0.5625000000000001
 31
0.0
  0
LINE
  5
216
330
1AE
100
AcDbEntity
  8
AM_4
100
AcDbLine
 10
-1.86567228247785
 20
-0.5624999999999998
 30
0.0
 11
-1.865672282477849
 21
-0.5062499999999999
 31
0.0
  0
LINE
  5
217
330
1AE
100
AcDbEntity
  8
AM_4
100
AcDbLine
 10
1.865672282477846
 20
-0.5062499999999999
 30
0.0
 11
1.865672282477847
 21
-0.5624999999999998
 31
0.0
  0
LINE
  5
218
330
1AE
100
AcDbEntity
  8
AM_4
100
AcDbLine
 10
2.584458005925786
 20
-0.5625000000000001
 30
0.0
 11
0.9061557173172402
 21
-0.5625000000000001
 31
0.0
  0
LINE
  5
219
330
1AE
100
AcDbEntity
  8
AM_4
100
AcDbLine
 10
2.584458005925786
 20
-0.5625000000000001
 30
0.0
 11
2.584458005925786
 21
-0.5062500000000001
 31
0.0
  0
LINE
  5
21A
330
1AE
100
AcDbEntity
  8
AM_4
100
AcDbLine
 10
2.584458005925786
 20
-0.5062500000000001
 30
0.0
 11
3.187499999999997
 21
-0.5062500000000001
 31
0.0
  0
LINE
  5
21B
330
1AE
100
AcDbEntity
  8
AM_4
100
AcDbLine
 10
-3.187500000000003
 20
0.0
 30
0.0
 11
-3.187500000000003
 21
-0.5062500000000001
 31
0.0
  0
LINE
  5
21C
330
1AE
100
AcDbEntity
  8
AM_4
100
AcDbLine
 10
3.187499999999997
 20
-0.5062500000000001
 30
0.0
 11
3.187499999999997
 21
0.0
 31
0.0
  0
LINE
  5
21D
330
1AE
100
AcDbEntity
  8
AM_4
100
AcDbLine
 10
3.187499999999997
 20
0.0
 30
0.0
 11
-3.187500000000003
 21
0.0
 31
0.0
  0
LINE
  5
21E
330
1AE
100
AcDbEntity
  8
AM_4
100
AcDbLine
 10
-3.187500000000003
 20
-0.5062500000000001
 30
0.0
 11
-2.584458005925789
 21
-0.5062500000000001
 31
0.0
  0
ENDBLK
  5
1B1
330
1AE
100
AcDbEntity
  8
0
100
AcDbBlockEnd
  0
ENDSEC
  0
SECTION
  2
ENTITIES
  0
INSERT
  5
6F
330
1F
100
AcDbEntity
  8
0
100
AcDbBlockReference
  2
1_070732_4
 10
0.0
 20
0.0
 30
0.0
  0
POINT
  5
220
330
1F
100
AcDbEntity
  8
ConnectionPoints
100
AcDbPoint
 10
0.0
 20
-1.34375
 30
0.0000000000000001
  0
POINT
  5
221
330
1F
100
AcDbEntity
  8
ConnectionPoints
100
AcDbPoint
 10
0.0
 20
-1.34375
 30
0.0000000000000001
  0
POINT
  5
222
330
1F
100
AcDbEntity
  8
ConnectionPoints
100
AcDbPoint
 10
0.0
 20
2.38975
 30
-0.0000000000000001
  0
POINT
  5
223
330
1F
100
AcDbEntity
  8
ConnectionPoints
100
AcDbPoint
 10
0.0
 20
-1.34375
 30
0.0000000000000001
  0
POINT
  5
224
330
1F
100
AcDbEntity
  8
ConnectionPoints
100
AcDbPoint
 10
0.0
 20
-0.6340603907283023
 30
2.337916666666667
  0
POINT
  5
225
330
1F
100
AcDbEntity
  8
ConnectionPoints
100
AcDbPoint
 10
0.0
 20
1.21875
 30
-0.0000000000000001
  0
POINT
  5
226
330
1F
100
AcDbEntity
  8
ConnectionPoints
100
AcDbPoint
 10
0.0
 20
-0.6340603907283022
 30
2.337916666666667
  0
POINT
  5
227
330
1F
100
AcDbEntity
  8
ConnectionPoints
100
AcDbPoint
 10
0.0
 20
-0.6024865478819945
 30
2.6478125
  0
POINT
  5
228
330
1F
100
AcDbEntity
  8
ConnectionPoints
100
AcDbPoint
 10
0.0
 20
-1.34375
 30
0.0000000000000001
  0
POINT
  5
229
330
1F
100
AcDbEntity
  8
ConnectionPoints
100
AcDbPoint
 10
0.0
 20
-1.59375
 30
0.0000000000000001
  0
ENDSEC
  0
SECTION
  2
OBJECTS
  0
DICTIONARY
  5
C
330
0
100
AcDbDictionary
281
     1
  3
ACAD_DETAILVIEWSTYLE
350
231
  3
ACAD_GROUP
350
D
  3
ACAD_LAYOUT
350
1A
  3
ACAD_MATERIAL
350
43
  3
ACAD_MLEADERSTYLE
350
6B
  3
ACAD_MLINESTYLE
350
17
  3
ACAD_PLOTSETTINGS
350
19
  3
ACAD_PLOTSTYLENAME
350
E
  3
ACAD_SCALELIST
350
47
  3
ACAD_SECTIONVIEWSTYLE
350
232
  3
ACAD_TABLESTYLE
350
69
  3
ACAD_VISUALSTYLE
350
2A
  3
ACDB_RECOMPOSE_DATA
350
22E
  3
AcDbVariableDictionary
350
22A
  0
SUN
  5
6D
330
29
100
AcDbSun
 90
        1
290
     0
 63
     7
421
 16777215
 40
1.0
291
     1
 91
  2455826
 92
 54000000
292
     0
 70
     2
 71
   256
280
     1
  0
DICTIONARY
  5
231
102
{ACAD_REACTORS
330
C
102
}
330
C
100
AcDbDictionary
281
     1
  0
DICTIONARY
  5
D
102
{ACAD_REACTORS
330
C
102
}
330
C
100
AcDbDictionary
281
     1
  0
DICTIONARY
  5
1A
102
{ACAD_REACTORS
330
C
102
}
330
C
100
AcDbDictionary
281
     1
  3
Layout1
350
1E
  3
Layout2
350
26
  3
Model
350
22
  0
DICTIONARY
  5
43
102
{ACAD_REACTORS
330
C
102
}
330
C
100
AcDbDictionary
281
     1
  3
ByBlock
350
45
  3
ByLayer
350
44
  3
Global
350
46
  0
DICTIONARY
  5
6B
102
{ACAD_REACTORS
330
C
102
}
330
C
100
AcDbDictionary
281
     1
  3
Standard
350
6C
  0
DICTIONARY
  5
17
102
{ACAD_REACTORS
330
C
102
}
330
C
100
AcDbDictionary
281
     1
  3
Standard
350
18
  0
DICTIONARY
  5
19
102
{ACAD_REACTORS
330
C
102
}
330
C
100
AcDbDictionary
281
     1
  0
ACDBDICTIONARYWDFLT
  5
E
102
{ACAD_REACTORS
330
C
102
}
330
C
100
AcDbDictionary
281
     1
  3
Normal
350
F
100
AcDbDictionaryWithDefault
340
F
  0
DICTIONARY
  5
47
102
{ACAD_REACTORS
330
C
102
}
330
C
100
AcDbDictionary
281
     1
  3
A0
350
48
  3
A1
350
49
  3
A2
350
4A
  3
A3
350
4B
  3
A4
350
4C
  3
A5
350
4D
  3
A6
350
4E
  3
A7
350
4F
  3
A8
350
50
  3
A9
350
51
  3
B0
350
52
  3
B1
350
53
  3
B2
350
54
  3
B3
350
55
  3
B4
350
56
  3
B5
350
57
  3
B6
350
58
  3
B7
350
59
  3
B8
350
5A
  3
B9
350
5B
  3
C0
350
5C
  3
C1
350
5D
  3
C2
350
5E
  3
C3
350
5F
  3
C4
350
60
  3
C5
350
61
  3
C6
350
62
  3
C7
350
63
  3
C8
350
64
  3
C9
350
65
  3
D0
350
66
  3
D1
350
67
  3
D2
350
68
  0
DICTIONARY
  5
232
102
{ACAD_REACTORS
330
C
102
}
330
C
100
AcDbDictionary
281
     1
  0
DICTIONARY
  5
69
102
{ACAD_REACTORS
330
C
102
}
330
C
100
AcDbDictionary
281
     1
  3
Standard
350
6A
  0
DICTIONARY
  5
2A
102
{ACAD_REACTORS
330
C
102
}
330
C
100
AcDbDictionary
281
     1
  3
2dWireframe
350
2F
  3
Basic
350
32
  3
Brighten
350
36
  3
ColorChange
350
3A
  3
Conceptual
350
34
  3
Dim
350
35
  3
EdgeColorOff
350
3D
  3
Facepattern
350
39
  3
Flat
350
2B
  3
FlatWithEdges
350
2C
  3
Gouraud
350
2D
  3
GouraudWithEdges
350
2E
  3
Hidden
350
31
  3
JitterOff
350
3B
  3
Linepattern
350
38
  3
OverhangOff
350
3C
  3
Realistic
350
33
  3
Shaded
350
42
  3
Shaded with edges
350
41
  3
Shades of Gray
350
3E
  3
Sketchy
350
3F
  3
Thicken
350
37
  3
Wireframe
350
30
  3
X-Ray
350
40
  0
XRECORD
  5
22E
102
{ACAD_REACTORS
330
C
102
}
330
C
100
AcDbXrecord
280
     1
 90
        1
330
6A
  0
DICTIONARY
  5
22A
102
{ACAD_REACTORS
330
C
102
}
330
C
100
AcDbDictionary
281
     1
  3
CANNOSCALE
350
22B
  3
CMLEADERSTYLE
350
230
  3
CTABLESTYLE
350
22F
  0
LAYOUT
  5
1E
102
{ACAD_REACTORS
330
1A
102
}
330
1A
100
AcDbPlotSettings
  1

  2
none_device
  4

  6

 40
0.0
 41
0.0
 42
0.0
 43
0.0
 44
0.0
 45
0.0
 46
0.0
 47
0.0
 48
0.0
 49
0.0
140
0.0
141
0.0
142
1.0
143
1.0
 70
   688
 72
     0
 73
     0
 74
     5
  7

 75
    16
 76
     0
 77
     2
 78
   300
147
1.0
148
0.0
149
0.0
100
AcDbLayout
  1
Layout1
 70
     1
 71
     1
 10
0.0
 20
0.0
 11
12.0
 21
9.0
 12
0.0
 22
0.0
 32
0.0
 14
1.000000000000000E+20
 24
1.000000000000000E+20
 34
1.000000000000000E+20
 15
-1.000000000000000E+20
 25
-1.000000000000000E+20
 35
-1.000000000000000E+20
146
0.0
 13
0.0
 23
0.0
 33
0.0
 16
1.0
 26
0.0
 36
0.0
 17
0.0
 27
1.0
 37
0.0
 76
     0
330
1B
  0
LAYOUT
  5
26
102
{ACAD_REACTORS
330
1A
102
}
330
1A
100
AcDbPlotSettings
  1

  2
none_device
  4

  6

 40
0.0
 41
0.0
 42
0.0
 43
0.0
 44
0.0
 45
0.0
 46
0.0
 47
0.0
 48
0.0
 49
0.0
140
0.0
141
0.0
142
1.0
143
1.0
 70
   688
 72
     0
 73
     0
 74
     5
  7

 75
    16
 76
     0
 77
     2
 78
   300
147
1.0
148
0.0
149
0.0
100
AcDbLayout
  1
Layout2
 70
     1
 71
     2
 10
0.0
 20
0.0
 11
0.0
 21
0.0
 12
0.0
 22
0.0
 32
0.0
 14
0.0
 24
0.0
 34
0.0
 15
0.0
 25
0.0
 35
0.0
146
0.0
 13
0.0
 23
0.0
 33
0.0
 16
1.0
 26
0.0
 36
0.0
 17
0.0
 27
1.0
 37
0.0
 76
     0
330
23
  0
LAYOUT
  5
22
102
{ACAD_REACTORS
330
1A
102
}
330
1A
100
AcDbPlotSettings
  1

  2
none_device
  4
Letter_(8.50_x_11.00_Inches)
  6

 40
6.35
 41
6.35
 42
6.35000508
 43
6.35000508
 44
215.9
 45
279.4
 46
0.0
 47
0.0
 48
0.0
 49
0.0
140
0.0
141
0.0
142
1.0
143
1.0
 70
  1712
 72
     0
 73
     0
 74
     0
  7

 75
     0
 76
     0
 77
     2
 78
   300
147
1.0
148
0.0
149
0.0
100
AcDbLayout
  1
Model
 70
     1
 71
     0
 10
0.0
 20
0.0
 11
12.0
 21
9.0
 12
0.0
 22
0.0
 32
0.0
 14
1.000000000000000E+20
 24
1.000000000000000E+20
 34
1.000000000000000E+20
 15
-1.000000000000000E+20
 25
-1.000000000000000E+20
 35
-1.000000000000000E+20
146
0.0
 13
0.0
 23
0.0
 33
0.0
 16
1.0
 26
0.0
 36
0.0
 17
0.0
 27
1.0
 37
0.0
 76
     0
330
1F
331
29
  0
MATERIAL
  5
45
102
{ACAD_REACTORS
330
43
102
}
330
43
100
AcDbMaterial
  1
ByBlock
 72
     1
 94
      127
  0
MATERIAL
  5
44
102
{ACAD_REACTORS
330
43
102
}
330
43
100
AcDbMaterial
  1
ByLayer
 72
     1
 94
      127
  0
MATERIAL
  5
46
102
{ACAD_REACTORS
330
43
102
}
330
43
100
AcDbMaterial
  1
Global
 72
     1
 94
      127
  0
MLEADERSTYLE
  5
6C
102
{ACAD_REACTORS
330
6B
102
}
330
6B
100
AcDbMLeaderStyle
179
     2
170
     2
171
     1
172
     0
 90
        2
 40
0.0
 41
0.0
173
     1
 91
-1056964608
340
14
 92
       -2
290
     1
 42
0.09
291
     1
 43
0.36
  3
Standard
341
0
 44
0.18
300

342
11
174
     1
178
     6
175
     1
176
     0
 93
-1056964608
 45
0.18
292
     0
297
     0
 46
0.18
343
0
 94
-1056964608
 47
1.0
 49
1.0
140
1.0
293
     1
141
0.0
294
     1
177
     0
142
1.0
295
     0
296
     0
143
0.125
271
     0
272
     9
273
     9
298
     0
  0
MLINESTYLE
  5
18
102
{ACAD_REACTORS
330
17
102
}
330
17
100
AcDbMlineStyle
  2
Standard
 70
     0
  3

 62
   256
 51
90.0
 52
90.0
 71
     2
 49
0.5
 62
   256
  6
BYLAYER
 49
-0.5
 62
   256
  6
BYLAYER
  0
ACDBPLACEHOLDER
  5
F
102
{ACAD_REACTORS
330
E
102
}
330
E
  0
SCALE
  5
48
102
{ACAD_REACTORS
330
47
102
}
330
47
100
AcDbScale
 70
     0
300
1:1
140
1.0
141
1.0
290
     1
  0
SCALE
  5
49
102
{ACAD_REACTORS
330
47
102
}
330
47
100
AcDbScale
 70
     0
300
1:2
140
1.0
141
2.0
290
     0
  0
SCALE
  5
4A
102
{ACAD_REACTORS
330
47
102
}
330
47
100
AcDbScale
 70
     0
300
1:4
140
1.0
141
4.0
290
     0
  0
SCALE
  5
4B
102
{ACAD_REACTORS
330
47
102
}
330
47
100
AcDbScale
 70
     0
300
1:5
140
1.0
141
5.0
290
     0
  0
SCALE
  5
4C
102
{ACAD_REACTORS
330
47
102
}
330
47
100
AcDbScale
 70
     0
300
1:8
140
1.0
141
8.0
290
     0
  0
SCALE
  5
4D
102
{ACAD_REACTORS
330
47
102
}
330
47
100
AcDbScale
 70
     0
300
1:10
140
1.0
141
10.0
290
     0
  0
SCALE
  5
4E
102
{ACAD_REACTORS
330
47
102
}
330
47
100
AcDbScale
 70
     0
300
1:16
140
1.0
141
16.0
290
     0
  0
SCALE
  5
4F
102
{ACAD_REACTORS
330
47
102
}
330
47
100
AcDbScale
 70
     0
300
1:20
140
1.0
141
20.0
290
     0
  0
SCALE
  5
50
102
{ACAD_REACTORS
330
47
102
}
330
47
100
AcDbScale
 70
     0
300
1:30
140
1.0
141
30.0
290
     0
  0
SCALE
  5
51
102
{ACAD_REACTORS
330
47
102
}
330
47
100
AcDbScale
 70
     0
300
1:40
140
1.0
141
40.0
290
     0
  0
SCALE
  5
52
102
{ACAD_REACTORS
330
47
102
}
330
47
100
AcDbScale
 70
     0
300
1:50
140
1.0
141
50.0
290
     0
  0
SCALE
  5
53
102
{ACAD_REACTORS
330
47
102
}
330
47
100
AcDbScale
 70
     0
300
1:100
140
1.0
141
100.0
290
     0
  0
SCALE
  5
54
102
{ACAD_REACTORS
330
47
102
}
330
47
100
AcDbScale
 70
     0
300
2:1
140
2.0
141
1.0
290
     0
  0
SCALE
  5
55
102
{ACAD_REACTORS
330
47
102
}
330
47
100
AcDbScale
 70
     0
300
4:1
140
4.0
141
1.0
290
     0
  0
SCALE
  5
56
102
{ACAD_REACTORS
330
47
102
}
330
47
100
AcDbScale
 70
     0
300
8:1
140
8.0
141
1.0
290
     0
  0
SCALE
  5
57
102
{ACAD_REACTORS
330
47
102
}
330
47
100
AcDbScale
 70
     0
300
10:1
140
10.0
141
1.0
290
     0
  0
SCALE
  5
58
102
{ACAD_REACTORS
330
47
102
}
330
47
100
AcDbScale
 70
     0
300
100:1
140
100.0
141
1.0
290
     0
  0
SCALE
  5
59
102
{ACAD_REACTORS
330
47
102
}
330
47
100
AcDbScale
 70
     0
300
1/128" = 1'-0"
140
0.0078125
141
12.0
290
     0
  0
SCALE
  5
5A
102
{ACAD_REACTORS
330
47
102
}
330
47
100
AcDbScale
 70
     0
300
1/64" = 1'-0"
140
0.015625
141
12.0
290
     0
  0
SCALE
  5
5B
102
{ACAD_REACTORS
330
47
102
}
330
47
100
AcDbScale
 70
     0
300
1/32" = 1'-0"
140
0.03125
141
12.0
290
     0
  0
SCALE
  5
5C
102
{ACAD_REACTORS
330
47
102
}
330
47
100
AcDbScale
 70
     0
300
1/16" = 1'-0"
140
0.0625
141
12.0
290
     0
  0
SCALE
  5
5D
102
{ACAD_REACTORS
330
47
102
}
330
47
100
AcDbScale
 70
     0
300
3/32" = 1'-0"
140
0.09375
141
12.0
290
     0
  0
SCALE
  5
5E
102
{ACAD_REACTORS
330
47
102
}
330
47
100
AcDbScale
 70
     0
300
1/8" = 1'-0"
140
0.125
141
12.0
290
     0
  0
SCALE
  5
5F
102
{ACAD_REACTORS
330
47
102
}
330
47
100
AcDbScale
 70
     0
300
3/16" = 1'-0"
140
0.1875
141
12.0
290
     0
  0
SCALE
  5
60
102
{ACAD_REACTORS
330
47
102
}
330
47
100
AcDbScale
 70
     0
300
1/4" = 1'-0"
140
0.25
141
12.0
290
     0
  0
SCALE
  5
61
102
{ACAD_REACTORS
330
47
102
}
330
47
100
AcDbScale
 70
     0
300
3/8" = 1'-0"
140
0.375
141
12.0
290
     0
  0
SCALE
  5
62
102
{ACAD_REACTORS
330
47
102
}
330
47
100
AcDbScale
 70
     0
300
1/2" = 1'-0"
140
0.5
141
12.0
290
     0
  0
SCALE
  5
63
102
{ACAD_REACTORS
330
47
102
}
330
47
100
AcDbScale
 70
     0
300
3/4" = 1'-0"
140
0.75
141
12.0
290
     0
  0
SCALE
  5
64
102
{ACAD_REACTORS
330
47
102
}
330
47
100
AcDbScale
 70
     0
300
1" = 1'-0"
140
1.0
141
12.0
290
     0
  0
SCALE
  5
65
102
{ACAD_REACTORS
330
47
102
}
330
47
100
AcDbScale
 70
     0
300
1-1/2" = 1'-0"
140
1.5
141
12.0
290
     0
  0
SCALE
  5
66
102
{ACAD_REACTORS
330
47
102
}
330
47
100
AcDbScale
 70
     0
300
3" = 1'-0"
140
3.0
141
12.0
290
     0
  0
SCALE
  5
67
102
{ACAD_REACTORS
330
47
102
}
330
47
100
AcDbScale
 70
     0
300
6" = 1'-0"
140
6.0
141
12.0
290
     0
  0
SCALE
  5
68
102
{ACAD_REACTORS
330
47
102
}
330
47
100
AcDbScale
 70
     0
300
1'-0" = 1'-0"
140
12.0
141
12.0
290
     0
  0
TABLESTYLE
  5
6A
102
{ACAD_REACTORS
330
69
102
}
102
{ACAD_XDICTIONARY
360
22C
102
}
330
69
100
AcDbTableStyle
  3
Standard
 70
     0
 71
     0
 40
0.06
 41
0.06
280
     0
281
     0
  7
Standard
140
0.18
170
     2
 62
     0
 63
   257
283
     0
 90
        4
 91
        0
  1

274
    -2
284
     1
 64
     0
275
    -2
285
     1
 65
     0
276
    -2
286
     1
 66
     0
277
    -2
287
     1
 67
     0
278
    -2
288
     1
 68
     0
279
    -2
289
     1
 69
     0
  7
Standard
140
0.25
170
     5
 62
     0
 63
   257
283
     0
 90
        4
 91
        0
  1

274
    -2
284
     1
 64
     0
275
    -2
285
     1
 65
     0
276
    -2
286
     1
 66
     0
277
    -2
287
     1
 67
     0
278
    -2
288
     1
 68
     0
279
    -2
289
     1
 69
     0
  7
Standard
140
0.18
170
     5
 62
     0
 63
   257
283
     0
 90
        4
 91
        0
  1

274
    -2
284
     1
 64
     0
275
    -2
285
     1
 65
     0
276
    -2
286
     1
 66
     0
277
    -2
287
     1
 67
     0
278
    -2
288
     1
 68
     0
279
    -2
289
     1
 69
     0
  0
VISUALSTYLE
  5
2F
102
{ACAD_REACTORS
330
2A
102
}
330
2A
100
AcDbVisualStyle
  2
2dWireframe
 70
     4
177
     3
291
     0
 70
    58
 90
        0
176
     1
 90
        2
176
     1
 90
        0
176
     1
 90
        0
176
     1
 40
0.6
176
     1
 40
30.0
176
     1
 62
     7
420
 16777215
176
     1
 90
        1
176
     1
 90
        4
176
     1
 62
     7
176
     1
 62
   257
176
     1
 90
        1
176
     1
 90
        1
176
     1
 40
1.0
176
     1
 90
        0
176
     1
 62
   257
176
     1
 40
1.0
176
     1
 90
        1
176
     1
 90
        6
176
     1
 90
        2
176
     1
 62
     7
176
     1
 90
        5
176
     1
 90
        0
176
     1
 90
        0
176
     1
290
     0
176
     1
 90
        1
176
     1
 40
0.0
176
     1
 90
        0
176
     1
290
     1
176
     1
290
     1
176
     1
290
     0
176
     1
290
     0
176
     1
290
     0
176
     1
290
     0
176
     1
290
     0
176
     1
290
     0
176
     1
290
     0
176
     1
 90
       50
176
     1
 40
0.0
176
     1
 40
1.0
176
     1
 90
        0
176
     1
 62
    18
420
        0
176
     1
 90
       50
176
     1
 90
        3
176
     1
 62
     5
420
      255
176
     1
290
     0
176
     1
 90
       50
176
     1
 90
       50
176
     1
 90
       50
176
     1
290
     0
176
     1
 90
       50
176
     1
 62
   256
176
     0
 40
1.0
176
     0
 90
        2
176
     1
  1
strokes_ogs.tif
176
     1
290
     0
176
     1
 40
1.0
176
     1
 40
1.0
176
     1
  0
VISUALSTYLE
  5
32
102
{ACAD_REACTORS
330
2A
102
}
330
2A
100
AcDbVisualStyle
  2
Basic
 70
     7
177
     3
291
     1
 70
    58
 90
        1
176
     1
 90
        0
176
     1
 90
        1
176
     1
 90
        0
176
     1
 40
0.6
176
     1
 40
30.0
176
     1
 62
     7
420
 16777215
176
     1
 90
        0
176
     1
 90
        4
176
     1
 62
     7
176
     1
 62
   257
176
     1
 90
        1
176
     1
 90
        1
176
     1
 40
1.0
176
     1
 90
        8
176
     1
 62
     7
176
     1
 40
1.0
176
     1
 90
        1
176
     1
 90
        6
176
     1
 90
        2
176
     1
 62
     7
176
     1
 90
        5
176
     1
 90
        0
176
     1
 90
        0
176
     1
290
     0
176
     1
 90
        1
176
     1
 40
0.0
176
     1
 90
        0
176
     1
290
     0
176
     1
290
     1
176
     1
290
     1
176
     1
290
     0
176
     1
290
     0
176
     1
290
     0
176
     1
290
     0
176
     1
290
     0
176
     1
290
     0
176
     1
 90
       50
176
     1
 40
0.0
176
     1
 40
1.0
176
     1
 90
        0
176
     1
 62
    18
420
        0
176
     1
 90
       50
176
     1
 90
        3
176
     1
 62
     5
420
      255
176
     1
290
     0
176
     1
 90
       50
176
     1
 90
       50
176
     1
 90
       50
176
     1
290
     0
176
     1
 90
       50
176
     1
 62
   256
176
     0
 40
1.0
176
     0
 90
        2
176
     1
  1
strokes_ogs.tif
176
     1
290
     0
176
     1
 40
1.0
176
     1
 40
1.0
176
     1
  0
VISUALSTYLE
  5
36
102
{ACAD_REACTORS
330
2A
102
}
330
2A
100
AcDbVisualStyle
  2
Brighten
 70
    12
177
     3
291
     1
 70
    58
 90
        2
176
     1
 90
        2
176
     1
 90
        0
176
     1
 90
        0
176
     1
 40
0.6
176
     1
 40
30.0
176
     1
 62
     7
420
 16777215
176
     1
 90
        1
176
     1
 90
        4
176
     1
 62
     7
176
     1
 62
   257
176
     1
 90
        1
176
     1
 90
        1
176
     1
 40
1.0
176
     1
 90
        8
176
     1
 62
     7
176
     1
 40
1.0
176
     1
 90
        1
176
     1
 90
        6
176
     1
 90
        2
176
     1
 62
     7
176
     1
 90
        5
176
     1
 90
        0
176
     1
 90
        0
176
     1
290
     0
176
     1
 90
        1
176
     1
 40
50.0
176
     1
 90
        0
176
     1
290
     0
176
     1
290
     1
176
     1
290
     1
176
     1
290
     0
176
     1
290
     0
176
     1
290
     0
176
     1
290
     0
176
     1
290
     0
176
     1
290
     0
176
     1
 90
       50
176
     1
 40
0.0
176
     1
 40
1.0
176
     1
 90
        0
176
     1
 62
    18
420
        0
176
     1
 90
       50
176
     1
 90
        3
176
     1
 62
     5
420
      255
176
     1
290
     0
176
     1
 90
       50
176
     1
 90
       50
176
     1
 90
       50
176
     1
290
     0
176
     1
 90
       50
176
     1
 62
   256
176
     0
 40
1.0
176
     0
 90
        2
176
     1
  1
strokes_ogs.tif
176
     1
290
     0
176
     1
 40
1.0
176
     1
 40
1.0
176
     1
  0
VISUALSTYLE
  5
3A
102
{ACAD_REACTORS
330
2A
102
}
330
2A
100
AcDbVisualStyle
  2
ColorChange
 70
    16
177
     3
291
     1
 70
    58
 90
        2
176
     1
 90
        2
176
     1
 90
        3
176
     1
 90
        0
176
     1
 40
0.6
176
     1
 40
30.0
176
     1
 62
     8
420
  8421504
176
     1
 90
        1
176
     1
 90
        4
176
     1
 62
     7
176
     1
 62
   257
176
     1
 90
        1
176
     1
 90
        1
176
     1
 40
1.0
176
     1
 90
        8
176
     1
 62
     8
420
  8421504
176
     1
 40
1.0
176
     1
 90
        1
176
     1
 90
        6
176
     1
 90
        2
176
     1
 62
     7
176
     1
 90
        5
176
     1
 90
        0
176
     1
 90
        0
176
     1
290
     0
176
     1
 90
        1
176
     1
 40
0.0
176
     1
 90
        0
176
     1
290
     0
176
     1
290
     1
176
     1
290
     1
176
     1
290
     0
176
     1
290
     0
176
     1
290
     0
176
     1
290
     0
176
     1
290
     0
176
     1
290
     0
176
     1
 90
       50
176
     1
 40
0.0
176
     1
 40
1.0
176
     1
 90
        0
176
     1
 62
    18
420
        0
176
     1
 90
       50
176
     1
 90
        3
176
     1
 62
     5
420
      255
176
     1
290
     0
176
     1
 90
       50
176
     1
 90
       50
176
     1
 90
       50
176
     1
290
     0
176
     1
 90
       50
176
     1
 62
   256
176
     0
 40
1.0
176
     0
 90
        2
176
     1
  1
strokes_ogs.tif
176
     1
290
     0
176
     1
 40
1.0
176
     1
 40
1.0
176
     1
  0
VISUALSTYLE
  5
34
102
{ACAD_REACTORS
330
2A
102
}
330
2A
100
AcDbVisualStyle
  2
Conceptual
 70
     9
177
     3
291
     0
 70
    58
 90
        3
176
     1
 90
        2
176
     1
 90
        0
176
     1
 90
        0
176
     1
 40
0.6
176
     1
 40
30.0
176
     1
 62
     7
420
 16777215
176
     1
 90
        2
176
     1
 90
        2
176
     1
 62
     7
176
     1
 62
   257
176
     1
 90
        1
176
     1
 90
        1
176
     1
 40
179.0
176
     1
 90
        8
176
     1
 62
     7
176
     1
 40
1.0
176
     1
 90
        1
176
     1
 90
        6
176
     1
 90
        2
176
     1
 62
     7
176
     1
 90
        3
176
     1
 90
        0
176
     1
 90
        0
176
     1
290
     0
176
     1
 90
        1
176
     1
 40
0.0
176
     1
 90
        0
176
     1
290
     0
176
     1
290
     1
176
     1
290
     1
176
     1
290
     0
176
     1
290
     0
176
     1
290
     0
176
     1
290
     0
176
     1
290
     0
176
     1
290
     0
176
     1
 90
       50
176
     1
 40
0.0
176
     1
 40
1.0
176
     1
 90
        0
176
     1
 62
    18
420
        0
176
     1
 90
       50
176
     1
 90
        3
176
     1
 62
     5
420
      255
176
     1
290
     0
176
     1
 90
       50
176
     1
 90
       50
176
     1
 90
       50
176
     1
290
     0
176
     1
 90
       50
176
     1
 62
   256
176
     0
 40
1.0
176
     0
 90
        2
176
     1
  1
strokes_ogs.tif
176
     1
290
     0
176
     1
 40
1.0
176
     1
 40
1.0
176
     1
  0
VISUALSTYLE
  5
35
102
{ACAD_REACTORS
330
2A
102
}
330
2A
100
AcDbVisualStyle
  2
Dim
 70
    11
177
     3
291
     1
 70
    58
 90
        2
176
     1
 90
        2
176
     1
 90
        0
176
     1
 90
        0
176
     1
 40
0.6
176
     1
 40
30.0
176
     1
 62
     7
420
 16777215
176
     1
 90
        1
176
     1
 90
        4
176
     1
 62
     7
176
     1
 62
   257
176
     1
 90
        1
176
     1
 90
        1
176
     1
 40
1.0
176
     1
 90
        8
176
     1
 62
     7
176
     1
 40
1.0
176
     1
 90
        1
176
     1
 90
        6
176
     1
 90
        2
176
     1
 62
     7
176
     1
 90
        5
176
     1
 90
        0
176
     1
 90
        0
176
     1
290
     0
176
     1
 90
        1
176
     1
 40
-50.0
176
     1
 90
        0
176
     1
290
     0
176
     1
290
     1
176
     1
290
     1
176
     1
290
     0
176
     1
290
     0
176
     1
290
     0
176
     1
290
     0
176
     1
290
     0
176
     1
290
     0
176
     1
 90
       50
176
     1
 40
0.0
176
     1
 40
1.0
176
     1
 90
        0
176
     1
 62
    18
420
        0
176
     1
 90
       50
176
     1
 90
        3
176
     1
 62
     5
420
      255
176
     1
290
     0
176
     1
 90
       50
176
     1
 90
       50
176
     1
 90
       50
176
     1
290
     0
176
     1
 90
       50
176
     1
 62
   256
176
     0
 40
1.0
176
     0
 90
        2
176
     1
  1
strokes_ogs.tif
176
     1
290
     0
176
     1
 40
1.0
176
     1
 40
1.0
176
     1
  0
VISUALSTYLE
  5
3D
102
{ACAD_REACTORS
330
2A
102
}
330
2A
100
AcDbVisualStyle
  2
EdgeColorOff
 70
    22
177
     3
291
     1
 70
    58
 90
        2
176
     0
 90
        2
176
     0
 90
        0
176
     0
 90
        0
176
     0
 40
0.6
176
     0
 40
30.0
176
     0
 62
     7
420
 16777215
176
     0
 90
        1
176
     0
 90
        4
176
     0
 62
     7
176
     0
 62
   257
176
     0
 90
        1
176
     0
 90
        1
176
     0
 40
1.0
176
     0
 90
        8
176
     2
 62
     7
176
     0
 40
1.0
176
     0
 90
        1
176
     0
 90
        6
176
     0
 90
        2
176
     0
 62
     7
176
     0
 90
        5
176
     0
 90
        0
176
     0
 90
        0
176
     0
290
     0
176
     0
 90
        1
176
     0
 40
0.0
176
     0
 90
        0
176
     0
290
     0
176
     0
290
     1
176
     0
290
     1
176
     0
290
     0
176
     0
290
     0
176
     0
290
     0
176
     0
290
     0
176
     0
290
     0
176
     0
290
     0
176
     0
 90
       50
176
     0
 40
0.0
176
     0
 40
1.0
176
     0
 90
        0
176
     0
 62
    18
420
        0
176
     0
 90
       50
176
     0
 90
        3
176
     0
 62
     5
420
      255
176
     0
290
     0
176
     0
 90
       50
176
     0
 90
       50
176
     0
 90
       50
176
     0
290
     0
176
     0
 90
       50
176
     0
 62
   256
176
     0
 40
1.0
176
     0
 90
        2
176
     0
  1
strokes_ogs.tif
176
     0
290
     0
176
     0
 40
1.0
176
     0
 40
1.0
176
     0
  0
VISUALSTYLE
  5
39
102
{ACAD_REACTORS
330
2A
102
}
330
2A
100
AcDbVisualStyle
  2
Facepattern
 70
    15
177
     3
291
     1
 70
    58
 90
        2
176
     1
 90
        2
176
     1
 90
        0
176
     1
 90
        0
176
     1
 40
0.6
176
     1
 40
30.0
176
     1
 62
     7
420
 16777215
176
     1
 90
        1
176
     1
 90
        4
176
     1
 62
     7
176
     1
 62
   257
176
     1
 90
        1
176
     1
 90
        1
176
     1
 40
1.0
176
     1
 90
        8
176
     1
 62
     7
176
     1
 40
1.0
176
     1
 90
        1
176
     1
 90
        6
176
     1
 90
        2
176
     1
 62
     7
176
     1
 90
        5
176
     1
 90
        0
176
     1
 90
        0
176
     1
290
     0
176
     1
 90
        1
176
     1
 40
0.0
176
     1
 90
        0
176
     1
290
     0
176
     1
290
     1
176
     1
290
     1
176
     1
290
     0
176
     1
290
     0
176
     1
290
     0
176
     1
290
     0
176
     1
290
     0
176
     1
290
     0
176
     1
 90
       50
176
     1
 40
0.0
176
     1
 40
1.0
176
     1
 90
        0
176
     1
 62
    18
420
        0
176
     1
 90
       50
176
     1
 90
        3
176
     1
 62
     5
420
      255
176
     1
290
     0
176
     1
 90
       50
176
     1
 90
       50
176
     1
 90
       50
176
     1
290
     0
176
     1
 90
       50
176
     1
 62
   256
176
     0
 40
1.0
176
     0
 90
        2
176
     1
  1
strokes_ogs.tif
176
     1
290
     0
176
     1
 40
1.0
176
     1
 40
1.0
176
     1
  0
VISUALSTYLE
  5
2B
102
{ACAD_REACTORS
330
2A
102
}
330
2A
100
AcDbVisualStyle
  2
Flat
 70
     0
177
     3
291
     1
 70
    58
 90
        2
176
     1
 90
        1
176
     1
 90
        1
176
     1
 90
        2
176
     1
 40
0.6
176
     1
 40
30.0
176
     1
 62
     7
420
 16777215
176
     1
 90
        0
176
     1
 90
        0
176
     1
 62
     7
176
     1
 62
   257
176
     1
 90
        1
176
     1
 90
        1
176
     1
 40
1.0
176
     1
 90
        8
176
     1
 62
     7
176
     1
 40
1.0
176
     1
 90
        1
176
     1
 90
        6
176
     1
 90
        2
176
     1
 62
     7
176
     1
 90
        5
176
     1
 90
        0
176
     1
 90
        0
176
     1
290
     0
176
     1
 90
       13
176
     1
 40
0.0
176
     1
 90
        0
176
     1
290
     0
176
     1
290
     1
176
     1
290
     1
176
     1
290
     0
176
     1
290
     0
176
     1
290
     0
176
     1
290
     0
176
     1
290
     0
176
     1
290
     0
176
     1
 90
       50
176
     1
 40
0.0
176
     1
 40
1.0
176
     1
 90
        0
176
     1
 62
    18
420
        0
176
     1
 90
       50
176
     1
 90
        3
176
     1
 62
     5
420
      255
176
     1
290
     0
176
     1
 90
       50
176
     1
 90
       50
176
     1
 90
       50
176
     1
290
     0
176
     1
 90
       50
176
     1
 62
   256
176
     0
 40
1.0
176
     0
 90
        2
176
     1
  1
strokes_ogs.tif
176
     1
290
     0
176
     1
 40
1.0
176
     1
 40
1.0
176
     1
  0
VISUALSTYLE
  5
2C
102
{ACAD_REACTORS
330
2A
102
}
330
2A
100
AcDbVisualStyle
  2
FlatWithEdges
 70
     1
177
     3
291
     1
 70
    58
 90
        2
176
     1
 90
        1
176
     1
 90
        1
176
     1
 90
        2
176
     1
 40
0.6
176
     1
 40
30.0
176
     1
 62
     7
420
 16777215
176
     1
 90
        1
176
     1
 90
        0
176
     1
 62
     7
176
     1
 62
   257
176
     1
 90
        1
176
     1
 90
        1
176
     1
 40
1.0
176
     1
 90
        0
176
     1
 62
   257
176
     1
 40
1.0
176
     1
 90
        1
176
     1
 90
        6
176
     1
 90
        2
176
     1
 62
     7
176
     1
 90
        5
176
     1
 90
        0
176
     1
 90
        0
176
     1
290
     0
176
     1
 90
       13
176
     1
 40
0.0
176
     1
 90
        0
176
     1
290
     0
176
     1
290
     1
176
     1
290
     1
176
     1
290
     0
176
     1
290
     0
176
     1
290
     0
176
     1
290
     0
176
     1
290
     0
176
     1
290
     0
176
     1
 90
       50
176
     1
 40
0.0
176
     1
 40
1.0
176
     1
 90
        0
176
     1
 62
    18
420
        0
176
     1
 90
       50
176
     1
 90
        3
176
     1
 62
     5
420
      255
176
     1
290
     0
176
     1
 90
       50
176
     1
 90
       50
176
     1
 90
       50
176
     1
290
     0
176
     1
 90
       50
176
     1
 62
   256
176
     0
 40
1.0
176
     0
 90
        2
176
     1
  1
strokes_ogs.tif
176
     1
290
     0
176
     1
 40
1.0
176
     1
 40
1.0
176
     1
  0
VISUALSTYLE
  5
2D
102
{ACAD_REACTORS
330
2A
102
}
330
2A
100
AcDbVisualStyle
  2
Gouraud
 70
     2
177
     3
291
     1
 70
    58
 90
        2
176
     1
 90
        2
176
     1
 90
        1
176
     1
 90
        2
176
     1
 40
0.6
176
     1
 40
30.0
176
     1
 62
     7
420
 16777215
176
     1
 90
        0
176
     1
 90
        0
176
     1
 62
     7
176
     1
 62
   257
176
     1
 90
        1
176
     1
 90
        1
176
     1
 40
1.0
176
     1
 90
        0
176
     1
 62
     7
176
     1
 40
1.0
176
     1
 90
        1
176
     1
 90
        6
176
     1
 90
        2
176
     1
 62
     7
176
     1
 90
        5
176
     1
 90
        0
176
     1
 90
        0
176
     1
290
     0
176
     1
 90
       13
176
     1
 40
0.0
176
     1
 90
        0
176
     1
290
     0
176
     1
290
     1
176
     1
290
     1
176
     1
290
     0
176
     1
290
     0
176
     1
290
     0
176
     1
290
     0
176
     1
290
     0
176
     1
290
     0
176
     1
 90
       50
176
     1
 40
0.0
176
     1
 40
1.0
176
     1
 90
        0
176
     1
 62
    18
420
        0
176
     1
 90
       50
176
     1
 90
        3
176
     1
 62
     5
420
      255
176
     1
290
     0
176
     1
 90
       50
176
     1
 90
       50
176
     1
 90
       50
176
     1
290
     0
176
     1
 90
       50
176
     1
 62
   256
176
     0
 40
1.0
176
     0
 90
        2
176
     1
  1
strokes_ogs.tif
176
     1
290
     0
176
     1
 40
1.0
176
     1
 40
1.0
176
     1
  0
VISUALSTYLE
  5
2E
102
{ACAD_REACTORS
330
2A
102
}
330
2A
100
AcDbVisualStyle
  2
GouraudWithEdges
 70
     3
177
     3
291
     1
 70
    58
 90
        2
176
     1
 90
        2
176
     1
 90
        1
176
     1
 90
        2
176
     1
 40
0.6
176
     1
 40
30.0
176
     1
 62
     7
420
 16777215
176
     1
 90
        1
176
     1
 90
        0
176
     1
 62
     7
176
     1
 62
   257
176
     1
 90
        1
176
     1
 90
        1
176
     1
 40
1.0
176
     1
 90
        0
176
     1
 62
   257
176
     1
 40
1.0
176
     1
 90
        1
176
     1
 90
        6
176
     1
 90
        2
176
     1
 62
     7
176
     1
 90
        5
176
     1
 90
        0
176
     1
 90
        0
176
     1
290
     0
176
     1
 90
       13
176
     1
 40
0.0
176
     1
 90
        0
176
     1
290
     0
176
     1
290
     1
176
     1
290
     1
176
     1
290
     0
176
     1
290
     0
176
     1
290
     0
176
     1
290
     0
176
     1
290
     0
176
     1
290
     0
176
     1
 90
       50
176
     1
 40
0.0
176
     1
 40
1.0
176
     1
 90
        0
176
     1
 62
    18
420
        0
176
     1
 90
       50
176
     1
 90
        3
176
     1
 62
     5
420
      255
176
     1
290
     0
176
     1
 90
       50
176
     1
 90
       50
176
     1
 90
       50
176
     1
290
     0
176
     1
 90
       50
176
     1
 62
   256
176
     0
 40
1.0
176
     0
 90
        2
176
     1
  1
strokes_ogs.tif
176
     1
290
     0
176
     1
 40
1.0
176
     1
 40
1.0
176
     1
  0
VISUALSTYLE
  5
31
102
{ACAD_REACTORS
330
2A
102
}
330
2A
100
AcDbVisualStyle
  2
Hidden
 70
     6
177
     3
291
     0
 70
    58
 90
        1
176
     1
 90
        2
176
     1
 90
        2
176
     1
 90
        0
176
     1
 40
0.6
176
     1
 40
30.0
176
     1
 62
     7
420
 16777215
176
     1
 90
        2
176
     1
 90
        2
176
     1
 62
     7
176
     1
 62
   257
176
     1
 90
        2
176
     1
 90
        1
176
     1
 40
40.0
176
     1
 90
        0
176
     1
 62
   257
176
     1
 40
1.0
176
     1
 90
        1
176
     1
 90
        6
176
     1
 90
        2
176
     1
 62
     7
176
     1
 90
        3
176
     1
 90
        0
176
     1
 90
        0
176
     1
290
     0
176
     1
 90
        1
176
     1
 40
0.0
176
     1
 90
        0
176
     1
290
     0
176
     1
290
     1
176
     1
290
     1
176
     1
290
     0
176
     1
290
     0
176
     1
290
     0
176
     1
290
     0
176
     1
290
     0
176
     1
290
     0
176
     1
 90
       50
176
     1
 40
0.0
176
     1
 40
1.0
176
     1
 90
        0
176
     1
 62
    18
420
        0
176
     1
 90
       50
176
     1
 90
        3
176
     1
 62
     5
420
      255
176
     1
290
     0
176
     1
 90
       50
176
     1
 90
       50
176
     1
 90
       50
176
     1
290
     0
176
     1
 90
       50
176
     1
 62
   256
176
     0
 40
1.0
176
     0
 90
        2
176
     1
  1
strokes_ogs.tif
176
     1
290
     0
176
     1
 40
1.0
176
     1
 40
1.0
176
     1
  0
VISUALSTYLE
  5
3B
102
{ACAD_REACTORS
330
2A
102
}
330
2A
100
AcDbVisualStyle
  2
JitterOff
 70
    20
177
     3
291
     1
 70
    58
 90
        2
176
     0
 90
        2
176
     0
 90
        0
176
     0
 90
        0
176
     0
 40
0.6
176
     0
 40
30.0
176
     0
 62
     7
420
 16777215
176
     0
 90
        1
176
     0
 90
        4
176
     0
 62
     7
176
     0
 62
   257
176
     0
 90
        1
176
     0
 90
        1
176
     0
 40
1.0
176
     0
 90
       10
176
     2
 62
     7
176
     0
 40
1.0
176
     0
 90
        1
176
     0
 90
        6
176
     0
 90
        2
176
     0
 62
     7
176
     0
 90
        5
176
     0
 90
        0
176
     0
 90
        0
176
     0
290
     0
176
     0
 90
        1
176
     0
 40
0.0
176
     0
 90
        0
176
     0
290
     0
176
     0
290
     1
176
     0
290
     1
176
     0
290
     0
176
     0
290
     0
176
     0
290
     0
176
     0
290
     0
176
     0
290
     0
176
     0
290
     0
176
     0
 90
       50
176
     0
 40
0.0
176
     0
 40
1.0
176
     0
 90
        0
176
     0
 62
    18
420
        0
176
     0
 90
       50
176
     0
 90
        3
176
     0
 62
     5
420
      255
176
     0
290
     0
176
     0
 90
       50
176
     0
 90
       50
176
     0
 90
       50
176
     0
290
     0
176
     0
 90
       50
176
     0
 62
   256
176
     0
 40
1.0
176
     0
 90
        2
176
     0
  1
strokes_ogs.tif
176
     0
290
     0
176
     0
 40
1.0
176
     0
 40
1.0
176
     0
  0
VISUALSTYLE
  5
38
102
{ACAD_REACTORS
330
2A
102
}
330
2A
100
AcDbVisualStyle
  2
Linepattern
 70
    14
177
     3
291
     1
 70
    58
 90
        2
176
     1
 90
        2
176
     1
 90
        0
176
     1
 90
        0
176
     1
 40
0.6
176
     1
 40
30.0
176
     1
 62
     7
420
 16777215
176
     1
 90
        1
176
     1
 90
        4
176
     1
 62
     7
176
     1
 62
   257
176
     1
 90
        7
176
     1
 90
        7
176
     1
 40
1.0
176
     1
 90
        8
176
     1
 62
     7
176
     1
 40
1.0
176
     1
 90
        1
176
     1
 90
        6
176
     1
 90
        2
176
     1
 62
     7
176
     1
 90
        5
176
     1
 90
        0
176
     1
 90
        0
176
     1
290
     0
176
     1
 90
        1
176
     1
 40
0.0
176
     1
 90
        0
176
     1
290
     0
176
     1
290
     1
176
     1
290
     1
176
     1
290
     0
176
     1
290
     0
176
     1
290
     0
176
     1
290
     0
176
     1
290
     0
176
     1
290
     0
176
     1
 90
       50
176
     1
 40
0.0
176
     1
 40
1.0
176
     1
 90
        0
176
     1
 62
    18
420
        0
176
     1
 90
       50
176
     1
 90
        3
176
     1
 62
     5
420
      255
176
     1
290
     0
176
     1
 90
       50
176
     1
 90
       50
176
     1
 90
       50
176
     1
290
     0
176
     1
 90
       50
176
     1
 62
   256
176
     0
 40
1.0
176
     0
 90
        2
176
     1
  1
strokes_ogs.tif
176
     1
290
     0
176
     1
 40
1.0
176
     1
 40
1.0
176
     1
  0
VISUALSTYLE
  5
3C
102
{ACAD_REACTORS
330
2A
102
}
330
2A
100
AcDbVisualStyle
  2
OverhangOff
 70
    21
177
     3
291
     1
 70
    58
 90
        2
176
     0
 90
        2
176
     0
 90
        0
176
     0
 90
        0
176
     0
 40
0.6
176
     0
 40
30.0
176
     0
 62
     7
420
 16777215
176
     0
 90
        1
176
     0
 90
        4
176
     0
 62
     7
176
     0
 62
   257
176
     0
 90
        1
176
     0
 90
        1
176
     0
 40
1.0
176
     0
 90
        9
176
     2
 62
     7
176
     0
 40
1.0
176
     0
 90
        1
176
     0
 90
        6
176
     0
 90
        2
176
     0
 62
     7
176
     0
 90
        5
176
     0
 90
        0
176
     0
 90
        0
176
     0
290
     0
176
     0
 90
        1
176
     0
 40
0.0
176
     0
 90
        0
176
     0
290
     0
176
     0
290
     1
176
     0
290
     1
176
     0
290
     0
176
     0
290
     0
176
     0
290
     0
176
     0
290
     0
176
     0
290
     0
176
     0
290
     0
176
     0
 90
       50
176
     0
 40
0.0
176
     0
 40
1.0
176
     0
 90
        0
176
     0
 62
    18
420
        0
176
     0
 90
       50
176
     0
 90
        3
176
     0
 62
     5
420
      255
176
     0
290
     0
176
     0
 90
       50
176
     0
 90
       50
176
     0
 90
       50
176
     0
290
     0
176
     0
 90
       50
176
     0
 62
   256
176
     0
 40
1.0
176
     0
 90
        2
176
     0
  1
strokes_ogs.tif
176
     0
290
     0
176
     0
 40
1.0
176
     0
 40
1.0
176
     0
  0
VISUALSTYLE
  5
33
102
{ACAD_REACTORS
330
2A
102
}
330
2A
100
AcDbVisualStyle
  2
Realistic
 70
     8
177
     3
291
     0
 70
    58
 90
        2
176
     1
 90
        3
176
     1
 90
        0
176
     1
 90
        2
176
     1
 40
0.6
176
     1
 40
30.0
176
     1
 62
     7
420
 16777215
176
     1
 90
        0
176
     1
 90
        0
176
     1
 62
     7
176
     1
 62
   257
176
     1
 90
        1
176
     1
 90
        1
176
     1
 40
1.0
176
     1
 90
        8
176
     1
 62
   257
176
     1
 40
1.0
176
     1
 90
        1
176
     1
 90
        6
176
     1
 90
        2
176
     1
 62
     7
176
     1
 90
        3
176
     1
 90
        0
176
     1
 90
        0
176
     1
290
     0
176
     1
 90
       13
176
     1
 40
0.0
176
     1
 90
        0
176
     1
290
     0
176
     1
290
     1
176
     1
290
     1
176
     1
290
     0
176
     1
290
     0
176
     1
290
     0
176
     1
290
     0
176
     1
290
     0
176
     1
290
     0
176
     1
 90
       50
176
     1
 40
0.0
176
     1
 40
1.0
176
     1
 90
        0
176
     1
 62
    18
420
        0
176
     1
 90
       50
176
     1
 90
        3
176
     1
 62
     5
420
      255
176
     1
290
     0
176
     1
 90
       50
176
     1
 90
       50
176
     1
 90
       50
176
     1
290
     0
176
     1
 90
       50
176
     1
 62
   256
176
     0
 40
1.0
176
     0
 90
        2
176
     1
  1
strokes_ogs.tif
176
     1
290
     0
176
     1
 40
1.0
176
     1
 40
1.0
176
     1
  0
VISUALSTYLE
  5
42
102
{ACAD_REACTORS
330
2A
102
}
330
2A
100
AcDbVisualStyle
  2
Shaded
 70
    27
177
     3
291
     0
 70
    58
 90
        2
176
     1
 90
        2
176
     1
 90
        1
176
     1
 90
        2
176
     1
 40
0.6
176
     1
 40
30.0
176
     1
 62
     7
420
 16777215
176
     1
 90
        0
176
     1
 90
        4
176
     1
 62
     7
176
     1
 62
   257
176
     1
 90
        1
176
     1
 90
        1
176
     1
 40
1.0
176
     1
 90
        8
176
     1
 62
   257
176
     1
 40
1.0
176
     1
 90
        1
176
     1
 90
        6
176
     1
 90
        2
176
     1
 62
     8
420
  7895160
176
     1
 90
        3
176
     1
 90
        0
176
     1
 90
        0
176
     1
290
     0
176
     1
 90
        5
176
     1
 40
0.0
176
     1
 90
        0
176
     1
290
     0
176
     1
290
     1
176
     1
290
     1
176
     1
290
     0
176
     1
290
     0
176
     1
290
     0
176
     1
290
     0
176
     1
290
     0
176
     1
290
     0
176
     1
 90
       50
176
     1
 40
0.0
176
     1
 40
1.0
176
     1
 90
        0
176
     1
 62
    18
420
        0
176
     1
 90
       50
176
     1
 90
        3
176
     1
 62
     5
420
      255
176
     1
290
     0
176
     1
 90
       50
176
     1
 90
       50
176
     1
 90
       50
176
     1
290
     0
176
     1
 90
       50
176
     1
 62
   256
176
     0
 40
1.0
176
     0
 90
        2
176
     1
  1
strokes_ogs.tif
176
     1
290
     0
176
     1
 40
1.0
176
     1
 40
1.0
176
     1
  0
VISUALSTYLE
  5
41
102
{ACAD_REACTORS
330
2A
102
}
330
2A
100
AcDbVisualStyle
  2
Shaded with edges
 70
    26
177
     3
291
     0
 70
    58
 90
        2
176
     1
 90
        2
176
     1
 90
        1
176
     1
 90
        2
176
     1
 40
0.6
176
     1
 40
30.0
176
     1
 62
     7
420
 16777215
176
     1
 90
        1
176
     1
 90
       10
176
     1
 62
     7
176
     1
 62
   257
176
     1
 90
        2
176
     1
 90
        1
176
     1
 40
1.0
176
     1
 90
        8
176
     1
 62
   257
176
     1
 40
1.0
176
     1
 90
        1
176
     1
 90
        6
176
     1
 90
        2
176
     1
 62
     7
176
     1
 90
        3
176
     1
 90
        0
176
     1
 90
        0
176
     1
290
     0
176
     1
 90
        5
176
     1
 40
0.0
176
     1
 90
        0
176
     1
290
     0
176
     1
290
     1
176
     1
290
     1
176
     1
290
     0
176
     1
290
     0
176
     1
290
     0
176
     1
290
     0
176
     1
290
     0
176
     1
290
     0
176
     1
 90
       50
176
     1
 40
0.0
176
     1
 40
1.0
176
     1
 90
        0
176
     1
 62
    18
420
        0
176
     1
 90
       50
176
     1
 90
        3
176
     1
 62
     5
420
      255
176
     1
290
     0
176
     1
 90
       50
176
     1
 90
       50
176
     1
 90
       50
176
     1
290
     0
176
     1
 90
       50
176
     1
 62
   256
176
     0
 40
1.0
176
     0
 90
        2
176
     1
  1
strokes_ogs.tif
176
     1
290
     0
176
     1
 40
1.0
176
     1
 40
1.0
176
     1
  0
VISUALSTYLE
  5
3E
102
{ACAD_REACTORS
330
2A
102
}
330
2A
100
AcDbVisualStyle
  2
Shades of Gray
 70
    23
177
     3
291
     0
 70
    58
 90
        2
176
     1
 90
        2
176
     1
 90
        3
176
     1
 90
        0
176
     1
 40
0.6
176
     1
 40
30.0
176
     1
 62
     7
420
 16777215
176
     1
 90
        2
176
     1
 90
        2
176
     1
 62
     7
176
     1
 62
     7
176
     1
 90
        1
176
     1
 90
        1
176
     1
 40
40.0
176
     1
 90
        8
176
     1
 62
     7
176
     1
 40
1.0
176
     1
 90
        1
176
     1
 90
        6
176
     1
 90
        2
176
     1
 62
     7
176
     1
 90
        3
176
     1
 90
        0
176
     1
 90
        0
176
     1
290
     0
176
     1
 90
        1
176
     1
 40
0.0
176
     1
 90
        0
176
     1
290
     0
176
     1
290
     1
176
     1
290
     1
176
     1
290
     0
176
     1
290
     0
176
     1
290
     0
176
     1
290
     0
176
     1
290
     0
176
     1
290
     0
176
     1
 90
       50
176
     1
 40
0.0
176
     1
 40
1.0
176
     1
 90
        0
176
     1
 62
    18
420
        0
176
     1
 90
       50
176
     1
 90
        3
176
     1
 62
     5
420
      255
176
     1
290
     0
176
     1
 90
       50
176
     1
 90
       50
176
     1
 90
       50
176
     1
290
     0
176
     1
 90
       50
176
     1
 62
   256
176
     0
 40
1.0
176
     0
 90
        2
176
     1
  1
strokes_ogs.tif
176
     1
290
     0
176
     1
 40
1.0
176
     1
 40
1.0
176
     1
  0
VISUALSTYLE
  5
3F
102
{ACAD_REACTORS
330
2A
102
}
330
2A
100
AcDbVisualStyle
  2
Sketchy
 70
    24
177
     3
291
     0
 70
    58
 90
        1
176
     1
 90
        2
176
     1
 90
        2
176
     1
 90
        0
176
     1
 40
0.6
176
     1
 40
30.0
176
     1
 62
     7
420
 16777215
176
     1
 90
        2
176
     1
 90
        2
176
     1
 62
     7
176
     1
 62
     7
176
     1
 90
        1
176
     1
 90
        1
176
     1
 40
40.0
176
     1
 90
       11
176
     1
 62
     7
176
     1
 40
1.0
176
     1
 90
        1
176
     1
 90
        6
176
     1
 90
        2
176
     1
 62
     7
176
     1
 90
        6
176
     1
 90
        0
176
     1
 90
        0
176
     1
290
     0
176
     1
 90
        1
176
     1
 40
0.0
176
     1
 90
        0
176
     1
290
     0
176
     1
290
     1
176
     1
290
     1
176
     1
290
     0
176
     1
290
     0
176
     1
290
     0
176
     1
290
     0
176
     1
290
     0
176
     1
290
     0
176
     1
 90
       50
176
     1
 40
0.0
176
     1
 40
1.0
176
     1
 90
        0
176
     1
 62
    18
420
        0
176
     1
 90
       50
176
     1
 90
        3
176
     1
 62
     5
420
      255
176
     1
290
     0
176
     1
 90
       50
176
     1
 90
       50
176
     1
 90
       50
176
     1
290
     0
176
     1
 90
       50
176
     1
 62
   256
176
     0
 40
1.0
176
     0
 90
        2
176
     1
  1
strokes_ogs.tif
176
     1
290
     0
176
     1
 40
1.0
176
     1
 40
1.0
176
     1
  0
VISUALSTYLE
  5
37
102
{ACAD_REACTORS
330
2A
102
}
330
2A
100
AcDbVisualStyle
  2
Thicken
 70
    13
177
     3
291
     1
 70
    58
 90
        2
176
     1
 90
        2
176
     1
 90
        0
176
     1
 90
        0
176
     1
 40
0.6
176
     1
 40
30.0
176
     1
 62
     7
420
 16777215
176
     1
 90
        1
176
     1
 90
        4
176
     1
 62
     7
176
     1
 62
   257
176
     1
 90
        1
176
     1
 90
        1
176
     1
 40
1.0
176
     1
 90
       12
176
     1
 62
     7
176
     1
 40
1.0
176
     1
 90
        1
176
     1
 90
        6
176
     1
 90
        2
176
     1
 62
     7
176
     1
 90
        5
176
     1
 90
        0
176
     1
 90
        0
176
     1
290
     0
176
     1
 90
        1
176
     1
 40
0.0
176
     1
 90
        0
176
     1
290
     0
176
     1
290
     1
176
     1
290
     1
176
     1
290
     0
176
     1
290
     0
176
     1
290
     0
176
     1
290
     0
176
     1
290
     0
176
     1
290
     0
176
     1
 90
       50
176
     1
 40
0.0
176
     1
 40
1.0
176
     1
 90
        0
176
     1
 62
    18
420
        0
176
     1
 90
       50
176
     1
 90
        3
176
     1
 62
     5
420
      255
176
     1
290
     0
176
     1
 90
       50
176
     1
 90
       50
176
     1
 90
       50
176
     1
290
     0
176
     1
 90
       50
176
     1
 62
   256
176
     0
 40
1.0
176
     0
 90
        2
176
     1
  1
strokes_ogs.tif
176
     1
290
     0
176
     1
 40
1.0
176
     1
 40
1.0
176
     1
  0
VISUALSTYLE
  5
30
102
{ACAD_REACTORS
330
2A
102
}
330
2A
100
AcDbVisualStyle
  2
Wireframe
 70
     5
177
     3
291
     0
 70
    58
 90
        0
176
     1
 90
        2
176
     1
 90
        0
176
     1
 90
        0
176
     1
 40
0.6
176
     1
 40
30.0
176
     1
 62
     7
420
 16777215
176
     1
 90
        1
176
     1
 90
        4
176
     1
 62
     7
176
     1
 62
   257
176
     1
 90
        1
176
     1
 90
        1
176
     1
 40
1.0
176
     1
 90
        0
176
     1
 62
   257
176
     1
 40
1.0
176
     1
 90
        1
176
     1
 90
        6
176
     1
 90
        2
176
     1
 62
     7
176
     1
 90
        3
176
     1
 90
        0
176
     1
 90
        0
176
     1
290
     0
176
     1
 90
        1
176
     1
 40
0.0
176
     1
 90
        0
176
     1
290
     0
176
     1
290
     1
176
     1
290
     1
176
     1
290
     0
176
     1
290
     0
176
     1
290
     0
176
     1
290
     0
176
     1
290
     0
176
     1
290
     0
176
     1
 90
       50
176
     1
 40
0.0
176
     1
 40
1.0
176
     1
 90
        0
176
     1
 62
    18
420
        0
176
     1
 90
       50
176
     1
 90
        3
176
     1
 62
     5
420
      255
176
     1
290
     0
176
     1
 90
       50
176
     1
 90
       50
176
     1
 90
       50
176
     1
290
     0
176
     1
 90
       50
176
     1
 62
   256
176
     0
 40
1.0
176
     0
 90
        2
176
     1
  1
strokes_ogs.tif
176
     1
290
     0
176
     1
 40
1.0
176
     1
 40
1.0
176
     1
  0
VISUALSTYLE
  5
40
102
{ACAD_REACTORS
330
2A
102
}
330
2A
100
AcDbVisualStyle
  2
X-Ray
 70
    25
177
     3
291
     0
 70
    58
 90
        2
176
     1
 90
        2
176
     1
 90
        1
176
     1
 90
        1
176
     1
 40
0.5
176
     1
 40
30.0
176
     1
 62
     7
420
 16777215
176
     1
 90
        1
176
     1
 90
        0
176
     1
 62
     7
176
     1
 62
   257
176
     1
 90
        1
176
     1
 90
        1
176
     1
 40
1.0
176
     1
 90
        8
176
     1
 62
     7
176
     1
 40
1.0
176
     1
 90
        1
176
     1
 90
        6
176
     1
 90
        2
176
     1
 62
     7
176
     1
 90
        3
176
     1
 90
        0
176
     1
 90
        0
176
     1
290
     0
176
     1
 90
       13
176
     1
 40
0.0
176
     1
 90
        0
176
     1
290
     0
176
     1
290
     1
176
     1
290
     1
176
     1
290
     0
176
     1
290
     0
176
     1
290
     0
176
     1
290
     0
176
     1
290
     0
176
     1
290
     0
176
     1
 90
       50
176
     1
 40
0.0
176
     1
 40
1.0
176
     1
 90
        0
176
     1
 62
    18
420
        0
176
     1
 90
       50
176
     1
 90
        3
176
     1
 62
     5
420
      255
176
     1
290
     0
176
     1
 90
       50
176
     1
 90
       50
176
     1
 90
       50
176
     1
290
     0
176
     1
 90
       50
176
     1
 62
   256
176
     0
 40
1.0
176
     0
 90
        2
176
     1
  1
strokes_ogs.tif
176
     1
290
     0
176
     1
 40
1.0
176
     1
 40
1.0
176
     1
  0
DICTIONARYVAR
  5
22B
102
{ACAD_REACTORS
330
22A
102
}
330
22A
100
DictionaryVariables
280
     0
  1
1:1
  0
DICTIONARYVAR
  5
230
102
{ACAD_REACTORS
330
22A
102
}
330
22A
100
DictionaryVariables
280
     0
  1
Standard
  0
DICTIONARYVAR
  5
22F
102
{ACAD_REACTORS
330
22A
102
}
330
22A
100
DictionaryVariables
280
     0
  1
Standard
  0
DICTIONARY
  5
22C
330
6A
100
AcDbDictionary
280
     1
281
     1
  3
ACAD_ROUNDTRIP_2008_TABLESTYLE_CELLSTYLEMAP
360
22D
  0
CELLSTYLEMAP
  5
22D
102
{ACAD_REACTORS
330
22C
102
}
330
22C
100
AcDbCellStyleMap
 90
        3
300
CELLSTYLE
  1
TABLEFORMAT_BEGIN
 90
        5
170
     1
 91
        0
 92
    32768
 62
   257
 93
        1
300
CONTENTFORMAT
  1
CONTENTFORMAT_BEGIN
 90
        0
 91
        0
 92
        4
 93
        0
300

 40
0.0
140
1.0
 94
        5
 62
     0
340
11
144
0.25
309
CONTENTFORMAT_END
171
     1
301
MARGIN
  1
CELLMARGIN_BEGIN
 40
0.06
 40
0.06
 40
0.06
 40
0.06
 40
0.06
 40
0.06
309
CELLMARGIN_END
 94
        6
 95
        1
302
GRIDFORMAT
  1
GRIDFORMAT_BEGIN
 90
        0
 91
        1
 62
     0
 92
       -2
340
14
 93
        0
 40
0.045
309
GRIDFORMAT_END
 95
        2
302
GRIDFORMAT
  1
GRIDFORMAT_BEGIN
 90
        0
 91
        1
 62
     0
 92
       -2
340
14
 93
        0
 40
0.045
309
GRIDFORMAT_END
 95
        4
302
GRIDFORMAT
  1
GRIDFORMAT_BEGIN
 90
        0
 91
        1
 62
     0
 92
       -2
340
14
 93
        0
 40
0.045
309
GRIDFORMAT_END
 95
        8
302
GRIDFORMAT
  1
GRIDFORMAT_BEGIN
 90
        0
 91
        1
 62
     0
 92
       -2
340
14
 93
        0
 40
0.045
309
GRIDFORMAT_END
 95
       16
302
GRIDFORMAT
  1
GRIDFORMAT_BEGIN
 90
        0
 91
        1
 62
     0
 92
       -2
340
14
 93
        0
 40
0.045
309
GRIDFORMAT_END
 95
       32
302
GRIDFORMAT
  1
GRIDFORMAT_BEGIN
 90
        0
 91
        1
 62
     0
 92
       -2
340
14
 93
        0
 40
0.045
309
GRIDFORMAT_END
309
TABLEFORMAT_END
  1
CELLSTYLE_BEGIN
 90
        1
 91
        1
300
_TITLE
309
CELLSTYLE_END
300
CELLSTYLE
  1
TABLEFORMAT_BEGIN
 90
        5
170
     1
 91
        0
 92
        0
 62
   257
 93
        1
300
CONTENTFORMAT
  1
CONTENTFORMAT_BEGIN
 90
        0
 91
        0
 92
        4
 93
        0
300

 40
0.0
140
1.0
 94
        5
 62
     0
340
11
144
0.18
309
CONTENTFORMAT_END
171
     1
301
MARGIN
  1
CELLMARGIN_BEGIN
 40
0.06
 40
0.06
 40
0.06
 40
0.06
 40
0.06
 40
0.06
309
CELLMARGIN_END
 94
        6
 95
        1
302
GRIDFORMAT
  1
GRIDFORMAT_BEGIN
 90
        0
 91
        1
 62
     0
 92
       -2
340
14
 93
        0
 40
0.045
309
GRIDFORMAT_END
 95
        2
302
GRIDFORMAT
  1
GRIDFORMAT_BEGIN
 90
        0
 91
        1
 62
     0
 92
       -2
340
14
 93
        0
 40
0.045
309
GRIDFORMAT_END
 95
        4
302
GRIDFORMAT
  1
GRIDFORMAT_BEGIN
 90
        0
 91
        1
 62
     0
 92
       -2
340
14
 93
        0
 40
0.045
309
GRIDFORMAT_END
 95
        8
302
GRIDFORMAT
  1
GRIDFORMAT_BEGIN
 90
        0
 91
        1
 62
     0
 92
       -2
340
14
 93
        0
 40
0.045
309
GRIDFORMAT_END
 95
       16
302
GRIDFORMAT
  1
GRIDFORMAT_BEGIN
 90
        0
 91
        1
 62
     0
 92
       -2
340
14
 93
        0
 40
0.045
309
GRIDFORMAT_END
 95
       32
302
GRIDFORMAT
  1
GRIDFORMAT_BEGIN
 90
        0
 91
        1
 62
     0
 92
       -2
340
14
 93
        0
 40
0.045
309
GRIDFORMAT_END
309
TABLEFORMAT_END
  1
CELLSTYLE_BEGIN
 90
        2
 91
        1
300
_HEADER
309
CELLSTYLE_END
300
CELLSTYLE
  1
TABLEFORMAT_BEGIN
 90
        5
170
     1
 91
        0
 92
        0
 62
   257
 93
        1
300
CONTENTFORMAT
  1
CONTENTFORMAT_BEGIN
 90
        0
 91
        0
 92
        4
 93
        0
300

 40
0.0
140
1.0
 94
        2
 62
     0
340
11
144
0.18
309
CONTENTFORMAT_END
171
     1
301
MARGIN
  1
CELLMARGIN_BEGIN
 40
0.06
 40
0.06
 40
0.06
 40
0.06
 40
0.06
 40
0.06
309
CELLMARGIN_END
 94
        6
 95
        1
302
GRIDFORMAT
  1
GRIDFORMAT_BEGIN
 90
        0
 91
        1
 62
     0
 92
       -2
340
14
 93
        0
 40
0.045
309
GRIDFORMAT_END
 95
        2
302
GRIDFORMAT
  1
GRIDFORMAT_BEGIN
 90
        0
 91
        1
 62
     0
 92
       -2
340
14
 93
        0
 40
0.045
309
GRIDFORMAT_END
 95
        4
302
GRIDFORMAT
  1
GRIDFORMAT_BEGIN
 90
        0
 91
        1
 62
     0
 92
       -2
340
14
 93
        0
 40
0.045
309
GRIDFORMAT_END
 95
        8
302
GRIDFORMAT
  1
GRIDFORMAT_BEGIN
 90
        0
 91
        1
 62
     0
 92
       -2
340
14
 93
        0
 40
0.045
309
GRIDFORMAT_END
 95
       16
302
GRIDFORMAT
  1
GRIDFORMAT_BEGIN
 90
        0
 91
        1
 62
     0
 92
       -2
340
14
 93
        0
 40
0.045
309
GRIDFORMAT_END
 95
       32
302
GRIDFORMAT
  1
GRIDFORMAT_BEGIN
 90
        0
 91
        1
 62
     0
 92
       -2
340
14
 93
        0
 40
0.045
309
GRIDFORMAT_END
309
TABLEFORMAT_END
  1
CELLSTYLE_BEGIN
 90
        3
 91
        2
300
_DATA
309
CELLSTYLE_END
  0
ENDSEC
  0
EOF