0
SECTION
  2
HEADER
  9
$ACADVER
  1
AC1027
  9
$ACADMAINTVER
 70
     8
  9
$DWGCODEPAGE
  3
ANSI_1252
  9
$REQUIREDVERSIONS
160
                 0
  9
$COMMENTS
  1
File was created by Cadenas
  9
$CUSTOMPROPERTYTAG
  1
NN
  9
$CUSTOMPROPERTY
  1
S-2000 Piloted Flange Labyrinth Seal
  9
$CUSTOMPROPERTYTAG
  1
NT
  9
$CUSTOMPROPERTY
  1
S-2000 Piloted Flange Bearing -Inch
  9
$CUSTOMPROPERTYTAG
  1
NB
  9
$CUSTOMPROPERTY
  1
070730
  9
$CUSTOMPROPERTYTAG
  1
NBSYN
  9
$CUSTOMPROPERTY
  1
$PN.
  9
$CUSTOMPROPERTYTAG
  1
LINA
  9
$CUSTOMPROPERTY
  1
070730
  9
$CUSTOMPROPERTYTAG
  1
SS
  9
$CUSTOMPROPERTY
  1
1-3/4
  9
$CUSTOMPROPERTYTAG
  1
PN
  9
$CUSTOMPROPERTY
  1
070730
  9
$CUSTOMPROPERTYTAG
  1
DESCRIPTION
  9
$CUSTOMPROPERTY
  1
FC-S2-112LE
  9
$CUSTOMPROPERTYTAG
  1
EF
  9
$CUSTOMPROPERTY
  1
Expansion Type
  9
$CUSTOMPROPERTYTAG
  1
ST
  9
$CUSTOMPROPERTY
  1
Labyrinth Seal
  9
$CUSTOMPROPERTYTAG
  1
A
  9
$CUSTOMPROPERTY
  1
2-43/64
  9
$CUSTOMPROPERTYTAG
  1
B
  9
$CUSTOMPROPERTY
  1
6-1/8
  9
$CUSTOMPROPERTYTAG
  1
C
  9
$CUSTOMPROPERTY
  1
1-29/32
  9
$CUSTOMPROPERTYTAG
  1
D
  9
$CUSTOMPROPERTY
  1
3-5/8
  9
$CUSTOMPROPERTYTAG
  1
DD
  9
$CUSTOMPROPERTY
  1
5-1/8
  9
$CUSTOMPROPERTYTAG
  1
E
  9
$CUSTOMPROPERTY
  1
7/8
  9
$CUSTOMPROPERTYTAG
  1
F
  9
$CUSTOMPROPERTY
  1
7/16
  9
$CUSTOMPROPERTYTAG
  1
G
  9
$CUSTOMPROPERTY
  1
1-29/64
  9
$CUSTOMPROPERTYTAG
  1
H
  9
$CUSTOMPROPERTY
  1
1/2
  9
$CUSTOMPROPERTYTAG
  1
K
  9
$CUSTOMPROPERTY
  1
4.250
  9
$CUSTOMPROPERTYTAG
  1
L
  9
$CUSTOMPROPERTY
  1
3-3/16
  9
$CUSTOMPROPERTYTAG
  1
M
  9
$CUSTOMPROPERTY
  1
7/16-14
  9
$CUSTOMPROPERTYTAG
  1
N
  9
$CUSTOMPROPERTY
  1
2-23/32
  9
$CUSTOMPROPERTYTAG
  1
P
  9
$CUSTOMPROPERTY
  1
1-7/32
  9
$CUSTOMPROPERTYTAG
  1
Q
  9
$CUSTOMPROPERTY
  1
1-17/64
  9
$CUSTOMPROPERTYTAG
  1
X
  9
$CUSTOMPROPERTY
  1
1/4
  9
$CUSTOMPROPERTYTAG
  1
Y
  9
$CUSTOMPROPERTY
  1
0.020
  9
$CUSTOMPROPERTYTAG
  1
Z
  9
$CUSTOMPROPERTY
  1
2-5/64
  9
$CUSTOMPROPERTYTAG
  1
COMPANY
  9
$CUSTOMPROPERTY
  1
baldor
  9
$INSBASE
 10
0.0
 20
0.0
 30
0.0
  9
$EXTMIN
 10
1.000000000000000E+20
 20
1.000000000000000E+20
 30
1.000000000000000E+20
  9
$EXTMAX
 10
-1.000000000000000E+20
 20
-1.000000000000000E+20
 30
-1.000000000000000E+20
  9
$LIMMIN
 10
0.0
 20
0.0
  9
$LIMMAX
 10
12.0
 20
9.0
  9
$ORTHOMODE
 70
     0
  9
$REGENMODE
 70
     1
  9
$FILLMODE
 70
     1
  9
$QTEXTMODE
 70
     0
  9
$MIRRTEXT
 70
     1
  9
$LTSCALE
 40
1.0
  9
$ATTMODE
 70
     1
  9
$TEXTSIZE
 40
0.2
  9
$TRACEWID
 40
0.05
  9
$TEXTSTYLE
  7
Standard
  9
$CLAYER
  8
0
  9
$CELTYPE
  6
ByLayer
  9
$CECOLOR
 62
   256
  9
$CELTSCALE
 40
1.0
  9
$DISPSILH
 70
     0
  9
$DIMSCALE
 40
1.0
  9
$DIMASZ
 40
0.18
  9
$DIMEXO
 40
0.0625
  9
$DIMDLI
 40
0.38
  9
$DIMRND
 40
0.0
  9
$DIMDLE
 40
0.0
  9
$DIMEXE
 40
0.18
  9
$DIMTP
 40
0.0
  9
$DIMTM
 40
0.0
  9
$DIMTXT
 40
0.18
  9
$DIMCEN
 40
0.09
  9
$DIMTSZ
 40
0.0
  9
$DIMTOL
 70
     0
  9
$DIMLIM
 70
     0
  9
$DIMTIH
 70
     1
  9
$DIMTOH
 70
     1
  9
$DIMSE1
 70
     0
  9
$DIMSE2
 70
     0
  9
$DIMTAD
 70
     0
  9
$DIMZIN
 70
     0
  9
$DIMBLK
  1

  9
$DIMASO
 70
     1
  9
$DIMSHO
 70
     1
  9
$DIMPOST
  1

  9
$DIMAPOST
  1

  9
$DIMALT
 70
     0
  9
$DIMALTD
 70
     2
  9
$DIMALTF
 40
25.4
  9
$DIMLFAC
 40
1.0
  9
$DIMTOFL
 70
     0
  9
$DIMTVP
 40
0.0
  9
$DIMTIX
 70
     0
  9
$DIMSOXD
 70
     0
  9
$DIMSAH
 70
     0
  9
$DIMBLK1
  1

  9
$DIMBLK2
  1

  9
$DIMSTYLE
  2
Standard
  9
$DIMCLRD
 70
     0
  9
$DIMCLRE
 70
     0
  9
$DIMCLRT
 70
     0
  9
$DIMTFAC
 40
1.0
  9
$DIMGAP
 40
0.09
  9
$DIMJUST
 70
     0
  9
$DIMSD1
 70
     0
  9
$DIMSD2
 70
     0
  9
$DIMTOLJ
 70
     1
  9
$DIMTZIN
 70
     0
  9
$DIMALTZ
 70
     0
  9
$DIMALTTZ
 70
     0
  9
$DIMUPT
 70
     0
  9
$DIMDEC
 70
     4
  9
$DIMTDEC
 70
     4
  9
$DIMALTU
 70
     2
  9
$DIMALTTD
 70
     2
  9
$DIMTXSTY
  7
Standard
  9
$DIMAUNIT
 70
     0
  9
$DIMADEC
 70
     0
  9
$DIMALTRND
 40
0.0
  9
$DIMAZIN
 70
     0
  9
$DIMDSEP
 70
    46
  9
$DIMATFIT
 70
     3
  9
$DIMFRAC
 70
     0
  9
$DIMLDRBLK
  1

  9
$DIMLUNIT
 70
     2
  9
$DIMLWD
 70
    -2
  9
$DIMLWE
 70
    -2
  9
$DIMTMOVE
 70
     0
  9
$DIMFXL
 40
1.0
  9
$DIMFXLON
 70
     0
  9
$DIMJOGANG
 40
0.7853981633974483
  9
$DIMTFILL
 70
     0
  9
$DIMTFILLCLR
 70
     0
  9
$DIMARCSYM
 70
     0
  9
$DIMLTYPE
  6

  9
$DIMLTEX1
  6

  9
$DIMLTEX2
  6

  9
$DIMTXTDIRECTION
 70
     0
  9
$LUNITS
 70
     2
  9
$LUPREC
 70
     4
  9
$SKETCHINC
 40
0.1
  9
$FILLETRAD
 40
0.5
  9
$AUNITS
 70
     0
  9
$AUPREC
 70
     0
  9
$MENU
  1
.
  9
$ELEVATION
 40
0.0
  9
$PELEVATION
 40
0.0
  9
$THICKNESS
 40
0.0
  9
$LIMCHECK
 70
     0
  9
$CHAMFERA
 40
0.0
  9
$CHAMFERB
 40
0.0
  9
$CHAMFERC
 40
0.0
  9
$CHAMFERD
 40
0.0
  9
$SKPOLY
 70
     0
  9
$TDCREATE
 40
2458168.961651192
  9
$TDUCREATE
 40
2458168.919984526
  9
$TDUPDATE
 40
2458168.961651366
  9
$TDUUPDATE
 40
2458168.919984699
  9
$TDINDWG
 40
0.0000000116
  9
$TDUSRTIMER
 40
0.0000000116
  9
$USRTIMER
 70
     1
  9
$ANGBASE
 50
0.0
  9
$ANGDIR
 70
     0
  9
$PDMODE
 70
     0
  9
$PDSIZE
 40
0.0
  9
$PLINEWID
 40
0.0
  9
$SPLFRAME
 70
     0
  9
$SPLINETYPE
 70
     6
  9
$SPLINESEGS
 70
     8
  9
$HANDSEED
  5
1D5
  9
$SURFTAB1
 70
     6
  9
$SURFTAB2
 70
     6
  9
$SURFTYPE
 70
     6
  9
$SURFU
 70
     6
  9
$SURFV
 70
     6
  9
$UCSBASE
  2

  9
$UCSNAME
  2

  9
$UCSORG
 10
0.0
 20
0.0
 30
0.0
  9
$UCSXDIR
 10
1.0
 20
0.0
 30
0.0
  9
$UCSYDIR
 10
0.0
 20
1.0
 30
0.0
  9
$UCSORTHOREF
  2

  9
$UCSORTHOVIEW
 70
     0
  9
$UCSORGTOP
 10
0.0
 20
0.0
 30
0.0
  9
$UCSORGBOTTOM
 10
0.0
 20
0.0
 30
0.0
  9
$UCSORGLEFT
 10
0.0
 20
0.0
 30
0.0
  9
$UCSORGRIGHT
 10
0.0
 20
0.0
 30
0.0
  9
$UCSORGFRONT
 10
0.0
 20
0.0
 30
0.0
  9
$UCSORGBACK
 10
0.0
 20
0.0
 30
0.0
  9
$PUCSBASE
  2

  9
$PUCSNAME
  2

  9
$PUCSORG
 10
0.0
 20
0.0
 30
0.0
  9
$PUCSXDIR
 10
1.0
 20
0.0
 30
0.0
  9
$PUCSYDIR
 10
0.0
 20
1.0
 30
0.0
  9
$PUCSORTHOREF
  2

  9
$PUCSORTHOVIEW
 70
     0
  9
$PUCSORGTOP
 10
0.0
 20
0.0
 30
0.0
  9
$PUCSORGBOTTOM
 10
0.0
 20
0.0
 30
0.0
  9
$PUCSORGLEFT
 10
0.0
 20
0.0
 30
0.0
  9
$PUCSORGRIGHT
 10
0.0
 20
0.0
 30
0.0
  9
$PUCSORGFRONT
 10
0.0
 20
0.0
 30
0.0
  9
$PUCSORGBACK
 10
0.0
 20
0.0
 30
0.0
  9
$USERI1
 70
     0
  9
$USERI2
 70
     0
  9
$USERI3
 70
     0
  9
$USERI4
 70
     0
  9
$USERI5
 70
     0
  9
$USERR1
 40
0.0
  9
$USERR2
 40
0.0
  9
$USERR3
 40
0.0
  9
$USERR4
 40
0.0
  9
$USERR5
 40
0.0
  9
$WORLDVIEW
 70
     1
  9
$SHADEDGE
 70
     3
  9
$SHADEDIF
 70
    70
  9
$TILEMODE
 70
     1
  9
$MAXACTVP
 70
    64
  9
$PINSBASE
 10
0.0
 20
0.0
 30
0.0
  9
$PLIMCHECK
 70
     0
  9
$PEXTMIN
 10
1.000000000000000E+20
 20
1.000000000000000E+20
 30
1.000000000000000E+20
  9
$PEXTMAX
 10
-1.000000000000000E+20
 20
-1.000000000000000E+20
 30
-1.000000000000000E+20
  9
$PLIMMIN
 10
0.0
 20
0.0
  9
$PLIMMAX
 10
12.0
 20
9.0
  9
$UNITMODE
 70
     0
  9
$VISRETAIN
 70
     1
  9
$PLINEGEN
 70
     0
  9
$PSLTSCALE
 70
     1
  9
$TREEDEPTH
 70
  3020
  9
$CMLSTYLE
  2
Standard
  9
$CMLJUST
 70
     0
  9
$CMLSCALE
 40
1.0
  9
$PROXYGRAPHICS
 70
     1
  9
$MEASUREMENT
 70
     0
  9
$CELWEIGHT
370
    -1
  9
$ENDCAPS
280
     0
  9
$JOINSTYLE
280
     0
  9
$LWDISPLAY
290
     0
  9
$INSUNITS
 70
     1
  9
$HYPERLINKBASE
  1

  9
$STYLESHEET
  1

  9
$XEDIT
290
     1
  9
$CEPSNTYPE
380
     0
  9
$PSTYLEMODE
290
     1
  9
$FINGERPRINTGUID
  2
{246E668B-CD76-4BFC-9432-6338A44657C7}
  9
$VERSIONGUID
  2
{FAEB1C32-E019-11D5-929B-00C0DF256EC4}
  9
$EXTNAMES
290
     1
  9
$PSVPSCALE
 40
0.0
  9
$OLESTARTUP
290
     0
  9
$SORTENTS
280
   127
  9
$INDEXCTL
280
     0
  9
$HIDETEXT
280
     1
  9
$XCLIPFRAME
280
     2
  9
$HALOGAP
280
     0
  9
$OBSCOLOR
 70
   257
  9
$OBSLTYPE
280
     0
  9
$INTERSECTIONDISPLAY
280
     0
  9
$INTERSECTIONCOLOR
 70
   257
  9
$DIMASSOC
280
     2
  9
$PROJECTNAME
  1

  9
$CAMERADISPLAY
290
     0
  9
$LENSLENGTH
 40
50.0
  9
$CAMERAHEIGHT
 40
0.0
  9
$STEPSPERSEC
 40
2.0
  9
$STEPSIZE
 40
6.0
  9
$3DDWFPREC
 40
2.0
  9
$PSOLWIDTH
 40
0.25
  9
$PSOLHEIGHT
 40
4.0
  9
$LOFTANG1
 40
1.570796326794897
  9
$LOFTANG2
 40
1.570796326794897
  9
$LOFTMAG1
 40
0.0
  9
$LOFTMAG2
 40
0.0
  9
$LOFTPARAM
 70
     7
  9
$LOFTNORMALS
280
     1
  9
$LATITUDE
 40
37.795
  9
$LONGITUDE
 40
-122.394
  9
$NORTHDIRECTION
 40
0.0
  9
$TIMEZONE
 70
 -8000
  9
$LIGHTGLYPHDISPLAY
280
     1
  9
$TILEMODELIGHTSYNCH
280
     1
  9
$CMATERIAL
347
44
  9
$SOLIDHIST
280
     0
  9
$SHOWHIST
280
     1
  9
$DWFFRAME
280
     2
  9
$DGNFRAME
280
     2
  9
$REALWORLDSCALE
290
     1
  9
$INTERFERECOLOR
 62
   256
  9
$CSHADOW
280
     0
  9
$SHADOWPLANELOCATION
 40
0.0
  0
ENDSEC
  0
SECTION
  2
CLASSES
  0
CLASS
  1
ACDBDICTIONARYWDFLT
  2
AcDbDictionaryWithDefault
  3
ObjectDBX Classes
 90
        0
 91
        4
280
     0
281
     0
  0
CLASS
  1
VISUALSTYLE
  2
AcDbVisualStyle
  3
ObjectDBX Classes
 90
     4095
 91
        4
280
     0
281
     0
  0
CLASS
  1
MATERIAL
  2
AcDbMaterial
  3
ObjectDBX Classes
 90
     1153
 91
        4
280
     0
281
     0
  0
CLASS
  1
SCALE
  2
AcDbScale
  3
ObjectDBX Classes
 90
     1153
 91
        4
280
     0
281
     0
  0
CLASS
  1
TABLESTYLE
  2
AcDbTableStyle
  3
ObjectDBX Classes
 90
     4095
 91
        4
280
     0
281
     0
  0
CLASS
  1
MLEADERSTYLE
  2
AcDbMLeaderStyle
  3
ACDB_MLEADERSTYLE_CLASS
 90
     4095
 91
        4
280
     0
281
     0
  0
CLASS
  1
SUN
  2
AcDbSun
  3
SCENEOE
 90
     1153
 91
        4
280
     0
281
     0
  0
CLASS
  1
DICTIONARYVAR
  2
AcDbDictionaryVar
  3
ObjectDBX Classes
 90
        0
 91
        4
280
     0
281
     0
  0
CLASS
  1
CELLSTYLEMAP
  2
AcDbCellStyleMap
  3
ObjectDBX Classes
 90
     1152
 91
        4
280
     0
281
     0
  0
ENDSEC
  0
SECTION
  2
TABLES
  0
TABLE
  2
VPORT
  5
8
330
0
100
AcDbSymbolTable
 70
     1
  0
VPORT
  5
29
330
8
100
AcDbSymbolTableRecord
100
AcDbViewportTableRecord
  2
*Active
 70
     0
 10
0.0
 20
0.0
 11
1.0
 21
1.0
 12
0.0000000000000036
 22
0.0023327850877246
 13
0.0
 23
0.0
 14
0.5
 24
0.5
 15
0.5
 25
0.5
 16
0.0
 26
0.0
 36
1.0
 17
0.0
 27
0.0
 37
0.0
 40
6.242741118421064
 41
1.000762306411346
 42
50.0
 43
0.0
 44
0.0
 50
0.0
 51
0.0
 71
     0
 72
   100
 73
     1
 74
     3
 75
     0
 76
     0
 77
     0
 78
     0
281
     0
 65
     1
110
0.0
120
0.0
130
0.0
111
1.0
121
0.0
131
0.0
112
0.0
122
1.0
132
0.0
 79
     0
146
0.0
348
2F
 60
     3
 61
     5
292
     1
282
     1
141
0.0
142
0.0
 63
   250
361
6D
  0
ENDTAB
  0
TABLE
  2
LTYPE
  5
5
330
0
100
AcDbSymbolTable
 70
     3
  0
LTYPE
  5
14
330
5
100
AcDbSymbolTableRecord
100
AcDbLinetypeTableRecord
  2
ByBlock
 70
     0
  3

 72
    65
 73
     0
 40
0.0
  0
LTYPE
  5
15
330
5
100
AcDbSymbolTableRecord
100
AcDbLinetypeTableRecord
  2
ByLayer
 70
     0
  3

 72
    65
 73
     0
 40
0.0
  0
LTYPE
  5
16
330
5
100
AcDbSymbolTableRecord
100
AcDbLinetypeTableRecord
  2
Continuous
 70
     0
  3
Solid line
 72
    65
 73
     0
 40
0.0
  0
LTYPE
  5
A7
330
5
100
AcDbSymbolTableRecord
100
AcDbLinetypeTableRecord
  2
Dashed
 70
     0
  3

 72
    65
 73
     2
 40
2.0
 49
1.0
 74
     0
 49
-1.0
 74
     0
  0
LTYPE
  5
108
330
5
100
AcDbSymbolTableRecord
100
AcDbLinetypeTableRecord
  2
Center
 70
     0
  3

 72
    65
 73
     4
 40
1.5
 49
0.45
 74
     0
 49
-0.5
 74
     0
 49
0.05
 74
     0
 49
-0.5
 74
     0
  0
ENDTAB
  0
TABLE
  2
LAYER
  5
2
330
0
100
AcDbSymbolTable
 70
     7
  0
LAYER
  5
10
330
2
100
AcDbSymbolTableRecord
100
AcDbLayerTableRecord
  2
0
 70
     0
 62
     7
  6
Continuous
370
    -3
390
F
347
46
348
0
  0
LAYER
  5
72
330
2
100
AcDbSymbolTableRecord
100
AcDbLayerTableRecord
  2
AM_6
 70
     0
 62
    -2
  6
Continuous
370
    35
390
F
347
46
348
0
  0
LAYER
  5
A8
330
2
100
AcDbSymbolTableRecord
100
AcDbLayerTableRecord
  2
AM_9
 70
     0
 62
     6
  6
Dashed
370
    25
390
F
347
46
348
0
  0
LAYER
  5
CD
330
2
100
AcDbSymbolTableRecord
100
AcDbLayerTableRecord
  2
AM_5
 70
     0
 62
     3
  6
Continuous
370
    25
390
F
347
46
348
0
  0
LAYER
  5
D6
330
2
100
AcDbSymbolTableRecord
100
AcDbLayerTableRecord
  2
AM_4
 70
     0
 62
     7
  6
Continuous
370
    50
390
F
347
46
348
0
  0
LAYER
  5
109
330
2
100
AcDbSymbolTableRecord
100
AcDbLayerTableRecord
  2
AM_7
 70
     0
 62
     7
  6
Center
370
    25
390
F
347
46
348
0
  0
LAYER
  5
1C1
330
2
100
AcDbSymbolTableRecord
100
AcDbLayerTableRecord
  2
ConnectionPoints
 70
     0
 62
     7
  6
Continuous
370
    50
390
F
347
46
348
0
  0
ENDTAB
  0
TABLE
  2
STYLE
  5
3
330
0
100
AcDbSymbolTable
 70
     1
  0
STYLE
  5
11
330
3
100
AcDbSymbolTableRecord
100
AcDbTextStyleTableRecord
  2
Standard
 70
     0
 40
0.0
 41
1.0
 50
0.0
 71
     0
 42
0.2
  3
txt
  4

  0
ENDTAB
  0
TABLE
  2
VIEW
  5
6
330
0
100
AcDbSymbolTable
 70
     0
  0
ENDTAB
  0
TABLE
  2
UCS
  5
7
330
0
100
AcDbSymbolTable
 70
     0
  0
ENDTAB
  0
TABLE
  2
APPID
  5
9
330
0
100
AcDbSymbolTable
 70
     1
  0
APPID
  5
12
330
9
100
AcDbSymbolTableRecord
100
AcDbRegAppTableRecord
  2
ACAD
 70
     0
  0
ENDTAB
  0
TABLE
  2
DIMSTYLE
  5
A
330
0
100
AcDbSymbolTable
 70
     1
100
AcDbDimStyleTable
  0
DIMSTYLE
105
27
330
A
100
AcDbSymbolTableRecord
100
AcDbDimStyleTableRecord
  2
Standard
 70
     0
178
     0
340
11
  0
ENDTAB
  0
TABLE
  2
BLOCK_RECORD
  5
1
330
0
100
AcDbSymbolTable
 70
     7
  0
BLOCK_RECORD
  5
1F
330
1
100
AcDbSymbolTableRecord
100
AcDbBlockTableRecord
  2
*Model_Space
340
22
 70
     0
280
     1
281
     0
  0
BLOCK_RECORD
  5
1B
330
1
100
AcDbSymbolTableRecord
100
AcDbBlockTableRecord
  2
*Paper_Space
340
1E
 70
     0
280
     1
281
     0
  0
BLOCK_RECORD
  5
23
330
1
100
AcDbSymbolTableRecord
100
AcDbBlockTableRecord
  2
*Paper_Space0
340
26
 70
     0
280
     1
281
     0
  0
BLOCK_RECORD
  5
6E
330
1
100
AcDbSymbolTableRecord
100
AcDbBlockTableRecord
  2
1_070730_0
340
0
102
{BLKREFS
331
6F
102
}
 70
     0
280
     1
281
     0
  0
BLOCK_RECORD
  5
90
330
1
100
AcDbSymbolTableRecord
100
AcDbBlockTableRecord
  2
2_1_3_4_Disc_0_in_070730_0
340
0
102
{BLKREFS
331
91
102
}
 70
     0
280
     1
281
     0
  0
BLOCK_RECORD
  5
AA
330
1
100
AcDbSymbolTableRecord
100
AcDbBlockTableRecord
  2
3_1_3_4CS2i_0_in_070730_0
340
0
102
{BLKREFS
331
AB
102
}
 70
     0
280
     1
281
     0
  0
BLOCK_RECORD
  5
E8
330
1
100
AcDbSymbolTableRecord
100
AcDbBlockTableRecord
  2
4_070020i_0_in_070730_0
340
0
102
{BLKREFS
331
E9
102
}
 70
     0
280
     1
281
     0
  0
BLOCK_RECORD
  5
10D
330
1
100
AcDbSymbolTableRecord
100
AcDbBlockTableRecord
  2
5_405015E_Inch_0_in_070730_0
340
0
102
{BLKREFS
331
10E
102
}
 70
     0
280
     1
281
     0
  0
BLOCK_RECORD
  5
160
330
1
100
AcDbSymbolTableRecord
100
AcDbBlockTableRecord
  2
6_070730H_0_in_070730_0
340
0
102
{BLKREFS
331
161
102
}
 70
     0
280
     1
281
     0
  0
ENDTAB
  0
ENDSEC
  0
SECTION
  2
BLOCKS
  0
BLOCK
  5
20
330
1F
100
AcDbEntity
  8
0
100
AcDbBlockBegin
  2
*Model_Space
 70
     0
 10
0.0
 20
0.0
 30
0.0
  3
*Model_Space
  1

  0
ENDBLK
  5
21
330
1F
100
AcDbEntity
  8
0
100
AcDbBlockEnd
  0
BLOCK
  5
1C
330
1B
100
AcDbEntity
 67
     1
  8
0
100
AcDbBlockBegin
  2
*Paper_Space
 70
     0
 10
0.0
 20
0.0
 30
0.0
  3
*Paper_Space
  1

  0
ENDBLK
  5
1D
330
1B
100
AcDbEntity
 67
     1
  8
0
100
AcDbBlockEnd
  0
BLOCK
  5
24
330
23
100
AcDbEntity
  8
0
100
AcDbBlockBegin
  2
*Paper_Space0
 70
     0
 10
0.0
 20
0.0
 30
0.0
  3
*Paper_Space0
  1

  0
ENDBLK
  5
25
330
23
100
AcDbEntity
  8
0
100
AcDbBlockEnd
  0
BLOCK
  5
70
330
6E
100
AcDbEntity
  8
0
100
AcDbBlockBegin
  2
1_070730_0
 70
     2
 10
0.0
 20
0.0
 30
0.0
  3
1_070730_0
  1

  0
ATTDEF
  5
73
330
6E
100
AcDbEntity
  8
AM_6
100
AcDbText
 10
8.060335150409234
 20
3.059606911335501
 30
0.0
 40
0.5
  1
S-2000 Piloted Flange Labyrinth Seal
100
AcDbAttributeDefinition
  3

  2
NN
 70
     8
280
     0
  0
ATTDEF
  5
74
330
6E
100
AcDbEntity
  8
AM_6
100
AcDbText
 10
8.060335150409234
 20
2.559606911335501
 30
0.0
 40
0.5
  1
S-2000 Piloted Flange Bearing -Inch
100
AcDbAttributeDefinition
  3

  2
NT
 70
     8
280
     0
  0
ATTDEF
  5
75
330
6E
100
AcDbEntity
  8
AM_6
100
AcDbText
 10
8.060335150409234
 20
2.059606911335501
 30
0.0
 40
0.5
  1
070730
100
AcDbAttributeDefinition
  3

  2
NB
 70
     8
280
     0
  0
ATTDEF
  5
76
330
6E
100
AcDbEntity
  8
AM_6
100
AcDbText
 10
8.060335150409234
 20
1.559606911335501
 30
0.0
 40
0.5
  1
$PN.
100
AcDbAttributeDefinition
  3

  2
NBSYN
 70
     8
280
     0
  0
ATTDEF
  5
77
330
6E
100
AcDbEntity
  8
AM_6
100
AcDbText
 10
8.060335150409234
 20
1.059606911335501
 30
0.0
 40
0.5
  1
070730
100
AcDbAttributeDefinition
  3

  2
LINA
 70
     8
280
     0
  0
ATTDEF
  5
78
330
6E
100
AcDbEntity
  8
AM_6
100
AcDbText
 10
8.060335150409234
 20
0.5596069113355009
 30
0.0
 40
0.5
  1
1-3/4
100
AcDbAttributeDefinition
  3

  2
SS
 70
     8
280
     0
  0
ATTDEF
  5
79
330
6E
100
AcDbEntity
  8
AM_6
100
AcDbText
 10
8.060335150409234
 20
0.0596069113355009
 30
0.0
 40
0.5
  1
070730
100
AcDbAttributeDefinition
  3

  2
PN
 70
     8
280
     0
  0
ATTDEF
  5
7A
330
6E
100
AcDbEntity
  8
AM_6
100
AcDbText
 10
8.060335150409234
 20
-0.4403930886644991
 30
0.0
 40
0.5
  1
FC-S2-112LE
100
AcDbAttributeDefinition
  3

  2
DESCRIPTION
 70
     8
280
     0
  0
ATTDEF
  5
7B
330
6E
100
AcDbEntity
  8
AM_6
100
AcDbText
 10
8.060335150409234
 20
-0.9403930886644991
 30
0.0
 40
0.5
  1
Expansion Type
100
AcDbAttributeDefinition
  3

  2
EF
 70
     8
280
     0
  0
ATTDEF
  5
7C
330
6E
100
AcDbEntity
  8
AM_6
100
AcDbText
 10
8.060335150409234
 20
-1.440393088664499
 30
0.0
 40
0.5
  1
Labyrinth Seal
100
AcDbAttributeDefinition
  3

  2
ST
 70
     8
280
     0
  0
ATTDEF
  5
7D
330
6E
100
AcDbEntity
  8
AM_6
100
AcDbText
 10
8.060335150409234
 20
-1.940393088664499
 30
0.0
 40
0.5
  1
2-43/64
100
AcDbAttributeDefinition
  3

  2
A
 70
     8
280
     0
  0
ATTDEF
  5
7E
330
6E
100
AcDbEntity
  8
AM_6
100
AcDbText
 10
8.060335150409234
 20
-2.440393088664499
 30
0.0
 40
0.5
  1
6-1/8
100
AcDbAttributeDefinition
  3

  2
B
 70
     8
280
     0
  0
ATTDEF
  5
7F
330
6E
100
AcDbEntity
  8
AM_6
100
AcDbText
 10
8.060335150409234
 20
-2.940393088664499
 30
0.0
 40
0.5
  1
1-29/32
100
AcDbAttributeDefinition
  3

  2
C
 70
     8
280
     0
  0
ATTDEF
  5
80
330
6E
100
AcDbEntity
  8
AM_6
100
AcDbText
 10
8.060335150409234
 20
-3.440393088664499
 30
0.0
 40
0.5
  1
3-5/8
100
AcDbAttributeDefinition
  3

  2
D
 70
     8
280
     0
  0
ATTDEF
  5
81
330
6E
100
AcDbEntity
  8
AM_6
100
AcDbText
 10
8.060335150409234
 20
-3.940393088664499
 30
0.0
 40
0.5
  1
5-1/8
100
AcDbAttributeDefinition
  3

  2
DD
 70
     8
280
     0
  0
ATTDEF
  5
82
330
6E
100
AcDbEntity
  8
AM_6
100
AcDbText
 10
8.060335150409234
 20
-4.440393088664499
 30
0.0
 40
0.5
  1
7/8
100
AcDbAttributeDefinition
  3

  2
E
 70
     8
280
     0
  0
ATTDEF
  5
83
330
6E
100
AcDbEntity
  8
AM_6
100
AcDbText
 10
8.060335150409234
 20
-4.940393088664499
 30
0.0
 40
0.5
  1
7/16
100
AcDbAttributeDefinition
  3

  2
F
 70
     8
280
     0
  0
ATTDEF
  5
84
330
6E
100
AcDbEntity
  8
AM_6
100
AcDbText
 10
8.060335150409234
 20
-5.440393088664499
 30
0.0
 40
0.5
  1
1-29/64
100
AcDbAttributeDefinition
  3

  2
G
 70
     8
280
     0
  0
ATTDEF
  5
85
330
6E
100
AcDbEntity
  8
AM_6
100
AcDbText
 10
8.060335150409234
 20
-5.940393088664499
 30
0.0
 40
0.5
  1
1/2
100
AcDbAttributeDefinition
  3

  2
H
 70
     8
280
     0
  0
ATTDEF
  5
86
330
6E
100
AcDbEntity
  8
AM_6
100
AcDbText
 10
8.060335150409234
 20
-6.440393088664499
 30
0.0
 40
0.5
  1
4.250
100
AcDbAttributeDefinition
  3

  2
K
 70
     8
280
     0
  0
ATTDEF
  5
87
330
6E
100
AcDbEntity
  8
AM_6
100
AcDbText
 10
8.060335150409234
 20
-6.940393088664499
 30
0.0
 40
0.5
  1
3-3/16
100
AcDbAttributeDefinition
  3

  2
L
 70
     8
280
     0
  0
ATTDEF
  5
88
330
6E
100
AcDbEntity
  8
AM_6
100
AcDbText
 10
8.060335150409234
 20
-7.440393088664499
 30
0.0
 40
0.5
  1
7/16-14
100
AcDbAttributeDefinition
  3

  2
M
 70
     8
280
     0
  0
ATTDEF
  5
89
330
6E
100
AcDbEntity
  8
AM_6
100
AcDbText
 10
8.060335150409234
 20
-7.940393088664499
 30
0.0
 40
0.5
  1
2-23/32
100
AcDbAttributeDefinition
  3

  2
N
 70
     8
280
     0
  0
ATTDEF
  5
8A
330
6E
100
AcDbEntity
  8
AM_6
100
AcDbText
 10
8.060335150409234
 20
-8.4403930886645
 30
0.0
 40
0.5
  1
1-7/32
100
AcDbAttributeDefinition
  3

  2
P
 70
     8
280
     0
  0
ATTDEF
  5
8B
330
6E
100
AcDbEntity
  8
AM_6
100
AcDbText
 10
8.060335150409234
 20
-8.9403930886645
 30
0.0
 40
0.5
  1
1-17/64
100
AcDbAttributeDefinition
  3

  2
Q
 70
     8
280
     0
  0
ATTDEF
  5
8C
330
6E
100
AcDbEntity
  8
AM_6
100
AcDbText
 10
8.060335150409234
 20
-9.4403930886645
 30
0.0
 40
0.5
  1
1/4
100
AcDbAttributeDefinition
  3

  2
X
 70
     8
280
     0
  0
ATTDEF
  5
8D
330
6E
100
AcDbEntity
  8
AM_6
100
AcDbText
 10
8.060335150409234
 20
-9.9403930886645
 30
0.0
 40
0.5
  1
0.020
100
AcDbAttributeDefinition
  3

  2
Y
 70
     8
280
     0
  0
ATTDEF
  5
8E
330
6E
100
AcDbEntity
  8
AM_6
100
AcDbText
 10
8.060335150409234
 20
-10.4403930886645
 30
0.0
 40
0.5
  1
2-5/64
100
AcDbAttributeDefinition
  3

  2
Z
 70
     8
280
     0
  0
ATTDEF
  5
8F
330
6E
100
AcDbEntity
  8
AM_6
100
AcDbText
 10
8.060335150409234
 20
-10.9403930886645
 30
0.0
 40
0.5
  1
baldor
100
AcDbAttributeDefinition
  3

  2
COMPANY
 70
     8
280
     0
  0
INSERT
  5
91
330
6E
100
AcDbEntity
  8
0
100
AcDbBlockReference
  2
2_1_3_4_Disc_0_in_070730_0
 10
0.0
 20
0.0
 30
0.0
  0
INSERT
  5
AB
330
6E
100
AcDbEntity
  8
0
100
AcDbBlockReference
  2
3_1_3_4CS2i_0_in_070730_0
 10
0.0
 20
0.0
 30
0.0
  0
INSERT
  5
E9
330
6E
100
AcDbEntity
  8
0
100
AcDbBlockReference
  2
4_070020i_0_in_070730_0
 10
0.0
 20
0.0
 30
0.0
  0
INSERT
  5
10E
330
6E
100
AcDbEntity
  8
0
100
AcDbBlockReference
  2
5_405015E_Inch_0_in_070730_0
 10
0.0
 20
0.0
 30
0.0
  0
INSERT
  5
161
330
6E
100
AcDbEntity
  8
0
100
AcDbBlockReference
  2
6_070730H_0_in_070730_0
 10
0.0
 20
0.0
 30
0.0
  0
ENDBLK
  5
71
330
6E
100
AcDbEntity
  8
0
100
AcDbBlockEnd
  0
BLOCK
  5
92
330
90
100
AcDbEntity
  8
0
100
AcDbBlockBegin
  2
2_1_3_4_Disc_0_in_070730_0
 70
     2
 10
0.0
 20
0.0
 30
0.0
  3
2_1_3_4_Disc_0_in_070730_0
  1

  0
ATTDEF
  5
94
330
90
100
AcDbEntity
  8
AM_6
100
AcDbText
 10
6.579499999999999
 20
1.5795
 30
0.0
 40
0.5
  1
S-2000 -Disc -Inch
100
AcDbAttributeDefinition
  3

  2
NN
 70
     8
280
     0
  0
ATTDEF
  5
95
330
90
100
AcDbEntity
  8
AM_6
100
AcDbText
 10
6.579499999999999
 20
1.0795
 30
0.0
 40
0.5
  1
S-2000 Bearings
100
AcDbAttributeDefinition
  3

  2
NT
 70
     8
280
     0
  0
ATTDEF
  5
96
330
90
100
AcDbEntity
  8
AM_6
100
AcDbText
 10
6.579499999999999
 20
0.5794999999999999
 30
0.0
 40
0.5
  1
1-3/4-Disc
100
AcDbAttributeDefinition
  3

  2
NB
 70
     8
280
     0
  0
ATTDEF
  5
97
330
90
100
AcDbEntity
  8
AM_6
100
AcDbText
 10
6.579499999999999
 20
0.0794999999999999
 30
0.0
 40
0.5
  1
$SS.-Disc
100
AcDbAttributeDefinition
  3

  2
NBSYN
 70
     8
280
     0
  0
ATTDEF
  5
98
330
90
100
AcDbEntity
  8
AM_6
100
AcDbText
 10
6.579499999999999
 20
-0.4205000000000001
 30
0.0
 40
0.5
  1
1-3/4-Disc
100
AcDbAttributeDefinition
  3

  2
LINA
 70
     8
280
     0
  0
ATTDEF
  5
99
330
90
100
AcDbEntity
  8
AM_6
100
AcDbText
 10
6.579499999999999
 20
-0.9205000000000001
 30
0.0
 40
0.5
  1
1-3/4
100
AcDbAttributeDefinition
  3

  2
SS
 70
     8
280
     0
  0
ATTDEF
  5
9A
330
90
100
AcDbEntity
  8
AM_6
100
AcDbText
 10
6.579499999999999
 20
-1.4205
 30
0.0
 40
0.5
  1
2.31
100
AcDbAttributeDefinition
  3

  2
CC
 70
     8
280
     0
  0
ATTDEF
  5
9B
330
90
100
AcDbEntity
  8
AM_6
100
AcDbText
 10
6.579499999999999
 20
-1.9205
 30
0.0
 40
0.5
  1
0.41
100
AcDbAttributeDefinition
  3

  2
CSD
 70
     8
280
     0
  0
ATTDEF
  5
9C
330
90
100
AcDbEntity
  8
AM_6
100
AcDbText
 10
6.579499999999999
 20
-2.4205
 30
0.0
 40
0.5
  1
1.750000
100
AcDbAttributeDefinition
  3

  2
SS1
 70
     8
280
     0
  0
ATTDEF
  5
9D
330
90
100
AcDbEntity
  8
AM_6
100
AcDbText
 10
6.579499999999999
 20
-2.9205
 30
0.0
 40
0.5
  1
3.3465
100
AcDbAttributeDefinition
  3

  2
A
 70
     8
280
     0
  0
ATTDEF
  5
9E
330
90
100
AcDbEntity
  8
AM_6
100
AcDbText
 10
6.579499999999999
 20
-3.4205
 30
0.0
 40
0.5
  1
61/64
100
AcDbAttributeDefinition
  3

  2
B
 70
     8
280
     0
  0
ATTDEF
  5
9F
330
90
100
AcDbEntity
  8
AM_6
100
AcDbText
 10
6.579499999999999
 20
-3.9205
 30
0.0
 40
0.5
  1
0.953125
100
AcDbAttributeDefinition
  3

  2
B1
 70
     8
280
     0
  0
ATTDEF
  5
A0
330
90
100
AcDbEntity
  8
AM_6
100
AcDbText
 10
6.579499999999999
 20
-4.420500000000001
 30
0.0
 40
0.5
  1
2-21/32
100
AcDbAttributeDefinition
  3

  2
C
 70
     8
280
     0
  0
ATTDEF
  5
A1
330
90
100
AcDbEntity
  8
AM_6
100
AcDbText
 10
6.579499999999999
 20
-4.920500000000001
 30
0.0
 40
0.5
  1
2.656250
100
AcDbAttributeDefinition
  3

  2
C1
 70
     8
280
     0
  0
ATTDEF
  5
A2
330
90
100
AcDbEntity
  8
AM_6
100
AcDbText
 10
6.579499999999999
 20
-5.420500000000001
 30
0.0
 40
0.5
  1
0.954
100
AcDbAttributeDefinition
  3

  2
D
 70
     8
280
     0
  0
ATTDEF
  5
A3
330
90
100
AcDbEntity
  8
AM_6
100
AcDbText
 10
6.579499999999999
 20
-5.920500000000001
 30
0.0
 40
0.5
  1
3-3/32
100
AcDbAttributeDefinition
  3

  2
E
 70
     8
280
     0
  0
ATTDEF
  5
A4
330
90
100
AcDbEntity
  8
AM_6
100
AcDbText
 10
6.579499999999999
 20
-6.420500000000001
 30
0.0
 40
0.5
  1
3.093750
100
AcDbAttributeDefinition
  3

  2
E1
 70
     8
280
     0
  0
ATTDEF
  5
A5
330
90
100
AcDbEntity
  8
AM_6
100
AcDbText
 10
6.579499999999999
 20
-6.920500000000001
 30
0.0
 40
0.5
  1
0.317
100
AcDbAttributeDefinition
  3

  2
F
 70
     8
280
     0
  0
ATTDEF
  5
A6
330
90
100
AcDbEntity
  8
AM_6
100
AcDbText
 10
6.579499999999999
 20
-7.420500000000001
 30
0.0
 40
0.5
  1
baldor
100
AcDbAttributeDefinition
  3

  2
COMPANY
 70
     8
280
     0
  0
CIRCLE
  5
A9
330
90
100
AcDbEntity
  8
AM_9
100
AcDbCircle
 10
0.0
 20
0.0
 30
0.0
 40
1.5795
  0
ENDBLK
  5
93
330
90
100
AcDbEntity
  8
0
100
AcDbBlockEnd
  0
BLOCK
  5
AC
330
AA
100
AcDbEntity
  8
0
100
AcDbBlockBegin
  2
3_1_3_4CS2i_0_in_070730_0
 70
     2
 10
0.0
 20
0.0
 30
0.0
  3
3_1_3_4CS2i_0_in_070730_0
  1

  0
ATTDEF
  5
AE
330
AA
100
AcDbEntity
  8
AM_6
100
AcDbText
 10
6.593399820703794
 20
1.593702833033883
 30
0.0
 40
0.5
  1
S-2000 Collar -Inch
100
AcDbAttributeDefinition
  3

  2
NN
 70
     8
280
     0
  0
ATTDEF
  5
AF
330
AA
100
AcDbEntity
  8
AM_6
100
AcDbText
 10
6.593399820703794
 20
1.093702833033883
 30
0.0
 40
0.5
  1
S-2000 Bearings
100
AcDbAttributeDefinition
  3

  2
NT
 70
     8
280
     0
  0
ATTDEF
  5
B0
330
AA
100
AcDbEntity
  8
AM_6
100
AcDbText
 10
6.593399820703794
 20
0.5937028330338827
 30
0.0
 40
0.5
  1
1-3/4CS2i
100
AcDbAttributeDefinition
  3

  2
NB
 70
     8
280
     0
  0
ATTDEF
  5
B1
330
AA
100
AcDbEntity
  8
AM_6
100
AcDbText
 10
6.593399820703794
 20
0.0937028330338827
 30
0.0
 40
0.5
  1
$BORE.CS2i
100
AcDbAttributeDefinition
  3

  2
NBSYN
 70
     8
280
     0
  0
ATTDEF
  5
B2
330
AA
100
AcDbEntity
  8
AM_6
100
AcDbText
 10
6.593399820703794
 20
-0.4062971669661173
 30
0.0
 40
0.5
  1
1-3/4CS2i
100
AcDbAttributeDefinition
  3

  2
LINA
 70
     8
280
     0
  0
ATTDEF
  5
B3
330
AA
100
AcDbEntity
  8
AM_6
100
AcDbText
 10
6.593399820703794
 20
-0.9062971669661173
 30
0.0
 40
0.5
  1
1-3/4
100
AcDbAttributeDefinition
  3

  2
BORE
 70
     8
280
     0
  0
ATTDEF
  5
B4
330
AA
100
AcDbEntity
  8
AM_6
100
AcDbText
 10
6.593399820703794
 20
-1.406297166966117
 30
0.0
 40
0.5
  1
1.750000
100
AcDbAttributeDefinition
  3

  2
BORE1
 70
     8
280
     0
  0
ATTDEF
  5
B5
330
AA
100
AcDbEntity
  8
AM_6
100
AcDbText
 10
6.593399820703794
 20
-1.906297166966117
 30
0.0
 40
0.5
  1
3-3/16
100
AcDbAttributeDefinition
  3

  2
L1
 70
     8
280
     0
  0
ATTDEF
  5
B6
330
AA
100
AcDbEntity
  8
AM_6
100
AcDbText
 10
6.593399820703794
 20
-2.406297166966117
 30
0.0
 40
0.5
  1
3.18750
100
AcDbAttributeDefinition
  3

  2
L
 70
     8
280
     0
  0
ATTDEF
  5
B7
330
AA
100
AcDbEntity
  8
AM_6
100
AcDbText
 10
6.593399820703794
 20
-2.906297166966117
 30
0.0
 40
0.5
  1
3.09375
100
AcDbAttributeDefinition
  3

  2
L2
 70
     8
280
     0
  0
ATTDEF
  5
B8
330
AA
100
AcDbEntity
  8
AM_6
100
AcDbText
 10
6.593399820703794
 20
-3.406297166966117
 30
0.0
 40
0.5
  1
3.50
100
AcDbAttributeDefinition
  3

  2
A
 70
     8
280
     0
  0
ATTDEF
  5
B9
330
AA
100
AcDbEntity
  8
AM_6
100
AcDbText
 10
6.593399820703794
 20
-3.906297166966117
 30
0.0
 40
0.5
  1
1.62
100
AcDbAttributeDefinition
  3

  2
B
 70
     8
280
     0
  0
ATTDEF
  5
BA
330
AA
100
AcDbEntity
  8
AM_6
100
AcDbText
 10
6.593399820703794
 20
-4.406297166966118
 30
0.0
 40
0.5
  1
2.31
100
AcDbAttributeDefinition
  3

  2
C
 70
     8
280
     0
  0
ATTDEF
  5
BB
330
AA
100
AcDbEntity
  8
AM_6
100
AcDbText
 10
6.593399820703794
 20
-4.906297166966118
 30
0.0
 40
0.5
  1
3.50
100
AcDbAttributeDefinition
  3

  2
D
 70
     8
280
     0
  0
ATTDEF
  5
BC
330
AA
100
AcDbEntity
  8
AM_6
100
AcDbText
 10
6.593399820703794
 20
-5.406297166966118
 30
0.0
 40
0.5
  1
0.41
100
AcDbAttributeDefinition
  3

  2
E
 70
     8
280
     0
  0
ATTDEF
  5
BD
330
AA
100
AcDbEntity
  8
AM_6
100
AcDbText
 10
6.593399820703794
 20
-5.906297166966118
 30
0.0
 40
0.5
  1
0.317
100
AcDbAttributeDefinition
  3

  2
F
 70
     8
280
     0
  0
ATTDEF
  5
BE
330
AA
100
AcDbEntity
  8
AM_6
100
AcDbText
 10
6.593399820703794
 20
-6.406297166966118
 30
0.0
 40
0.5
  1
3/8-16
100
AcDbAttributeDefinition
  3

  2
CS
 70
     8
280
     0
  0
ATTDEF
  5
BF
330
AA
100
AcDbEntity
  8
AM_6
100
AcDbText
 10
6.593399820703794
 20
-6.906297166966118
 30
0.0
 40
0.5
  1
0.3750
100
AcDbAttributeDefinition
  3

  2
NDM
 70
     8
280
     0
  0
ATTDEF
  5
C0
330
AA
100
AcDbEntity
  8
AM_6
100
AcDbText
 10
6.593399820703794
 20
-7.406297166966118
 30
0.0
 40
0.5
  1
0.3070
100
AcDbAttributeDefinition
  3

  2
KDM
 70
     8
280
     0
  0
ATTDEF
  5
C1
330
AA
100
AcDbEntity
  8
AM_6
100
AcDbText
 10
6.593399820703794
 20
-7.906297166966118
 30
0.0
 40
0.5
  1
1
100
AcDbAttributeDefinition
  3

  2
DD
 70
     8
280
     0
  0
ATTDEF
  5
C2
330
AA
100
AcDbEntity
  8
AM_6
100
AcDbText
 10
6.593399820703794
 20
-8.406297166966118
 30
0.0
 40
0.5
  1
baldor
100
AcDbAttributeDefinition
  3

  2
COMPANY
 70
     8
280
     0
  0
LINE
  5
C3
330
AA
100
AcDbEntity
  8
AM_9
100
AcDbLine
 10
0.15365
 20
1.163849999999998
 30
0.0
 11
0.15365
 21
1.539225111257285
 31
0.0
  0
LINE
  5
C4
330
AA
100
AcDbEntity
  8
AM_9
100
AcDbLine
 10
-0.15365
 20
1.539225111257285
 30
0.0
 11
-0.15365
 21
1.163849999999998
 31
0.0
  0
LINE
  5
C5
330
AA
100
AcDbEntity
  8
AM_9
100
AcDbLine
 10
1.119741613859061
 20
0.3526100724487307
 30
0.0
 11
1.45994700025129
 21
0.5112504494690071
 31
0.0
  0
LINE
  5
C6
330
AA
100
AcDbEntity
  8
AM_9
100
AcDbLine
 10
1.330076408418372
 20
0.7897588324253696
 30
0.0
 11
0.9898710220261442
 21
0.6311184554050934
 31
0.0
  0
LINE
  5
C7
330
AA
100
AcDbEntity
  8
AM_9
100
AcDbLine
 10
-0.15365
 20
1.163849999999998
 30
0.0
 11
0.15365
 21
1.163849999999998
 31
0.0
  0
LINE
  5
C8
330
AA
100
AcDbEntity
  8
AM_9
100
AcDbLine
 10
-0.15365
 20
1.163849999999998
 30
0.0
 11
-0.1746859813591062
 21
1.142814018640893
 31
0.0
  0
LINE
  5
C9
330
AA
100
AcDbEntity
  8
AM_9
100
AcDbLine
 10
0.1756842110178705
 20
1.141815788982129
 30
0.0
 11
0.15365
 21
1.163849999999998
 31
0.0
  0
LINE
  5
CA
330
AA
100
AcDbEntity
  8
AM_9
100
AcDbLine
 10
0.9898710220261444
 20
0.6311184554050934
 30
0.0
 11
1.119741613859061
 21
0.3526100724487308
 31
0.0
  0
LINE
  5
CB
330
AA
100
AcDbEntity
  8
AM_9
100
AcDbLine
 10
0.9898710220261444
 20
0.6311184554050934
 30
0.0
 11
0.960649312836652
 21
0.6417542877444528
 31
0.0
  0
LINE
  5
CC
330
AA
100
AcDbEntity
  8
AM_9
100
AcDbLine
 10
1.109119918982896
 20
0.3234272056201273
 30
0.0
 11
1.119741613859061
 21
0.3526100724487308
 31
0.0
  0
LINE
  5
CE
330
AA
100
AcDbEntity
  8
AM_5
100
AcDbLine
 10
-0.1875
 20
1.535469314452425
 30
0.0
 11
-0.1875
 21
1.139679231187442
 31
0.0
  0
LINE
  5
CF
330
AA
100
AcDbEntity
  8
AM_5
100
AcDbLine
 10
-0.09375
 20
1.13
 30
0.0
 11
-0.1875
 21
1.13
 31
0.0
  0
LINE
  5
D0
330
AA
100
AcDbEntity
  8
AM_5
100
AcDbLine
 10
0.1875
 20
1.535469314452425
 30
0.0
 11
0.1875
 21
1.139679231187442
 31
0.0
  0
LINE
  5
D1
330
AA
100
AcDbEntity
  8
AM_5
100
AcDbLine
 10
0.09375
 20
1.13
 30
0.0
 11
0.1875
 21
1.13
 31
0.0
  0
LINE
  5
D2
330
AA
100
AcDbEntity
  8
AM_5
100
AcDbLine
 10
1.470848720520441
 20
0.4789846625606954
 30
0.0
 11
1.112141086025503
 21
0.3117165455570418
 31
0.0
  0
LINE
  5
D3
330
AA
100
AcDbEntity
  8
AM_5
100
AcDbLine
 10
1.063748261389605
 20
0.3925922807323043
 30
0.0
 11
1.103368723427795
 21
0.3076259256976183
 31
0.0
  0
LINE
  5
D4
330
AA
100
AcDbEntity
  8
AM_5
100
AcDbLine
 10
1.312366872367678
 20
0.818850082699439
 30
0.0
 11
0.9536592378727403
 21
0.6515819656957854
 31
0.0
  0
LINE
  5
D5
330
AA
100
AcDbEntity
  8
AM_5
100
AcDbLine
 10
0.9845073373132235
 20
0.5625249908016761
 30
0.0
 11
0.9448868752750329
 21
0.6474913458363619
 31
0.0
  0
ARC
  5
D7
330
AA
100
AcDbEntity
  8
AM_4
100
AcDbCircle
 10
0.0000000000000003
 20
-0.0000000000000001
 30
0.0
 40
1.59375
100
AcDbArc
 50
96.39720294391773
 51
18.60279705608229
  0
ARC
  5
D8
330
AA
100
AcDbEntity
  8
AM_4
100
AcDbCircle
 10
-0.0000000000000007
 20
-0.0000000000000022
 30
0.0
 40
1.593750000000002
100
AcDbArc
 50
31.39720294391776
 51
83.60279705608227
  0
LWPOLYLINE
  5
D9
330
AA
100
AcDbEntity
  8
AM_4
100
AcDbPolyline
 90
       17
 70
     0
 43
0.0
 10
-0.1775762919401221
 20
1.583826291940122
 10
-0.1719154792278824
 20
1.584450734640193
 10
-0.1613453925531769
 20
1.585563357928177
 10
-0.1456341476866549
 20
1.587082152104163
 10
-0.1254736423871521
 20
1.588802294128999
 10
-0.1011951738397487
 20
1.590534061028415
 10
-0.0746824002883509
 20
1.591996018601467
 10
-0.045749959908176
 20
1.59309321876292
 10
-0.0170011682463136
 20
1.593655339949516
 10
0.0122614224205757
 20
1.593702833033883
 10
0.0668721701800026
 20
1.59234643697765
 10
0.1145764756623943
 20
1.589626149044103
 10
0.1349973529037617
 20
1.588022100194615
 10
0.1517678614477458
 20
1.586507352246304
 10
0.1650775216911859
 20
1.585179057765899
 10
0.1736983237963723
 20
1.584256278135053
 10
0.1775762919401219
 20
1.583826291940122
  0
LINE
  5
DA
330
AA
100
AcDbEntity
  8
AM_4
100
AcDbLine
 10
-0.15365
 20
1.5599
 30
0.0
 11
-0.1775762919401221
 21
1.583826291940122
 31
0.0
  0
LINE
  5
DB
330
AA
100
AcDbEntity
  8
AM_4
100
AcDbLine
 10
0.1775762919401219
 20
1.583826291940122
 30
0.0
 11
0.15365
 21
1.5599
 31
0.0
  0
LWPOLYLINE
  5
DC
330
AA
100
AcDbEntity
  8
AM_4
100
AcDbPolyline
 90
       17
 70
     0
 43
0.0
 10
1.360387117872622
 20
0.8302926905773781
 10
1.36334541798274
 20
0.8254261528237798
 10
1.368709847839755
 20
0.8165001009959976
 10
1.376837262773466
 20
0.8027192624688106
 10
1.386736060451187
 20
0.7854948511252777
 10
1.398746476592377
 20
0.7639027141726964
 10
1.411065081615269
 20
0.740901071632438
 10
1.424498021109015
 20
0.7147338318258754
 10
1.436965368567408
 20
0.6893254616202225
 10
1.44956718883083
 20
0.6624152984080941
 10
1.471417375813209
 20
0.6123479147143142
 10
1.489112668336569
 20
0.5679634878225376
 10
1.496210163296619
 20
0.548993815764717
 10
1.502003837324872
 20
0.5329385847931812
 10
1.50638045228294
 20
0.5204392332250196
 10
1.509231885205595
 20
0.5121114909653607
 10
1.510481085524809
 20
0.5084151382205259
  0
LINE
  5
DD
330
AA
100
AcDbEntity
  8
AM_4
100
AcDbLine
 10
1.348814221082012
 20
0.7984964179674983
 30
0.0
 11
1.360387117872622
 21
0.8302926905773781
 31
0.0
  0
LINE
  5
DE
330
AA
100
AcDbEntity
  8
AM_4
100
AcDbLine
 10
1.510481085524809
 20
0.5084151382205259
 30
0.0
 11
1.478684812914929
 21
0.5199880350111358
 31
0.0
  0
LINE
  5
DF
330
AA
100
AcDbEntity
  8
AM_4
100
AcDbLine
 10
0.15365
 20
1.5599
 30
0.0
 11
0.15365
 21
1.539225111257285
 31
0.0
  0
LINE
  5
E0
330
AA
100
AcDbEntity
  8
AM_4
100
AcDbLine
 10
0.15365
 20
1.5599
 30
0.0
 11
-0.15365
 21
1.5599
 31
0.0
  0
LINE
  5
E1
330
AA
100
AcDbEntity
  8
AM_4
100
AcDbLine
 10
-0.15365
 20
1.539225111257285
 30
0.0
 11
-0.15365
 21
1.5599
 31
0.0
  0
LINE
  5
E2
330
AA
100
AcDbEntity
  8
AM_4
100
AcDbLine
 10
1.478684812914929
 20
0.5199880350111358
 30
0.0
 11
1.45994700025129
 21
0.5112504494690071
 31
0.0
  0
LINE
  5
E3
330
AA
100
AcDbEntity
  8
AM_4
100
AcDbLine
 10
1.478684812914929
 20
0.5199880350111358
 30
0.0
 11
1.348814221082012
 21
0.7984964179674983
 31
0.0
  0
LINE
  5
E4
330
AA
100
AcDbEntity
  8
AM_4
100
AcDbLine
 10
1.330076408418372
 20
0.7897588324253697
 30
0.0
 11
1.348814221082012
 21
0.7984964179674983
 31
0.0
  0
CIRCLE
  5
E5
330
AA
100
AcDbEntity
  8
AM_4
100
AcDbCircle
 10
0.0
 20
0.0
 30
0.0
 40
1.155
  0
CIRCLE
  5
E6
330
AA
100
AcDbEntity
  8
AM_4
100
AcDbCircle
 10
0.0
 20
0.0
 30
0.0
 40
1.441208333333333
  0
CIRCLE
  5
E7
330
AA
100
AcDbEntity
  8
AM_4
100
AcDbCircle
 10
0.0
 20
0.0
 30
0.0
 40
1.546875
  0
ENDBLK
  5
AD
330
AA
100
AcDbEntity
  8
0
100
AcDbBlockEnd
  0
BLOCK
  5
EA
330
E8
100
AcDbEntity
  8
0
100
AcDbBlockBegin
  2
4_070020i_0_in_070730_0
 70
     2
 10
0.0
 20
0.0
 30
0.0
  3
4_070020i_0_in_070730_0
  1

  0
ATTDEF
  5
EC
330
E8
100
AcDbEntity
  8
AM_6
100
AcDbText
 10
6.60632
 20
1.60632
 30
0.0
 40
0.5
  1
S-2000 Insert -Inch
100
AcDbAttributeDefinition
  3

  2
NN
 70
     8
280
     0
  0
ATTDEF
  5
ED
330
E8
100
AcDbEntity
  8
AM_6
100
AcDbText
 10
6.60632
 20
1.10632
 30
0.0
 40
0.5
  1
S-2000 Bearings
100
AcDbAttributeDefinition
  3

  2
NT
 70
     8
280
     0
  0
ATTDEF
  5
EE
330
E8
100
AcDbEntity
  8
AM_6
100
AcDbText
 10
6.60632
 20
0.60632
 30
0.0
 40
0.5
  1
070020i
100
AcDbAttributeDefinition
  3

  2
NB
 70
     8
280
     0
  0
ATTDEF
  5
EF
330
E8
100
AcDbEntity
  8
AM_6
100
AcDbText
 10
6.60632
 20
0.10632
 30
0.0
 40
0.5
  1
$PN.i
100
AcDbAttributeDefinition
  3

  2
NBSYN
 70
     8
280
     0
  0
ATTDEF
  5
F0
330
E8
100
AcDbEntity
  8
AM_6
100
AcDbText
 10
6.60632
 20
-0.39368
 30
0.0
 40
0.5
  1
070020i
100
AcDbAttributeDefinition
  3

  2
LINA
 70
     8
280
     0
  0
ATTDEF
  5
F1
330
E8
100
AcDbEntity
  8
AM_6
100
AcDbText
 10
6.60632
 20
-0.89368
 30
0.0
 40
0.5
  1
1-3/4
100
AcDbAttributeDefinition
  3

  2
SS
 70
     8
280
     0
  0
ATTDEF
  5
F2
330
E8
100
AcDbEntity
  8
AM_6
100
AcDbText
 10
6.60632
 20
-1.39368
 30
0.0
 40
0.5
  1
2.31
100
AcDbAttributeDefinition
  3

  2
CC
 70
     8
280
     0
  0
ATTDEF
  5
F3
330
E8
100
AcDbEntity
  8
AM_6
100
AcDbText
 10
6.60632
 20
-1.89368
 30
0.0
 40
0.5
  1
1.750000
100
AcDbAttributeDefinition
  3

  2
SS1
 70
     8
280
     0
  0
ATTDEF
  5
F4
330
E8
100
AcDbEntity
  8
AM_6
100
AcDbText
 10
6.60632
 20
-2.39368
 30
0.0
 40
0.5
  1
070020
100
AcDbAttributeDefinition
  3

  2
PN
 70
     8
280
     0
  0
ATTDEF
  5
F5
330
E8
100
AcDbEntity
  8
AM_6
100
AcDbText
 10
6.60632
 20
-2.89368
 30
0.0
 40
0.5
  1
INS-S2-112L
100
AcDbAttributeDefinition
  3

  2
DESCRIPTION
 70
     8
280
     0
  0
ATTDEF
  5
F6
330
E8
100
AcDbEntity
  8
AM_6
100
AcDbText
 10
6.60632
 20
-3.39368
 30
0.0
 40
0.5
  1
Labyrinth Seal
100
AcDbAttributeDefinition
  3

  2
ST
 70
     8
280
     0
  0
ATTDEF
  5
F7
330
E8
100
AcDbEntity
  8
AM_6
100
AcDbText
 10
6.60632
 20
-3.89368
 30
0.0
 40
0.5
  1
2
100
AcDbAttributeDefinition
  3

  2
ST1
 70
     8
280
     0
  0
ATTDEF
  5
F8
330
E8
100
AcDbEntity
  8
AM_6
100
AcDbText
 10
6.60632
 20
-4.39368
 30
0.0
 40
0.5
  1
3.3465
100
AcDbAttributeDefinition
  3

  2
A
 70
     8
280
     0
  0
ATTDEF
  5
F9
330
E8
100
AcDbEntity
  8
AM_6
100
AcDbText
 10
6.60632
 20
-4.89368
 30
0.0
 40
0.5
  1
61/64
100
AcDbAttributeDefinition
  3

  2
B
 70
     8
280
     0
  0
ATTDEF
  5
FA
330
E8
100
AcDbEntity
  8
AM_6
100
AcDbText
 10
6.60632
 20
-5.39368
 30
0.0
 40
0.5
  1
2-21/32
100
AcDbAttributeDefinition
  3

  2
C
 70
     8
280
     0
  0
ATTDEF
  5
FB
330
E8
100
AcDbEntity
  8
AM_6
100
AcDbText
 10
6.60632
 20
-5.89368
 30
0.0
 40
0.5
  1
0.954
100
AcDbAttributeDefinition
  3

  2
D
 70
     8
280
     0
  0
ATTDEF
  5
FC
330
E8
100
AcDbEntity
  8
AM_6
100
AcDbText
 10
6.60632
 20
-6.39368
 30
0.0
 40
0.5
  1
3-3/32
100
AcDbAttributeDefinition
  3

  2
E
 70
     8
280
     0
  0
ATTDEF
  5
FD
330
E8
100
AcDbEntity
  8
AM_6
100
AcDbText
 10
6.60632
 20
-6.89368
 30
0.0
 40
0.5
  1
0.43750
100
AcDbAttributeDefinition
  3

  2
F
 70
     8
280
     0
  0
ATTDEF
  5
FE
330
E8
100
AcDbEntity
  8
AM_6
100
AcDbText
 10
6.60632
 20
-7.39368
 30
0.0
 40
0.5
  1
1
100
AcDbAttributeDefinition
  3

  2
DD
 70
     8
280
     0
  0
ATTDEF
  5
FF
330
E8
100
AcDbEntity
  8
AM_6
100
AcDbText
 10
6.60632
 20
-7.89368
 30
0.0
 40
0.5
  1
baldor
100
AcDbAttributeDefinition
  3

  2
COMPANY
 70
     8
280
     0
  0
CIRCLE
  5
100
330
E8
100
AcDbEntity
  8
AM_9
100
AcDbCircle
 10
0.0
 20
0.0
 30
0.0
 40
1.60632
  0
CIRCLE
  5
101
330
E8
100
AcDbEntity
  8
AM_9
100
AcDbCircle
 10
0.0
 20
0.0
 30
0.0
 40
1.5779375
  0
CIRCLE
  5
102
330
E8
100
AcDbEntity
  8
AM_9
100
AcDbCircle
 10
0.0
 20
0.0
 30
0.0
 40
1.3386
  0
CIRCLE
  5
103
330
E8
100
AcDbEntity
  8
AM_9
100
AcDbCircle
 10
0.0
 20
0.0
 30
0.0
 40
1.2432875
  0
LINE
  5
104
330
E8
100
AcDbEntity
  8
AM_9
100
AcDbLine
 10
0.943627691988501
 20
0.6662132926086751
 30
0.0
 11
0.6844203506367471
 21
0.5453429242863554
 31
0.0
  0
LINE
  5
105
330
E8
100
AcDbEntity
  8
AM_9
100
AcDbLine
 10
0.8575845740478432
 20
0.173705781006791
 30
0.0
 11
1.116802165255484
 21
0.2945809289154057
 31
0.0
  0
LINE
  5
106
330
E8
100
AcDbEntity
  8
AM_9
100
AcDbLine
 10
-0.2049999999999999
 20
1.136771028983426
 30
0.0
 11
-0.2049999999999998
 21
0.8507673721029275
 31
0.0
  0
LINE
  5
107
330
E8
100
AcDbEntity
  8
AM_9
100
AcDbLine
 10
0.205
 20
0.8506468127254697
 30
0.0
 11
0.2049999999999999
 21
1.136661779070625
 31
0.0
  0
LINE
  5
10A
330
E8
100
AcDbEntity
  8
AM_7
100
AcDbLine
 10
-0.053681307386017
 20
-0.0250320047338722
 30
0.0
 11
1.465443047401573
 21
0.6833473155933522
 31
0.0
  0
CIRCLE
  5
10B
330
E8
100
AcDbEntity
  8
AM_4
100
AcDbCircle
 10
0.0
 20
0.0
 30
0.0
 40
1.155
  0
CIRCLE
  5
10C
330
E8
100
AcDbEntity
  8
AM_4
100
AcDbCircle
 10
0.0
 20
0.0
 30
0.0
 40
0.875
  0
ENDBLK
  5
EB
330
E8
100
AcDbEntity
  8
0
100
AcDbBlockEnd
  0
BLOCK
  5
10F
330
10D
100
AcDbEntity
  8
0
100
AcDbBlockBegin
  2
5_405015E_Inch_0_in_070730_0
 70
     2
 10
0.0
 20
0.0
 30
0.0
  3
5_405015E_Inch_0_in_070730_0
  1

  0
ATTDEF
  5
111
330
10D
100
AcDbEntity
  8
AM_6
100
AcDbText
 10
5.252590742770462
 20
2.489338338148094
 30
0.0
 40
0.5
  1
405015E -Inch
100
AcDbAttributeDefinition
  3

  2
NN
 70
     8
280
     0
  0
ATTDEF
  5
112
330
10D
100
AcDbEntity
  8
AM_6
100
AcDbText
 10
5.252590742770462
 20
1.989338338148094
 30
0.0
 40
0.5
  1
Grease Fitting
100
AcDbAttributeDefinition
  3

  2
NT
 70
     8
280
     0
  0
ATTDEF
  5
113
330
10D
100
AcDbEntity
  8
AM_6
100
AcDbText
 10
5.252590742770462
 20
1.489338338148094
 30
0.0
 40
0.5
  1
405015E-Inch
100
AcDbAttributeDefinition
  3

  2
NB
 70
     8
280
     0
  0
ATTDEF
  5
114
330
10D
100
AcDbEntity
  8
AM_6
100
AcDbText
 10
5.252590742770462
 20
0.9893383381480945
 30
0.0
 40
0.5
  1
$MN.-Inch
100
AcDbAttributeDefinition
  3

  2
NBSYN
 70
     8
280
     0
  0
ATTDEF
  5
115
330
10D
100
AcDbEntity
  8
AM_6
100
AcDbText
 10
5.252590742770462
 20
0.4893383381480945
 30
0.0
 40
0.5
  1
405015E
100
AcDbAttributeDefinition
  3

  2
LINA
 70
     8
280
     0
  0
ATTDEF
  5
116
330
10D
100
AcDbEntity
  8
AM_6
100
AcDbText
 10
5.252590742770462
 20
-0.0106616618519055
 30
0.0
 40
0.5
  1
405015E
100
AcDbAttributeDefinition
  3

  2
MN
 70
     8
280
     0
  0
ATTDEF
  5
117
330
10D
100
AcDbEntity
  8
AM_6
100
AcDbText
 10
5.252590742770462
 20
-0.5106616618519055
 30
0.0
 40
0.5
  1
1/8 x 27PTF
100
AcDbAttributeDefinition
  3

  2
T
 70
     8
280
     0
  0
ATTDEF
  5
118
330
10D
100
AcDbEntity
  8
AM_6
100
AcDbText
 10
5.252590742770462
 20
-1.010661661851906
 30
0.0
 40
0.5
  1
baldor
100
AcDbAttributeDefinition
  3

  2
COMPANY
 70
     8
280
     0
  0
ELLIPSE
  5
119
330
10D
100
AcDbEntity
  8
AM_9
100
AcDbEllipse
 10
0.0
 20
2.080416666666667
 30
0.0
 11
-0.161902872472269
 21
1.982738345459263E-17
 31
0.0
210
0.0
220
0.0
230
1.0
 40
0.8660254037844397
 41
0.0
 42
6.283185307179586
  0
LWPOLYLINE
  5
11A
330
10D
100
AcDbEntity
  8
AM_9
100
AcDbPolyline
 90
        4
 70
     0
 43
0.0
 10
-0.1894430570778459
 20
2.307638195205589
 10
-0.1736561356546921
 20
2.33162228434232
 10
-0.1578692142315383
 20
2.356195649867569
 10
-0.1262953713852306
 20
2.40689352359282
  0
LWPOLYLINE
  5
11B
330
10D
100
AcDbEntity
  8
AM_9
100
AcDbPolyline
 90
        4
 70
     0
 43
0.0
 10
-0.1262953713852306
 20
2.40689352359282
 10
-0.0967996321117978
 20
2.405100930003435
 10
-0.0485424412477544
 20
2.403072637866048
 10
0.0
 20
2.402359723744512
  0
ELLIPSE
  5
11C
330
10D
100
AcDbEntity
  8
AM_9
100
AcDbEllipse
 10
0.0000000000000006
 20
2.212916666666667
 30
0.0
 11
0.2187499999999988
 21
0.0
 31
0.0
210
0.0
220
0.0
230
1.0
 40
0.8660254037844405
 41
0.5235987755982956
 42
1.570796326794897
  0
LWPOLYLINE
  5
11D
330
10D
100
AcDbEntity
  8
AM_9
100
AcDbPolyline
 90
        4
 70
     0
 43
0.0
 10
0.1262953713852306
 20
2.40689352359282
 10
0.1577272497321276
 20
2.356419168698977
 10
0.1735630385535388
 20
2.331765503899164
 10
0.1894430570778459
 20
2.307638195205589
  0
LWPOLYLINE
  5
11E
330
10D
100
AcDbEntity
  8
AM_9
100
AcDbPolyline
 90
        4
 70
     0
 43
0.0
 10
0.0
 20
2.402359723744512
 10
0.0315738428463077
 20
2.402663430746512
 10
0.0631476856926153
 20
2.40355641413703
 10
0.1262953713852306
 20
2.40689352359282
  0
LINE
  5
11F
330
10D
100
AcDbEntity
  8
AM_9
100
AcDbLine
 10
-0.1262953713852306
 20
2.447825923896205
 30
0.0
 11
-0.1262953713852306
 21
2.40689352359282
 31
0.0
  0
LINE
  5
120
330
10D
100
AcDbEntity
  8
AM_9
100
AcDbLine
 10
0.1262953713852306
 20
2.447825923896205
 30
0.0
 11
0.1262953713852306
 21
2.40689352359282
 31
0.0
  0
LWPOLYLINE
  5
121
330
10D
100
AcDbEntity
  8
AM_9
100
AcDbPolyline
 90
        3
 70
     0
 43
0.0
 10
0.0
 20
2.452359723744513
 10
-0.0483998160558989
 20
2.451650943385944
 10
-0.0876643906215058
 20
2.450093936948372
  0
LWPOLYLINE
  5
122
330
10D
100
AcDbEntity
  8
AM_9
100
AcDbPolyline
 90
        4
 70
     0
 43
0.0
 10
0.0878491423263087
 20
2.450084721033182
 10
0.0634316146914367
 20
2.451152461269702
 10
0.0317600370486143
 20
2.452052442837399
 10
0.0
 20
2.452359723744513
  0
LWPOLYLINE
  5
123
330
10D
100
AcDbEntity
  8
AM_9
100
AcDbPolyline
 90
        4
 70
     0
 43
0.0
 10
0.1894430570778459
 20
2.307638195205589
 10
0.2052299785009998
 20
2.284261520072858
 10
0.2210168999241536
 20
2.261474121328646
 10
0.2525907427704612
 20
2.217450466514974
  0
LWPOLYLINE
  5
124
330
10D
100
AcDbEntity
  8
AM_9
100
AcDbPolyline
 90
        4
 70
     0
 43
0.0
 10
-0.2525907427704612
 20
2.217450466514974
 10
-0.2211588644235643
 20
2.261271746661822
 10
-0.205323075602153
 20
2.284125448326242
 10
-0.1894430570778459
 20
2.307638195205589
  0
LINE
  5
125
330
10D
100
AcDbEntity
  8
AM_9
100
AcDbLine
 10
0.1983264404626879
 20
2.089463377292821
 30
0.0
 11
0.2054502516015135
 21
2.203271564498957
 31
0.0
  0
LINE
  5
126
330
10D
100
AcDbEntity
  8
AM_9
100
AcDbLine
 10
-0.2054502516015135
 20
2.203271564498957
 30
0.0
 11
-0.1983264404626879
 21
2.089463377292821
 31
0.0
  0
ELLIPSE
  5
127
330
10D
100
AcDbEntity
  8
AM_9
100
AcDbEllipse
 10
-0.0000000000000007
 20
2.212916666666666
 30
0.0
 11
0.2187499999999988
 21
0.0
 31
0.0
210
0.0
220
0.0
230
1.0
 40
0.8660254037844408
 41
1.570796326794897
 42
6.806784082777883
  0
ELLIPSE
  5
128
330
10D
100
AcDbEntity
  8
AM_9
100
AcDbEllipse
 10
0.0
 20
2.262916666666668
 30
0.0
 11
0.2187500000000001
 21
3.259629011154176E-9
 31
0.0
210
0.0
220
0.0
230
1.0
 40
0.8660254037844335
 41
1.032970315581409
 42
1.570796313890112
  0
ELLIPSE
  5
129
330
10D
100
AcDbEntity
  8
AM_9
100
AcDbEllipse
 10
0.0
 20
2.262916666666668
 30
0.0
 11
0.2187499999999997
 21
0.0
 31
0.0
210
0.0
220
0.0
230
1.0
 40
0.866025403784433
 41
1.570796326794897
 42
2.108622323974773
  0
ELLIPSE
  5
12A
330
10D
100
AcDbEntity
  8
AM_9
100
AcDbEllipse
 10
0.0
 20
2.262916666666668
 30
0.0
 11
0.2137499999999987
 21
0.0
 31
0.0
210
0.0
220
0.0
230
1.0
 40
0.86602540378444
 41
0.9862868522354367
 42
2.155305801354356
  0
ELLIPSE
  5
12B
330
10D
100
AcDbEntity
  8
AM_9
100
AcDbEllipse
 10
0.0
 20
2.272075765937108
 30
0.0
 11
0.1725340532830151
 21
0.0
 31
0.0
210
0.0
220
0.0
230
1.0
 40
0.8660254037844394
 41
0.67327041014756
 42
2.468322243442234
  0
ELLIPSE
  5
12C
330
10D
100
AcDbEntity
  8
AM_9
100
AcDbEllipse
 10
0.0
 20
2.299293227475953
 30
0.0
 11
0.1188200907348976
 21
0.0
 31
0.0
210
0.0
220
0.0
230
1.0
 40
0.8660254037844397
 41
0.0521714424104927
 42
0.8365075292154036
  0
LINE
  5
12D
330
10D
100
AcDbEntity
  8
AM_9
100
AcDbLine
 10
-0.0703562363973515
 20
2.382916666666667
 30
0.0
 11
-0.079616518023802
 21
2.375677571519816
 31
0.0
  0
LINE
  5
12E
330
10D
100
AcDbEntity
  8
AM_9
100
AcDbLine
 10
0.079616518023802
 20
2.375677571519816
 30
0.0
 11
0.0703562363973515
 21
2.382916666666667
 31
0.0
  0
ELLIPSE
  5
12F
330
10D
100
AcDbEntity
  8
AM_9
100
AcDbEllipse
 10
0.0000000000000012
 20
2.315416666666667
 30
0.0
 11
0.1050000000000013
 21
0.0
 31
0.0
210
0.0
220
0.0
230
1.0
 40
0.8660254037844385
 41
2.305085124374398
 42
3.566671979497971
  0
ELLIPSE
  5
130
330
10D
100
AcDbEntity
  8
AM_9
100
AcDbEllipse
 10
0.0
 20
2.299293227475953
 30
0.0
 11
0.1188200907348976
 21
0.0
 31
0.0
210
0.0
220
0.0
230
1.0
 40
0.8660254037844394
 41
0.8365075292154049
 42
3.089421211179301
  0
LINE
  5
131
330
10D
100
AcDbEntity
  8
AM_9
100
AcDbLine
 10
0.105
 20
2.315416666666667
 30
0.0
 11
0.105
 21
2.330416666666667
 31
0.0
  0
LINE
  5
132
330
10D
100
AcDbEntity
  8
AM_9
100
AcDbLine
 10
-0.105
 20
2.330416666666667
 30
0.0
 11
-0.105
 21
2.315416666666667
 31
0.0
  0
ELLIPSE
  5
133
330
10D
100
AcDbEntity
  8
AM_9
100
AcDbEllipse
 10
0.0000000000000008
 20
2.330416666666667
 30
0.0
 11
0.1050000000000009
 21
0.0
 31
0.0
210
0.0
220
0.0
230
1.0
 40
0.8660254037844419
 41
3.141592653589793
 42
4.188790204786384
  0
ELLIPSE
  5
134
330
10D
100
AcDbEntity
  8
AM_9
100
AcDbEllipse
 10
0.0000000000000024
 20
2.315416666666668
 30
0.0
 11
0.1049999999999975
 21
0.0
 31
0.0
210
0.0
220
0.0
230
1.0
 40
0.86602540378444
 41
5.858105981271383
 42
8.588270431553997
  0
ELLIPSE
  5
135
330
10D
100
AcDbEntity
  8
AM_9
100
AcDbEllipse
 10
0.0
 20
2.330416666666667
 30
0.0
 11
0.1050000000000001
 21
0.0
 31
0.0
210
0.0
220
0.0
230
1.0
 40
0.8660254037844397
 41
5.235987755982985
 42
9.42477796076938
  0
ELLIPSE
  5
136
330
10D
100
AcDbEntity
  8
AM_9
100
AcDbEllipse
 10
0.0
 20
2.360416666666667
 30
0.0
 11
0.1349999999999993
 21
0.0
 31
0.0
210
0.0
220
0.0
230
1.0
 40
0.8660254037844394
 41
0.7751090107151155
 42
2.366483642874678
  0
ELLIPSE
  5
137
330
10D
100
AcDbEntity
  8
AM_9
100
AcDbEllipse
 10
0.0
 20
2.212916666666667
 30
0.0
 11
0.2057518972230696
 21
0.0
 31
0.0
210
0.0
220
0.0
230
1.0
 40
0.8660254037844397
 41
0.0
 42
6.283185307179586
  0
ELLIPSE
  5
138
330
10D
100
AcDbEntity
  8
AM_9
100
AcDbEllipse
 10
0.0
 20
2.09877404382114
 30
0.0
 11
0.1986176267812156
 21
0.0
 31
0.0
210
0.0
220
0.0
230
1.0
 40
0.8660254037844435
 41
0.0
 42
6.283185307179586
  0
LWPOLYLINE
  5
139
330
10D
100
AcDbEntity
  8
AM_4
100
AcDbPolyline
 90
        4
 70
     0
 43
0.0
 10
-0.1262953713852306
 20
2.447825923896205
 10
-0.1577272497321276
 20
2.404004643749357
 10
-0.1735630385535388
 20
2.381150942084937
 10
-0.1894430570778459
 20
2.35763819520559
  0
LINE
  5
13A
330
10D
100
AcDbEntity
  8
AM_4
100
AcDbLine
 10
-0.0876643906215058
 20
2.450093936948372
 30
0.0
 11
-0.1262953713852306
 21
2.447825923896205
 31
0.0
  0
LWPOLYLINE
  5
13B
330
10D
100
AcDbEntity
  8
AM_4
100
AcDbPolyline
 90
        4
 70
     0
 43
0.0
 10
0.1894430570778459
 20
2.35763819520559
 10
0.1736561356546922
 20
2.381014870338321
 10
0.1578692142315383
 20
2.403802269082534
 10
0.1262953713852306
 20
2.447825923896205
  0
LINE
  5
13C
330
10D
100
AcDbEntity
  8
AM_4
100
AcDbLine
 10
0.1262953713852306
 20
2.447825923896205
 30
0.0
 11
0.0878491423263087
 21
2.450084721033182
 31
0.0
  0
LWPOLYLINE
  5
13D
330
10D
100
AcDbEntity
  8
AM_4
100
AcDbPolyline
 90
        4
 70
     0
 43
0.0
 10
0.2525907427704612
 20
2.258382866818359
 10
0.2211588644235643
 20
2.308857221712202
 10
0.2053230756021531
 20
2.333510886512015
 10
0.1894430570778459
 20
2.35763819520559
  0
LWPOLYLINE
  5
13E
330
10D
100
AcDbEntity
  8
AM_4
100
AcDbPolyline
 90
        4
 70
     0
 43
0.0
 10
-0.1894430570778459
 20
2.35763819520559
 10
-0.2052299785009998
 20
2.33365410606886
 10
-0.2210168999241536
 20
2.309080740543611
 10
-0.2525907427704612
 20
2.258382866818359
  0
ELLIPSE
  5
13F
330
10D
100
AcDbEntity
  8
AM_4
100
AcDbEllipse
 10
-0.0000000000000001
 20
2.262916666666666
 30
0.0
 11
0.2187500000000001
 21
0.0
 31
0.0
210
0.0
220
0.0
230
1.0
 40
0.8660254037844374
 41
5.759586531581291
 42
7.316155636794609
  0
ELLIPSE
  5
140
330
10D
100
AcDbEntity
  8
AM_4
100
AcDbEllipse
 10
-0.0000000000000007
 20
2.262916666666666
 30
0.0
 11
0.2187499999999987
 21
0.0
 31
0.0
210
0.0
220
0.0
230
1.0
 40
0.8660254037844393
 41
2.108622323974766
 42
5.759586531581294
  0
LWPOLYLINE
  5
141
330
10D
100
AcDbEntity
  8
AM_4
100
AcDbPolyline
 90
        4
 70
     0
 43
0.0
 10
0.0
 20
2.073473609588821
 10
0.0315738428463077
 20
2.073169902586821
 10
0.0631476856926153
 20
2.072276919196304
 10
0.1262953713852306
 20
2.068939809740514
  0
LWPOLYLINE
  5
142
330
10D
100
AcDbEntity
  8
AM_4
100
AcDbPolyline
 90
        4
 70
     0
 43
0.0
 10
-0.1262953713852306
 20
2.068939809740514
 10
-0.0967996321117978
 20
2.070732403329899
 10
-0.0485424412477544
 20
2.072760695467285
 10
0.0
 20
2.073473609588821
  0
LWPOLYLINE
  5
143
330
10D
100
AcDbEntity
  8
AM_4
100
AcDbPolyline
 90
        4
 70
     0
 43
0.0
 10
0.0
 20
2.023473609588821
 10
-0.0483998160558989
 20
2.02418238994739
 10
-0.0967996321117978
 20
2.026214815847743
 10
-0.1262953713852306
 20
2.028007409437128
  0
LWPOLYLINE
  5
144
330
10D
100
AcDbEntity
  8
AM_4
100
AcDbPolyline
 90
        4
 70
     0
 43
0.0
 10
0.1262953713852306
 20
2.028007409437128
 10
0.0634316146914367
 20
2.024680872063631
 10
0.0317600370486143
 20
2.023780890495934
 10
0.0
 20
2.023473609588821
  0
LINE
  5
145
330
10D
100
AcDbEntity
  8
AM_4
100
AcDbLine
 10
-0.1262953713852306
 20
2.068939809740514
 30
0.0
 11
-0.1262953713852306
 21
2.028007409437128
 31
0.0
  0
LWPOLYLINE
  5
146
330
10D
100
AcDbEntity
  8
AM_4
100
AcDbPolyline
 90
        4
 70
     0
 43
0.0
 10
-0.1894430570778459
 20
2.168195138127744
 10
-0.1736561356546922
 20
2.144211048991013
 10
-0.1578692142315383
 20
2.119637683465765
 10
-0.1262953713852306
 20
2.068939809740514
  0
LWPOLYLINE
  5
147
330
10D
100
AcDbEntity
  8
AM_4
100
AcDbPolyline
 90
        4
 70
     0
 43
0.0
 10
-0.2525907427704612
 20
2.258382866818359
 10
-0.2211588644235643
 20
2.214561586671511
 10
-0.2053230756021531
 20
2.191707885007091
 10
-0.1894430570778459
 20
2.168195138127744
  0
LINE
  5
148
330
10D
100
AcDbEntity
  8
AM_4
100
AcDbLine
 10
-0.2525907427704612
 20
2.258382866818359
 30
0.0
 11
-0.2525907427704612
 21
2.217450466514974
 31
0.0
  0
LWPOLYLINE
  5
149
330
10D
100
AcDbEntity
  8
AM_4
100
AcDbPolyline
 90
        4
 70
     0
 43
0.0
 10
-0.1894430570778459
 20
2.118195138127744
 10
-0.2052299785009998
 20
2.142179227264474
 10
-0.2210168999241536
 20
2.166752592789722
 10
-0.2525907427704612
 20
2.217450466514974
  0
LWPOLYLINE
  5
14A
330
10D
100
AcDbEntity
  8
AM_4
100
AcDbPolyline
 90
        4
 70
     0
 43
0.0
 10
-0.1262953713852306
 20
2.028007409437128
 10
-0.1577272497321276
 20
2.071828689583976
 10
-0.1735630385535388
 20
2.094682391248397
 10
-0.1894430570778459
 20
2.118195138127744
  0
LINE
  5
14B
330
10D
100
AcDbEntity
  8
AM_4
100
AcDbLine
 10
0.2525907427704612
 20
2.258382866818359
 30
0.0
 11
0.2525907427704612
 21
2.217450466514974
 31
0.0
  0
LWPOLYLINE
  5
14C
330
10D
100
AcDbEntity
  8
AM_4
100
AcDbPolyline
 90
        4
 70
     0
 43
0.0
 10
0.1894430570778459
 20
2.168195138127744
 10
0.2052299785009997
 20
2.191571813260475
 10
0.2210168999241535
 20
2.214359212004688
 10
0.2525907427704612
 20
2.258382866818359
  0
LWPOLYLINE
  5
14D
330
10D
100
AcDbEntity
  8
AM_4
100
AcDbPolyline
 90
        4
 70
     0
 43
0.0
 10
0.1262953713852306
 20
2.068939809740514
 10
0.1577272497321276
 20
2.119414164634356
 10
0.1735630385535388
 20
2.144067829434169
 10
0.1894430570778459
 20
2.168195138127744
  0
LINE
  5
14E
330
10D
100
AcDbEntity
  8
AM_4
100
AcDbLine
 10
0.1262953713852306
 20
2.068939809740514
 30
0.0
 11
0.1262953713852306
 21
2.028007409437128
 31
0.0
  0
LWPOLYLINE
  5
14F
330
10D
100
AcDbEntity
  8
AM_4
100
AcDbPolyline
 90
        4
 70
     0
 43
0.0
 10
0.1894430570778459
 20
2.118195138127744
 10
0.1736561356546921
 20
2.094818462995013
 10
0.1578692142315383
 20
2.072031064250799
 10
0.1262953713852306
 20
2.028007409437128
  0
LWPOLYLINE
  5
150
330
10D
100
AcDbEntity
  8
AM_4
100
AcDbPolyline
 90
        4
 70
     0
 43
0.0
 10
0.2525907427704612
 20
2.217450466514974
 10
0.2211588644235643
 20
2.166976111621131
 10
0.205323075602153
 20
2.142322446821318
 10
0.1894430570778459
 20
2.118195138127744
  0
ELLIPSE
  5
151
330
10D
100
AcDbEntity
  8
AM_4
100
AcDbEllipse
 10
0.0
 20
2.262916666666667
 30
0.0
 11
0.2137500000000001
 21
0.0
 31
0.0
210
0.0
220
0.0
230
1.0
 40
0.8660254037844385
 41
2.155305801354354
 42
6.283185307179586
  0
ELLIPSE
  5
152
330
10D
100
AcDbEntity
  8
AM_4
100
AcDbEllipse
 10
-0.0000000000000006
 20
2.262916666666666
 30
0.0
 11
0.2137500000000007
 21
3.185123205184947E-9
 31
0.0
210
0.0
220
0.0
230
1.0
 40
0.8660254037844382
 41
0.0000017304280906
 42
0.9862868380209396
  0
ELLIPSE
  5
153
330
10D
100
AcDbEntity
  8
AM_4
100
AcDbEllipse
 10
0.0
 20
2.272075765937108
 30
0.0
 11
0.1725340532830153
 21
0.0
 31
0.0
210
0.0
220
0.0
230
1.0
 40
0.8660254037844382
 41
2.46832224344223
 42
6.283185307179586
  0
ELLIPSE
  5
154
330
10D
100
AcDbEntity
  8
AM_4
100
AcDbEllipse
 10
0.0000000000000005
 20
2.272075765937106
 30
0.0
 11
0.1725340532830149
 21
0.0
 31
0.0
210
0.0
220
0.0
230
1.0
 40
0.8660254037844428
 41
0.0
 42
0.6732704101475709
  0
ELLIPSE
  5
155
330
10D
100
AcDbEntity
  8
AM_4
100
AcDbEllipse
 10
-0.0000000000000425
 20
2.299293227476198
 30
0.0
 11
0.1188200907349401
 21
0.0
 31
0.0
210
0.0
220
0.0
230
1.0
 40
0.8660254037843877
 41
3.089421211181658
 42
6.335356749587683
  0
ELLIPSE
  5
156
330
10D
100
AcDbEntity
  8
AM_4
100
AcDbEllipse
 10
0.0
 20
2.315416666666667
 30
0.0
 11
0.105
 21
0.0
 31
0.0
210
0.0
220
0.0
230
1.0
 40
0.8660254037844407
 41
3.566671979497977
 42
5.858105981271403
  0
LINE
  5
157
330
10D
100
AcDbEntity
  8
AM_4
100
AcDbLine
 10
0.0525
 20
2.251666666666666
 30
0.0
 11
0.0675000000000001
 21
2.259166666666667
 31
0.0
  0
LINE
  5
158
330
10D
100
AcDbEntity
  8
AM_4
100
AcDbLine
 10
-0.0675000000000001
 20
2.259166666666667
 30
0.0
 11
-0.0525
 21
2.251666666666666
 31
0.0
  0
ELLIPSE
  5
159
330
10D
100
AcDbEntity
  8
AM_4
100
AcDbEllipse
 10
0.0
 20
2.360416666666666
 30
0.0
 11
0.1349999999999994
 21
0.0
 31
0.0
210
0.0
220
0.0
230
1.0
 40
0.8660254037844354
 41
4.188790204786388
 42
5.235987755982991
  0
ELLIPSE
  5
15A
330
10D
100
AcDbEntity
  8
AM_4
100
AcDbEllipse
 10
0.0
 20
2.360416666666667
 30
0.0
 11
0.135
 21
0.0
 31
0.0
210
0.0
220
0.0
230
1.0
 40
0.866025403784438
 41
5.23598775598299
 42
7.05829431789471
  0
ELLIPSE
  5
15B
330
10D
100
AcDbEntity
  8
AM_4
100
AcDbEllipse
 10
0.0
 20
2.330416666666667
 30
0.0
 11
0.1050000000000009
 21
0.0
 31
0.0
210
0.0
220
0.0
230
1.0
 40
0.8660254037844375
 41
4.188790204786395
 42
5.235987755982984
  0
LINE
  5
15C
330
10D
100
AcDbEntity
  8
AM_4
100
AcDbLine
 10
-0.0733474205218687
 20
2.462643514458774
 30
0.0
 11
-0.0964365416902991
 21
2.442231977398286
 31
0.0
  0
LINE
  5
15D
330
10D
100
AcDbEntity
  8
AM_4
100
AcDbLine
 10
0.0964365416902991
 20
2.442231977398286
 30
0.0
 11
0.0733474205218687
 21
2.462643514458774
 31
0.0
  0
ELLIPSE
  5
15E
330
10D
100
AcDbEntity
  8
AM_4
100
AcDbEllipse
 10
0.0
 20
2.360416666666667
 30
0.0
 11
0.135
 21
0.0
 31
0.0
210
0.0
220
0.0
230
1.0
 40
0.8660254037844378
 41
2.366483642874672
 42
4.188790204786391
  0
ELLIPSE
  5
15F
330
10D
100
AcDbEntity
  8
AM_4
100
AcDbEllipse
 10
0.0
 20
2.400416666666668
 30
0.0
 11
0.1026779019331865
 21
0.0
 31
0.0
210
0.0
220
0.0
230
1.0
 40
0.8660254037844356
 41
0.0
 42
6.283185307179586
  0
ENDBLK
  5
110
330
10D
100
AcDbEntity
  8
0
100
AcDbBlockEnd
  0
BLOCK
  5
162
330
160
100
AcDbEntity
  8
0
100
AcDbBlockBegin
  2
6_070730H_0_in_070730_0
 70
     2
 10
0.0
 20
0.0
 30
0.0
  3
6_070730H_0_in_070730_0
  1

  0
ATTDEF
  5
164
330
160
100
AcDbEntity
  8
AM_6
100
AcDbText
 10
8.060335150409234
 20
3.059606911335501
 30
0.0
 40
0.5
  1
FC-S2 -(Labyrinth Seal)-Housing
100
AcDbAttributeDefinition
  3

  2
NN
 70
     8
280
     0
  0
ATTDEF
  5
165
330
160
100
AcDbEntity
  8
AM_6
100
AcDbText
 10
8.060335150409234
 20
2.559606911335501
 30
0.0
 40
0.5
  1
S-2000 Piloted Flange Bearing -Inch
100
AcDbAttributeDefinition
  3

  2
NT
 70
     8
280
     0
  0
ATTDEF
  5
166
330
160
100
AcDbEntity
  8
AM_6
100
AcDbText
 10
8.060335150409234
 20
2.059606911335501
 30
0.0
 40
0.5
  1
070730H
100
AcDbAttributeDefinition
  3

  2
NB
 70
     8
280
     0
  0
ATTDEF
  5
167
330
160
100
AcDbEntity
  8
AM_6
100
AcDbText
 10
8.060335150409234
 20
1.559606911335501
 30
0.0
 40
0.5
  1
$PN.H
100
AcDbAttributeDefinition
  3

  2
NBSYN
 70
     8
280
     0
  0
ATTDEF
  5
168
330
160
100
AcDbEntity
  8
AM_6
100
AcDbText
 10
8.060335150409234
 20
1.059606911335501
 30
0.0
 40
0.5
  1
070730
100
AcDbAttributeDefinition
  3

  2
LINA
 70
     8
280
     0
  0
ATTDEF
  5
169
330
160
100
AcDbEntity
  8
AM_6
100
AcDbText
 10
8.060335150409234
 20
0.5596069113355009
 30
0.0
 40
0.5
  1
1-3/4
100
AcDbAttributeDefinition
  3

  2
SS
 70
     8
280
     0
  0
ATTDEF
  5
16A
330
160
100
AcDbEntity
  8
AM_6
100
AcDbText
 10
8.060335150409234
 20
0.0596069113355009
 30
0.0
 40
0.5
  1
070730
100
AcDbAttributeDefinition
  3

  2
PN
 70
     8
280
     0
  0
ATTDEF
  5
16B
330
160
100
AcDbEntity
  8
AM_6
100
AcDbText
 10
8.060335150409234
 20
-0.4403930886644991
 30
0.0
 40
0.5
  1
FC-S2-112LE
100
AcDbAttributeDefinition
  3

  2
DESCRIPTION
 70
     8
280
     0
  0
ATTDEF
  5
16C
330
160
100
AcDbEntity
  8
AM_6
100
AcDbText
 10
8.060335150409234
 20
-0.9403930886644991
 30
0.0
 40
0.5
  1
Expansion Type
100
AcDbAttributeDefinition
  3

  2
EF
 70
     8
280
     0
  0
ATTDEF
  5
16D
330
160
100
AcDbEntity
  8
AM_6
100
AcDbText
 10
8.060335150409234
 20
-1.440393088664499
 30
0.0
 40
0.5
  1
2-43/64
100
AcDbAttributeDefinition
  3

  2
A
 70
     8
280
     0
  0
ATTDEF
  5
16E
330
160
100
AcDbEntity
  8
AM_6
100
AcDbText
 10
8.060335150409234
 20
-1.940393088664499
 30
0.0
 40
0.5
  1
6-1/8
100
AcDbAttributeDefinition
  3

  2
B
 70
     8
280
     0
  0
ATTDEF
  5
16F
330
160
100
AcDbEntity
  8
AM_6
100
AcDbText
 10
8.060335150409234
 20
-2.440393088664499
 30
0.0
 40
0.5
  1
1-29/32
100
AcDbAttributeDefinition
  3

  2
C
 70
     8
280
     0
  0
ATTDEF
  5
170
330
160
100
AcDbEntity
  8
AM_6
100
AcDbText
 10
8.060335150409234
 20
-2.940393088664499
 30
0.0
 40
0.5
  1
5-1/8
100
AcDbAttributeDefinition
  3

  2
DD
 70
     8
280
     0
  0
ATTDEF
  5
171
330
160
100
AcDbEntity
  8
AM_6
100
AcDbText
 10
8.060335150409234
 20
-3.440393088664499
 30
0.0
 40
0.5
  1
7/8
100
AcDbAttributeDefinition
  3

  2
E
 70
     8
280
     0
  0
ATTDEF
  5
172
330
160
100
AcDbEntity
  8
AM_6
100
AcDbText
 10
8.060335150409234
 20
-3.940393088664499
 30
0.0
 40
0.5
  1
7/16
100
AcDbAttributeDefinition
  3

  2
F
 70
     8
280
     0
  0
ATTDEF
  5
173
330
160
100
AcDbEntity
  8
AM_6
100
AcDbText
 10
8.060335150409234
 20
-4.440393088664499
 30
0.0
 40
0.5
  1
1-29/64
100
AcDbAttributeDefinition
  3

  2
G
 70
     8
280
     0
  0
ATTDEF
  5
174
330
160
100
AcDbEntity
  8
AM_6
100
AcDbText
 10
8.060335150409234
 20
-4.940393088664499
 30
0.0
 40
0.5
  1
1/2
100
AcDbAttributeDefinition
  3

  2
H
 70
     8
280
     0
  0
ATTDEF
  5
175
330
160
100
AcDbEntity
  8
AM_6
100
AcDbText
 10
8.060335150409234
 20
-5.440393088664499
 30
0.0
 40
0.5
  1
4.250
100
AcDbAttributeDefinition
  3

  2
K
 70
     8
280
     0
  0
ATTDEF
  5
176
330
160
100
AcDbEntity
  8
AM_6
100
AcDbText
 10
8.060335150409234
 20
-5.940393088664499
 30
0.0
 40
0.5
  1
3-3/16
100
AcDbAttributeDefinition
  3

  2
L
 70
     8
280
     0
  0
ATTDEF
  5
177
330
160
100
AcDbEntity
  8
AM_6
100
AcDbText
 10
8.060335150409234
 20
-6.440393088664499
 30
0.0
 40
0.5
  1
7/16-14
100
AcDbAttributeDefinition
  3

  2
M
 70
     8
280
     0
  0
ATTDEF
  5
178
330
160
100
AcDbEntity
  8
AM_6
100
AcDbText
 10
8.060335150409234
 20
-6.940393088664499
 30
0.0
 40
0.5
  1
0.4375
100
AcDbAttributeDefinition
  3

  2
MNDM
 70
     8
280
     0
  0
ATTDEF
  5
179
330
160
100
AcDbEntity
  8
AM_6
100
AcDbText
 10
8.060335150409234
 20
-7.440393088664499
 30
0.0
 40
0.5
  1
0.3602
100
AcDbAttributeDefinition
  3

  2
MKDM
 70
     8
280
     0
  0
ATTDEF
  5
17A
330
160
100
AcDbEntity
  8
AM_6
100
AcDbText
 10
8.060335150409234
 20
-7.940393088664499
 30
0.0
 40
0.5
  1
2-23/32
100
AcDbAttributeDefinition
  3

  2
N
 70
     8
280
     0
  0
ATTDEF
  5
17B
330
160
100
AcDbEntity
  8
AM_6
100
AcDbText
 10
8.060335150409234
 20
-8.4403930886645
 30
0.0
 40
0.5
  1
2.718750
100
AcDbAttributeDefinition
  3

  2
N1
 70
     8
280
     0
  0
ATTDEF
  5
17C
330
160
100
AcDbEntity
  8
AM_6
100
AcDbText
 10
8.060335150409234
 20
-8.9403930886645
 30
0.0
 40
0.5
  1
1-7/32
100
AcDbAttributeDefinition
  3

  2
P
 70
     8
280
     0
  0
ATTDEF
  5
17D
330
160
100
AcDbEntity
  8
AM_6
100
AcDbText
 10
8.060335150409234
 20
-9.4403930886645
 30
0.0
 40
0.5
  1
1-17/64
100
AcDbAttributeDefinition
  3

  2
Q
 70
     8
280
     0
  0
ATTDEF
  5
17E
330
160
100
AcDbEntity
  8
AM_6
100
AcDbText
 10
8.060335150409234
 20
-9.9403930886645
 30
0.0
 40
0.5
  1
1.265625
100
AcDbAttributeDefinition
  3

  2
Q1
 70
     8
280
     0
  0
ATTDEF
  5
17F
330
160
100
AcDbEntity
  8
AM_6
100
AcDbText
 10
8.060335150409234
 20
-10.4403930886645
 30
0.0
 40
0.5
  1
1/4
100
AcDbAttributeDefinition
  3

  2
X
 70
     8
280
     0
  0
ATTDEF
  5
180
330
160
100
AcDbEntity
  8
AM_6
100
AcDbText
 10
8.060335150409234
 20
-10.9403930886645
 30
0.0
 40
0.5
  1
0.020
100
AcDbAttributeDefinition
  3

  2
Y
 70
     8
280
     0
  0
ATTDEF
  5
181
330
160
100
AcDbEntity
  8
AM_6
100
AcDbText
 10
8.060335150409234
 20
-11.4403930886645
 30
0.0
 40
0.5
  1
2-5/64
100
AcDbAttributeDefinition
  3

  2
Z
 70
     8
280
     0
  0
ATTDEF
  5
182
330
160
100
AcDbEntity
  8
AM_6
100
AcDbText
 10
8.060335150409234
 20
-11.9403930886645
 30
0.0
 40
0.5
  1
baldor
100
AcDbAttributeDefinition
  3

  2
COMPANY
 70
     8
280
     0
  0
ARC
  5
183
330
160
100
AcDbEntity
  8
AM_9
100
AcDbCircle
 10
0.000000000000042
 20
0.0000000000000435
 30
0.0
 40
2.12500000000006
100
AcDbArc
 50
216.6107148933125
 51
233.3892851066875
  0
ARC
  5
184
330
160
100
AcDbEntity
  8
AM_9
100
AcDbCircle
 10
-0.0000000000000062
 20
0.0000000000000064
 30
0.0
 40
2.124999999999991
100
AcDbArc
 50
126.6107148933123
 51
143.3892851066878
  0
ARC
  5
185
330
160
100
AcDbEntity
  8
AM_9
100
AcDbCircle
 10
-0.0000000000000008
 20
-0.000000000000016
 30
0.0
 40
2.125000000000016
100
AcDbArc
 50
76.39103936921715
 51
103.6089606307828
  0
ARC
  5
186
330
160
100
AcDbEntity
  8
AM_9
100
AcDbCircle
 10
0.0000000000000147
 20
-0.0000000000000002
 30
0.0
 40
2.124999999999992
100
AcDbArc
 50
306.6107148933119
 51
53.38928510668805
  0
LINE
  5
187
330
160
100
AcDbEntity
  8
AM_9
100
AcDbLine
 10
-0.2208510788013647
 20
2.309338851859483
 30
0.0
 11
0.2208494989249947
 21
2.309338851859483
 31
0.0
  0
CIRCLE
  5
188
330
160
100
AcDbEntity
  8
AM_9
100
AcDbCircle
 10
0.0
 20
-0.0000000000000001
 30
0.0
 40
2.023809523809524
  0
LINE
  5
189
330
160
100
AcDbEntity
  8
AM_7
100
AcDbLine
 10
2.3328125
 20
0.0
 30
0.0
 11
2.7921875
 21
0.0
 31
0.0
  0
LINE
  5
18A
330
160
100
AcDbEntity
  8
AM_7
100
AcDbLine
 10
2.5625
 20
-0.2296875
 30
0.0
 11
2.5625
 21
0.2296875
 31
0.0
  0
LINE
  5
18B
330
160
100
AcDbEntity
  8
AM_7
100
AcDbLine
 10
-2.7921875
 20
0.0
 30
0.0
 11
-2.3328125
 21
0.0
 31
0.0
  0
LINE
  5
18C
330
160
100
AcDbEntity
  8
AM_7
100
AcDbLine
 10
-2.5625
 20
-0.2296875
 30
0.0
 11
-2.5625
 21
0.2296875
 31
0.0
  0
LINE
  5
18D
330
160
100
AcDbEntity
  8
AM_7
100
AcDbLine
 10
-2.041648626790528
 20
1.811961126790528
 30
0.0
 11
-1.582273626790528
 21
1.811961126790528
 31
0.0
  0
LINE
  5
18E
330
160
100
AcDbEntity
  8
AM_7
100
AcDbLine
 10
-1.811961126790528
 20
1.582273626790528
 30
0.0
 11
-1.811961126790528
 21
2.041648626790528
 31
0.0
  0
LINE
  5
18F
330
160
100
AcDbEntity
  8
AM_7
100
AcDbLine
 10
1.582273626790528
 20
1.811961126790528
 30
0.0
 11
2.041648626790528
 21
1.811961126790528
 31
0.0
  0
LINE
  5
190
330
160
100
AcDbEntity
  8
AM_7
100
AcDbLine
 10
1.811961126790528
 20
1.582273626790528
 30
0.0
 11
1.811961126790528
 21
2.041648626790528
 31
0.0
  0
LINE
  5
191
330
160
100
AcDbEntity
  8
AM_7
100
AcDbLine
 10
1.582273626790528
 20
-1.811961126790528
 30
0.0
 11
2.041648626790528
 21
-1.811961126790528
 31
0.0
  0
LINE
  5
192
330
160
100
AcDbEntity
  8
AM_7
100
AcDbLine
 10
1.811961126790528
 20
-2.041648626790528
 30
0.0
 11
1.811961126790528
 21
-1.582273626790528
 31
0.0
  0
LINE
  5
193
330
160
100
AcDbEntity
  8
AM_7
100
AcDbLine
 10
-2.041648626790528
 20
-1.811961126790528
 30
0.0
 11
-1.582273626790528
 21
-1.811961126790528
 31
0.0
  0
LINE
  5
194
330
160
100
AcDbEntity
  8
AM_7
100
AcDbLine
 10
-1.811961126790528
 20
-2.041648626790528
 30
0.0
 11
-1.811961126790528
 21
-1.582273626790528
 31
0.0
  0
LINE
  5
195
330
160
100
AcDbEntity
  8
AM_7
100
AcDbLine
 10
-2.125
 20
-0.0000000000000001
 30
0.0
 11
2.125
 21
-0.0000000000000001
 31
0.0
  0
LINE
  5
196
330
160
100
AcDbEntity
  8
AM_7
100
AcDbLine
 10
0.0
 20
-2.125
 30
0.0
 11
0.0
 21
2.125
 31
0.0
  0
CIRCLE
  5
197
330
160
100
AcDbEntity
  8
AM_4
100
AcDbCircle
 10
2.5625
 20
0.0
 30
0.0
 40
0.1801000000000001
  0
ARC
  5
198
330
160
100
AcDbEntity
  8
AM_4
100
AcDbCircle
 10
0.0000000000000029
 20
0.0000000000000054
 30
0.0
 40
3.062500000000005
100
AcDbArc
 50
273.1630575633313
 51
266.8369424366684
  0
ARC
  5
199
330
160
100
AcDbEntity
  8
AM_4
100
AcDbCircle
 10
-0.0000000000000053
 20
-3.103333333333325
 30
0.0
 40
0.1750000000000032
100
AcDbArc
 50
15.06969036299327
 51
164.9303096370064
  0
CIRCLE
  5
19A
330
160
100
AcDbEntity
  8
AM_4
100
AcDbCircle
 10
-2.5625
 20
0.0
 30
0.0
 40
0.1801000000000001
  0
ARC
  5
19B
330
160
100
AcDbEntity
  8
AM_4
100
AcDbCircle
 10
-0.9097867543372512
 20
2.193835240311471
 30
0.0
 40
0.2500000000000002
100
AcDbArc
 50
234.9999999999999
 51
292.5238582401361
  0
ARC
  5
19C
330
160
100
AcDbEntity
  8
AM_4
100
AcDbCircle
 10
-2.193835240311471
 20
0.9097867543372522
 30
0.0
 40
0.25
100
AcDbArc
 50
337.476141759864
 51
35.0000000000001
  0
LINE
  5
19D
330
160
100
AcDbEntity
  8
AM_4
100
AcDbLine
 10
-1.053180863425013
 20
1.989047229239223
 30
0.0
 11
-1.775837318383307
 21
2.495056726536927
 31
0.0
  0
LINE
  5
19E
330
160
100
AcDbEntity
  8
AM_4
100
AcDbLine
 10
-2.495056726536924
 20
1.775837318383306
 30
0.0
 11
-1.989047229239223
 21
1.053180863425014
 31
0.0
  0
CIRCLE
  5
19F
330
160
100
AcDbEntity
  8
AM_4
100
AcDbCircle
 10
-1.811961126790528
 20
1.811961126790528
 30
0.0
 40
0.21875
  0
LINE
  5
1A0
330
160
100
AcDbEntity
  8
AM_4
100
AcDbLine
 10
1.989047229239223
 20
1.053180863425013
 30
0.0
 11
2.495056726536932
 21
1.775837318383315
 31
0.0
  0
ARC
  5
1A1
330
160
100
AcDbEntity
  8
AM_4
100
AcDbCircle
 10
0.9097867543372524
 20
2.193835240311472
 30
0.0
 40
0.2500000000000013
100
AcDbArc
 50
247.476141759864
 51
304.9999999999999
  0
ARC
  5
1A2
330
160
100
AcDbEntity
  8
AM_4
100
AcDbCircle
 10
2.19383524031147
 20
0.9097867543372513
 30
0.0
 40
0.2499999999999997
100
AcDbArc
 50
144.9999999999999
 51
202.5238582401361
  0
LINE
  5
1A3
330
160
100
AcDbEntity
  8
AM_4
100
AcDbLine
 10
1.775837318383314
 20
2.49505672653693
 30
0.0
 11
1.053180863425014
 21
1.989047229239223
 31
0.0
  0
CIRCLE
  5
1A4
330
160
100
AcDbEntity
  8
AM_4
100
AcDbCircle
 10
1.811961126790528
 20
1.811961126790528
 30
0.0
 40
0.21875
  0
ARC
  5
1A5
330
160
100
AcDbEntity
  8
AM_4
100
AcDbCircle
 10
0.9097867543372512
 20
-2.19383524031147
 30
0.0
 40
0.2499999999999992
100
AcDbArc
 50
54.99999999999984
 51
112.5238582401364
  0
ARC
  5
1A6
330
160
100
AcDbEntity
  8
AM_4
100
AcDbCircle
 10
2.193835240311469
 20
-0.9097867543372533
 30
0.0
 40
0.2499999999999987
100
AcDbArc
 50
157.4761417598636
 51
215.0000000000001
  0
LINE
  5
1A7
330
160
100
AcDbEntity
  8
AM_4
100
AcDbLine
 10
1.053180863425013
 20
-1.989047229239223
 30
0.0
 11
1.775837318383314
 21
-2.495056726536931
 31
0.0
  0
LINE
  5
1A8
330
160
100
AcDbEntity
  8
AM_4
100
AcDbLine
 10
2.495056726536931
 20
-1.775837318383316
 30
0.0
 11
1.989047229239223
 21
-1.053180863425015
 31
0.0
  0
CIRCLE
  5
1A9
330
160
100
AcDbEntity
  8
AM_4
100
AcDbCircle
 10
1.811961126790528
 20
-1.811961126790528
 30
0.0
 40
0.21875
  0
LINE
  5
1AA
330
160
100
AcDbEntity
  8
AM_4
100
AcDbLine
 10
-1.775837318383308
 20
-2.495056726536926
 30
0.0
 11
-1.053180863425015
 21
-1.989047229239223
 31
0.0
  0
ARC
  5
1AB
330
160
100
AcDbEntity
  8
AM_4
100
AcDbCircle
 10
-0.9097867543372529
 20
-2.193835240311468
 30
0.0
 40
0.2499999999999978
100
AcDbArc
 50
67.47614175986357
 51
125.0000000000006
  0
LINE
  5
1AC
330
160
100
AcDbEntity
  8
AM_4
100
AcDbLine
 10
-1.989047229239223
 20
-1.053180863425013
 30
0.0
 11
-2.495056726536925
 21
-1.775837318383306
 31
0.0
  0
CIRCLE
  5
1AD
330
160
100
AcDbEntity
  8
AM_4
100
AcDbCircle
 10
-1.811961126790528
 20
-1.811961126790528
 30
0.0
 40
0.21875
  0
ARC
  5
1AE
330
160
100
AcDbEntity
  8
AM_4
100
AcDbCircle
 10
-2.193835240311471
 20
-0.9097867543372513
 30
0.0
 40
0.2500000000000003
100
AcDbArc
 50
325.0
 51
22.52385824013631
  0
ARC
  5
1AF
330
160
100
AcDbEntity
  8
AM_4
100
AcDbCircle
 10
-0.0000000000000011
 20
0.0000000000000002
 30
0.0
 40
2.125000000000001
100
AcDbArc
 50
323.3892851066877
 51
36.61071489331226
  0
ARC
  5
1B0
330
160
100
AcDbEntity
  8
AM_4
100
AcDbCircle
 10
-0.0000000000000064
 20
0.0000000000000162
 30
0.0
 40
2.124999999999983
100
AcDbArc
 50
103.6089606307829
 51
126.6107148933124
  0
ARC
  5
1B1
330
160
100
AcDbEntity
  8
AM_4
100
AcDbCircle
 10
0.0000000000000006
 20
0.0000000000000038
 30
0.0
 40
2.125000000000004
100
AcDbArc
 50
233.3892851066878
 51
306.6107148933122
  0
ARC
  5
1B2
330
160
100
AcDbEntity
  8
AM_4
100
AcDbCircle
 10
0.0000000000000007
 20
-0.0000000000000001
 30
0.0
 40
2.125
100
AcDbArc
 50
143.3892851066878
 51
216.6107148933122
  0
ARC
  5
1B3
330
160
100
AcDbEntity
  8
AM_4
100
AcDbCircle
 10
-1.812499999999999
 20
1.812499999999998
 30
0.0
 40
0.5555555555555536
100
AcDbArc
 50
281.0782648292702
 51
348.9217351707298
  0
ARC
  5
1B4
330
160
100
AcDbEntity
  8
AM_4
100
AcDbCircle
 10
-0.0000000000000009
 20
-0.0000000000000007
 30
0.0
 40
2.125000000000001
100
AcDbArc
 50
53.38928510668772
 51
76.39103936921708
  0
ARC
  5
1B5
330
160
100
AcDbEntity
  8
AM_4
100
AcDbCircle
 10
-1.812500000000002
 20
-1.812500000000002
 30
0.0
 40
0.5555555555555577
100
AcDbArc
 50
11.07826482927049
 51
78.92173517072956
  0
ARC
  5
1B6
330
160
100
AcDbEntity
  8
AM_4
100
AcDbCircle
 10
1.8125
 20
-1.812499999999998
 30
0.0
 40
0.555555555555554
100
AcDbArc
 50
101.0782648292704
 51
168.9217351707298
  0
ARC
  5
1B7
330
160
100
AcDbEntity
  8
AM_4
100
AcDbCircle
 10
1.812499999999999
 20
1.8125
 30
0.0
 40
0.5555555555555544
100
AcDbArc
 50
191.0782648292703
 51
258.9217351707298
  0
LINE
  5
1B8
330
160
100
AcDbEntity
  8
AM_4
100
AcDbLine
 10
0.5
 20
1.979166666666667
 30
0.0
 11
0.5
 21
2.309338851859483
 31
0.0
  0
LINE
  5
1B9
330
160
100
AcDbEntity
  8
AM_4
100
AcDbLine
 10
-0.5
 20
1.979166666666667
 30
0.0
 11
-0.5
 21
2.309338851859483
 31
0.0
  0
LINE
  5
1BA
330
160
100
AcDbEntity
  8
AM_4
100
AcDbLine
 10
0.5
 20
1.979166666666667
 30
0.0
 11
-0.5
 21
1.979166666666667
 31
0.0
  0
LINE
  5
1BB
330
160
100
AcDbEntity
  8
AM_4
100
AcDbLine
 10
0.2208494989249947
 20
2.309338851859483
 30
0.0
 11
0.5
 21
2.309338851859483
 31
0.0
  0
LINE
  5
1BC
330
160
100
AcDbEntity
  8
AM_4
100
AcDbLine
 10
-0.5
 20
2.309338851859483
 30
0.0
 11
-0.2208510788013647
 21
2.309338851859483
 31
0.0
  0
CIRCLE
  5
1BD
330
160
100
AcDbEntity
  8
AM_4
100
AcDbCircle
 10
0.0
 20
0.0
 30
0.0
 40
1.67325
  0
CIRCLE
  5
1BE
330
160
100
AcDbEntity
  8
AM_4
100
AcDbCircle
 10
0.0
 20
0.0
 30
0.0
 40
1.745924319802495
  0
ARC
  5
1BF
330
160
100
AcDbEntity
  8
AM_5
100
AcDbCircle
 10
2.5625
 20
-0.0000000000000002
 30
0.0
 40
0.2187500000000002
100
AcDbArc
 50
75.00000000000001
 51
15.00000000000007
  0
ARC
  5
1C0
330
160
100
AcDbEntity
  8
AM_5
100
AcDbCircle
 10
-2.5625
 20
-0.0000000000000002
 30
0.0
 40
0.2187500000000002
100
AcDbArc
 50
75.00000000000001
 51
15.00000000000007
  0
ENDBLK
  5
163
330
160
100
AcDbEntity
  8
0
100
AcDbBlockEnd
  0
ENDSEC
  0
SECTION
  2
ENTITIES
  0
INSERT
  5
6F
330
1F
100
AcDbEntity
  8
0
100
AcDbBlockReference
  2
1_070730_0
 10
0.0
 20
0.0
 30
0.0
  0
POINT
  5
1C2
330
1F
100
AcDbEntity
  8
ConnectionPoints
100
AcDbPoint
 10
0.0
 20
0.0
 30
1.203125
  0
POINT
  5
1C3
330
1F
100
AcDbEntity
  8
ConnectionPoints
100
AcDbPoint
 10
0.0
 20
0.0
 30
1.203125
  0
POINT
  5
1C4
330
1F
100
AcDbEntity
  8
ConnectionPoints
100
AcDbPoint
 10
0.0
 20
0.0
 30
-2.201375
  0
POINT
  5
1C5
330
1F
100
AcDbEntity
  8
ConnectionPoints
100
AcDbPoint
 10
0.0
 20
0.0
 30
1.203125
  0
POINT
  5
1C6
330
1F
100
AcDbEntity
  8
ConnectionPoints
100
AcDbPoint
 10
0.0
 20
2.212916666666667
 30
0.5403103907283024
  0
POINT
  5
1C7
330
1F
100
AcDbEntity
  8
ConnectionPoints
100
AcDbPoint
 10
0.0
 20
0.0
 30
-1.21875
  0
POINT
  5
1C8
330
1F
100
AcDbEntity
  8
ConnectionPoints
100
AcDbPoint
 10
0.0
 20
2.212916666666667
 30
0.5403103907283024
  0
POINT
  5
1C9
330
1F
100
AcDbEntity
  8
ConnectionPoints
100
AcDbPoint
 10
0.0
 20
2.5228125
 30
0.5087365478819947
  0
POINT
  5
1CA
330
1F
100
AcDbEntity
  8
ConnectionPoints
100
AcDbPoint
 10
0.0
 20
0.0
 30
1.203125
  0
POINT
  5
1CB
330
1F
100
AcDbEntity
  8
ConnectionPoints
100
AcDbPoint
 10
0.0
 20
0.0
 30
1.453125
  0
ENDSEC
  0
SECTION
  2
OBJECTS
  0
DICTIONARY
  5
C
330
0
100
AcDbDictionary
281
     1
  3
ACAD_DETAILVIEWSTYLE
350
1D3
  3
ACAD_GROUP
350
D
  3
ACAD_LAYOUT
350
1A
  3
ACAD_MATERIAL
350
43
  3
ACAD_MLEADERSTYLE
350
6B
  3
ACAD_MLINESTYLE
350
17
  3
ACAD_PLOTSETTINGS
350
19
  3
ACAD_PLOTSTYLENAME
350
E
  3
ACAD_SCALELIST
350
47
  3
ACAD_SECTIONVIEWSTYLE
350
1D4
  3
ACAD_TABLESTYLE
350
69
  3
ACAD_VISUALSTYLE
350
2A
  3
ACDB_RECOMPOSE_DATA
350
1D0
  3
AcDbVariableDictionary
350
1CC
  0
SUN
  5
6D
330
29
100
AcDbSun
 90
        1
290
     0
 63
     7
421
 16777215
 40
1.0
291
     1
 91
  2455826
 92
 54000000
292
     0
 70
     2
 71
   256
280
     1
  0
DICTIONARY
  5
1D3
102
{ACAD_REACTORS
330
C
102
}
330
C
100
AcDbDictionary
281
     1
  0
DICTIONARY
  5
D
102
{ACAD_REACTORS
330
C
102
}
330
C
100
AcDbDictionary
281
     1
  0
DICTIONARY
  5
1A
102
{ACAD_REACTORS
330
C
102
}
330
C
100
AcDbDictionary
281
     1
  3
Layout1
350
1E
  3
Layout2
350
26
  3
Model
350
22
  0
DICTIONARY
  5
43
102
{ACAD_REACTORS
330
C
102
}
330
C
100
AcDbDictionary
281
     1
  3
ByBlock
350
45
  3
ByLayer
350
44
  3
Global
350
46
  0
DICTIONARY
  5
6B
102
{ACAD_REACTORS
330
C
102
}
330
C
100
AcDbDictionary
281
     1
  3
Standard
350
6C
  0
DICTIONARY
  5
17
102
{ACAD_REACTORS
330
C
102
}
330
C
100
AcDbDictionary
281
     1
  3
Standard
350
18
  0
DICTIONARY
  5
19
102
{ACAD_REACTORS
330
C
102
}
330
C
100
AcDbDictionary
281
     1
  0
ACDBDICTIONARYWDFLT
  5
E
102
{ACAD_REACTORS
330
C
102
}
330
C
100
AcDbDictionary
281
     1
  3
Normal
350
F
100
AcDbDictionaryWithDefault
340
F
  0
DICTIONARY
  5
47
102
{ACAD_REACTORS
330
C
102
}
330
C
100
AcDbDictionary
281
     1
  3
A0
350
48
  3
A1
350
49
  3
A2
350
4A
  3
A3
350
4B
  3
A4
350
4C
  3
A5
350
4D
  3
A6
350
4E
  3
A7
350
4F
  3
A8
350
50
  3
A9
350
51
  3
B0
350
52
  3
B1
350
53
  3
B2
350
54
  3
B3
350
55
  3
B4
350
56
  3
B5
350
57
  3
B6
350
58
  3
B7
350
59
  3
B8
350
5A
  3
B9
350
5B
  3
C0
350
5C
  3
C1
350
5D
  3
C2
350
5E
  3
C3
350
5F
  3
C4
350
60
  3
C5
350
61
  3
C6
350
62
  3
C7
350
63
  3
C8
350
64
  3
C9
350
65
  3
D0
350
66
  3
D1
350
67
  3
D2
350
68
  0
DICTIONARY
  5
1D4
102
{ACAD_REACTORS
330
C
102
}
330
C
100
AcDbDictionary
281
     1
  0
DICTIONARY
  5
69
102
{ACAD_REACTORS
330
C
102
}
330
C
100
AcDbDictionary
281
     1
  3
Standard
350
6A
  0
DICTIONARY
  5
2A
102
{ACAD_REACTORS
330
C
102
}
330
C
100
AcDbDictionary
281
     1
  3
2dWireframe
350
2F
  3
Basic
350
32
  3
Brighten
350
36
  3
ColorChange
350
3A
  3
Conceptual
350
34
  3
Dim
350
35
  3
EdgeColorOff
350
3D
  3
Facepattern
350
39
  3
Flat
350
2B
  3
FlatWithEdges
350
2C
  3
Gouraud
350
2D
  3
GouraudWithEdges
350
2E
  3
Hidden
350
31
  3
JitterOff
350
3B
  3
Linepattern
350
38
  3
OverhangOff
350
3C
  3
Realistic
350
33
  3
Shaded
350
42
  3
Shaded with edges
350
41
  3
Shades of Gray
350
3E
  3
Sketchy
350
3F
  3
Thicken
350
37
  3
Wireframe
350
30
  3
X-Ray
350
40
  0
XRECORD
  5
1D0
102
{ACAD_REACTORS
330
C
102
}
330
C
100
AcDbXrecord
280
     1
 90
        1
330
6A
  0
DICTIONARY
  5
1CC
102
{ACAD_REACTORS
330
C
102
}
330
C
100
AcDbDictionary
281
     1
  3
CANNOSCALE
350
1CD
  3
CMLEADERSTYLE
350
1D2
  3
CTABLESTYLE
350
1D1
  0
LAYOUT
  5
1E
102
{ACAD_REACTORS
330
1A
102
}
330
1A
100
AcDbPlotSettings
  1

  2
none_device
  4

  6

 40
0.0
 41
0.0
 42
0.0
 43
0.0
 44
0.0
 45
0.0
 46
0.0
 47
0.0
 48
0.0
 49
0.0
140
0.0
141
0.0
142
1.0
143
1.0
 70
   688
 72
     0
 73
     0
 74
     5
  7

 75
    16
 76
     0
 77
     2
 78
   300
147
1.0
148
0.0
149
0.0
100
AcDbLayout
  1
Layout1
 70
     1
 71
     1
 10
0.0
 20
0.0
 11
12.0
 21
9.0
 12
0.0
 22
0.0
 32
0.0
 14
1.000000000000000E+20
 24
1.000000000000000E+20
 34
1.000000000000000E+20
 15
-1.000000000000000E+20
 25
-1.000000000000000E+20
 35
-1.000000000000000E+20
146
0.0
 13
0.0
 23
0.0
 33
0.0
 16
1.0
 26
0.0
 36
0.0
 17
0.0
 27
1.0
 37
0.0
 76
     0
330
1B
  0
LAYOUT
  5
26
102
{ACAD_REACTORS
330
1A
102
}
330
1A
100
AcDbPlotSettings
  1

  2
none_device
  4

  6

 40
0.0
 41
0.0
 42
0.0
 43
0.0
 44
0.0
 45
0.0
 46
0.0
 47
0.0
 48
0.0
 49
0.0
140
0.0
141
0.0
142
1.0
143
1.0
 70
   688
 72
     0
 73
     0
 74
     5
  7

 75
    16
 76
     0
 77
     2
 78
   300
147
1.0
148
0.0
149
0.0
100
AcDbLayout
  1
Layout2
 70
     1
 71
     2
 10
0.0
 20
0.0
 11
0.0
 21
0.0
 12
0.0
 22
0.0
 32
0.0
 14
0.0
 24
0.0
 34
0.0
 15
0.0
 25
0.0
 35
0.0
146
0.0
 13
0.0
 23
0.0
 33
0.0
 16
1.0
 26
0.0
 36
0.0
 17
0.0
 27
1.0
 37
0.0
 76
     0
330
23
  0
LAYOUT
  5
22
102
{ACAD_REACTORS
330
1A
102
}
330
1A
100
AcDbPlotSettings
  1

  2
none_device
  4
Letter_(8.50_x_11.00_Inches)
  6

 40
6.35
 41
6.35
 42
6.35000508
 43
6.35000508
 44
215.9
 45
279.4
 46
0.0
 47
0.0
 48
0.0
 49
0.0
140
0.0
141
0.0
142
1.0
143
1.0
 70
  1712
 72
     0
 73
     0
 74
     0
  7

 75
     0
 76
     0
 77
     2
 78
   300
147
1.0
148
0.0
149
0.0
100
AcDbLayout
  1
Model
 70
     1
 71
     0
 10
0.0
 20
0.0
 11
12.0
 21
9.0
 12
0.0
 22
0.0
 32
0.0
 14
1.000000000000000E+20
 24
1.000000000000000E+20
 34
1.000000000000000E+20
 15
-1.000000000000000E+20
 25
-1.000000000000000E+20
 35
-1.000000000000000E+20
146
0.0
 13
0.0
 23
0.0
 33
0.0
 16
1.0
 26
0.0
 36
0.0
 17
0.0
 27
1.0
 37
0.0
 76
     0
330
1F
331
29
  0
MATERIAL
  5
45
102
{ACAD_REACTORS
330
43
102
}
330
43
100
AcDbMaterial
  1
ByBlock
 72
     1
 94
      127
  0
MATERIAL
  5
44
102
{ACAD_REACTORS
330
43
102
}
330
43
100
AcDbMaterial
  1
ByLayer
 72
     1
 94
      127
  0
MATERIAL
  5
46
102
{ACAD_REACTORS
330
43
102
}
330
43
100
AcDbMaterial
  1
Global
 72
     1
 94
      127
  0
MLEADERSTYLE
  5
6C
102
{ACAD_REACTORS
330
6B
102
}
330
6B
100
AcDbMLeaderStyle
179
     2
170
     2
171
     1
172
     0
 90
        2
 40
0.0
 41
0.0
173
     1
 91
-1056964608
340
14
 92
       -2
290
     1
 42
0.09
291
     1
 43
0.36
  3
Standard
341
0
 44
0.18
300

342
11
174
     1
178
     6
175
     1
176
     0
 93
-1056964608
 45
0.18
292
     0
297
     0
 46
0.18
343
0
 94
-1056964608
 47
1.0
 49
1.0
140
1.0
293
     1
141
0.0
294
     1
177
     0
142
1.0
295
     0
296
     0
143
0.125
271
     0
272
     9
273
     9
298
     0
  0
MLINESTYLE
  5
18
102
{ACAD_REACTORS
330
17
102
}
330
17
100
AcDbMlineStyle
  2
Standard
 70
     0
  3

 62
   256
 51
90.0
 52
90.0
 71
     2
 49
0.5
 62
   256
  6
BYLAYER
 49
-0.5
 62
   256
  6
BYLAYER
  0
ACDBPLACEHOLDER
  5
F
102
{ACAD_REACTORS
330
E
102
}
330
E
  0
SCALE
  5
48
102
{ACAD_REACTORS
330
47
102
}
330
47
100
AcDbScale
 70
     0
300
1:1
140
1.0
141
1.0
290
     1
  0
SCALE
  5
49
102
{ACAD_REACTORS
330
47
102
}
330
47
100
AcDbScale
 70
     0
300
1:2
140
1.0
141
2.0
290
     0
  0
SCALE
  5
4A
102
{ACAD_REACTORS
330
47
102
}
330
47
100
AcDbScale
 70
     0
300
1:4
140
1.0
141
4.0
290
     0
  0
SCALE
  5
4B
102
{ACAD_REACTORS
330
47
102
}
330
47
100
AcDbScale
 70
     0
300
1:5
140
1.0
141
5.0
290
     0
  0
SCALE
  5
4C
102
{ACAD_REACTORS
330
47
102
}
330
47
100
AcDbScale
 70
     0
300
1:8
140
1.0
141
8.0
290
     0
  0
SCALE
  5
4D
102
{ACAD_REACTORS
330
47
102
}
330
47
100
AcDbScale
 70
     0
300
1:10
140
1.0
141
10.0
290
     0
  0
SCALE
  5
4E
102
{ACAD_REACTORS
330
47
102
}
330
47
100
AcDbScale
 70
     0
300
1:16
140
1.0
141
16.0
290
     0
  0
SCALE
  5
4F
102
{ACAD_REACTORS
330
47
102
}
330
47
100
AcDbScale
 70
     0
300
1:20
140
1.0
141
20.0
290
     0
  0
SCALE
  5
50
102
{ACAD_REACTORS
330
47
102
}
330
47
100
AcDbScale
 70
     0
300
1:30
140
1.0
141
30.0
290
     0
  0
SCALE
  5
51
102
{ACAD_REACTORS
330
47
102
}
330
47
100
AcDbScale
 70
     0
300
1:40
140
1.0
141
40.0
290
     0
  0
SCALE
  5
52
102
{ACAD_REACTORS
330
47
102
}
330
47
100
AcDbScale
 70
     0
300
1:50
140
1.0
141
50.0
290
     0
  0
SCALE
  5
53
102
{ACAD_REACTORS
330
47
102
}
330
47
100
AcDbScale
 70
     0
300
1:100
140
1.0
141
100.0
290
     0
  0
SCALE
  5
54
102
{ACAD_REACTORS
330
47
102
}
330
47
100
AcDbScale
 70
     0
300
2:1
140
2.0
141
1.0
290
     0
  0
SCALE
  5
55
102
{ACAD_REACTORS
330
47
102
}
330
47
100
AcDbScale
 70
     0
300
4:1
140
4.0
141
1.0
290
     0
  0
SCALE
  5
56
102
{ACAD_REACTORS
330
47
102
}
330
47
100
AcDbScale
 70
     0
300
8:1
140
8.0
141
1.0
290
     0
  0
SCALE
  5
57
102
{ACAD_REACTORS
330
47
102
}
330
47
100
AcDbScale
 70
     0
300
10:1
140
10.0
141
1.0
290
     0
  0
SCALE
  5
58
102
{ACAD_REACTORS
330
47
102
}
330
47
100
AcDbScale
 70
     0
300
100:1
140
100.0
141
1.0
290
     0
  0
SCALE
  5
59
102
{ACAD_REACTORS
330
47
102
}
330
47
100
AcDbScale
 70
     0
300
1/128" = 1'-0"
140
0.0078125
141
12.0
290
     0
  0
SCALE
  5
5A
102
{ACAD_REACTORS
330
47
102
}
330
47
100
AcDbScale
 70
     0
300
1/64" = 1'-0"
140
0.015625
141
12.0
290
     0
  0
SCALE
  5
5B
102
{ACAD_REACTORS
330
47
102
}
330
47
100
AcDbScale
 70
     0
300
1/32" = 1'-0"
140
0.03125
141
12.0
290
     0
  0
SCALE
  5
5C
102
{ACAD_REACTORS
330
47
102
}
330
47
100
AcDbScale
 70
     0
300
1/16" = 1'-0"
140
0.0625
141
12.0
290
     0
  0
SCALE
  5
5D
102
{ACAD_REACTORS
330
47
102
}
330
47
100
AcDbScale
 70
     0
300
3/32" = 1'-0"
140
0.09375
141
12.0
290
     0
  0
SCALE
  5
5E
102
{ACAD_REACTORS
330
47
102
}
330
47
100
AcDbScale
 70
     0
300
1/8" = 1'-0"
140
0.125
141
12.0
290
     0
  0
SCALE
  5
5F
102
{ACAD_REACTORS
330
47
102
}
330
47
100
AcDbScale
 70
     0
300
3/16" = 1'-0"
140
0.1875
141
12.0
290
     0
  0
SCALE
  5
60
102
{ACAD_REACTORS
330
47
102
}
330
47
100
AcDbScale
 70
     0
300
1/4" = 1'-0"
140
0.25
141
12.0
290
     0
  0
SCALE
  5
61
102
{ACAD_REACTORS
330
47
102
}
330
47
100
AcDbScale
 70
     0
300
3/8" = 1'-0"
140
0.375
141
12.0
290
     0
  0
SCALE
  5
62
102
{ACAD_REACTORS
330
47
102
}
330
47
100
AcDbScale
 70
     0
300
1/2" = 1'-0"
140
0.5
141
12.0
290
     0
  0
SCALE
  5
63
102
{ACAD_REACTORS
330
47
102
}
330
47
100
AcDbScale
 70
     0
300
3/4" = 1'-0"
140
0.75
141
12.0
290
     0
  0
SCALE
  5
64
102
{ACAD_REACTORS
330
47
102
}
330
47
100
AcDbScale
 70
     0
300
1" = 1'-0"
140
1.0
141
12.0
290
     0
  0
SCALE
  5
65
102
{ACAD_REACTORS
330
47
102
}
330
47
100
AcDbScale
 70
     0
300
1-1/2" = 1'-0"
140
1.5
141
12.0
290
     0
  0
SCALE
  5
66
102
{ACAD_REACTORS
330
47
102
}
330
47
100
AcDbScale
 70
     0
300
3" = 1'-0"
140
3.0
141
12.0
290
     0
  0
SCALE
  5
67
102
{ACAD_REACTORS
330
47
102
}
330
47
100
AcDbScale
 70
     0
300
6" = 1'-0"
140
6.0
141
12.0
290
     0
  0
SCALE
  5
68
102
{ACAD_REACTORS
330
47
102
}
330
47
100
AcDbScale
 70
     0
300
1'-0" = 1'-0"
140
12.0
141
12.0
290
     0
  0
TABLESTYLE
  5
6A
102
{ACAD_REACTORS
330
69
102
}
102
{ACAD_XDICTIONARY
360
1CE
102
}
330
69
100
AcDbTableStyle
  3
Standard
 70
     0
 71
     0
 40
0.06
 41
0.06
280
     0
281
     0
  7
Standard
140
0.18
170
     2
 62
     0
 63
   257
283
     0
 90
        4
 91
        0
  1

274
    -2
284
     1
 64
     0
275
    -2
285
     1
 65
     0
276
    -2
286
     1
 66
     0
277
    -2
287
     1
 67
     0
278
    -2
288
     1
 68
     0
279
    -2
289
     1
 69
     0
  7
Standard
140
0.25
170
     5
 62
     0
 63
   257
283
     0
 90
        4
 91
        0
  1

274
    -2
284
     1
 64
     0
275
    -2
285
     1
 65
     0
276
    -2
286
     1
 66
     0
277
    -2
287
     1
 67
     0
278
    -2
288
     1
 68
     0
279
    -2
289
     1
 69
     0
  7
Standard
140
0.18
170
     5
 62
     0
 63
   257
283
     0
 90
        4
 91
        0
  1

274
    -2
284
     1
 64
     0
275
    -2
285
     1
 65
     0
276
    -2
286
     1
 66
     0
277
    -2
287
     1
 67
     0
278
    -2
288
     1
 68
     0
279
    -2
289
     1
 69
     0
  0
VISUALSTYLE
  5
2F
102
{ACAD_REACTORS
330
2A
102
}
330
2A
100
AcDbVisualStyle
  2
2dWireframe
 70
     4
177
     3
291
     0
 70
    58
 90
        0
176
     1
 90
        2
176
     1
 90
        0
176
     1
 90
        0
176
     1
 40
0.6
176
     1
 40
30.0
176
     1
 62
     7
420
 16777215
176
     1
 90
        1
176
     1
 90
        4
176
     1
 62
     7
176
     1
 62
   257
176
     1
 90
        1
176
     1
 90
        1
176
     1
 40
1.0
176
     1
 90
        0
176
     1
 62
   257
176
     1
 40
1.0
176
     1
 90
        1
176
     1
 90
        6
176
     1
 90
        2
176
     1
 62
     7
176
     1
 90
        5
176
     1
 90
        0
176
     1
 90
        0
176
     1
290
     0
176
     1
 90
        1
176
     1
 40
0.0
176
     1
 90
        0
176
     1
290
     1
176
     1
290
     1
176
     1
290
     0
176
     1
290
     0
176
     1
290
     0
176
     1
290
     0
176
     1
290
     0
176
     1
290
     0
176
     1
290
     0
176
     1
 90
       50
176
     1
 40
0.0
176
     1
 40
1.0
176
     1
 90
        0
176
     1
 62
    18
420
        0
176
     1
 90
       50
176
     1
 90
        3
176
     1
 62
     5
420
      255
176
     1
290
     0
176
     1
 90
       50
176
     1
 90
       50
176
     1
 90
       50
176
     1
290
     0
176
     1
 90
       50
176
     1
 62
   256
176
     0
 40
1.0
176
     0
 90
        2
176
     1
  1
strokes_ogs.tif
176
     1
290
     0
176
     1
 40
1.0
176
     1
 40
1.0
176
     1
  0
VISUALSTYLE
  5
32
102
{ACAD_REACTORS
330
2A
102
}
330
2A
100
AcDbVisualStyle
  2
Basic
 70
     7
177
     3
291
     1
 70
    58
 90
        1
176
     1
 90
        0
176
     1
 90
        1
176
     1
 90
        0
176
     1
 40
0.6
176
     1
 40
30.0
176
     1
 62
     7
420
 16777215
176
     1
 90
        0
176
     1
 90
        4
176
     1
 62
     7
176
     1
 62
   257
176
     1
 90
        1
176
     1
 90
        1
176
     1
 40
1.0
176
     1
 90
        8
176
     1
 62
     7
176
     1
 40
1.0
176
     1
 90
        1
176
     1
 90
        6
176
     1
 90
        2
176
     1
 62
     7
176
     1
 90
        5
176
     1
 90
        0
176
     1
 90
        0
176
     1
290
     0
176
     1
 90
        1
176
     1
 40
0.0
176
     1
 90
        0
176
     1
290
     0
176
     1
290
     1
176
     1
290
     1
176
     1
290
     0
176
     1
290
     0
176
     1
290
     0
176
     1
290
     0
176
     1
290
     0
176
     1
290
     0
176
     1
 90
       50
176
     1
 40
0.0
176
     1
 40
1.0
176
     1
 90
        0
176
     1
 62
    18
420
        0
176
     1
 90
       50
176
     1
 90
        3
176
     1
 62
     5
420
      255
176
     1
290
     0
176
     1
 90
       50
176
     1
 90
       50
176
     1
 90
       50
176
     1
290
     0
176
     1
 90
       50
176
     1
 62
   256
176
     0
 40
1.0
176
     0
 90
        2
176
     1
  1
strokes_ogs.tif
176
     1
290
     0
176
     1
 40
1.0
176
     1
 40
1.0
176
     1
  0
VISUALSTYLE
  5
36
102
{ACAD_REACTORS
330
2A
102
}
330
2A
100
AcDbVisualStyle
  2
Brighten
 70
    12
177
     3
291
     1
 70
    58
 90
        2
176
     1
 90
        2
176
     1
 90
        0
176
     1
 90
        0
176
     1
 40
0.6
176
     1
 40
30.0
176
     1
 62
     7
420
 16777215
176
     1
 90
        1
176
     1
 90
        4
176
     1
 62
     7
176
     1
 62
   257
176
     1
 90
        1
176
     1
 90
        1
176
     1
 40
1.0
176
     1
 90
        8
176
     1
 62
     7
176
     1
 40
1.0
176
     1
 90
        1
176
     1
 90
        6
176
     1
 90
        2
176
     1
 62
     7
176
     1
 90
        5
176
     1
 90
        0
176
     1
 90
        0
176
     1
290
     0
176
     1
 90
        1
176
     1
 40
50.0
176
     1
 90
        0
176
     1
290
     0
176
     1
290
     1
176
     1
290
     1
176
     1
290
     0
176
     1
290
     0
176
     1
290
     0
176
     1
290
     0
176
     1
290
     0
176
     1
290
     0
176
     1
 90
       50
176
     1
 40
0.0
176
     1
 40
1.0
176
     1
 90
        0
176
     1
 62
    18
420
        0
176
     1
 90
       50
176
     1
 90
        3
176
     1
 62
     5
420
      255
176
     1
290
     0
176
     1
 90
       50
176
     1
 90
       50
176
     1
 90
       50
176
     1
290
     0
176
     1
 90
       50
176
     1
 62
   256
176
     0
 40
1.0
176
     0
 90
        2
176
     1
  1
strokes_ogs.tif
176
     1
290
     0
176
     1
 40
1.0
176
     1
 40
1.0
176
     1
  0
VISUALSTYLE
  5
3A
102
{ACAD_REACTORS
330
2A
102
}
330
2A
100
AcDbVisualStyle
  2
ColorChange
 70
    16
177
     3
291
     1
 70
    58
 90
        2
176
     1
 90
        2
176
     1
 90
        3
176
     1
 90
        0
176
     1
 40
0.6
176
     1
 40
30.0
176
     1
 62
     8
420
  8421504
176
     1
 90
        1
176
     1
 90
        4
176
     1
 62
     7
176
     1
 62
   257
176
     1
 90
        1
176
     1
 90
        1
176
     1
 40
1.0
176
     1
 90
        8
176
     1
 62
     8
420
  8421504
176
     1
 40
1.0
176
     1
 90
        1
176
     1
 90
        6
176
     1
 90
        2
176
     1
 62
     7
176
     1
 90
        5
176
     1
 90
        0
176
     1
 90
        0
176
     1
290
     0
176
     1
 90
        1
176
     1
 40
0.0
176
     1
 90
        0
176
     1
290
     0
176
     1
290
     1
176
     1
290
     1
176
     1
290
     0
176
     1
290
     0
176
     1
290
     0
176
     1
290
     0
176
     1
290
     0
176
     1
290
     0
176
     1
 90
       50
176
     1
 40
0.0
176
     1
 40
1.0
176
     1
 90
        0
176
     1
 62
    18
420
        0
176
     1
 90
       50
176
     1
 90
        3
176
     1
 62
     5
420
      255
176
     1
290
     0
176
     1
 90
       50
176
     1
 90
       50
176
     1
 90
       50
176
     1
290
     0
176
     1
 90
       50
176
     1
 62
   256
176
     0
 40
1.0
176
     0
 90
        2
176
     1
  1
strokes_ogs.tif
176
     1
290
     0
176
     1
 40
1.0
176
     1
 40
1.0
176
     1
  0
VISUALSTYLE
  5
34
102
{ACAD_REACTORS
330
2A
102
}
330
2A
100
AcDbVisualStyle
  2
Conceptual
 70
     9
177
     3
291
     0
 70
    58
 90
        3
176
     1
 90
        2
176
     1
 90
        0
176
     1
 90
        0
176
     1
 40
0.6
176
     1
 40
30.0
176
     1
 62
     7
420
 16777215
176
     1
 90
        2
176
     1
 90
        2
176
     1
 62
     7
176
     1
 62
   257
176
     1
 90
        1
176
     1
 90
        1
176
     1
 40
179.0
176
     1
 90
        8
176
     1
 62
     7
176
     1
 40
1.0
176
     1
 90
        1
176
     1
 90
        6
176
     1
 90
        2
176
     1
 62
     7
176
     1
 90
        3
176
     1
 90
        0
176
     1
 90
        0
176
     1
290
     0
176
     1
 90
        1
176
     1
 40
0.0
176
     1
 90
        0
176
     1
290
     0
176
     1
290
     1
176
     1
290
     1
176
     1
290
     0
176
     1
290
     0
176
     1
290
     0
176
     1
290
     0
176
     1
290
     0
176
     1
290
     0
176
     1
 90
       50
176
     1
 40
0.0
176
     1
 40
1.0
176
     1
 90
        0
176
     1
 62
    18
420
        0
176
     1
 90
       50
176
     1
 90
        3
176
     1
 62
     5
420
      255
176
     1
290
     0
176
     1
 90
       50
176
     1
 90
       50
176
     1
 90
       50
176
     1
290
     0
176
     1
 90
       50
176
     1
 62
   256
176
     0
 40
1.0
176
     0
 90
        2
176
     1
  1
strokes_ogs.tif
176
     1
290
     0
176
     1
 40
1.0
176
     1
 40
1.0
176
     1
  0
VISUALSTYLE
  5
35
102
{ACAD_REACTORS
330
2A
102
}
330
2A
100
AcDbVisualStyle
  2
Dim
 70
    11
177
     3
291
     1
 70
    58
 90
        2
176
     1
 90
        2
176
     1
 90
        0
176
     1
 90
        0
176
     1
 40
0.6
176
     1
 40
30.0
176
     1
 62
     7
420
 16777215
176
     1
 90
        1
176
     1
 90
        4
176
     1
 62
     7
176
     1
 62
   257
176
     1
 90
        1
176
     1
 90
        1
176
     1
 40
1.0
176
     1
 90
        8
176
     1
 62
     7
176
     1
 40
1.0
176
     1
 90
        1
176
     1
 90
        6
176
     1
 90
        2
176
     1
 62
     7
176
     1
 90
        5
176
     1
 90
        0
176
     1
 90
        0
176
     1
290
     0
176
     1
 90
        1
176
     1
 40
-50.0
176
     1
 90
        0
176
     1
290
     0
176
     1
290
     1
176
     1
290
     1
176
     1
290
     0
176
     1
290
     0
176
     1
290
     0
176
     1
290
     0
176
     1
290
     0
176
     1
290
     0
176
     1
 90
       50
176
     1
 40
0.0
176
     1
 40
1.0
176
     1
 90
        0
176
     1
 62
    18
420
        0
176
     1
 90
       50
176
     1
 90
        3
176
     1
 62
     5
420
      255
176
     1
290
     0
176
     1
 90
       50
176
     1
 90
       50
176
     1
 90
       50
176
     1
290
     0
176
     1
 90
       50
176
     1
 62
   256
176
     0
 40
1.0
176
     0
 90
        2
176
     1
  1
strokes_ogs.tif
176
     1
290
     0
176
     1
 40
1.0
176
     1
 40
1.0
176
     1
  0
VISUALSTYLE
  5
3D
102
{ACAD_REACTORS
330
2A
102
}
330
2A
100
AcDbVisualStyle
  2
EdgeColorOff
 70
    22
177
     3
291
     1
 70
    58
 90
        2
176
     0
 90
        2
176
     0
 90
        0
176
     0
 90
        0
176
     0
 40
0.6
176
     0
 40
30.0
176
     0
 62
     7
420
 16777215
176
     0
 90
        1
176
     0
 90
        4
176
     0
 62
     7
176
     0
 62
   257
176
     0
 90
        1
176
     0
 90
        1
176
     0
 40
1.0
176
     0
 90
        8
176
     2
 62
     7
176
     0
 40
1.0
176
     0
 90
        1
176
     0
 90
        6
176
     0
 90
        2
176
     0
 62
     7
176
     0
 90
        5
176
     0
 90
        0
176
     0
 90
        0
176
     0
290
     0
176
     0
 90
        1
176
     0
 40
0.0
176
     0
 90
        0
176
     0
290
     0
176
     0
290
     1
176
     0
290
     1
176
     0
290
     0
176
     0
290
     0
176
     0
290
     0
176
     0
290
     0
176
     0
290
     0
176
     0
290
     0
176
     0
 90
       50
176
     0
 40
0.0
176
     0
 40
1.0
176
     0
 90
        0
176
     0
 62
    18
420
        0
176
     0
 90
       50
176
     0
 90
        3
176
     0
 62
     5
420
      255
176
     0
290
     0
176
     0
 90
       50
176
     0
 90
       50
176
     0
 90
       50
176
     0
290
     0
176
     0
 90
       50
176
     0
 62
   256
176
     0
 40
1.0
176
     0
 90
        2
176
     0
  1
strokes_ogs.tif
176
     0
290
     0
176
     0
 40
1.0
176
     0
 40
1.0
176
     0
  0
VISUALSTYLE
  5
39
102
{ACAD_REACTORS
330
2A
102
}
330
2A
100
AcDbVisualStyle
  2
Facepattern
 70
    15
177
     3
291
     1
 70
    58
 90
        2
176
     1
 90
        2
176
     1
 90
        0
176
     1
 90
        0
176
     1
 40
0.6
176
     1
 40
30.0
176
     1
 62
     7
420
 16777215
176
     1
 90
        1
176
     1
 90
        4
176
     1
 62
     7
176
     1
 62
   257
176
     1
 90
        1
176
     1
 90
        1
176
     1
 40
1.0
176
     1
 90
        8
176
     1
 62
     7
176
     1
 40
1.0
176
     1
 90
        1
176
     1
 90
        6
176
     1
 90
        2
176
     1
 62
     7
176
     1
 90
        5
176
     1
 90
        0
176
     1
 90
        0
176
     1
290
     0
176
     1
 90
        1
176
     1
 40
0.0
176
     1
 90
        0
176
     1
290
     0
176
     1
290
     1
176
     1
290
     1
176
     1
290
     0
176
     1
290
     0
176
     1
290
     0
176
     1
290
     0
176
     1
290
     0
176
     1
290
     0
176
     1
 90
       50
176
     1
 40
0.0
176
     1
 40
1.0
176
     1
 90
        0
176
     1
 62
    18
420
        0
176
     1
 90
       50
176
     1
 90
        3
176
     1
 62
     5
420
      255
176
     1
290
     0
176
     1
 90
       50
176
     1
 90
       50
176
     1
 90
       50
176
     1
290
     0
176
     1
 90
       50
176
     1
 62
   256
176
     0
 40
1.0
176
     0
 90
        2
176
     1
  1
strokes_ogs.tif
176
     1
290
     0
176
     1
 40
1.0
176
     1
 40
1.0
176
     1
  0
VISUALSTYLE
  5
2B
102
{ACAD_REACTORS
330
2A
102
}
330
2A
100
AcDbVisualStyle
  2
Flat
 70
     0
177
     3
291
     1
 70
    58
 90
        2
176
     1
 90
        1
176
     1
 90
        1
176
     1
 90
        2
176
     1
 40
0.6
176
     1
 40
30.0
176
     1
 62
     7
420
 16777215
176
     1
 90
        0
176
     1
 90
        0
176
     1
 62
     7
176
     1
 62
   257
176
     1
 90
        1
176
     1
 90
        1
176
     1
 40
1.0
176
     1
 90
        8
176
     1
 62
     7
176
     1
 40
1.0
176
     1
 90
        1
176
     1
 90
        6
176
     1
 90
        2
176
     1
 62
     7
176
     1
 90
        5
176
     1
 90
        0
176
     1
 90
        0
176
     1
290
     0
176
     1
 90
       13
176
     1
 40
0.0
176
     1
 90
        0
176
     1
290
     0
176
     1
290
     1
176
     1
290
     1
176
     1
290
     0
176
     1
290
     0
176
     1
290
     0
176
     1
290
     0
176
     1
290
     0
176
     1
290
     0
176
     1
 90
       50
176
     1
 40
0.0
176
     1
 40
1.0
176
     1
 90
        0
176
     1
 62
    18
420
        0
176
     1
 90
       50
176
     1
 90
        3
176
     1
 62
     5
420
      255
176
     1
290
     0
176
     1
 90
       50
176
     1
 90
       50
176
     1
 90
       50
176
     1
290
     0
176
     1
 90
       50
176
     1
 62
   256
176
     0
 40
1.0
176
     0
 90
        2
176
     1
  1
strokes_ogs.tif
176
     1
290
     0
176
     1
 40
1.0
176
     1
 40
1.0
176
     1
  0
VISUALSTYLE
  5
2C
102
{ACAD_REACTORS
330
2A
102
}
330
2A
100
AcDbVisualStyle
  2
FlatWithEdges
 70
     1
177
     3
291
     1
 70
    58
 90
        2
176
     1
 90
        1
176
     1
 90
        1
176
     1
 90
        2
176
     1
 40
0.6
176
     1
 40
30.0
176
     1
 62
     7
420
 16777215
176
     1
 90
        1
176
     1
 90
        0
176
     1
 62
     7
176
     1
 62
   257
176
     1
 90
        1
176
     1
 90
        1
176
     1
 40
1.0
176
     1
 90
        0
176
     1
 62
   257
176
     1
 40
1.0
176
     1
 90
        1
176
     1
 90
        6
176
     1
 90
        2
176
     1
 62
     7
176
     1
 90
        5
176
     1
 90
        0
176
     1
 90
        0
176
     1
290
     0
176
     1
 90
       13
176
     1
 40
0.0
176
     1
 90
        0
176
     1
290
     0
176
     1
290
     1
176
     1
290
     1
176
     1
290
     0
176
     1
290
     0
176
     1
290
     0
176
     1
290
     0
176
     1
290
     0
176
     1
290
     0
176
     1
 90
       50
176
     1
 40
0.0
176
     1
 40
1.0
176
     1
 90
        0
176
     1
 62
    18
420
        0
176
     1
 90
       50
176
     1
 90
        3
176
     1
 62
     5
420
      255
176
     1
290
     0
176
     1
 90
       50
176
     1
 90
       50
176
     1
 90
       50
176
     1
290
     0
176
     1
 90
       50
176
     1
 62
   256
176
     0
 40
1.0
176
     0
 90
        2
176
     1
  1
strokes_ogs.tif
176
     1
290
     0
176
     1
 40
1.0
176
     1
 40
1.0
176
     1
  0
VISUALSTYLE
  5
2D
102
{ACAD_REACTORS
330
2A
102
}
330
2A
100
AcDbVisualStyle
  2
Gouraud
 70
     2
177
     3
291
     1
 70
    58
 90
        2
176
     1
 90
        2
176
     1
 90
        1
176
     1
 90
        2
176
     1
 40
0.6
176
     1
 40
30.0
176
     1
 62
     7
420
 16777215
176
     1
 90
        0
176
     1
 90
        0
176
     1
 62
     7
176
     1
 62
   257
176
     1
 90
        1
176
     1
 90
        1
176
     1
 40
1.0
176
     1
 90
        0
176
     1
 62
     7
176
     1
 40
1.0
176
     1
 90
        1
176
     1
 90
        6
176
     1
 90
        2
176
     1
 62
     7
176
     1
 90
        5
176
     1
 90
        0
176
     1
 90
        0
176
     1
290
     0
176
     1
 90
       13
176
     1
 40
0.0
176
     1
 90
        0
176
     1
290
     0
176
     1
290
     1
176
     1
290
     1
176
     1
290
     0
176
     1
290
     0
176
     1
290
     0
176
     1
290
     0
176
     1
290
     0
176
     1
290
     0
176
     1
 90
       50
176
     1
 40
0.0
176
     1
 40
1.0
176
     1
 90
        0
176
     1
 62
    18
420
        0
176
     1
 90
       50
176
     1
 90
        3
176
     1
 62
     5
420
      255
176
     1
290
     0
176
     1
 90
       50
176
     1
 90
       50
176
     1
 90
       50
176
     1
290
     0
176
     1
 90
       50
176
     1
 62
   256
176
     0
 40
1.0
176
     0
 90
        2
176
     1
  1
strokes_ogs.tif
176
     1
290
     0
176
     1
 40
1.0
176
     1
 40
1.0
176
     1
  0
VISUALSTYLE
  5
2E
102
{ACAD_REACTORS
330
2A
102
}
330
2A
100
AcDbVisualStyle
  2
GouraudWithEdges
 70
     3
177
     3
291
     1
 70
    58
 90
        2
176
     1
 90
        2
176
     1
 90
        1
176
     1
 90
        2
176
     1
 40
0.6
176
     1
 40
30.0
176
     1
 62
     7
420
 16777215
176
     1
 90
        1
176
     1
 90
        0
176
     1
 62
     7
176
     1
 62
   257
176
     1
 90
        1
176
     1
 90
        1
176
     1
 40
1.0
176
     1
 90
        0
176
     1
 62
   257
176
     1
 40
1.0
176
     1
 90
        1
176
     1
 90
        6
176
     1
 90
        2
176
     1
 62
     7
176
     1
 90
        5
176
     1
 90
        0
176
     1
 90
        0
176
     1
290
     0
176
     1
 90
       13
176
     1
 40
0.0
176
     1
 90
        0
176
     1
290
     0
176
     1
290
     1
176
     1
290
     1
176
     1
290
     0
176
     1
290
     0
176
     1
290
     0
176
     1
290
     0
176
     1
290
     0
176
     1
290
     0
176
     1
 90
       50
176
     1
 40
0.0
176
     1
 40
1.0
176
     1
 90
        0
176
     1
 62
    18
420
        0
176
     1
 90
       50
176
     1
 90
        3
176
     1
 62
     5
420
      255
176
     1
290
     0
176
     1
 90
       50
176
     1
 90
       50
176
     1
 90
       50
176
     1
290
     0
176
     1
 90
       50
176
     1
 62
   256
176
     0
 40
1.0
176
     0
 90
        2
176
     1
  1
strokes_ogs.tif
176
     1
290
     0
176
     1
 40
1.0
176
     1
 40
1.0
176
     1
  0
VISUALSTYLE
  5
31
102
{ACAD_REACTORS
330
2A
102
}
330
2A
100
AcDbVisualStyle
  2
Hidden
 70
     6
177
     3
291
     0
 70
    58
 90
        1
176
     1
 90
        2
176
     1
 90
        2
176
     1
 90
        0
176
     1
 40
0.6
176
     1
 40
30.0
176
     1
 62
     7
420
 16777215
176
     1
 90
        2
176
     1
 90
        2
176
     1
 62
     7
176
     1
 62
   257
176
     1
 90
        2
176
     1
 90
        1
176
     1
 40
40.0
176
     1
 90
        0
176
     1
 62
   257
176
     1
 40
1.0
176
     1
 90
        1
176
     1
 90
        6
176
     1
 90
        2
176
     1
 62
     7
176
     1
 90
        3
176
     1
 90
        0
176
     1
 90
        0
176
     1
290
     0
176
     1
 90
        1
176
     1
 40
0.0
176
     1
 90
        0
176
     1
290
     0
176
     1
290
     1
176
     1
290
     1
176
     1
290
     0
176
     1
290
     0
176
     1
290
     0
176
     1
290
     0
176
     1
290
     0
176
     1
290
     0
176
     1
 90
       50
176
     1
 40
0.0
176
     1
 40
1.0
176
     1
 90
        0
176
     1
 62
    18
420
        0
176
     1
 90
       50
176
     1
 90
        3
176
     1
 62
     5
420
      255
176
     1
290
     0
176
     1
 90
       50
176
     1
 90
       50
176
     1
 90
       50
176
     1
290
     0
176
     1
 90
       50
176
     1
 62
   256
176
     0
 40
1.0
176
     0
 90
        2
176
     1
  1
strokes_ogs.tif
176
     1
290
     0
176
     1
 40
1.0
176
     1
 40
1.0
176
     1
  0
VISUALSTYLE
  5
3B
102
{ACAD_REACTORS
330
2A
102
}
330
2A
100
AcDbVisualStyle
  2
JitterOff
 70
    20
177
     3
291
     1
 70
    58
 90
        2
176
     0
 90
        2
176
     0
 90
        0
176
     0
 90
        0
176
     0
 40
0.6
176
     0
 40
30.0
176
     0
 62
     7
420
 16777215
176
     0
 90
        1
176
     0
 90
        4
176
     0
 62
     7
176
     0
 62
   257
176
     0
 90
        1
176
     0
 90
        1
176
     0
 40
1.0
176
     0
 90
       10
176
     2
 62
     7
176
     0
 40
1.0
176
     0
 90
        1
176
     0
 90
        6
176
     0
 90
        2
176
     0
 62
     7
176
     0
 90
        5
176
     0
 90
        0
176
     0
 90
        0
176
     0
290
     0
176
     0
 90
        1
176
     0
 40
0.0
176
     0
 90
        0
176
     0
290
     0
176
     0
290
     1
176
     0
290
     1
176
     0
290
     0
176
     0
290
     0
176
     0
290
     0
176
     0
290
     0
176
     0
290
     0
176
     0
290
     0
176
     0
 90
       50
176
     0
 40
0.0
176
     0
 40
1.0
176
     0
 90
        0
176
     0
 62
    18
420
        0
176
     0
 90
       50
176
     0
 90
        3
176
     0
 62
     5
420
      255
176
     0
290
     0
176
     0
 90
       50
176
     0
 90
       50
176
     0
 90
       50
176
     0
290
     0
176
     0
 90
       50
176
     0
 62
   256
176
     0
 40
1.0
176
     0
 90
        2
176
     0
  1
strokes_ogs.tif
176
     0
290
     0
176
     0
 40
1.0
176
     0
 40
1.0
176
     0
  0
VISUALSTYLE
  5
38
102
{ACAD_REACTORS
330
2A
102
}
330
2A
100
AcDbVisualStyle
  2
Linepattern
 70
    14
177
     3
291
     1
 70
    58
 90
        2
176
     1
 90
        2
176
     1
 90
        0
176
     1
 90
        0
176
     1
 40
0.6
176
     1
 40
30.0
176
     1
 62
     7
420
 16777215
176
     1
 90
        1
176
     1
 90
        4
176
     1
 62
     7
176
     1
 62
   257
176
     1
 90
        7
176
     1
 90
        7
176
     1
 40
1.0
176
     1
 90
        8
176
     1
 62
     7
176
     1
 40
1.0
176
     1
 90
        1
176
     1
 90
        6
176
     1
 90
        2
176
     1
 62
     7
176
     1
 90
        5
176
     1
 90
        0
176
     1
 90
        0
176
     1
290
     0
176
     1
 90
        1
176
     1
 40
0.0
176
     1
 90
        0
176
     1
290
     0
176
     1
290
     1
176
     1
290
     1
176
     1
290
     0
176
     1
290
     0
176
     1
290
     0
176
     1
290
     0
176
     1
290
     0
176
     1
290
     0
176
     1
 90
       50
176
     1
 40
0.0
176
     1
 40
1.0
176
     1
 90
        0
176
     1
 62
    18
420
        0
176
     1
 90
       50
176
     1
 90
        3
176
     1
 62
     5
420
      255
176
     1
290
     0
176
     1
 90
       50
176
     1
 90
       50
176
     1
 90
       50
176
     1
290
     0
176
     1
 90
       50
176
     1
 62
   256
176
     0
 40
1.0
176
     0
 90
        2
176
     1
  1
strokes_ogs.tif
176
     1
290
     0
176
     1
 40
1.0
176
     1
 40
1.0
176
     1
  0
VISUALSTYLE
  5
3C
102
{ACAD_REACTORS
330
2A
102
}
330
2A
100
AcDbVisualStyle
  2
OverhangOff
 70
    21
177
     3
291
     1
 70
    58
 90
        2
176
     0
 90
        2
176
     0
 90
        0
176
     0
 90
        0
176
     0
 40
0.6
176
     0
 40
30.0
176
     0
 62
     7
420
 16777215
176
     0
 90
        1
176
     0
 90
        4
176
     0
 62
     7
176
     0
 62
   257
176
     0
 90
        1
176
     0
 90
        1
176
     0
 40
1.0
176
     0
 90
        9
176
     2
 62
     7
176
     0
 40
1.0
176
     0
 90
        1
176
     0
 90
        6
176
     0
 90
        2
176
     0
 62
     7
176
     0
 90
        5
176
     0
 90
        0
176
     0
 90
        0
176
     0
290
     0
176
     0
 90
        1
176
     0
 40
0.0
176
     0
 90
        0
176
     0
290
     0
176
     0
290
     1
176
     0
290
     1
176
     0
290
     0
176
     0
290
     0
176
     0
290
     0
176
     0
290
     0
176
     0
290
     0
176
     0
290
     0
176
     0
 90
       50
176
     0
 40
0.0
176
     0
 40
1.0
176
     0
 90
        0
176
     0
 62
    18
420
        0
176
     0
 90
       50
176
     0
 90
        3
176
     0
 62
     5
420
      255
176
     0
290
     0
176
     0
 90
       50
176
     0
 90
       50
176
     0
 90
       50
176
     0
290
     0
176
     0
 90
       50
176
     0
 62
   256
176
     0
 40
1.0
176
     0
 90
        2
176
     0
  1
strokes_ogs.tif
176
     0
290
     0
176
     0
 40
1.0
176
     0
 40
1.0
176
     0
  0
VISUALSTYLE
  5
33
102
{ACAD_REACTORS
330
2A
102
}
330
2A
100
AcDbVisualStyle
  2
Realistic
 70
     8
177
     3
291
     0
 70
    58
 90
        2
176
     1
 90
        3
176
     1
 90
        0
176
     1
 90
        2
176
     1
 40
0.6
176
     1
 40
30.0
176
     1
 62
     7
420
 16777215
176
     1
 90
        0
176
     1
 90
        0
176
     1
 62
     7
176
     1
 62
   257
176
     1
 90
        1
176
     1
 90
        1
176
     1
 40
1.0
176
     1
 90
        8
176
     1
 62
   257
176
     1
 40
1.0
176
     1
 90
        1
176
     1
 90
        6
176
     1
 90
        2
176
     1
 62
     7
176
     1
 90
        3
176
     1
 90
        0
176
     1
 90
        0
176
     1
290
     0
176
     1
 90
       13
176
     1
 40
0.0
176
     1
 90
        0
176
     1
290
     0
176
     1
290
     1
176
     1
290
     1
176
     1
290
     0
176
     1
290
     0
176
     1
290
     0
176
     1
290
     0
176
     1
290
     0
176
     1
290
     0
176
     1
 90
       50
176
     1
 40
0.0
176
     1
 40
1.0
176
     1
 90
        0
176
     1
 62
    18
420
        0
176
     1
 90
       50
176
     1
 90
        3
176
     1
 62
     5
420
      255
176
     1
290
     0
176
     1
 90
       50
176
     1
 90
       50
176
     1
 90
       50
176
     1
290
     0
176
     1
 90
       50
176
     1
 62
   256
176
     0
 40
1.0
176
     0
 90
        2
176
     1
  1
strokes_ogs.tif
176
     1
290
     0
176
     1
 40
1.0
176
     1
 40
1.0
176
     1
  0
VISUALSTYLE
  5
42
102
{ACAD_REACTORS
330
2A
102
}
330
2A
100
AcDbVisualStyle
  2
Shaded
 70
    27
177
     3
291
     0
 70
    58
 90
        2
176
     1
 90
        2
176
     1
 90
        1
176
     1
 90
        2
176
     1
 40
0.6
176
     1
 40
30.0
176
     1
 62
     7
420
 16777215
176
     1
 90
        0
176
     1
 90
        4
176
     1
 62
     7
176
     1
 62
   257
176
     1
 90
        1
176
     1
 90
        1
176
     1
 40
1.0
176
     1
 90
        8
176
     1
 62
   257
176
     1
 40
1.0
176
     1
 90
        1
176
     1
 90
        6
176
     1
 90
        2
176
     1
 62
     8
420
  7895160
176
     1
 90
        3
176
     1
 90
        0
176
     1
 90
        0
176
     1
290
     0
176
     1
 90
        5
176
     1
 40
0.0
176
     1
 90
        0
176
     1
290
     0
176
     1
290
     1
176
     1
290
     1
176
     1
290
     0
176
     1
290
     0
176
     1
290
     0
176
     1
290
     0
176
     1
290
     0
176
     1
290
     0
176
     1
 90
       50
176
     1
 40
0.0
176
     1
 40
1.0
176
     1
 90
        0
176
     1
 62
    18
420
        0
176
     1
 90
       50
176
     1
 90
        3
176
     1
 62
     5
420
      255
176
     1
290
     0
176
     1
 90
       50
176
     1
 90
       50
176
     1
 90
       50
176
     1
290
     0
176
     1
 90
       50
176
     1
 62
   256
176
     0
 40
1.0
176
     0
 90
        2
176
     1
  1
strokes_ogs.tif
176
     1
290
     0
176
     1
 40
1.0
176
     1
 40
1.0
176
     1
  0
VISUALSTYLE
  5
41
102
{ACAD_REACTORS
330
2A
102
}
330
2A
100
AcDbVisualStyle
  2
Shaded with edges
 70
    26
177
     3
291
     0
 70
    58
 90
        2
176
     1
 90
        2
176
     1
 90
        1
176
     1
 90
        2
176
     1
 40
0.6
176
     1
 40
30.0
176
     1
 62
     7
420
 16777215
176
     1
 90
        1
176
     1
 90
       10
176
     1
 62
     7
176
     1
 62
   257
176
     1
 90
        2
176
     1
 90
        1
176
     1
 40
1.0
176
     1
 90
        8
176
     1
 62
   257
176
     1
 40
1.0
176
     1
 90
        1
176
     1
 90
        6
176
     1
 90
        2
176
     1
 62
     7
176
     1
 90
        3
176
     1
 90
        0
176
     1
 90
        0
176
     1
290
     0
176
     1
 90
        5
176
     1
 40
0.0
176
     1
 90
        0
176
     1
290
     0
176
     1
290
     1
176
     1
290
     1
176
     1
290
     0
176
     1
290
     0
176
     1
290
     0
176
     1
290
     0
176
     1
290
     0
176
     1
290
     0
176
     1
 90
       50
176
     1
 40
0.0
176
     1
 40
1.0
176
     1
 90
        0
176
     1
 62
    18
420
        0
176
     1
 90
       50
176
     1
 90
        3
176
     1
 62
     5
420
      255
176
     1
290
     0
176
     1
 90
       50
176
     1
 90
       50
176
     1
 90
       50
176
     1
290
     0
176
     1
 90
       50
176
     1
 62
   256
176
     0
 40
1.0
176
     0
 90
        2
176
     1
  1
strokes_ogs.tif
176
     1
290
     0
176
     1
 40
1.0
176
     1
 40
1.0
176
     1
  0
VISUALSTYLE
  5
3E
102
{ACAD_REACTORS
330
2A
102
}
330
2A
100
AcDbVisualStyle
  2
Shades of Gray
 70
    23
177
     3
291
     0
 70
    58
 90
        2
176
     1
 90
        2
176
     1
 90
        3
176
     1
 90
        0
176
     1
 40
0.6
176
     1
 40
30.0
176
     1
 62
     7
420
 16777215
176
     1
 90
        2
176
     1
 90
        2
176
     1
 62
     7
176
     1
 62
     7
176
     1
 90
        1
176
     1
 90
        1
176
     1
 40
40.0
176
     1
 90
        8
176
     1
 62
     7
176
     1
 40
1.0
176
     1
 90
        1
176
     1
 90
        6
176
     1
 90
        2
176
     1
 62
     7
176
     1
 90
        3
176
     1
 90
        0
176
     1
 90
        0
176
     1
290
     0
176
     1
 90
        1
176
     1
 40
0.0
176
     1
 90
        0
176
     1
290
     0
176
     1
290
     1
176
     1
290
     1
176
     1
290
     0
176
     1
290
     0
176
     1
290
     0
176
     1
290
     0
176
     1
290
     0
176
     1
290
     0
176
     1
 90
       50
176
     1
 40
0.0
176
     1
 40
1.0
176
     1
 90
        0
176
     1
 62
    18
420
        0
176
     1
 90
       50
176
     1
 90
        3
176
     1
 62
     5
420
      255
176
     1
290
     0
176
     1
 90
       50
176
     1
 90
       50
176
     1
 90
       50
176
     1
290
     0
176
     1
 90
       50
176
     1
 62
   256
176
     0
 40
1.0
176
     0
 90
        2
176
     1
  1
strokes_ogs.tif
176
     1
290
     0
176
     1
 40
1.0
176
     1
 40
1.0
176
     1
  0
VISUALSTYLE
  5
3F
102
{ACAD_REACTORS
330
2A
102
}
330
2A
100
AcDbVisualStyle
  2
Sketchy
 70
    24
177
     3
291
     0
 70
    58
 90
        1
176
     1
 90
        2
176
     1
 90
        2
176
     1
 90
        0
176
     1
 40
0.6
176
     1
 40
30.0
176
     1
 62
     7
420
 16777215
176
     1
 90
        2
176
     1
 90
        2
176
     1
 62
     7
176
     1
 62
     7
176
     1
 90
        1
176
     1
 90
        1
176
     1
 40
40.0
176
     1
 90
       11
176
     1
 62
     7
176
     1
 40
1.0
176
     1
 90
        1
176
     1
 90
        6
176
     1
 90
        2
176
     1
 62
     7
176
     1
 90
        6
176
     1
 90
        0
176
     1
 90
        0
176
     1
290
     0
176
     1
 90
        1
176
     1
 40
0.0
176
     1
 90
        0
176
     1
290
     0
176
     1
290
     1
176
     1
290
     1
176
     1
290
     0
176
     1
290
     0
176
     1
290
     0
176
     1
290
     0
176
     1
290
     0
176
     1
290
     0
176
     1
 90
       50
176
     1
 40
0.0
176
     1
 40
1.0
176
     1
 90
        0
176
     1
 62
    18
420
        0
176
     1
 90
       50
176
     1
 90
        3
176
     1
 62
     5
420
      255
176
     1
290
     0
176
     1
 90
       50
176
     1
 90
       50
176
     1
 90
       50
176
     1
290
     0
176
     1
 90
       50
176
     1
 62
   256
176
     0
 40
1.0
176
     0
 90
        2
176
     1
  1
strokes_ogs.tif
176
     1
290
     0
176
     1
 40
1.0
176
     1
 40
1.0
176
     1
  0
VISUALSTYLE
  5
37
102
{ACAD_REACTORS
330
2A
102
}
330
2A
100
AcDbVisualStyle
  2
Thicken
 70
    13
177
     3
291
     1
 70
    58
 90
        2
176
     1
 90
        2
176
     1
 90
        0
176
     1
 90
        0
176
     1
 40
0.6
176
     1
 40
30.0
176
     1
 62
     7
420
 16777215
176
     1
 90
        1
176
     1
 90
        4
176
     1
 62
     7
176
     1
 62
   257
176
     1
 90
        1
176
     1
 90
        1
176
     1
 40
1.0
176
     1
 90
       12
176
     1
 62
     7
176
     1
 40
1.0
176
     1
 90
        1
176
     1
 90
        6
176
     1
 90
        2
176
     1
 62
     7
176
     1
 90
        5
176
     1
 90
        0
176
     1
 90
        0
176
     1
290
     0
176
     1
 90
        1
176
     1
 40
0.0
176
     1
 90
        0
176
     1
290
     0
176
     1
290
     1
176
     1
290
     1
176
     1
290
     0
176
     1
290
     0
176
     1
290
     0
176
     1
290
     0
176
     1
290
     0
176
     1
290
     0
176
     1
 90
       50
176
     1
 40
0.0
176
     1
 40
1.0
176
     1
 90
        0
176
     1
 62
    18
420
        0
176
     1
 90
       50
176
     1
 90
        3
176
     1
 62
     5
420
      255
176
     1
290
     0
176
     1
 90
       50
176
     1
 90
       50
176
     1
 90
       50
176
     1
290
     0
176
     1
 90
       50
176
     1
 62
   256
176
     0
 40
1.0
176
     0
 90
        2
176
     1
  1
strokes_ogs.tif
176
     1
290
     0
176
     1
 40
1.0
176
     1
 40
1.0
176
     1
  0
VISUALSTYLE
  5
30
102
{ACAD_REACTORS
330
2A
102
}
330
2A
100
AcDbVisualStyle
  2
Wireframe
 70
     5
177
     3
291
     0
 70
    58
 90
        0
176
     1
 90
        2
176
     1
 90
        0
176
     1
 90
        0
176
     1
 40
0.6
176
     1
 40
30.0
176
     1
 62
     7
420
 16777215
176
     1
 90
        1
176
     1
 90
        4
176
     1
 62
     7
176
     1
 62
   257
176
     1
 90
        1
176
     1
 90
        1
176
     1
 40
1.0
176
     1
 90
        0
176
     1
 62
   257
176
     1
 40
1.0
176
     1
 90
        1
176
     1
 90
        6
176
     1
 90
        2
176
     1
 62
     7
176
     1
 90
        3
176
     1
 90
        0
176
     1
 90
        0
176
     1
290
     0
176
     1
 90
        1
176
     1
 40
0.0
176
     1
 90
        0
176
     1
290
     0
176
     1
290
     1
176
     1
290
     1
176
     1
290
     0
176
     1
290
     0
176
     1
290
     0
176
     1
290
     0
176
     1
290
     0
176
     1
290
     0
176
     1
 90
       50
176
     1
 40
0.0
176
     1
 40
1.0
176
     1
 90
        0
176
     1
 62
    18
420
        0
176
     1
 90
       50
176
     1
 90
        3
176
     1
 62
     5
420
      255
176
     1
290
     0
176
     1
 90
       50
176
     1
 90
       50
176
     1
 90
       50
176
     1
290
     0
176
     1
 90
       50
176
     1
 62
   256
176
     0
 40
1.0
176
     0
 90
        2
176
     1
  1
strokes_ogs.tif
176
     1
290
     0
176
     1
 40
1.0
176
     1
 40
1.0
176
     1
  0
VISUALSTYLE
  5
40
102
{ACAD_REACTORS
330
2A
102
}
330
2A
100
AcDbVisualStyle
  2
X-Ray
 70
    25
177
     3
291
     0
 70
    58
 90
        2
176
     1
 90
        2
176
     1
 90
        1
176
     1
 90
        1
176
     1
 40
0.5
176
     1
 40
30.0
176
     1
 62
     7
420
 16777215
176
     1
 90
        1
176
     1
 90
        0
176
     1
 62
     7
176
     1
 62
   257
176
     1
 90
        1
176
     1
 90
        1
176
     1
 40
1.0
176
     1
 90
        8
176
     1
 62
     7
176
     1
 40
1.0
176
     1
 90
        1
176
     1
 90
        6
176
     1
 90
        2
176
     1
 62
     7
176
     1
 90
        3
176
     1
 90
        0
176
     1
 90
        0
176
     1
290
     0
176
     1
 90
       13
176
     1
 40
0.0
176
     1
 90
        0
176
     1
290
     0
176
     1
290
     1
176
     1
290
     1
176
     1
290
     0
176
     1
290
     0
176
     1
290
     0
176
     1
290
     0
176
     1
290
     0
176
     1
290
     0
176
     1
 90
       50
176
     1
 40
0.0
176
     1
 40
1.0
176
     1
 90
        0
176
     1
 62
    18
420
        0
176
     1
 90
       50
176
     1
 90
        3
176
     1
 62
     5
420
      255
176
     1
290
     0
176
     1
 90
       50
176
     1
 90
       50
176
     1
 90
       50
176
     1
290
     0
176
     1
 90
       50
176
     1
 62
   256
176
     0
 40
1.0
176
     0
 90
        2
176
     1
  1
strokes_ogs.tif
176
     1
290
     0
176
     1
 40
1.0
176
     1
 40
1.0
176
     1
  0
DICTIONARYVAR
  5
1CD
102
{ACAD_REACTORS
330
1CC
102
}
330
1CC
100
DictionaryVariables
280
     0
  1
1:1
  0
DICTIONARYVAR
  5
1D2
102
{ACAD_REACTORS
330
1CC
102
}
330
1CC
100
DictionaryVariables
280
     0
  1
Standard
  0
DICTIONARYVAR
  5
1D1
102
{ACAD_REACTORS
330
1CC
102
}
330
1CC
100
DictionaryVariables
280
     0
  1
Standard
  0
DICTIONARY
  5
1CE
330
6A
100
AcDbDictionary
280
     1
281
     1
  3
ACAD_ROUNDTRIP_2008_TABLESTYLE_CELLSTYLEMAP
360
1CF
  0
CELLSTYLEMAP
  5
1CF
102
{ACAD_REACTORS
330
1CE
102
}
330
1CE
100
AcDbCellStyleMap
 90
        3
300
CELLSTYLE
  1
TABLEFORMAT_BEGIN
 90
        5
170
     1
 91
        0
 92
    32768
 62
   257
 93
        1
300
CONTENTFORMAT
  1
CONTENTFORMAT_BEGIN
 90
        0
 91
        0
 92
        4
 93
        0
300

 40
0.0
140
1.0
 94
        5
 62
     0
340
11
144
0.25
309
CONTENTFORMAT_END
171
     1
301
MARGIN
  1
CELLMARGIN_BEGIN
 40
0.06
 40
0.06
 40
0.06
 40
0.06
 40
0.06
 40
0.06
309
CELLMARGIN_END
 94
        6
 95
        1
302
GRIDFORMAT
  1
GRIDFORMAT_BEGIN
 90
        0
 91
        1
 62
     0
 92
       -2
340
14
 93
        0
 40
0.045
309
GRIDFORMAT_END
 95
        2
302
GRIDFORMAT
  1
GRIDFORMAT_BEGIN
 90
        0
 91
        1
 62
     0
 92
       -2
340
14
 93
        0
 40
0.045
309
GRIDFORMAT_END
 95
        4
302
GRIDFORMAT
  1
GRIDFORMAT_BEGIN
 90
        0
 91
        1
 62
     0
 92
       -2
340
14
 93
        0
 40
0.045
309
GRIDFORMAT_END
 95
        8
302
GRIDFORMAT
  1
GRIDFORMAT_BEGIN
 90
        0
 91
        1
 62
     0
 92
       -2
340
14
 93
        0
 40
0.045
309
GRIDFORMAT_END
 95
       16
302
GRIDFORMAT
  1
GRIDFORMAT_BEGIN
 90
        0
 91
        1
 62
     0
 92
       -2
340
14
 93
        0
 40
0.045
309
GRIDFORMAT_END
 95
       32
302
GRIDFORMAT
  1
GRIDFORMAT_BEGIN
 90
        0
 91
        1
 62
     0
 92
       -2
340
14
 93
        0
 40
0.045
309
GRIDFORMAT_END
309
TABLEFORMAT_END
  1
CELLSTYLE_BEGIN
 90
        1
 91
        1
300
_TITLE
309
CELLSTYLE_END
300
CELLSTYLE
  1
TABLEFORMAT_BEGIN
 90
        5
170
     1
 91
        0
 92
        0
 62
   257
 93
        1
300
CONTENTFORMAT
  1
CONTENTFORMAT_BEGIN
 90
        0
 91
        0
 92
        4
 93
        0
300

 40
0.0
140
1.0
 94
        5
 62
     0
340
11
144
0.18
309
CONTENTFORMAT_END
171
     1
301
MARGIN
  1
CELLMARGIN_BEGIN
 40
0.06
 40
0.06
 40
0.06
 40
0.06
 40
0.06
 40
0.06
309
CELLMARGIN_END
 94
        6
 95
        1
302
GRIDFORMAT
  1
GRIDFORMAT_BEGIN
 90
        0
 91
        1
 62
     0
 92
       -2
340
14
 93
        0
 40
0.045
309
GRIDFORMAT_END
 95
        2
302
GRIDFORMAT
  1
GRIDFORMAT_BEGIN
 90
        0
 91
        1
 62
     0
 92
       -2
340
14
 93
        0
 40
0.045
309
GRIDFORMAT_END
 95
        4
302
GRIDFORMAT
  1
GRIDFORMAT_BEGIN
 90
        0
 91
        1
 62
     0
 92
       -2
340
14
 93
        0
 40
0.045
309
GRIDFORMAT_END
 95
        8
302
GRIDFORMAT
  1
GRIDFORMAT_BEGIN
 90
        0
 91
        1
 62
     0
 92
       -2
340
14
 93
        0
 40
0.045
309
GRIDFORMAT_END
 95
       16
302
GRIDFORMAT
  1
GRIDFORMAT_BEGIN
 90
        0
 91
        1
 62
     0
 92
       -2
340
14
 93
        0
 40
0.045
309
GRIDFORMAT_END
 95
       32
302
GRIDFORMAT
  1
GRIDFORMAT_BEGIN
 90
        0
 91
        1
 62
     0
 92
       -2
340
14
 93
        0
 40
0.045
309
GRIDFORMAT_END
309
TABLEFORMAT_END
  1
CELLSTYLE_BEGIN
 90
        2
 91
        1
300
_HEADER
309
CELLSTYLE_END
300
CELLSTYLE
  1
TABLEFORMAT_BEGIN
 90
        5
170
     1
 91
        0
 92
        0
 62
   257
 93
        1
300
CONTENTFORMAT
  1
CONTENTFORMAT_BEGIN
 90
        0
 91
        0
 92
        4
 93
        0
300

 40
0.0
140
1.0
 94
        2
 62
     0
340
11
144
0.18
309
CONTENTFORMAT_END
171
     1
301
MARGIN
  1
CELLMARGIN_BEGIN
 40
0.06
 40
0.06
 40
0.06
 40
0.06
 40
0.06
 40
0.06
309
CELLMARGIN_END
 94
        6
 95
        1
302
GRIDFORMAT
  1
GRIDFORMAT_BEGIN
 90
        0
 91
        1
 62
     0
 92
       -2
340
14
 93
        0
 40
0.045
309
GRIDFORMAT_END
 95
        2
302
GRIDFORMAT
  1
GRIDFORMAT_BEGIN
 90
        0
 91
        1
 62
     0
 92
       -2
340
14
 93
        0
 40
0.045
309
GRIDFORMAT_END
 95
        4
302
GRIDFORMAT
  1
GRIDFORMAT_BEGIN
 90
        0
 91
        1
 62
     0
 92
       -2
340
14
 93
        0
 40
0.045
309
GRIDFORMAT_END
 95
        8
302
GRIDFORMAT
  1
GRIDFORMAT_BEGIN
 90
        0
 91
        1
 62
     0
 92
       -2
340
14
 93
        0
 40
0.045
309
GRIDFORMAT_END
 95
       16
302
GRIDFORMAT
  1
GRIDFORMAT_BEGIN
 90
        0
 91
        1
 62
     0
 92
       -2
340
14
 93
        0
 40
0.045
309
GRIDFORMAT_END
 95
       32
302
GRIDFORMAT
  1
GRIDFORMAT_BEGIN
 90
        0
 91
        1
 62
     0
 92
       -2
340
14
 93
        0
 40
0.045
309
GRIDFORMAT_END
309
TABLEFORMAT_END
  1
CELLSTYLE_BEGIN
 90
        3
 91
        2
300
_DATA
309
CELLSTYLE_END
  0
ENDSEC
  0
EOF