0
SECTION
  2
HEADER
  9
$ACADVER
  1
AC1027
  9
$ACADMAINTVER
 70
     8
  9
$DWGCODEPAGE
  3
ANSI_1252
  9
$REQUIREDVERSIONS
160
                 0
  9
$COMMENTS
  1
File was created by Cadenas
  9
$CUSTOMPROPERTYTAG
  1
NN
  9
$CUSTOMPROPERTY
  1
S-2000 Piloted Flange Labyrinth Seal
  9
$CUSTOMPROPERTYTAG
  1
NT
  9
$CUSTOMPROPERTY
  1
S-2000 Piloted Flange Bearing -Inch
  9
$CUSTOMPROPERTYTAG
  1
NB
  9
$CUSTOMPROPERTY
  1
070727
  9
$CUSTOMPROPERTYTAG
  1
NBSYN
  9
$CUSTOMPROPERTY
  1
$PN.
  9
$CUSTOMPROPERTYTAG
  1
LINA
  9
$CUSTOMPROPERTY
  1
070727
  9
$CUSTOMPROPERTYTAG
  1
SS
  9
$CUSTOMPROPERTY
  1
1-1/2
  9
$CUSTOMPROPERTYTAG
  1
PN
  9
$CUSTOMPROPERTY
  1
070727
  9
$CUSTOMPROPERTYTAG
  1
DESCRIPTION
  9
$CUSTOMPROPERTY
  1
FC-S2-108LE
  9
$CUSTOMPROPERTYTAG
  1
EF
  9
$CUSTOMPROPERTY
  1
Expansion Type
  9
$CUSTOMPROPERTYTAG
  1
ST
  9
$CUSTOMPROPERTY
  1
Labyrinth Seal
  9
$CUSTOMPROPERTYTAG
  1
A
  9
$CUSTOMPROPERTY
  1
2-17/32
  9
$CUSTOMPROPERTYTAG
  1
B
  9
$CUSTOMPROPERTY
  1
5-1/4
  9
$CUSTOMPROPERTYTAG
  1
C
  9
$CUSTOMPROPERTY
  1
1-27/32
  9
$CUSTOMPROPERTYTAG
  1
D
  9
$CUSTOMPROPERTY
  1
3-3/32
  9
$CUSTOMPROPERTYTAG
  1
DD
  9
$CUSTOMPROPERTY
  1
4-3/8
  9
$CUSTOMPROPERTYTAG
  1
E
  9
$CUSTOMPROPERTY
  1
3/4
  9
$CUSTOMPROPERTYTAG
  1
F
  9
$CUSTOMPROPERTY
  1
3/8
  9
$CUSTOMPROPERTYTAG
  1
G
  9
$CUSTOMPROPERTY
  1
1-5/16
  9
$CUSTOMPROPERTYTAG
  1
H
  9
$CUSTOMPROPERTY
  1
1/2
  9
$CUSTOMPROPERTYTAG
  1
K
  9
$CUSTOMPROPERTY
  1
3.625
  9
$CUSTOMPROPERTYTAG
  1
L
  9
$CUSTOMPROPERTY
  1
2-3/4
  9
$CUSTOMPROPERTYTAG
  1
M
  9
$CUSTOMPROPERTY
  1
3/8-16
  9
$CUSTOMPROPERTYTAG
  1
N
  9
$CUSTOMPROPERTY
  1
2-17/32
  9
$CUSTOMPROPERTYTAG
  1
P
  9
$CUSTOMPROPERTY
  1
1-7/32
  9
$CUSTOMPROPERTYTAG
  1
Q
  9
$CUSTOMPROPERTY
  1
1-7/32
  9
$CUSTOMPROPERTYTAG
  1
X
  9
$CUSTOMPROPERTY
  1
3/16
  9
$CUSTOMPROPERTYTAG
  1
Y
  9
$CUSTOMPROPERTY
  1
0.020
  9
$CUSTOMPROPERTYTAG
  1
Z
  9
$CUSTOMPROPERTY
  1
1-51/64
  9
$CUSTOMPROPERTYTAG
  1
COMPANY
  9
$CUSTOMPROPERTY
  1
baldor
  9
$INSBASE
 10
0.0
 20
0.0
 30
0.0
  9
$EXTMIN
 10
1.000000000000000E+20
 20
1.000000000000000E+20
 30
1.000000000000000E+20
  9
$EXTMAX
 10
-1.000000000000000E+20
 20
-1.000000000000000E+20
 30
-1.000000000000000E+20
  9
$LIMMIN
 10
0.0
 20
0.0
  9
$LIMMAX
 10
12.0
 20
9.0
  9
$ORTHOMODE
 70
     0
  9
$REGENMODE
 70
     1
  9
$FILLMODE
 70
     1
  9
$QTEXTMODE
 70
     0
  9
$MIRRTEXT
 70
     1
  9
$LTSCALE
 40
1.0
  9
$ATTMODE
 70
     1
  9
$TEXTSIZE
 40
0.2
  9
$TRACEWID
 40
0.05
  9
$TEXTSTYLE
  7
Standard
  9
$CLAYER
  8
0
  9
$CELTYPE
  6
ByLayer
  9
$CECOLOR
 62
   256
  9
$CELTSCALE
 40
1.0
  9
$DISPSILH
 70
     0
  9
$DIMSCALE
 40
1.0
  9
$DIMASZ
 40
0.18
  9
$DIMEXO
 40
0.0625
  9
$DIMDLI
 40
0.38
  9
$DIMRND
 40
0.0
  9
$DIMDLE
 40
0.0
  9
$DIMEXE
 40
0.18
  9
$DIMTP
 40
0.0
  9
$DIMTM
 40
0.0
  9
$DIMTXT
 40
0.18
  9
$DIMCEN
 40
0.09
  9
$DIMTSZ
 40
0.0
  9
$DIMTOL
 70
     0
  9
$DIMLIM
 70
     0
  9
$DIMTIH
 70
     1
  9
$DIMTOH
 70
     1
  9
$DIMSE1
 70
     0
  9
$DIMSE2
 70
     0
  9
$DIMTAD
 70
     0
  9
$DIMZIN
 70
     0
  9
$DIMBLK
  1

  9
$DIMASO
 70
     1
  9
$DIMSHO
 70
     1
  9
$DIMPOST
  1

  9
$DIMAPOST
  1

  9
$DIMALT
 70
     0
  9
$DIMALTD
 70
     2
  9
$DIMALTF
 40
25.4
  9
$DIMLFAC
 40
1.0
  9
$DIMTOFL
 70
     0
  9
$DIMTVP
 40
0.0
  9
$DIMTIX
 70
     0
  9
$DIMSOXD
 70
     0
  9
$DIMSAH
 70
     0
  9
$DIMBLK1
  1

  9
$DIMBLK2
  1

  9
$DIMSTYLE
  2
Standard
  9
$DIMCLRD
 70
     0
  9
$DIMCLRE
 70
     0
  9
$DIMCLRT
 70
     0
  9
$DIMTFAC
 40
1.0
  9
$DIMGAP
 40
0.09
  9
$DIMJUST
 70
     0
  9
$DIMSD1
 70
     0
  9
$DIMSD2
 70
     0
  9
$DIMTOLJ
 70
     1
  9
$DIMTZIN
 70
     0
  9
$DIMALTZ
 70
     0
  9
$DIMALTTZ
 70
     0
  9
$DIMUPT
 70
     0
  9
$DIMDEC
 70
     4
  9
$DIMTDEC
 70
     4
  9
$DIMALTU
 70
     2
  9
$DIMALTTD
 70
     2
  9
$DIMTXSTY
  7
Standard
  9
$DIMAUNIT
 70
     0
  9
$DIMADEC
 70
     0
  9
$DIMALTRND
 40
0.0
  9
$DIMAZIN
 70
     0
  9
$DIMDSEP
 70
    46
  9
$DIMATFIT
 70
     3
  9
$DIMFRAC
 70
     0
  9
$DIMLDRBLK
  1

  9
$DIMLUNIT
 70
     2
  9
$DIMLWD
 70
    -2
  9
$DIMLWE
 70
    -2
  9
$DIMTMOVE
 70
     0
  9
$DIMFXL
 40
1.0
  9
$DIMFXLON
 70
     0
  9
$DIMJOGANG
 40
0.7853981633974483
  9
$DIMTFILL
 70
     0
  9
$DIMTFILLCLR
 70
     0
  9
$DIMARCSYM
 70
     0
  9
$DIMLTYPE
  6

  9
$DIMLTEX1
  6

  9
$DIMLTEX2
  6

  9
$DIMTXTDIRECTION
 70
     0
  9
$LUNITS
 70
     2
  9
$LUPREC
 70
     4
  9
$SKETCHINC
 40
0.1
  9
$FILLETRAD
 40
0.5
  9
$AUNITS
 70
     0
  9
$AUPREC
 70
     0
  9
$MENU
  1
.
  9
$ELEVATION
 40
0.0
  9
$PELEVATION
 40
0.0
  9
$THICKNESS
 40
0.0
  9
$LIMCHECK
 70
     0
  9
$CHAMFERA
 40
0.0
  9
$CHAMFERB
 40
0.0
  9
$CHAMFERC
 40
0.0
  9
$CHAMFERD
 40
0.0
  9
$SKPOLY
 70
     0
  9
$TDCREATE
 40
2458168.985480394
  9
$TDUCREATE
 40
2458168.943813727
  9
$TDUPDATE
 40
2458168.985480579
  9
$TDUUPDATE
 40
2458168.943813912
  9
$TDINDWG
 40
0.0000000116
  9
$TDUSRTIMER
 40
0.0000000116
  9
$USRTIMER
 70
     1
  9
$ANGBASE
 50
0.0
  9
$ANGDIR
 70
     0
  9
$PDMODE
 70
     0
  9
$PDSIZE
 40
0.0
  9
$PLINEWID
 40
0.0
  9
$SPLFRAME
 70
     0
  9
$SPLINETYPE
 70
     6
  9
$SPLINESEGS
 70
     8
  9
$HANDSEED
  5
23A
  9
$SURFTAB1
 70
     6
  9
$SURFTAB2
 70
     6
  9
$SURFTYPE
 70
     6
  9
$SURFU
 70
     6
  9
$SURFV
 70
     6
  9
$UCSBASE
  2

  9
$UCSNAME
  2

  9
$UCSORG
 10
0.0
 20
0.0
 30
0.0
  9
$UCSXDIR
 10
1.0
 20
0.0
 30
0.0
  9
$UCSYDIR
 10
0.0
 20
1.0
 30
0.0
  9
$UCSORTHOREF
  2

  9
$UCSORTHOVIEW
 70
     0
  9
$UCSORGTOP
 10
0.0
 20
0.0
 30
0.0
  9
$UCSORGBOTTOM
 10
0.0
 20
0.0
 30
0.0
  9
$UCSORGLEFT
 10
0.0
 20
0.0
 30
0.0
  9
$UCSORGRIGHT
 10
0.0
 20
0.0
 30
0.0
  9
$UCSORGFRONT
 10
0.0
 20
0.0
 30
0.0
  9
$UCSORGBACK
 10
0.0
 20
0.0
 30
0.0
  9
$PUCSBASE
  2

  9
$PUCSNAME
  2

  9
$PUCSORG
 10
0.0
 20
0.0
 30
0.0
  9
$PUCSXDIR
 10
1.0
 20
0.0
 30
0.0
  9
$PUCSYDIR
 10
0.0
 20
1.0
 30
0.0
  9
$PUCSORTHOREF
  2

  9
$PUCSORTHOVIEW
 70
     0
  9
$PUCSORGTOP
 10
0.0
 20
0.0
 30
0.0
  9
$PUCSORGBOTTOM
 10
0.0
 20
0.0
 30
0.0
  9
$PUCSORGLEFT
 10
0.0
 20
0.0
 30
0.0
  9
$PUCSORGRIGHT
 10
0.0
 20
0.0
 30
0.0
  9
$PUCSORGFRONT
 10
0.0
 20
0.0
 30
0.0
  9
$PUCSORGBACK
 10
0.0
 20
0.0
 30
0.0
  9
$USERI1
 70
     0
  9
$USERI2
 70
     0
  9
$USERI3
 70
     0
  9
$USERI4
 70
     0
  9
$USERI5
 70
     0
  9
$USERR1
 40
0.0
  9
$USERR2
 40
0.0
  9
$USERR3
 40
0.0
  9
$USERR4
 40
0.0
  9
$USERR5
 40
0.0
  9
$WORLDVIEW
 70
     1
  9
$SHADEDGE
 70
     3
  9
$SHADEDIF
 70
    70
  9
$TILEMODE
 70
     1
  9
$MAXACTVP
 70
    64
  9
$PINSBASE
 10
0.0
 20
0.0
 30
0.0
  9
$PLIMCHECK
 70
     0
  9
$PEXTMIN
 10
1.000000000000000E+20
 20
1.000000000000000E+20
 30
1.000000000000000E+20
  9
$PEXTMAX
 10
-1.000000000000000E+20
 20
-1.000000000000000E+20
 30
-1.000000000000000E+20
  9
$PLIMMIN
 10
0.0
 20
0.0
  9
$PLIMMAX
 10
12.0
 20
9.0
  9
$UNITMODE
 70
     0
  9
$VISRETAIN
 70
     1
  9
$PLINEGEN
 70
     0
  9
$PSLTSCALE
 70
     1
  9
$TREEDEPTH
 70
  3020
  9
$CMLSTYLE
  2
Standard
  9
$CMLJUST
 70
     0
  9
$CMLSCALE
 40
1.0
  9
$PROXYGRAPHICS
 70
     1
  9
$MEASUREMENT
 70
     0
  9
$CELWEIGHT
370
    -1
  9
$ENDCAPS
280
     0
  9
$JOINSTYLE
280
     0
  9
$LWDISPLAY
290
     0
  9
$INSUNITS
 70
     1
  9
$HYPERLINKBASE
  1

  9
$STYLESHEET
  1

  9
$XEDIT
290
     1
  9
$CEPSNTYPE
380
     0
  9
$PSTYLEMODE
290
     1
  9
$FINGERPRINTGUID
  2
{F477741C-2864-47C3-854D-42CD60E95439}
  9
$VERSIONGUID
  2
{FAEB1C32-E019-11D5-929B-00C0DF256EC4}
  9
$EXTNAMES
290
     1
  9
$PSVPSCALE
 40
0.0
  9
$OLESTARTUP
290
     0
  9
$SORTENTS
280
   127
  9
$INDEXCTL
280
     0
  9
$HIDETEXT
280
     1
  9
$XCLIPFRAME
280
     2
  9
$HALOGAP
280
     0
  9
$OBSCOLOR
 70
   257
  9
$OBSLTYPE
280
     0
  9
$INTERSECTIONDISPLAY
280
     0
  9
$INTERSECTIONCOLOR
 70
   257
  9
$DIMASSOC
280
     2
  9
$PROJECTNAME
  1

  9
$CAMERADISPLAY
290
     0
  9
$LENSLENGTH
 40
50.0
  9
$CAMERAHEIGHT
 40
0.0
  9
$STEPSPERSEC
 40
2.0
  9
$STEPSIZE
 40
6.0
  9
$3DDWFPREC
 40
2.0
  9
$PSOLWIDTH
 40
0.25
  9
$PSOLHEIGHT
 40
4.0
  9
$LOFTANG1
 40
1.570796326794897
  9
$LOFTANG2
 40
1.570796326794897
  9
$LOFTMAG1
 40
0.0
  9
$LOFTMAG2
 40
0.0
  9
$LOFTPARAM
 70
     7
  9
$LOFTNORMALS
280
     1
  9
$LATITUDE
 40
37.795
  9
$LONGITUDE
 40
-122.394
  9
$NORTHDIRECTION
 40
0.0
  9
$TIMEZONE
 70
 -8000
  9
$LIGHTGLYPHDISPLAY
280
     1
  9
$TILEMODELIGHTSYNCH
280
     1
  9
$CMATERIAL
347
44
  9
$SOLIDHIST
280
     0
  9
$SHOWHIST
280
     1
  9
$DWFFRAME
280
     2
  9
$DGNFRAME
280
     2
  9
$REALWORLDSCALE
290
     1
  9
$INTERFERECOLOR
 62
   256
  9
$CSHADOW
280
     0
  9
$SHADOWPLANELOCATION
 40
0.0
  0
ENDSEC
  0
SECTION
  2
CLASSES
  0
CLASS
  1
ACDBDICTIONARYWDFLT
  2
AcDbDictionaryWithDefault
  3
ObjectDBX Classes
 90
        0
 91
        4
280
     0
281
     0
  0
CLASS
  1
VISUALSTYLE
  2
AcDbVisualStyle
  3
ObjectDBX Classes
 90
     4095
 91
        4
280
     0
281
     0
  0
CLASS
  1
MATERIAL
  2
AcDbMaterial
  3
ObjectDBX Classes
 90
     1153
 91
        4
280
     0
281
     0
  0
CLASS
  1
SCALE
  2
AcDbScale
  3
ObjectDBX Classes
 90
     1153
 91
        4
280
     0
281
     0
  0
CLASS
  1
TABLESTYLE
  2
AcDbTableStyle
  3
ObjectDBX Classes
 90
     4095
 91
        4
280
     0
281
     0
  0
CLASS
  1
MLEADERSTYLE
  2
AcDbMLeaderStyle
  3
ACDB_MLEADERSTYLE_CLASS
 90
     4095
 91
        4
280
     0
281
     0
  0
CLASS
  1
SUN
  2
AcDbSun
  3
SCENEOE
 90
     1153
 91
        4
280
     0
281
     0
  0
CLASS
  1
DICTIONARYVAR
  2
AcDbDictionaryVar
  3
ObjectDBX Classes
 90
        0
 91
        4
280
     0
281
     0
  0
CLASS
  1
CELLSTYLEMAP
  2
AcDbCellStyleMap
  3
ObjectDBX Classes
 90
     1152
 91
        4
280
     0
281
     0
  0
ENDSEC
  0
SECTION
  2
TABLES
  0
TABLE
  2
VPORT
  5
8
330
0
100
AcDbSymbolTable
 70
     1
  0
VPORT
  5
29
330
8
100
AcDbSymbolTableRecord
100
AcDbViewportTableRecord
  2
*Active
 70
     0
 10
0.0
 20
0.0
 11
1.0
 21
1.0
 12
-0.0000000000000018
 22
0.3425000000000002
 13
0.0
 23
0.0
 14
0.5
 24
0.5
 15
0.5
 25
0.5
 16
0.0
 26
0.0
 36
1.0
 17
0.0
 27
0.0
 37
0.0
 40
3.376200000000001
 41
1.586102719033232
 42
50.0
 43
0.0
 44
0.0
 50
0.0
 51
0.0
 71
     0
 72
   100
 73
     1
 74
     3
 75
     0
 76
     0
 77
     0
 78
     0
281
     0
 65
     1
110
0.0
120
0.0
130
0.0
111
1.0
121
0.0
131
0.0
112
0.0
122
1.0
132
0.0
 79
     0
146
0.0
348
2F
 60
     3
 61
     5
292
     1
282
     1
141
0.0
142
0.0
 63
   250
361
6D
  0
ENDTAB
  0
TABLE
  2
LTYPE
  5
5
330
0
100
AcDbSymbolTable
 70
     3
  0
LTYPE
  5
14
330
5
100
AcDbSymbolTableRecord
100
AcDbLinetypeTableRecord
  2
ByBlock
 70
     0
  3

 72
    65
 73
     0
 40
0.0
  0
LTYPE
  5
15
330
5
100
AcDbSymbolTableRecord
100
AcDbLinetypeTableRecord
  2
ByLayer
 70
     0
  3

 72
    65
 73
     0
 40
0.0
  0
LTYPE
  5
16
330
5
100
AcDbSymbolTableRecord
100
AcDbLinetypeTableRecord
  2
Continuous
 70
     0
  3
Solid line
 72
    65
 73
     0
 40
0.0
  0
LTYPE
  5
A7
330
5
100
AcDbSymbolTableRecord
100
AcDbLinetypeTableRecord
  2
Dashed
 70
     0
  3

 72
    65
 73
     2
 40
2.0
 49
1.0
 74
     0
 49
-1.0
 74
     0
  0
LTYPE
  5
EA
330
5
100
AcDbSymbolTableRecord
100
AcDbLinetypeTableRecord
  2
Center
 70
     0
  3

 72
    65
 73
     4
 40
1.5
 49
0.45
 74
     0
 49
-0.5
 74
     0
 49
0.05
 74
     0
 49
-0.5
 74
     0
  0
ENDTAB
  0
TABLE
  2
LAYER
  5
2
330
0
100
AcDbSymbolTable
 70
     7
  0
LAYER
  5
10
330
2
100
AcDbSymbolTableRecord
100
AcDbLayerTableRecord
  2
0
 70
     0
 62
     7
  6
Continuous
370
    -3
390
F
347
46
348
0
  0
LAYER
  5
72
330
2
100
AcDbSymbolTableRecord
100
AcDbLayerTableRecord
  2
AM_6
 70
     0
 62
    -2
  6
Continuous
370
    35
390
F
347
46
348
0
  0
LAYER
  5
A8
330
2
100
AcDbSymbolTableRecord
100
AcDbLayerTableRecord
  2
AM_9
 70
     0
 62
     6
  6
Dashed
370
    25
390
F
347
46
348
0
  0
LAYER
  5
EB
330
2
100
AcDbSymbolTableRecord
100
AcDbLayerTableRecord
  2
AM_7
 70
     0
 62
     7
  6
Center
370
    25
390
F
347
46
348
0
  0
LAYER
  5
ED
330
2
100
AcDbSymbolTableRecord
100
AcDbLayerTableRecord
  2
AM_4
 70
     0
 62
     7
  6
Continuous
370
    50
390
F
347
46
348
0
  0
LAYER
  5
103
330
2
100
AcDbSymbolTableRecord
100
AcDbLayerTableRecord
  2
AM_5
 70
     0
 62
     3
  6
Continuous
370
    25
390
F
347
46
348
0
  0
LAYER
  5
226
330
2
100
AcDbSymbolTableRecord
100
AcDbLayerTableRecord
  2
ConnectionPoints
 70
     0
 62
     7
  6
Continuous
370
    50
390
F
347
46
348
0
  0
ENDTAB
  0
TABLE
  2
STYLE
  5
3
330
0
100
AcDbSymbolTable
 70
     1
  0
STYLE
  5
11
330
3
100
AcDbSymbolTableRecord
100
AcDbTextStyleTableRecord
  2
Standard
 70
     0
 40
0.0
 41
1.0
 50
0.0
 71
     0
 42
0.2
  3
txt
  4

  0
ENDTAB
  0
TABLE
  2
VIEW
  5
6
330
0
100
AcDbSymbolTable
 70
     0
  0
ENDTAB
  0
TABLE
  2
UCS
  5
7
330
0
100
AcDbSymbolTable
 70
     0
  0
ENDTAB
  0
TABLE
  2
APPID
  5
9
330
0
100
AcDbSymbolTable
 70
     1
  0
APPID
  5
12
330
9
100
AcDbSymbolTableRecord
100
AcDbRegAppTableRecord
  2
ACAD
 70
     0
  0
ENDTAB
  0
TABLE
  2
DIMSTYLE
  5
A
330
0
100
AcDbSymbolTable
 70
     1
100
AcDbDimStyleTable
  0
DIMSTYLE
105
27
330
A
100
AcDbSymbolTableRecord
100
AcDbDimStyleTableRecord
  2
Standard
 70
     0
178
     0
340
11
  0
ENDTAB
  0
TABLE
  2
BLOCK_RECORD
  5
1
330
0
100
AcDbSymbolTable
 70
     7
  0
BLOCK_RECORD
  5
1F
330
1
100
AcDbSymbolTableRecord
100
AcDbBlockTableRecord
  2
*Model_Space
340
22
 70
     0
280
     1
281
     0
  0
BLOCK_RECORD
  5
1B
330
1
100
AcDbSymbolTableRecord
100
AcDbBlockTableRecord
  2
*Paper_Space
340
1E
 70
     0
280
     1
281
     0
  0
BLOCK_RECORD
  5
23
330
1
100
AcDbSymbolTableRecord
100
AcDbBlockTableRecord
  2
*Paper_Space0
340
26
 70
     0
280
     1
281
     0
  0
BLOCK_RECORD
  5
6E
330
1
100
AcDbSymbolTableRecord
100
AcDbBlockTableRecord
  2
1_070727_4
340
0
102
{BLKREFS
331
6F
102
}
 70
     0
280
     1
281
     0
  0
BLOCK_RECORD
  5
90
330
1
100
AcDbSymbolTableRecord
100
AcDbBlockTableRecord
  2
2_1_1_2_Disc_0_in_070727_4
340
0
102
{BLKREFS
331
91
102
}
 70
     0
280
     1
281
     0
  0
BLOCK_RECORD
  5
B4
330
1
100
AcDbSymbolTableRecord
100
AcDbBlockTableRecord
  2
3_1_1_2CS2i_0_in_070727_4
340
0
102
{BLKREFS
331
B5
102
}
 70
     0
280
     1
281
     0
  0
BLOCK_RECORD
  5
105
330
1
100
AcDbSymbolTableRecord
100
AcDbBlockTableRecord
  2
4_070018i_0_in_070727_4
340
0
102
{BLKREFS
331
106
102
}
 70
     0
280
     1
281
     0
  0
BLOCK_RECORD
  5
15C
330
1
100
AcDbSymbolTableRecord
100
AcDbBlockTableRecord
  2
5_405015E_Inch_0_in_070727_4
340
0
102
{BLKREFS
331
15D
102
}
 70
     0
280
     1
281
     0
  0
BLOCK_RECORD
  5
1B5
330
1
100
AcDbSymbolTableRecord
100
AcDbBlockTableRecord
  2
6_070727H_0_in_070727_4
340
0
102
{BLKREFS
331
1B6
102
}
 70
     0
280
     1
281
     0
  0
ENDTAB
  0
ENDSEC
  0
SECTION
  2
BLOCKS
  0
BLOCK
  5
20
330
1F
100
AcDbEntity
  8
0
100
AcDbBlockBegin
  2
*Model_Space
 70
     0
 10
0.0
 20
0.0
 30
0.0
  3
*Model_Space
  1

  0
ENDBLK
  5
21
330
1F
100
AcDbEntity
  8
0
100
AcDbBlockEnd
  0
BLOCK
  5
1C
330
1B
100
AcDbEntity
 67
     1
  8
0
100
AcDbBlockBegin
  2
*Paper_Space
 70
     0
 10
0.0
 20
0.0
 30
0.0
  3
*Paper_Space
  1

  0
ENDBLK
  5
1D
330
1B
100
AcDbEntity
 67
     1
  8
0
100
AcDbBlockEnd
  0
BLOCK
  5
24
330
23
100
AcDbEntity
  8
0
100
AcDbBlockBegin
  2
*Paper_Space0
 70
     0
 10
0.0
 20
0.0
 30
0.0
  3
*Paper_Space0
  1

  0
ENDBLK
  5
25
330
23
100
AcDbEntity
  8
0
100
AcDbBlockEnd
  0
BLOCK
  5
70
330
6E
100
AcDbEntity
  8
0
100
AcDbBlockBegin
  2
1_070727_4
 70
     2
 10
0.0
 20
0.0
 30
0.0
  3
1_070727_4
  1

  0
ATTDEF
  5
73
330
6E
100
AcDbEntity
  8
AM_6
100
AcDbText
 10
7.624999999999998
 20
1.5328125
 30
0.0
 40
0.5
  1
S-2000 Piloted Flange Labyrinth Seal
100
AcDbAttributeDefinition
  3

  2
NN
 70
     8
280
     0
  0
ATTDEF
  5
74
330
6E
100
AcDbEntity
  8
AM_6
100
AcDbText
 10
7.624999999999998
 20
1.0328125
 30
0.0
 40
0.5
  1
S-2000 Piloted Flange Bearing -Inch
100
AcDbAttributeDefinition
  3

  2
NT
 70
     8
280
     0
  0
ATTDEF
  5
75
330
6E
100
AcDbEntity
  8
AM_6
100
AcDbText
 10
7.624999999999998
 20
0.5328124999999997
 30
0.0
 40
0.5
  1
070727
100
AcDbAttributeDefinition
  3

  2
NB
 70
     8
280
     0
  0
ATTDEF
  5
76
330
6E
100
AcDbEntity
  8
AM_6
100
AcDbText
 10
7.624999999999998
 20
0.0328124999999997
 30
0.0
 40
0.5
  1
$PN.
100
AcDbAttributeDefinition
  3

  2
NBSYN
 70
     8
280
     0
  0
ATTDEF
  5
77
330
6E
100
AcDbEntity
  8
AM_6
100
AcDbText
 10
7.624999999999998
 20
-0.4671875000000003
 30
0.0
 40
0.5
  1
070727
100
AcDbAttributeDefinition
  3

  2
LINA
 70
     8
280
     0
  0
ATTDEF
  5
78
330
6E
100
AcDbEntity
  8
AM_6
100
AcDbText
 10
7.624999999999998
 20
-0.9671875000000003
 30
0.0
 40
0.5
  1
1-1/2
100
AcDbAttributeDefinition
  3

  2
SS
 70
     8
280
     0
  0
ATTDEF
  5
79
330
6E
100
AcDbEntity
  8
AM_6
100
AcDbText
 10
7.624999999999998
 20
-1.4671875
 30
0.0
 40
0.5
  1
070727
100
AcDbAttributeDefinition
  3

  2
PN
 70
     8
280
     0
  0
ATTDEF
  5
7A
330
6E
100
AcDbEntity
  8
AM_6
100
AcDbText
 10
7.624999999999998
 20
-1.9671875
 30
0.0
 40
0.5
  1
FC-S2-108LE
100
AcDbAttributeDefinition
  3

  2
DESCRIPTION
 70
     8
280
     0
  0
ATTDEF
  5
7B
330
6E
100
AcDbEntity
  8
AM_6
100
AcDbText
 10
7.624999999999998
 20
-2.467187500000001
 30
0.0
 40
0.5
  1
Expansion Type
100
AcDbAttributeDefinition
  3

  2
EF
 70
     8
280
     0
  0
ATTDEF
  5
7C
330
6E
100
AcDbEntity
  8
AM_6
100
AcDbText
 10
7.624999999999998
 20
-2.967187500000001
 30
0.0
 40
0.5
  1
Labyrinth Seal
100
AcDbAttributeDefinition
  3

  2
ST
 70
     8
280
     0
  0
ATTDEF
  5
7D
330
6E
100
AcDbEntity
  8
AM_6
100
AcDbText
 10
7.624999999999998
 20
-3.467187500000001
 30
0.0
 40
0.5
  1
2-17/32
100
AcDbAttributeDefinition
  3

  2
A
 70
     8
280
     0
  0
ATTDEF
  5
7E
330
6E
100
AcDbEntity
  8
AM_6
100
AcDbText
 10
7.624999999999998
 20
-3.967187500000001
 30
0.0
 40
0.5
  1
5-1/4
100
AcDbAttributeDefinition
  3

  2
B
 70
     8
280
     0
  0
ATTDEF
  5
7F
330
6E
100
AcDbEntity
  8
AM_6
100
AcDbText
 10
7.624999999999998
 20
-4.467187500000001
 30
0.0
 40
0.5
  1
1-27/32
100
AcDbAttributeDefinition
  3

  2
C
 70
     8
280
     0
  0
ATTDEF
  5
80
330
6E
100
AcDbEntity
  8
AM_6
100
AcDbText
 10
7.624999999999998
 20
-4.967187500000001
 30
0.0
 40
0.5
  1
3-3/32
100
AcDbAttributeDefinition
  3

  2
D
 70
     8
280
     0
  0
ATTDEF
  5
81
330
6E
100
AcDbEntity
  8
AM_6
100
AcDbText
 10
7.624999999999998
 20
-5.467187500000001
 30
0.0
 40
0.5
  1
4-3/8
100
AcDbAttributeDefinition
  3

  2
DD
 70
     8
280
     0
  0
ATTDEF
  5
82
330
6E
100
AcDbEntity
  8
AM_6
100
AcDbText
 10
7.624999999999998
 20
-5.967187500000001
 30
0.0
 40
0.5
  1
3/4
100
AcDbAttributeDefinition
  3

  2
E
 70
     8
280
     0
  0
ATTDEF
  5
83
330
6E
100
AcDbEntity
  8
AM_6
100
AcDbText
 10
7.624999999999998
 20
-6.467187500000001
 30
0.0
 40
0.5
  1
3/8
100
AcDbAttributeDefinition
  3

  2
F
 70
     8
280
     0
  0
ATTDEF
  5
84
330
6E
100
AcDbEntity
  8
AM_6
100
AcDbText
 10
7.624999999999998
 20
-6.967187500000001
 30
0.0
 40
0.5
  1
1-5/16
100
AcDbAttributeDefinition
  3

  2
G
 70
     8
280
     0
  0
ATTDEF
  5
85
330
6E
100
AcDbEntity
  8
AM_6
100
AcDbText
 10
7.624999999999998
 20
-7.467187500000001
 30
0.0
 40
0.5
  1
1/2
100
AcDbAttributeDefinition
  3

  2
H
 70
     8
280
     0
  0
ATTDEF
  5
86
330
6E
100
AcDbEntity
  8
AM_6
100
AcDbText
 10
7.624999999999998
 20
-7.967187500000001
 30
0.0
 40
0.5
  1
3.625
100
AcDbAttributeDefinition
  3

  2
K
 70
     8
280
     0
  0
ATTDEF
  5
87
330
6E
100
AcDbEntity
  8
AM_6
100
AcDbText
 10
7.624999999999998
 20
-8.467187500000001
 30
0.0
 40
0.5
  1
2-3/4
100
AcDbAttributeDefinition
  3

  2
L
 70
     8
280
     0
  0
ATTDEF
  5
88
330
6E
100
AcDbEntity
  8
AM_6
100
AcDbText
 10
7.624999999999998
 20
-8.967187500000001
 30
0.0
 40
0.5
  1
3/8-16
100
AcDbAttributeDefinition
  3

  2
M
 70
     8
280
     0
  0
ATTDEF
  5
89
330
6E
100
AcDbEntity
  8
AM_6
100
AcDbText
 10
7.624999999999998
 20
-9.467187500000001
 30
0.0
 40
0.5
  1
2-17/32
100
AcDbAttributeDefinition
  3

  2
N
 70
     8
280
     0
  0
ATTDEF
  5
8A
330
6E
100
AcDbEntity
  8
AM_6
100
AcDbText
 10
7.624999999999998
 20
-9.967187500000001
 30
0.0
 40
0.5
  1
1-7/32
100
AcDbAttributeDefinition
  3

  2
P
 70
     8
280
     0
  0
ATTDEF
  5
8B
330
6E
100
AcDbEntity
  8
AM_6
100
AcDbText
 10
7.624999999999998
 20
-10.4671875
 30
0.0
 40
0.5
  1
1-7/32
100
AcDbAttributeDefinition
  3

  2
Q
 70
     8
280
     0
  0
ATTDEF
  5
8C
330
6E
100
AcDbEntity
  8
AM_6
100
AcDbText
 10
7.624999999999998
 20
-10.9671875
 30
0.0
 40
0.5
  1
3/16
100
AcDbAttributeDefinition
  3

  2
X
 70
     8
280
     0
  0
ATTDEF
  5
8D
330
6E
100
AcDbEntity
  8
AM_6
100
AcDbText
 10
7.624999999999998
 20
-11.4671875
 30
0.0
 40
0.5
  1
0.020
100
AcDbAttributeDefinition
  3

  2
Y
 70
     8
280
     0
  0
ATTDEF
  5
8E
330
6E
100
AcDbEntity
  8
AM_6
100
AcDbText
 10
7.624999999999998
 20
-11.9671875
 30
0.0
 40
0.5
  1
1-51/64
100
AcDbAttributeDefinition
  3

  2
Z
 70
     8
280
     0
  0
ATTDEF
  5
8F
330
6E
100
AcDbEntity
  8
AM_6
100
AcDbText
 10
7.624999999999998
 20
-12.4671875
 30
0.0
 40
0.5
  1
baldor
100
AcDbAttributeDefinition
  3

  2
COMPANY
 70
     8
280
     0
  0
INSERT
  5
91
330
6E
100
AcDbEntity
  8
0
100
AcDbBlockReference
  2
2_1_1_2_Disc_0_in_070727_4
 10
0.0
 20
0.0
 30
0.0
  0
INSERT
  5
B5
330
6E
100
AcDbEntity
  8
0
100
AcDbBlockReference
  2
3_1_1_2CS2i_0_in_070727_4
 10
0.0
 20
0.0
 30
0.0
  0
INSERT
  5
106
330
6E
100
AcDbEntity
  8
0
100
AcDbBlockReference
  2
4_070018i_0_in_070727_4
 10
0.0
 20
0.0
 30
0.0
  0
INSERT
  5
15D
330
6E
100
AcDbEntity
  8
0
100
AcDbBlockReference
  2
5_405015E_Inch_0_in_070727_4
 10
0.0
 20
0.0
 30
0.0
  0
INSERT
  5
1B6
330
6E
100
AcDbEntity
  8
0
100
AcDbBlockReference
  2
6_070727H_0_in_070727_4
 10
0.0
 20
0.0
 30
0.0
  0
ENDBLK
  5
71
330
6E
100
AcDbEntity
  8
0
100
AcDbBlockEnd
  0
BLOCK
  5
92
330
90
100
AcDbEntity
  8
0
100
AcDbBlockBegin
  2
2_1_1_2_Disc_0_in_070727_4
 70
     2
 10
0.0
 20
0.0
 30
0.0
  3
2_1_1_2_Disc_0_in_070727_4
  1

  0
ATTDEF
  5
94
330
90
100
AcDbEntity
  8
AM_6
100
AcDbText
 10
6.5748
 20
1.171875
 30
0.0
 40
0.5
  1
S-2000 -Disc -Inch
100
AcDbAttributeDefinition
  3

  2
NN
 70
     8
280
     0
  0
ATTDEF
  5
95
330
90
100
AcDbEntity
  8
AM_6
100
AcDbText
 10
6.5748
 20
0.671875
 30
0.0
 40
0.5
  1
S-2000 Bearings
100
AcDbAttributeDefinition
  3

  2
NT
 70
     8
280
     0
  0
ATTDEF
  5
96
330
90
100
AcDbEntity
  8
AM_6
100
AcDbText
 10
6.5748
 20
0.171875
 30
0.0
 40
0.5
  1
1-1/2-Disc
100
AcDbAttributeDefinition
  3

  2
NB
 70
     8
280
     0
  0
ATTDEF
  5
97
330
90
100
AcDbEntity
  8
AM_6
100
AcDbText
 10
6.5748
 20
-0.328125
 30
0.0
 40
0.5
  1
$SS.-Disc
100
AcDbAttributeDefinition
  3

  2
NBSYN
 70
     8
280
     0
  0
ATTDEF
  5
98
330
90
100
AcDbEntity
  8
AM_6
100
AcDbText
 10
6.5748
 20
-0.828125
 30
0.0
 40
0.5
  1
1-1/2-Disc
100
AcDbAttributeDefinition
  3

  2
LINA
 70
     8
280
     0
  0
ATTDEF
  5
99
330
90
100
AcDbEntity
  8
AM_6
100
AcDbText
 10
6.5748
 20
-1.328125
 30
0.0
 40
0.5
  1
1-1/2
100
AcDbAttributeDefinition
  3

  2
SS
 70
     8
280
     0
  0
ATTDEF
  5
9A
330
90
100
AcDbEntity
  8
AM_6
100
AcDbText
 10
6.5748
 20
-1.828125
 30
0.0
 40
0.5
  1
2.06
100
AcDbAttributeDefinition
  3

  2
CC
 70
     8
280
     0
  0
ATTDEF
  5
9B
330
90
100
AcDbEntity
  8
AM_6
100
AcDbText
 10
6.5748
 20
-2.328125
 30
0.0
 40
0.5
  1
0.35
100
AcDbAttributeDefinition
  3

  2
CSD
 70
     8
280
     0
  0
ATTDEF
  5
9C
330
90
100
AcDbEntity
  8
AM_6
100
AcDbText
 10
6.5748
 20
-2.828125
 30
0.0
 40
0.5
  1
1.500000
100
AcDbAttributeDefinition
  3

  2
SS1
 70
     8
280
     0
  0
ATTDEF
  5
9D
330
90
100
AcDbEntity
  8
AM_6
100
AcDbText
 10
6.5748
 20
-3.328125
 30
0.0
 40
0.5
  1
3.1496
100
AcDbAttributeDefinition
  3

  2
A
 70
     8
280
     0
  0
ATTDEF
  5
9E
330
90
100
AcDbEntity
  8
AM_6
100
AcDbText
 10
6.5748
 20
-3.828125
 30
0.0
 40
0.5
  1
61/64
100
AcDbAttributeDefinition
  3

  2
B
 70
     8
280
     0
  0
ATTDEF
  5
9F
330
90
100
AcDbEntity
  8
AM_6
100
AcDbText
 10
6.5748
 20
-4.328125
 30
0.0
 40
0.5
  1
0.953125
100
AcDbAttributeDefinition
  3

  2
B1
 70
     8
280
     0
  0
ATTDEF
  5
A0
330
90
100
AcDbEntity
  8
AM_6
100
AcDbText
 10
6.5748
 20
-4.828125
 30
0.0
 40
0.5
  1
2-17/32
100
AcDbAttributeDefinition
  3

  2
C
 70
     8
280
     0
  0
ATTDEF
  5
A1
330
90
100
AcDbEntity
  8
AM_6
100
AcDbText
 10
6.5748
 20
-5.328125
 30
0.0
 40
0.5
  1
2.531250
100
AcDbAttributeDefinition
  3

  2
C1
 70
     8
280
     0
  0
ATTDEF
  5
A2
330
90
100
AcDbEntity
  8
AM_6
100
AcDbText
 10
6.5748
 20
-5.828125
 30
0.0
 40
0.5
  1
0.970
100
AcDbAttributeDefinition
  3

  2
D
 70
     8
280
     0
  0
ATTDEF
  5
A3
330
90
100
AcDbEntity
  8
AM_6
100
AcDbText
 10
6.5748
 20
-6.328125
 30
0.0
 40
0.5
  1
2-21/32
100
AcDbAttributeDefinition
  3

  2
E
 70
     8
280
     0
  0
ATTDEF
  5
A4
330
90
100
AcDbEntity
  8
AM_6
100
AcDbText
 10
6.5748
 20
-6.828125
 30
0.0
 40
0.5
  1
2.656250
100
AcDbAttributeDefinition
  3

  2
E1
 70
     8
280
     0
  0
ATTDEF
  5
A5
330
90
100
AcDbEntity
  8
AM_6
100
AcDbText
 10
6.5748
 20
-7.328125
 30
0.0
 40
0.5
  1
0.286
100
AcDbAttributeDefinition
  3

  2
F
 70
     8
280
     0
  0
ATTDEF
  5
A6
330
90
100
AcDbEntity
  8
AM_6
100
AcDbText
 10
6.5748
 20
-7.828125
 30
0.0
 40
0.5
  1
baldor
100
AcDbAttributeDefinition
  3

  2
COMPANY
 70
     8
280
     0
  0
LINE
  5
A9
330
90
100
AcDbEntity
  8
AM_9
100
AcDbLine
 10
1.03
 20
1.078125
 30
0.0
 11
1.03
 21
1.171875
 31
0.0
  0
LINE
  5
AA
330
90
100
AcDbEntity
  8
AM_9
100
AcDbLine
 10
-1.03
 20
1.171875
 30
0.0
 11
-1.03
 21
1.078125
 31
0.0
  0
LINE
  5
AB
330
90
100
AcDbEntity
  8
AM_9
100
AcDbLine
 10
1.48105
 20
0.7718750000000001
 30
0.0
 11
1.48105
 21
1.078125
 31
0.0
  0
LINE
  5
AC
330
90
100
AcDbEntity
  8
AM_9
100
AcDbLine
 10
-1.48105
 20
1.078125
 30
0.0
 11
-1.48105
 21
0.7718750000000001
 31
0.0
  0
LINE
  5
AD
330
90
100
AcDbEntity
  8
AM_9
100
AcDbLine
 10
-1.48105
 20
1.171875
 30
0.0
 11
1.481049999999901
 21
1.171875
 31
0.0
  0
ARC
  5
AE
330
90
100
AcDbEntity
  8
AM_9
100
AcDbCircle
 10
1.48105
 20
1.078125
 30
0.0
 40
0.0937499999999996
100
AcDbArc
 50
0.0
 51
90.0
  0
ARC
  5
AF
330
90
100
AcDbEntity
  8
AM_9
100
AcDbCircle
 10
-1.48105
 20
1.078125
 30
0.0
 40
0.0937499999999996
100
AcDbArc
 50
90.0
 51
180.0
  0
LINE
  5
B0
330
90
100
AcDbEntity
  8
AM_9
100
AcDbLine
 10
-1.5748
 20
0.7718750000000001
 30
0.0
 11
1.5748
 21
0.7718750000000001
 31
0.0
  0
LINE
  5
B1
330
90
100
AcDbEntity
  8
AM_9
100
AcDbLine
 10
-1.5748
 20
1.078125
 30
0.0
 11
1.5748
 21
1.078125
 31
0.0
  0
LINE
  5
B2
330
90
100
AcDbEntity
  8
AM_9
100
AcDbLine
 10
1.5748
 20
0.7718750000000001
 30
0.0
 11
1.5748
 21
1.078125
 31
0.0
  0
LINE
  5
B3
330
90
100
AcDbEntity
  8
AM_9
100
AcDbLine
 10
-1.5748
 20
1.078125
 30
0.0
 11
-1.5748
 21
0.7718750000000001
 31
0.0
  0
ENDBLK
  5
93
330
90
100
AcDbEntity
  8
0
100
AcDbBlockEnd
  0
BLOCK
  5
B6
330
B4
100
AcDbEntity
  8
0
100
AcDbBlockBegin
  2
3_1_1_2CS2i_0_in_070727_4
 70
     2
 10
0.0
 20
0.0
 30
0.0
  3
3_1_1_2CS2i_0_in_070727_4
  1

  0
ATTDEF
  5
B8
330
B4
100
AcDbEntity
  8
AM_6
100
AcDbText
 10
6.375
 20
-0.553
 30
0.0
 40
0.5
  1
S-2000 Collar -Inch
100
AcDbAttributeDefinition
  3

  2
NN
 70
     8
280
     0
  0
ATTDEF
  5
B9
330
B4
100
AcDbEntity
  8
AM_6
100
AcDbText
 10
6.375
 20
-1.053
 30
0.0
 40
0.5
  1
S-2000 Bearings
100
AcDbAttributeDefinition
  3

  2
NT
 70
     8
280
     0
  0
ATTDEF
  5
BA
330
B4
100
AcDbEntity
  8
AM_6
100
AcDbText
 10
6.375
 20
-1.553
 30
0.0
 40
0.5
  1
1-1/2CS2i
100
AcDbAttributeDefinition
  3

  2
NB
 70
     8
280
     0
  0
ATTDEF
  5
BB
330
B4
100
AcDbEntity
  8
AM_6
100
AcDbText
 10
6.375
 20
-2.053
 30
0.0
 40
0.5
  1
$BORE.CS2i
100
AcDbAttributeDefinition
  3

  2
NBSYN
 70
     8
280
     0
  0
ATTDEF
  5
BC
330
B4
100
AcDbEntity
  8
AM_6
100
AcDbText
 10
6.375
 20
-2.553
 30
0.0
 40
0.5
  1
1-1/2CS2i
100
AcDbAttributeDefinition
  3

  2
LINA
 70
     8
280
     0
  0
ATTDEF
  5
BD
330
B4
100
AcDbEntity
  8
AM_6
100
AcDbText
 10
6.375
 20
-3.053
 30
0.0
 40
0.5
  1
1-1/2
100
AcDbAttributeDefinition
  3

  2
BORE
 70
     8
280
     0
  0
ATTDEF
  5
BE
330
B4
100
AcDbEntity
  8
AM_6
100
AcDbText
 10
6.375
 20
-3.553
 30
0.0
 40
0.5
  1
1.500000
100
AcDbAttributeDefinition
  3

  2
BORE1
 70
     8
280
     0
  0
ATTDEF
  5
BF
330
B4
100
AcDbEntity
  8
AM_6
100
AcDbText
 10
6.375
 20
-4.053
 30
0.0
 40
0.5
  1
2-3/4
100
AcDbAttributeDefinition
  3

  2
L1
 70
     8
280
     0
  0
ATTDEF
  5
C0
330
B4
100
AcDbEntity
  8
AM_6
100
AcDbText
 10
6.375
 20
-4.553
 30
0.0
 40
0.5
  1
2.75000
100
AcDbAttributeDefinition
  3

  2
L
 70
     8
280
     0
  0
ATTDEF
  5
C1
330
B4
100
AcDbEntity
  8
AM_6
100
AcDbText
 10
6.375
 20
-5.053
 30
0.0
 40
0.5
  1
2.65625
100
AcDbAttributeDefinition
  3

  2
L2
 70
     8
280
     0
  0
ATTDEF
  5
C2
330
B4
100
AcDbEntity
  8
AM_6
100
AcDbText
 10
6.375
 20
-5.553
 30
0.0
 40
0.5
  1
3.38
100
AcDbAttributeDefinition
  3

  2
A
 70
     8
280
     0
  0
ATTDEF
  5
C3
330
B4
100
AcDbEntity
  8
AM_6
100
AcDbText
 10
6.375
 20
-6.053
 30
0.0
 40
0.5
  1
1.50
100
AcDbAttributeDefinition
  3

  2
B
 70
     8
280
     0
  0
ATTDEF
  5
C4
330
B4
100
AcDbEntity
  8
AM_6
100
AcDbText
 10
6.375
 20
-6.553
 30
0.0
 40
0.5
  1
2.06
100
AcDbAttributeDefinition
  3

  2
C
 70
     8
280
     0
  0
ATTDEF
  5
C5
330
B4
100
AcDbEntity
  8
AM_6
100
AcDbText
 10
6.375
 20
-7.053
 30
0.0
 40
0.5
  1
3.25
100
AcDbAttributeDefinition
  3

  2
D
 70
     8
280
     0
  0
ATTDEF
  5
C6
330
B4
100
AcDbEntity
  8
AM_6
100
AcDbText
 10
6.375
 20
-7.553
 30
0.0
 40
0.5
  1
0.35
100
AcDbAttributeDefinition
  3

  2
E
 70
     8
280
     0
  0
ATTDEF
  5
C7
330
B4
100
AcDbEntity
  8
AM_6
100
AcDbText
 10
6.375
 20
-8.053
 30
0.0
 40
0.5
  1
0.286
100
AcDbAttributeDefinition
  3

  2
F
 70
     8
280
     0
  0
ATTDEF
  5
C8
330
B4
100
AcDbEntity
  8
AM_6
100
AcDbText
 10
6.375
 20
-8.553
 30
0.0
 40
0.5
  1
5/16-18
100
AcDbAttributeDefinition
  3

  2
CS
 70
     8
280
     0
  0
ATTDEF
  5
C9
330
B4
100
AcDbEntity
  8
AM_6
100
AcDbText
 10
6.375
 20
-9.053
 30
0.0
 40
0.5
  1
0.3125
100
AcDbAttributeDefinition
  3

  2
NDM
 70
     8
280
     0
  0
ATTDEF
  5
CA
330
B4
100
AcDbEntity
  8
AM_6
100
AcDbText
 10
6.375
 20
-9.553
 30
0.0
 40
0.5
  1
0.2520
100
AcDbAttributeDefinition
  3

  2
KDM
 70
     8
280
     0
  0
ATTDEF
  5
CB
330
B4
100
AcDbEntity
  8
AM_6
100
AcDbText
 10
6.375
 20
-10.053
 30
0.0
 40
0.5
  1
1
100
AcDbAttributeDefinition
  3

  2
DD
 70
     8
280
     0
  0
ATTDEF
  5
CC
330
B4
100
AcDbEntity
  8
AM_6
100
AcDbText
 10
6.375
 20
-10.553
 30
0.0
 40
0.5
  1
baldor
100
AcDbAttributeDefinition
  3

  2
COMPANY
 70
     8
280
     0
  0
LINE
  5
CD
330
B4
100
AcDbEntity
  8
AM_9
100
AcDbLine
 10
0.9667204080673114
 20
-0.7273606262026671
 30
0.0
 11
0.9588186057002683
 21
-0.7175048141074207
 31
0.0
  0
LINE
  5
CE
330
B4
100
AcDbEntity
  8
AM_9
100
AcDbLine
 10
0.9588039485709583
 20
-0.9605134675333523
 30
0.0
 11
0.9667204080673114
 21
-0.9506393737973329
 31
0.0
  0
LWPOLYLINE
  5
CF
330
B4
100
AcDbEntity
  8
AM_9
100
AcDbPolyline
 90
       25
 70
     0
 43
0.0
 10
0.9587681927256437
 20
-0.717441934688562
 10
0.9507830359024692
 20
-0.7096052603102609
 10
0.9411861948580292
 20
-0.704691538561018
 10
0.9304615446755495
 20
-0.7037593379834577
 10
0.9192537850760379
 20
-0.7070334710045912
 10
0.9077846982770182
 20
-0.7146007524807565
 10
0.8966001711739594
 20
-0.7262401211375727
 10
0.8863394900795778
 20
-0.7414766011682823
 10
0.8773099536379898
 20
-0.760069779287333
 10
0.8703783002532661
 20
-0.7804018868658259
 10
0.8654291956609261
 20
-0.8027605724102009
 10
0.8629620940377324
 20
-0.8245398997857145
 10
0.8626208703802728
 20
-0.8467752637056192
 10
0.8643096398213276
 20
-0.8675282988992726
 10
0.8678149661738628
 20
-0.8874903834720955
 10
0.8730221968277888
 20
-0.9062836981314889
 10
0.8796242678615751
 20
-0.9233266362692679
 10
0.8878597638570167
 20
-0.9391182013894483
 10
0.8969912772847339
 20
-0.952246269160129
 10
0.9074231362706906
 20
-0.9630945047433118
 10
0.9181139245863289
 20
-0.9704043465885754
 10
0.92924726751273
 20
-0.9740863723684998
 10
0.9399411462321269
 20
-0.9736442526851965
 10
0.9500774323464586
 20
-0.9689047988560596
 10
0.9587685337061725
 20
-0.9605576400185459
  0
LWPOLYLINE
  5
D0
330
B4
100
AcDbEntity
  8
AM_9
100
AcDbPolyline
 90
        7
 70
     0
 43
0.0
 10
0.9857109686543801
 20
-0.8389999999999916
 10
0.9854587962131793
 20
-0.8244586537444201
 10
0.9842069558582289
 20
-0.8036323047026396
 10
0.9819465546978768
 20
-0.7841046631107493
 10
0.9786999673425218
 20
-0.7660207829645265
 10
0.9754150487505538
 20
-0.7529052621021374
 10
0.9715380727787518
 20
-0.741116833062571
  0
LWPOLYLINE
  5
D1
330
B4
100
AcDbEntity
  8
AM_9
100
AcDbPolyline
 90
        8
 70
     0
 43
0.0
 10
0.962724254414186
 20
-0.9550061309811873
 10
0.9671228985571815
 20
-0.9471164338774263
 10
0.973740314130867
 20
-0.9305829061202492
 10
0.9787827345822118
 20
-0.9115621028125679
 10
0.9824922755808613
 20
-0.8900111887800921
 10
0.9846796929994055
 20
-0.8683395956583689
 10
0.9856582099085004
 20
-0.8457044842747834
 10
0.9857109686543801
 20
-0.8389999999999916
  0
LWPOLYLINE
  5
D2
330
B4
100
AcDbEntity
  8
AM_9
100
AcDbPolyline
 90
        3
 70
     0
 43
0.0
 10
0.9587685337061725
 20
-0.9605576400185459
 10
0.9592213460049205
 20
-0.9599852244044176
 10
0.962724254414186
 20
-0.9550061309811873
  0
LINE
  5
D3
330
B4
100
AcDbEntity
  8
AM_9
100
AcDbLine
 10
0.9418501574182655
 20
-0.9652
 30
0.0
 11
1.203654871843787
 21
-0.9652
 31
0.0
  0
LINE
  5
D4
330
B4
100
AcDbEntity
  8
AM_9
100
AcDbLine
 10
1.218938658174942
 20
-0.7128
 30
0.0
 11
0.9418501574182655
 21
-0.7128
 31
0.0
  0
ELLIPSE
  5
D5
330
B4
100
AcDbEntity
  8
AM_9
100
AcDbEllipse
 10
1.218938658174949
 20
-0.8390000000000127
 30
0.0
 11
-2.318256390786186E-17
 21
-0.1262000000000134
 31
0.0
210
0.0
220
0.0
230
1.0
 40
0.4226182617407143
 41
3.440225560065713
 42
4.71238898038469
  0
LINE
  5
D6
330
B4
100
AcDbEntity
  8
AM_9
100
AcDbLine
 10
1.213844935170538
 20
-0.702693628559834
 30
0.0
 11
1.194068407525901
 21
-0.7273606262026615
 31
0.0
  0
LWPOLYLINE
  5
D7
330
B4
100
AcDbEntity
  8
AM_9
100
AcDbPolyline
 90
       12
 70
     0
 43
0.0
 10
0.1188996195770223
 20
-0.7608153295834754
 10
0.1142060426877186
 20
-0.7550054047294068
 10
0.0985328443793698
 20
-0.7393474534714546
 10
0.0801509260258058
 20
-0.7259993730102491
 10
0.0589090895114302
 20
-0.7151983218880741
 10
0.0356057842945748
 20
-0.7077102149436388
 10
0.0108061051736513
 20
-0.703958311504054
 10
-0.0149793067815089
 20
-0.7043047619475287
 10
-0.040126471167456
 20
-0.7088465521647582
 10
-0.06483963142626
 20
-0.7177937640972084
 10
-0.083704404166652
 20
-0.7282501418633379
 10
-0.101183741715439
 20
-0.7416673597875862
  0
LWPOLYLINE
  5
D8
330
B4
100
AcDbEntity
  8
AM_9
100
AcDbPolyline
 90
       28
 70
     0
 43
0.0
 10
-0.1183525629649441
 20
-0.7601039580633642
 10
-0.1275895126737101
 20
-0.7736543936364442
 10
-0.1375725029473131
 20
-0.794322012062167
 10
-0.1438745639902233
 20
-0.8172141062831623
 10
-0.1457850944573348
 20
-0.8384875304740297
 10
-0.1439354379935622
 20
-0.8604383952677697
 10
-0.1387727767224035
 20
-0.8803698434283701
 10
-0.1302296369189201
 20
-0.8997039369323029
 10
-0.118676817227775
 20
-0.9174755616722435
 10
-0.1041315660981363
 20
-0.933611883531857
 10
-0.0864699337885861
 20
-0.9478972430927778
 10
-0.0662765237808774
 20
-0.9595311344452092
 10
-0.0435455198347405
 20
-0.9681964420128644
 10
-0.0190623504813184
 20
-0.9732464494801623
 10
0.0062421128853624
 20
-0.9742916580329352
 10
0.0320838252594779
 20
-0.9710754273493799
 10
0.056561092949656
 20
-0.9637471463728039
 10
0.0800977413472399
 20
-0.9520332457860866
 10
0.1002674196002207
 20
-0.937147654098443
 10
0.118016425513791
 20
-0.9183283958514732
 10
0.1309257165826867
 20
-0.8984033316360606
 10
0.1402989398493193
 20
-0.8756883406675026
 10
0.144850397676473
 20
-0.8542675405221297
 10
0.1455701751135865
 20
-0.8316563952954203
 10
0.1426543100415933
 20
-0.8111717396439229
 10
0.1362208359348266
 20
-0.7908980585755188
 10
0.12677348169852
 20
-0.7723028058082414
 10
0.1188996195770223
 20
-0.7608153295834754
  0
LWPOLYLINE
  5
D9
330
B4
100
AcDbEntity
  8
AM_9
100
AcDbPolyline
 90
        3
 70
     0
 43
0.0
 10
-0.101183741715439
 20
-0.7416673597875862
 10
-0.115445122996144
 20
-0.7564774774197883
 10
-0.1183525629649441
 20
-0.7601039580633642
  0
LWPOLYLINE
  5
DA
330
B4
100
AcDbEntity
  8
AM_9
100
AcDbPolyline
 90
        3
 70
     0
 43
0.0
 10
0.9621632717464844
 20
-0.7221269651115862
 10
0.9594602770504532
 20
-0.7183230371741729
 10
0.9587681927256437
 20
-0.717441934688562
  0
LWPOLYLINE
  5
DB
330
B4
100
AcDbEntity
  8
AM_9
100
AcDbPolyline
 90
        3
 70
     0
 43
0.0
 10
0.9715380727787518
 20
-0.741116833062571
 10
0.9659135475690983
 20
-0.728502989187927
 10
0.9621632717464844
 20
-0.7221269651115862
  0
LINE
  5
DC
330
B4
100
AcDbEntity
  8
AM_9
100
AcDbLine
 10
1.03
 20
-1.125
 30
0.0
 11
1.03
 21
-0.553
 31
0.0
  0
LINE
  5
DD
330
B4
100
AcDbEntity
  8
AM_9
100
AcDbLine
 10
-1.03
 20
-0.553
 30
0.0
 11
-1.03
 21
-1.125
 31
0.0
  0
LINE
  5
DE
330
B4
100
AcDbEntity
  8
AM_9
100
AcDbLine
 10
0.1262
 20
-0.839
 30
0.0
 11
-0.1262
 21
-0.839
 31
0.0
  0
LINE
  5
DF
330
B4
100
AcDbEntity
  8
AM_9
100
AcDbLine
 10
1.251578059435964
 20
-0.839
 30
0.0
 11
1.176262874038005
 21
-0.839
 31
0.0
  0
LINE
  5
E0
330
B4
100
AcDbEntity
  8
AM_9
100
AcDbLine
 10
-1.375
 20
-0.553
 30
0.0
 11
1.375
 21
-0.553
 31
0.0
  0
LINE
  5
E1
330
B4
100
AcDbEntity
  8
AM_9
100
AcDbLine
 10
1.375
 20
-0.625
 30
0.0
 11
1.375
 21
-0.553
 31
0.0
  0
LINE
  5
E2
330
B4
100
AcDbEntity
  8
AM_9
100
AcDbLine
 10
-1.375
 20
-0.553
 30
0.0
 11
-1.375
 21
-0.625
 31
0.0
  0
LINE
  5
E3
330
B4
100
AcDbEntity
  8
AM_9
100
AcDbLine
 10
0.1053520357192023
 20
-0.7291444760795179
 30
0.0
 11
0.108211895281345
 21
-0.7322774222388346
 31
0.0
  0
LINE
  5
E4
330
B4
100
AcDbEntity
  8
AM_9
100
AcDbLine
 10
0.1004065022906334
 20
-0.7241134480703842
 30
0.0
 11
0.1044835198432791
 21
-0.7282267223570736
 31
0.0
  0
LWPOLYLINE
  5
E5
330
B4
100
AcDbEntity
  8
AM_9
100
AcDbPolyline
 90
       11
 70
     0
 43
0.0
 10
-0.1003962462825773
 20
-0.7241034883486854
 10
-0.0846605728749428
 20
-0.710788441730542
 10
-0.0629456271430199
 20
-0.69756624210219
 10
-0.0384496724713533
 20
-0.688109496559511
 10
-0.0148128453016497
 20
-0.6835338827187485
 10
0.0100127105203584
 20
-0.6831076757379649
 10
0.0330079054838706
 20
-0.6866816802000519
 10
0.0557160680211961
 20
-0.6942306885823999
 10
0.0764451586983132
 20
-0.7051712520078386
 10
0.0956384975152395
 20
-0.719677875021348
 10
0.1004065022906334
 20
-0.7241134480703842
  0
LINE
  5
E6
330
B4
100
AcDbEntity
  8
AM_9
100
AcDbLine
 10
-0.1043893468202456
 20
-0.7281281191271272
 30
0.0
 11
-0.1003962462825773
 21
-0.7241034883486854
 31
0.0
  0
LWPOLYLINE
  5
E7
330
B4
100
AcDbEntity
  8
AM_9
100
AcDbPolyline
 90
        3
 70
     0
 43
0.0
 10
-0.1084381687371866
 20
-0.7325328631972051
 10
-0.1051740788061588
 20
-0.7289551895200648
 10
-0.1043893468202456
 20
-0.7281281191271272
  0
ARC
  5
E8
330
B4
100
AcDbEntity
  8
AM_9
100
AcDbCircle
 10
0.0
 20
-0.8390000000000001
 30
0.0
 40
0.1262
100
AcDbArc
 50
5.939023833738765
 51
174.0609761662613
  0
ELLIPSE
  5
E9
330
B4
100
AcDbEntity
  8
AM_9
100
AcDbEllipse
 10
0.9418501574182654
 20
-0.8389999999999999
 30
0.0
 11
-2.318256390785941E-17
 21
-0.1262000000000001
 31
0.0
210
0.0
220
0.0
230
1.0
 40
0.4226182617406991
 41
0.0
 42
6.283185307179586
  0
LINE
  5
EC
330
B4
100
AcDbEntity
  8
AM_7
100
AcDbLine
 10
-0.1325100000000003
 20
-0.8390000000000004
 30
0.0
 11
0.132510000000011
 21
-0.8390000000000004
 31
0.0
  0
LWPOLYLINE
  5
EE
330
B4
100
AcDbEntity
  8
AM_4
100
AcDbPolyline
 90
       11
 70
     0
 43
0.0
 10
1.203694960815953
 20
-0.9651999994605885
 10
1.197560040137503
 20
-0.9643827697420564
 10
1.188437376883005
 20
-0.9602097914276716
 10
1.179478469956133
 20
-0.9526528130313219
 10
1.170974111639531
 20
-0.9418624081130658
 10
1.16323674854231
 20
-0.9281954275088081
 10
1.156545541749094
 20
-0.9119288713105034
 10
1.15118089429054
 20
-0.8936011691324248
 10
1.147385180924457
 20
-0.8736998434686613
 10
1.145294973747406
 20
-0.8528118039968398
 10
1.144909210172611
 20
-0.839
  0
ELLIPSE
  5
EF
330
B4
100
AcDbEntity
  8
AM_4
100
AcDbEllipse
 10
1.218938658174938
 20
-0.839000000000004
 30
0.0
 11
-2.318256390786013E-17
 21
-0.126200000000004
 31
0.0
210
0.0
220
0.0
230
1.0
 40
0.4226182617406931
 41
1.570796326794897
 42
3.440225560065543
  0
LWPOLYLINE
  5
F0
330
B4
100
AcDbEntity
  8
AM_4
100
AcDbPolyline
 90
       14
 70
     0
 43
0.0
 10
1.214035122233105
 20
-0.7024564124594613
 10
1.218264758365651
 20
-0.6975662421021898
 10
1.229436354557986
 20
-0.6881094965595109
 10
1.239840712542727
 20
-0.6835338827187485
 10
1.250371720573527
 20
-0.6831076757379649
 10
1.259889826207888
 20
-0.6867747957932931
 10
1.268696348023578
 20
-0.6942306885823998
 10
1.276647104959011
 20
-0.7053497293007349
 10
1.283573675040601
 20
-0.719677875021348
 10
1.289610299711103
 20
-0.7375911630482925
 10
1.294422915987854
 20
-0.7579904905934378
 10
1.29810585210136
 20
-0.7812263630812696
 10
1.300506942754651
 20
-0.8066055000484201
 10
1.301557456887996
 20
-0.839
  0
LWPOLYLINE
  5
F1
330
B4
100
AcDbEntity
  8
AM_4
100
AcDbPolyline
 90
       20
 70
     0
 43
0.0
 10
0.1262
 20
-0.8389999999999999
 10
0.124468578611845
 20
-0.8598329771839495
 10
0.119123416029814
 20
-0.8806659543678991
 10
0.1106171300361007
 20
-0.8997477616260581
 10
0.0987081127479961
 20
-0.9176329986566001
 10
0.0843464615985912
 20
-0.9328728630425074
 10
0.0671477702892477
 20
-0.945853249577083
 10
0.0485126931654683
 20
-0.9555030411698902
 10
0.0279296018190063
 20
-0.9620706193298455
 10
0.007200067292253
 20
-0.9649944404765027
 10
-0.0143387953402804
 20
-0.9643827697420564
 10
-0.0348048262632609
 20
-0.9603056637951591
 10
-0.0548587102479397
 20
-0.9526528130313218
 10
-0.0728546134656991
 20
-0.9420468111916305
 10
-0.0892783048199334
 20
-0.9281954275088081
 10
-0.1028124973985364
 20
-0.9121849054018377
 10
-0.1137767653318213
 20
-0.8936011691324248
 10
-0.1212496925035681
 20
-0.8739993152474468
 10
-0.125441915125499
 20
-0.8528118039968398
 10
-0.1262
 20
-0.8389999999999999
  0
LWPOLYLINE
  5
F2
330
B4
100
AcDbEntity
  8
AM_4
100
AcDbPolyline
 90
       11
 70
     0
 43
0.0
 10
1.251578059435964
 20
-0.839
 10
1.250974724205943
 20
-0.8601314470934759
 10
1.249182248290964
 20
-0.8806659543678991
 10
1.246202588301568
 20
-0.9000063313337007
 10
1.242076883470346
 20
-0.9176329986566002
 10
1.236820246441594
 20
-0.9330661590294789
 10
1.230528516838174
 20
-0.9458532495770832
 10
1.223274847089721
 20
-0.9556090471211866
 10
1.215227404002858
 20
-0.9620706193298455
 10
1.206584817238278
 20
-0.9649987113759333
 10
1.203694960815953
 20
-0.9651999994605885
  0
LINE
  5
F3
330
B4
100
AcDbEntity
  8
AM_4
100
AcDbLine
 10
1.328125
 20
-1.029666666666667
 30
0.0
 11
1.328125
 21
-0.839
 31
0.0
  0
LINE
  5
F4
330
B4
100
AcDbEntity
  8
AM_4
100
AcDbLine
 10
-1.328125
 20
-0.839
 30
0.0
 11
-1.328125
 21
-1.029666666666667
 31
0.0
  0
LINE
  5
F5
330
B4
100
AcDbEntity
  8
AM_4
100
AcDbLine
 10
-1.232791666666667
 20
-1.125
 30
0.0
 11
1.232791666655865
 21
-1.125
 31
0.0
  0
LINE
  5
F6
330
B4
100
AcDbEntity
  8
AM_4
100
AcDbLine
 10
-1.328125
 20
-1.029666666666667
 30
0.0
 11
1.328125
 21
-1.029666666666667
 31
0.0
  0
ARC
  5
F7
330
B4
100
AcDbEntity
  8
AM_4
100
AcDbCircle
 10
1.232791666666667
 20
-1.029666666666667
 30
0.0
 40
0.0953333333333335
100
AcDbArc
 50
270.0
 51
0.0
  0
ARC
  5
F8
330
B4
100
AcDbEntity
  8
AM_4
100
AcDbCircle
 10
-1.232791666666667
 20
-1.029666666666667
 30
0.0
 40
0.0953333333333335
100
AcDbArc
 50
180.0
 51
270.0
  0
LINE
  5
F9
330
B4
100
AcDbEntity
  8
AM_4
100
AcDbLine
 10
1.251578059435964
 20
-0.839
 30
0.0
 11
1.375
 21
-0.839
 31
0.0
  0
LINE
  5
FA
330
B4
100
AcDbEntity
  8
AM_4
100
AcDbLine
 10
0.1262
 20
-0.8389999999999999
 30
0.0
 11
1.176262874038005
 21
-0.839
 31
0.0
  0
LWPOLYLINE
  5
FB
330
B4
100
AcDbEntity
  8
AM_4
100
AcDbPolyline
 90
        8
 70
     0
 43
0.0
 10
1.176262874038004
 20
-0.839
 10
1.176879777344923
 20
-0.819343768213998
 10
1.178708273437042
 20
-0.7999733625115718
 10
1.183146381671485
 20
-0.7743087648710238
 10
1.189873120360383
 20
-0.7497898376763376
 10
1.198073844769797
 20
-0.7289551895200648
 10
1.20802972118644
 20
-0.7107884417305418
 10
1.214035122233105
 20
-0.7024564124594613
  0
LINE
  5
FC
330
B4
100
AcDbEntity
  8
AM_4
100
AcDbLine
 10
1.375
 20
-0.839
 30
0.0
 11
1.375
 21
-0.625
 31
0.0
  0
LINE
  5
FD
330
B4
100
AcDbEntity
  8
AM_4
100
AcDbLine
 10
-1.375
 20
-0.625
 30
0.0
 11
-1.375
 21
-0.839
 31
0.0
  0
LINE
  5
FE
330
B4
100
AcDbEntity
  8
AM_4
100
AcDbLine
 10
-1.375
 20
-0.839
 30
0.0
 11
-0.1262
 21
-0.8389999999999999
 31
0.0
  0
LWPOLYLINE
  5
FF
330
B4
100
AcDbEntity
  8
AM_4
100
AcDbPolyline
 90
        6
 70
     0
 43
0.0
 10
0.108211895281345
 20
-0.7322774222388346
 10
0.1125112614412572
 20
-0.7373357239544825
 10
0.126716966669634
 20
-0.7579904905934376
 10
0.1377086384026034
 20
-0.7812263630812696
 10
0.1450079466451511
 20
-0.80660550004842
 10
0.148236120150041
 20
-0.8389999999999999
  0
LWPOLYLINE
  5
100
330
B4
100
AcDbEntity
  8
AM_4
100
AcDbPolyline
 90
        6
 70
     0
 43
0.0
 10
-0.1482361201500411
 20
-0.8389999999999999
 10
-0.1470729124633054
 20
-0.8194866812557859
 10
-0.1435272678807329
 20
-0.7999733625115719
 10
-0.1349071611276211
 20
-0.774308764871024
 10
-0.1216536395559408
 20
-0.7497898376763377
 10
-0.1084381687371866
 20
-0.7325328631972051
  0
ARC
  5
101
330
B4
100
AcDbEntity
  8
AM_4
100
AcDbCircle
 10
-0.0000000000000154
 20
-0.8389999999999999
 30
0.0
 40
0.1261999999999847
100
AcDbArc
 50
174.0609761662606
 51
180.0
  0
ARC
  5
102
330
B4
100
AcDbEntity
  8
AM_4
100
AcDbCircle
 10
0.0000000000000153
 20
-0.8389999999999999
 30
0.0
 40
0.1261999999999847
100
AcDbArc
 50
0.0
 51
5.939023833739379
  0
CIRCLE
  5
104
330
B4
100
AcDbEntity
  8
AM_5
100
AcDbCircle
 10
0.0
 20
-0.839
 30
0.0
 40
0.1562499999999999
  0
ENDBLK
  5
B7
330
B4
100
AcDbEntity
  8
0
100
AcDbBlockEnd
  0
BLOCK
  5
107
330
105
100
AcDbEntity
  8
0
100
AcDbBlockBegin
  2
4_070018i_0_in_070727_4
 70
     2
 10
0.0
 20
0.0
 30
0.0
  3
4_070018i_0_in_070727_4
  1

  0
ATTDEF
  5
109
330
105
100
AcDbEntity
  8
AM_6
100
AcDbText
 10
6.5748
 20
1.5328125
 30
0.0
 40
0.5
  1
S-2000 Insert -Inch
100
AcDbAttributeDefinition
  3

  2
NN
 70
     8
280
     0
  0
ATTDEF
  5
10A
330
105
100
AcDbEntity
  8
AM_6
100
AcDbText
 10
6.5748
 20
1.0328125
 30
0.0
 40
0.5
  1
S-2000 Bearings
100
AcDbAttributeDefinition
  3

  2
NT
 70
     8
280
     0
  0
ATTDEF
  5
10B
330
105
100
AcDbEntity
  8
AM_6
100
AcDbText
 10
6.5748
 20
0.5328124999999997
 30
0.0
 40
0.5
  1
070018i
100
AcDbAttributeDefinition
  3

  2
NB
 70
     8
280
     0
  0
ATTDEF
  5
10C
330
105
100
AcDbEntity
  8
AM_6
100
AcDbText
 10
6.5748
 20
0.0328124999999997
 30
0.0
 40
0.5
  1
$PN.i
100
AcDbAttributeDefinition
  3

  2
NBSYN
 70
     8
280
     0
  0
ATTDEF
  5
10D
330
105
100
AcDbEntity
  8
AM_6
100
AcDbText
 10
6.5748
 20
-0.4671875000000003
 30
0.0
 40
0.5
  1
070018i
100
AcDbAttributeDefinition
  3

  2
LINA
 70
     8
280
     0
  0
ATTDEF
  5
10E
330
105
100
AcDbEntity
  8
AM_6
100
AcDbText
 10
6.5748
 20
-0.9671875000000003
 30
0.0
 40
0.5
  1
1-1/2
100
AcDbAttributeDefinition
  3

  2
SS
 70
     8
280
     0
  0
ATTDEF
  5
10F
330
105
100
AcDbEntity
  8
AM_6
100
AcDbText
 10
6.5748
 20
-1.4671875
 30
0.0
 40
0.5
  1
2.06
100
AcDbAttributeDefinition
  3

  2
CC
 70
     8
280
     0
  0
ATTDEF
  5
110
330
105
100
AcDbEntity
  8
AM_6
100
AcDbText
 10
6.5748
 20
-1.9671875
 30
0.0
 40
0.5
  1
1.500000
100
AcDbAttributeDefinition
  3

  2
SS1
 70
     8
280
     0
  0
ATTDEF
  5
111
330
105
100
AcDbEntity
  8
AM_6
100
AcDbText
 10
6.5748
 20
-2.467187500000001
 30
0.0
 40
0.5
  1
070018
100
AcDbAttributeDefinition
  3

  2
PN
 70
     8
280
     0
  0
ATTDEF
  5
112
330
105
100
AcDbEntity
  8
AM_6
100
AcDbText
 10
6.5748
 20
-2.967187500000001
 30
0.0
 40
0.5
  1
INS-S2-108L
100
AcDbAttributeDefinition
  3

  2
DESCRIPTION
 70
     8
280
     0
  0
ATTDEF
  5
113
330
105
100
AcDbEntity
  8
AM_6
100
AcDbText
 10
6.5748
 20
-3.467187500000001
 30
0.0
 40
0.5
  1
Labyrinth Seal
100
AcDbAttributeDefinition
  3

  2
ST
 70
     8
280
     0
  0
ATTDEF
  5
114
330
105
100
AcDbEntity
  8
AM_6
100
AcDbText
 10
6.5748
 20
-3.967187500000001
 30
0.0
 40
0.5
  1
2
100
AcDbAttributeDefinition
  3

  2
ST1
 70
     8
280
     0
  0
ATTDEF
  5
115
330
105
100
AcDbEntity
  8
AM_6
100
AcDbText
 10
6.5748
 20
-4.467187500000001
 30
0.0
 40
0.5
  1
3.1496
100
AcDbAttributeDefinition
  3

  2
A
 70
     8
280
     0
  0
ATTDEF
  5
116
330
105
100
AcDbEntity
  8
AM_6
100
AcDbText
 10
6.5748
 20
-4.967187500000001
 30
0.0
 40
0.5
  1
61/64
100
AcDbAttributeDefinition
  3

  2
B
 70
     8
280
     0
  0
ATTDEF
  5
117
330
105
100
AcDbEntity
  8
AM_6
100
AcDbText
 10
6.5748
 20
-5.467187500000001
 30
0.0
 40
0.5
  1
2-17/32
100
AcDbAttributeDefinition
  3

  2
C
 70
     8
280
     0
  0
ATTDEF
  5
118
330
105
100
AcDbEntity
  8
AM_6
100
AcDbText
 10
6.5748
 20
-5.967187500000001
 30
0.0
 40
0.5
  1
0.970
100
AcDbAttributeDefinition
  3

  2
D
 70
     8
280
     0
  0
ATTDEF
  5
119
330
105
100
AcDbEntity
  8
AM_6
100
AcDbText
 10
6.5748
 20
-6.467187500000001
 30
0.0
 40
0.5
  1
2-21/32
100
AcDbAttributeDefinition
  3

  2
E
 70
     8
280
     0
  0
ATTDEF
  5
11A
330
105
100
AcDbEntity
  8
AM_6
100
AcDbText
 10
6.5748
 20
-6.967187500000001
 30
0.0
 40
0.5
  1
0.28125
100
AcDbAttributeDefinition
  3

  2
F
 70
     8
280
     0
  0
ATTDEF
  5
11B
330
105
100
AcDbEntity
  8
AM_6
100
AcDbText
 10
6.5748
 20
-7.467187500000001
 30
0.0
 40
0.5
  1
1
100
AcDbAttributeDefinition
  3

  2
DD
 70
     8
280
     0
  0
ATTDEF
  5
11C
330
105
100
AcDbEntity
  8
AM_6
100
AcDbText
 10
6.5748
 20
-7.967187500000001
 30
0.0
 40
0.5
  1
baldor
100
AcDbAttributeDefinition
  3

  2
COMPANY
 70
     8
280
     0
  0
LINE
  5
11D
330
105
100
AcDbEntity
  8
AM_9
100
AcDbLine
 10
0.9334970206477495
 20
-0.664
 30
0.0
 11
0.6796029090698052
 21
-0.664
 31
0.0
  0
LINE
  5
11E
330
105
100
AcDbEntity
  8
AM_9
100
AcDbLine
 10
0.6796541858599198
 20
-1.014
 30
0.0
 11
0.9334970206477496
 21
-1.014
 31
0.0
  0
LWPOLYLINE
  5
11F
330
105
100
AcDbEntity
  8
AM_9
100
AcDbPolyline
 90
       21
 70
     0
 43
0.0
 10
0.6797354389406162
 20
-0.6640000003383079
 10
0.6719273303191956
 20
-0.6649283131723795
 10
0.6590782683389268
 20
-0.6701154855530204
 10
0.645549030092484
 20
-0.6800456236646613
 10
0.6324851647926204
 20
-0.6940154354744063
 10
0.6198317158822187
 20
-0.7123341576605272
 10
0.6085846922014586
 20
-0.7340721493205681
 10
0.5990026689926192
 20
-0.7594836097997548
 10
0.592114421833889
 20
-0.7865629634458533
 10
0.5879753127127558
 20
-0.8160561909158458
 10
0.5870693124493979
 20
-0.8446989772206756
 10
0.5892676817630437
 20
-0.8740215327472665
 10
0.5942278499359134
 20
-0.9011543659227373
 10
0.6019415495528627
 20
-0.9272991838844964
 10
0.6117685671151111
 20
-0.9507528789860598
 10
0.6236206792371299
 20
-0.9717229797258673
 10
0.6365792353382705
 20
-0.988852698018725
 10
0.6505381288318051
 20
-1.002138401120394
 10
0.6640134457143848
 20
-1.010382536552193
 10
0.6773677606405276
 20
-1.013912049262924
 10
0.6797231584103823
 20
-1.013999999056056
  0
LWPOLYLINE
  5
120
330
105
100
AcDbEntity
  8
AM_9
100
AcDbPolyline
 90
       11
 70
     0
 43
0.0
 10
0.6797231584103823
 20
-1.013999999056056
 10
0.689100474130817
 20
-1.012492340081
 10
0.6999102389858219
 20
-1.006234347908089
 10
0.7089602279408499
 20
-0.9957297661293568
 10
0.7167314472289202
 20
-0.9806943843849965
 10
0.7229339897311277
 20
-0.9619154636530245
 10
0.7278232656767674
 20
-0.9391365083319865
 10
0.7312970188843039
 20
-0.9138032030951619
 10
0.733611864573035
 20
-0.8854648765145232
 10
0.7345945024109788
 20
-0.8626768009323845
 10
0.7349262963594176
 20
-0.839
  0
LWPOLYLINE
  5
121
330
105
100
AcDbEntity
  8
AM_9
100
AcDbPolyline
 90
       12
 70
     0
 43
0.0
 10
0.8459665306186323
 20
-0.839
 10
0.8460972915007772
 20
-0.8305692766402607
 10
0.8483045205344528
 20
-0.8015601579945512
 10
0.8531963862303122
 20
-0.7738105987292664
 10
0.860485225722411
 20
-0.747871577916395
 10
0.8699498509986968
 20
-0.7242640456985338
 10
0.8810607881163173
 20
-0.7038482107164012
 10
0.8934853375283646
 20
-0.6870687899709454
 10
0.9065759252811615
 20
-0.6745909229878959
 10
0.919755472827023
 20
-0.6668719457402666
 10
0.9326171010317551
 20
-0.6640123327571632
 10
0.9334920782865639
 20
-0.6640000003907454
  0
LWPOLYLINE
  5
122
330
105
100
AcDbEntity
  8
AM_9
100
AcDbPolyline
 90
       11
 70
     0
 43
0.0
 10
0.9335029728775591
 20
-1.013999999433229
 10
0.925283887650353
 20
-1.012959402438499
 10
0.9123807932615888
 20
-1.007385631169831
 10
0.8994187050831411
 20
-0.9972070014350862
 10
0.8868114676302247
 20
-0.9825790181027535
 10
0.8751181360945851
 20
-0.9640071792145827
 10
0.8647295837672877
 20
-0.9416494424123153
 10
0.856257877708185
 20
-0.9163771858353386
 10
0.8501473626291758
 20
-0.8888202076914424
 10
0.8466852168874099
 20
-0.8598186940582893
 10
0.8459665306186323
 20
-0.839
  0
LWPOLYLINE
  5
123
330
105
100
AcDbEntity
  8
AM_9
100
AcDbPolyline
 90
        3
 70
     0
 43
0.0
 10
0.9930839447599031
 20
-0.8068196563132645
 10
0.9935423664932884
 20
-0.8179266288128515
 10
0.9938829222278769
 20
-0.839
  0
LWPOLYLINE
  5
124
330
105
100
AcDbEntity
  8
AM_9
100
AcDbPolyline
 90
       10
 70
     0
 43
0.0
 10
0.9334920782865639
 20
-0.6640000003907454
 10
0.9445852859611438
 20
-0.666114570914647
 10
0.95553344385968
 20
-0.6729778595370336
 10
0.965202732295545
 20
-0.6844455034333494
 10
0.9735003021697903
 20
-0.7001328197815231
 10
0.9804196938669214
 20
-0.7199145999663891
 10
0.9858731565762479
 20
-0.7430334638285773
 10
0.9899003790166319
 20
-0.7690901257103793
 10
0.9925196932323542
 20
-0.7971669167746205
 10
0.9930839447599031
 20
-0.8068196563132645
  0
LWPOLYLINE
  5
125
330
105
100
AcDbEntity
  8
AM_9
100
AcDbPolyline
 90
       11
 70
     0
 43
0.0
 10
0.7349262963594176
 20
-0.839
 10
0.7344429916397448
 20
-0.8104871417041426
 10
0.7329070116758583
 20
-0.7819742834082852
 10
0.7303298114241422
 20
-0.7558748009040401
 10
0.7264482129524172
 20
-0.7313931149955775
 10
0.7212487276546498
 20
-0.7101453141069911
 10
0.7143703643167619
 20
-0.6919586367428914
 10
0.7060207041955372
 20
-0.678192235215275
 10
0.6957890016313242
 20
-0.6687089344373043
 10
0.6846191512355237
 20
-0.6643958941078246
 10
0.6797354389406162
 20
-0.6640000003383079
  0
LINE
  5
126
330
105
100
AcDbEntity
  8
AM_9
100
AcDbLine
 10
-0.7499999999999999
 20
1.40625
 30
0.0
 11
-0.7499999999999999
 21
-1.125
 31
0.0
  0
LINE
  5
127
330
105
100
AcDbEntity
  8
AM_9
100
AcDbLine
 10
0.7499999999999999
 20
-1.125
 30
0.0
 11
0.7499999999999999
 21
1.40625
 31
0.0
  0
LWPOLYLINE
  5
128
330
105
100
AcDbEntity
  8
AM_9
100
AcDbPolyline
 90
       10
 70
     0
 43
0.0
 10
0.9930917013900593
 20
-0.8710258779664077
 10
0.9912563220164305
 20
-0.8964504453057476
 10
0.9879293407841631
 20
-0.923105996380489
 10
0.9832129705546524
 20
-0.9474167776498947
 10
0.9769870286120511
 20
-0.9688684298067871
 10
0.9692886140666137
 20
-0.9866839490053648
 10
0.960060587432073
 20
-1.000383453474293
 10
0.9494738003690123
 20
-1.009501741688253
 10
0.9378111283897616
 20
-1.013676356212409
 10
0.9335029728775591
 20
-1.013999999433229
  0
LWPOLYLINE
  5
129
330
105
100
AcDbEntity
  8
AM_9
100
AcDbPolyline
 90
        3
 70
     0
 43
0.0
 10
0.9938829222278769
 20
-0.839
 10
0.9932270559878096
 20
-0.8681387998091286
 10
0.9930917013900593
 20
-0.8710258779664077
  0
LWPOLYLINE
  5
12A
330
105
100
AcDbEntity
  8
AM_9
100
AcDbPolyline
 90
        6
 70
     0
 43
0.0
 10
0.1335089119966313
 20
-0.7258612779925645
 10
0.1463400968130711
 20
-0.7430334638285774
 10
0.160252628067769
 20
-0.7686857397296019
 10
0.1699264345175832
 20
-0.7971669167746207
 10
0.1737073028630756
 20
-0.8177685861979067
 10
0.175
 20
-0.839
  0
LWPOLYLINE
  5
12B
330
105
100
AcDbEntity
  8
AM_9
100
AcDbPolyline
 90
        3
 70
     0
 43
0.0
 10
0.1189720077850237
 20
-0.7106619255107813
 10
0.1279391803991795
 20
-0.7195991368591239
 10
0.1335089119966313
 20
-0.7258612779925645
  0
LINE
  5
12C
330
105
100
AcDbEntity
  8
AM_9
100
AcDbLine
 10
0.1151759286029899
 20
-0.7072445239451024
 30
0.0
 11
0.1189720077850237
 21
-0.7106619255107813
 31
0.0
  0
LWPOLYLINE
  5
12D
330
105
100
AcDbEntity
  8
AM_9
100
AcDbPolyline
 90
       11
 70
     0
 43
0.0
 10
-0.115136544381087
 20
-0.7072101060476104
 10
-0.111171011749654
 20
-0.7038482107164012
 10
-0.0871895983241894
 20
-0.6872667671732178
 10
-0.059955445090734
 20
-0.6745909229878959
 10
-0.0319026251259536
 20
-0.666932505945856
 10
-0.0020775738037906
 20
-0.6640123327571632
 10
0.0265972562462647
 20
-0.6660329917002363
 10
0.0553321685468324
 20
-0.6729778595370336
 10
0.0816982203405888
 20
-0.6842408296960061
 10
0.1064936911660455
 20
-0.7001328197815231
 10
0.1151759286029899
 20
-0.7072445239451024
  0
LINE
  5
12E
330
105
100
AcDbEntity
  8
AM_9
100
AcDbLine
 10
-0.1189744953410301
 20
-0.7106642315706678
 30
0.0
 11
-0.115136544381087
 21
-0.7072101060476104
 31
0.0
  0
LWPOLYLINE
  5
12F
330
105
100
AcDbEntity
  8
AM_9
100
AcDbPolyline
 90
        3
 70
     0
 43
0.0
 10
-0.1335341261583919
 20
-0.7258910385905931
 10
-0.1323981873899363
 20
-0.7245634674771237
 10
-0.1189744953410301
 20
-0.7106642315706678
  0
LWPOLYLINE
  5
130
330
105
100
AcDbEntity
  8
AM_9
100
AcDbPolyline
 90
        6
 70
     0
 43
0.0
 10
-0.1749999999999999
 20
-0.839
 10
-0.1748167393483924
 20
-0.830993275101752
 10
-0.1709481156099915
 20
-0.8015601579945512
 10
-0.1625538556677182
 20
-0.7741829959998257
 10
-0.1494008389820897
 20
-0.7478715779163949
 10
-0.1335341261583919
 20
-0.7258910385905931
  0
LWPOLYLINE
  5
131
330
105
100
AcDbEntity
  8
AM_9
100
AcDbPolyline
 90
       20
 70
     0
 43
0.0
 10
0.175
 20
-0.839
 10
0.1726263641033512
 20
-0.8677252226528739
 10
0.1653010778372946
 20
-0.8964504453057476
 10
0.153656272928678
 20
-0.9227541031213851
 10
0.1373710388837958
 20
-0.9474167776498945
 10
0.1175946466448143
 20
-0.9686013081742668
 10
0.0938853087878011
 20
-0.9866839490053648
 10
0.0680387470719214
 20
-1.000231910293475
 10
0.0394227863205064
 20
-1.009501741688253
 10
0.0107628715723161
 20
-1.013668716705419
 10
-0.019055873195427
 20
-1.012959402438499
 10
-0.0472026499957345
 20
-1.007513826831451
 10
-0.0748033735664281
 20
-0.9972070014350862
 10
-0.099696712880877
 20
-0.9828247733902193
 10
-0.1224671594543336
 20
-0.9640071792145827
 10
-0.1414768870885451
 20
-0.9420014097948907
 10
-0.1569642351371913
 20
-0.9163771858353386
 10
-0.1676323576327585
 20
-0.8892433346274204
 10
-0.1737572501442956
 20
-0.8598186940582893
 10
-0.1749999999999999
 20
-0.839
  0
LINE
  5
132
330
105
100
AcDbEntity
  8
AM_9
100
AcDbLine
 10
-1.03
 20
-0.27175
 30
0.0
 11
-1.03
 21
-1.125
 31
0.0
  0
LINE
  5
133
330
105
100
AcDbEntity
  8
AM_9
100
AcDbLine
 10
1.03
 20
-1.125
 30
0.0
 11
1.03
 21
-0.27175
 31
0.0
  0
LINE
  5
134
330
105
100
AcDbEntity
  8
AM_9
100
AcDbLine
 10
-1.03
 20
1.21875
 30
0.0
 11
-1.03
 21
1.14425
 31
0.0
  0
LINE
  5
135
330
105
100
AcDbEntity
  8
AM_9
100
AcDbLine
 10
1.03
 20
1.14425
 30
0.0
 11
1.03
 21
1.21875
 31
0.0
  0
LINE
  5
136
330
105
100
AcDbEntity
  8
AM_9
100
AcDbLine
 10
1.1645275
 20
1.14425
 30
0.0
 11
-1.1645275
 21
1.14425
 31
0.0
  0
ARC
  5
137
330
105
100
AcDbEntity
  8
AM_9
100
AcDbCircle
 10
-1.1645275
 20
1.0489375
 30
0.0
 40
0.0953124999999999
100
AcDbArc
 50
90.0
 51
180.0
  0
ARC
  5
138
330
105
100
AcDbEntity
  8
AM_9
100
AcDbCircle
 10
1.1645275
 20
1.0489375
 30
0.0
 40
0.0953125000000001
100
AcDbArc
 50
0.0
 51
90.0
  0
LINE
  5
139
330
105
100
AcDbEntity
  8
AM_9
100
AcDbLine
 10
-1.25984
 20
1.0489375
 30
0.0
 11
-1.25984
 21
0.9128125000000001
 31
0.0
  0
LINE
  5
13A
330
105
100
AcDbEntity
  8
AM_9
100
AcDbLine
 10
1.25984
 20
0.9128125000000001
 30
0.0
 11
1.25984
 21
1.0489375
 31
0.0
  0
LINE
  5
13B
330
105
100
AcDbEntity
  8
AM_9
100
AcDbLine
 10
1.25984
 20
1.0489375
 30
0.0
 11
-1.25984
 21
1.0489375
 31
0.0
  0
LINE
  5
13C
330
105
100
AcDbEntity
  8
AM_9
100
AcDbLine
 10
-1.25984
 20
-0.0403125
 30
0.0
 11
-1.25984
 21
-0.1764375000000003
 31
0.0
  0
LINE
  5
13D
330
105
100
AcDbEntity
  8
AM_9
100
AcDbLine
 10
1.25984
 20
-0.1764375000000003
 30
0.0
 11
1.25984
 21
-0.0403125
 31
0.0
  0
LINE
  5
13E
330
105
100
AcDbEntity
  8
AM_9
100
AcDbLine
 10
1.1645275
 20
-0.27175
 30
0.0
 11
-1.1645275
 21
-0.27175
 31
0.0
  0
ARC
  5
13F
330
105
100
AcDbEntity
  8
AM_9
100
AcDbCircle
 10
-1.1645275
 20
-0.1764375000000004
 30
0.0
 40
0.0953124999999997
100
AcDbArc
 50
180.0
 51
270.0
  0
ARC
  5
140
330
105
100
AcDbEntity
  8
AM_9
100
AcDbCircle
 10
1.1645275
 20
-0.1764375000000004
 30
0.0
 40
0.0953124999999997
100
AcDbArc
 50
270.0
 51
0.0
  0
LINE
  5
141
330
105
100
AcDbEntity
  8
AM_9
100
AcDbLine
 10
1.25984
 20
-0.1764375000000003
 30
0.0
 11
-1.25984
 21
-0.1764375000000003
 31
0.0
  0
LINE
  5
142
330
105
100
AcDbEntity
  8
AM_9
100
AcDbLine
 10
-1.511808
 20
0.4839062499999989
 30
0.0
 11
-1.511808
 21
0.3885937500000012
 31
0.0
  0
LINE
  5
143
330
105
100
AcDbEntity
  8
AM_9
100
AcDbLine
 10
1.511808
 20
0.3885937500000012
 30
0.0
 11
1.511808
 21
0.4839062499999989
 31
0.0
  0
LINE
  5
144
330
105
100
AcDbEntity
  8
AM_9
100
AcDbLine
 10
1.4794875
 20
0.9128125000000001
 30
0.0
 11
-1.4794875
 21
0.9128125000000001
 31
0.0
  0
ARC
  5
145
330
105
100
AcDbEntity
  8
AM_9
100
AcDbCircle
 10
-1.479487499999999
 20
0.8174999999999999
 30
0.0
 40
0.0953125000000002
100
AcDbArc
 50
90.0
 51
179.9999991462263
  0
ARC
  5
146
330
105
100
AcDbEntity
  8
AM_9
100
AcDbCircle
 10
1.479487499998616
 20
0.8174999999986162
 30
0.0
 40
0.0953125000013841
100
AcDbArc
 50
0.0
 51
90.0
  0
LINE
  5
147
330
105
100
AcDbEntity
  8
AM_9
100
AcDbLine
 10
-1.511808
 20
0.3885937500000012
 30
0.0
 11
-1.5748
 21
0.3522253018432082
 31
0.0
  0
LINE
  5
148
330
105
100
AcDbEntity
  8
AM_9
100
AcDbLine
 10
1.5748
 20
0.3522253018432082
 30
0.0
 11
1.511808
 21
0.3885937500000012
 31
0.0
  0
LINE
  5
149
330
105
100
AcDbEntity
  8
AM_9
100
AcDbLine
 10
1.511808
 20
0.3885937500000012
 30
0.0
 11
-1.511808
 21
0.3885937500000012
 31
0.0
  0
LINE
  5
14A
330
105
100
AcDbEntity
  8
AM_9
100
AcDbLine
 10
-1.5748
 20
0.8175
 30
0.0
 11
-1.5748
 21
0.5202746981567918
 31
0.0
  0
LINE
  5
14B
330
105
100
AcDbEntity
  8
AM_9
100
AcDbLine
 10
1.5748
 20
0.5202746981567918
 30
0.0
 11
1.5748
 21
0.8175
 31
0.0
  0
LINE
  5
14C
330
105
100
AcDbEntity
  8
AM_9
100
AcDbLine
 10
1.5748
 20
0.8175
 30
0.0
 11
-1.5748
 21
0.8175
 31
0.0
  0
LINE
  5
14D
330
105
100
AcDbEntity
  8
AM_9
100
AcDbLine
 10
1.511808
 20
0.4839062499999989
 30
0.0
 11
1.5748
 21
0.5202746981567918
 31
0.0
  0
LINE
  5
14E
330
105
100
AcDbEntity
  8
AM_9
100
AcDbLine
 10
-1.5748
 20
0.5202746981567918
 30
0.0
 11
-1.511808
 21
0.4839062499999989
 31
0.0
  0
LINE
  5
14F
330
105
100
AcDbEntity
  8
AM_9
100
AcDbLine
 10
1.5748
 20
0.5202746981567918
 30
0.0
 11
-1.5748
 21
0.5202746981567918
 31
0.0
  0
LINE
  5
150
330
105
100
AcDbEntity
  8
AM_9
100
AcDbLine
 10
1.511808
 20
0.4839062499999989
 30
0.0
 11
-1.511808
 21
0.4839062499999989
 31
0.0
  0
LINE
  5
151
330
105
100
AcDbEntity
  8
AM_9
100
AcDbLine
 10
1.4794875
 20
-0.0403125
 30
0.0
 11
-1.4794875
 21
-0.0403125
 31
0.0
  0
ARC
  5
152
330
105
100
AcDbEntity
  8
AM_9
100
AcDbCircle
 10
-1.4794875
 20
0.0549999999999999
 30
0.0
 40
0.0953124999999999
100
AcDbArc
 50
180.0
 51
270.0
  0
ARC
  5
153
330
105
100
AcDbEntity
  8
AM_9
100
AcDbCircle
 10
1.4794875
 20
0.0549999999999999
 30
0.0
 40
0.0953124999999998
100
AcDbArc
 50
270.0
 51
0.0
  0
LINE
  5
154
330
105
100
AcDbEntity
  8
AM_9
100
AcDbLine
 10
-1.5748
 20
0.3522253018432082
 30
0.0
 11
-1.5748
 21
0.0549999999999997
 31
0.0
  0
LINE
  5
155
330
105
100
AcDbEntity
  8
AM_9
100
AcDbLine
 10
1.5748
 20
0.0549999999999997
 30
0.0
 11
1.5748
 21
0.3522253018432082
 31
0.0
  0
LINE
  5
156
330
105
100
AcDbEntity
  8
AM_9
100
AcDbLine
 10
1.5748
 20
0.3522253018432082
 30
0.0
 11
-1.5748
 21
0.3522253018432082
 31
0.0
  0
LINE
  5
157
330
105
100
AcDbEntity
  8
AM_9
100
AcDbLine
 10
1.5748
 20
0.0549999999999997
 30
0.0
 11
-1.5748
 21
0.0549999999999997
 31
0.0
  0
LINE
  5
158
330
105
100
AcDbEntity
  8
AM_7
100
AcDbLine
 10
0.0
 20
1.5328125
 30
0.0
 11
0.0
 21
-1.2515625
 31
0.0
  0
LINE
  5
159
330
105
100
AcDbEntity
  8
AM_4
100
AcDbLine
 10
-1.03
 20
1.40625
 30
0.0
 11
-1.03
 21
1.21875
 31
0.0
  0
LINE
  5
15A
330
105
100
AcDbEntity
  8
AM_4
100
AcDbLine
 10
1.03
 20
1.21875
 30
0.0
 11
1.03
 21
1.40625
 31
0.0
  0
LINE
  5
15B
330
105
100
AcDbEntity
  8
AM_4
100
AcDbLine
 10
1.03
 20
1.40625
 30
0.0
 11
-1.03
 21
1.40625
 31
0.0
  0
ENDBLK
  5
108
330
105
100
AcDbEntity
  8
0
100
AcDbBlockEnd
  0
BLOCK
  5
15E
330
15C
100
AcDbEntity
  8
0
100
AcDbBlockBegin
  2
5_405015E_Inch_0_in_070727_4
 70
     2
 10
0.0
 20
0.0
 30
0.0
  3
5_405015E_Inch_0_in_070727_4
  1

  0
ATTDEF
  5
160
330
15C
100
AcDbEntity
  8
AM_6
100
AcDbText
 10
5.252590742770462
 20
-0.2322794184014682
 30
0.0
 40
0.5
  1
405015E -Inch
100
AcDbAttributeDefinition
  3

  2
NN
 70
     8
280
     0
  0
ATTDEF
  5
161
330
15C
100
AcDbEntity
  8
AM_6
100
AcDbText
 10
5.252590742770462
 20
-0.7322794184014683
 30
0.0
 40
0.5
  1
Grease Fitting
100
AcDbAttributeDefinition
  3

  2
NT
 70
     8
280
     0
  0
ATTDEF
  5
162
330
15C
100
AcDbEntity
  8
AM_6
100
AcDbText
 10
5.252590742770462
 20
-1.232279418401468
 30
0.0
 40
0.5
  1
405015E-Inch
100
AcDbAttributeDefinition
  3

  2
NB
 70
     8
280
     0
  0
ATTDEF
  5
163
330
15C
100
AcDbEntity
  8
AM_6
100
AcDbText
 10
5.252590742770462
 20
-1.732279418401468
 30
0.0
 40
0.5
  1
$MN.-Inch
100
AcDbAttributeDefinition
  3

  2
NBSYN
 70
     8
280
     0
  0
ATTDEF
  5
164
330
15C
100
AcDbEntity
  8
AM_6
100
AcDbText
 10
5.252590742770462
 20
-2.232279418401468
 30
0.0
 40
0.5
  1
405015E
100
AcDbAttributeDefinition
  3

  2
LINA
 70
     8
280
     0
  0
ATTDEF
  5
165
330
15C
100
AcDbEntity
  8
AM_6
100
AcDbText
 10
5.252590742770462
 20
-2.732279418401468
 30
0.0
 40
0.5
  1
405015E
100
AcDbAttributeDefinition
  3

  2
MN
 70
     8
280
     0
  0
ATTDEF
  5
166
330
15C
100
AcDbEntity
  8
AM_6
100
AcDbText
 10
5.252590742770462
 20
-3.232279418401468
 30
0.0
 40
0.5
  1
1/8 x 27PTF
100
AcDbAttributeDefinition
  3

  2
T
 70
     8
280
     0
  0
ATTDEF
  5
167
330
15C
100
AcDbEntity
  8
AM_6
100
AcDbText
 10
5.252590742770462
 20
-3.732279418401468
 30
0.0
 40
0.5
  1
baldor
100
AcDbAttributeDefinition
  3

  2
COMPANY
 70
     8
280
     0
  0
LINE
  5
168
330
15C
100
AcDbEntity
  8
AM_9
100
AcDbLine
 10
0.1262953713852306
 20
-0.7308523553303057
 30
0.0
 11
0.1262953713852306
 21
-0.6599553583290941
 31
0.0
  0
LINE
  5
169
330
15C
100
AcDbEntity
  8
AM_9
100
AcDbLine
 10
-0.1262953713852306
 20
-0.7308523553303057
 30
0.0
 11
-0.1262953713852306
 21
-0.6599553583290941
 31
0.0
  0
LWPOLYLINE
  5
16A
330
15C
100
AcDbEntity
  8
AM_9
100
AcDbPolyline
 90
        3
 70
     0
 43
0.0
 10
0.1262953713852306
 20
-0.6599553583290941
 10
0.0634316146914367
 20
-0.6541936265849203
 10
0.0
 20
-0.652102586640478
  0
LWPOLYLINE
  5
16B
330
15C
100
AcDbEntity
  8
AM_9
100
AcDbPolyline
 90
        4
 70
     0
 43
0.0
 10
0.0
 20
-0.652102586640478
 10
-0.0483998160558989
 20
-0.6533302302329258
 10
-0.0967996321117978
 20
-0.6568504951549565
 10
-0.1262953713852306
 20
-0.6599553583290941
  0
LWPOLYLINE
  5
16C
330
15C
100
AcDbEntity
  8
AM_9
100
AcDbPolyline
 90
        3
 70
     0
 43
0.0
 10
-0.1262953713852306
 20
-0.6599553583290941
 10
-0.1577272497321276
 20
-0.6269728214478454
 10
-0.1894430570778459
 20
-0.5974150866404779
  0
LWPOLYLINE
  5
16D
330
15C
100
AcDbEntity
  8
AM_9
100
AcDbPolyline
 90
        3
 70
     0
 43
0.0
 10
0.1894430570778459
 20
-0.5974150866404779
 10
0.1578692142315383
 20
-0.6268315652012475
 10
0.1262953713852306
 20
-0.6599553583290941
  0
LWPOLYLINE
  5
16E
330
15C
100
AcDbEntity
  8
AM_9
100
AcDbPolyline
 90
        4
 70
     0
 43
0.0
 10
-0.1018476311891983
 20
-0.7334729523124847
 10
-0.0967996321117978
 20
-0.7339572185044433
 10
-0.0485424412477544
 20
-0.7374703235389882
 10
0.0
 20
-0.7387051270189218
  0
LINE
  5
16F
330
15C
100
AcDbEntity
  8
AM_9
100
AcDbLine
 10
-0.1050087569988763
 20
-0.7331594096336509
 30
0.0
 11
-0.1018476311891983
 21
-0.7334729523124847
 31
0.0
  0
LINE
  5
170
330
15C
100
AcDbEntity
  8
AM_9
100
AcDbLine
 10
0.101866192704947
 20
-0.7334711341734808
 30
0.0
 11
0.1050474083588161
 21
-0.7331555275908062
 31
0.0
  0
LWPOLYLINE
  5
171
330
15C
100
AcDbEntity
  8
AM_9
100
AcDbPolyline
 90
        3
 70
     0
 43
0.0
 10
0.0
 20
-0.7387051270189218
 10
0.0631476856926153
 20
-0.7366323984581523
 10
0.101866192704947
 20
-0.7334711341734808
  0
LWPOLYLINE
  5
172
330
15C
100
AcDbEntity
  8
AM_9
100
AcDbPolyline
 90
        3
 70
     0
 43
0.0
 10
-0.1894430570778459
 20
-0.5974150866404779
 10
-0.2210168999241536
 20
-0.5721440652012475
 10
-0.2525907427704612
 20
-0.5505803583290941
  0
LWPOLYLINE
  5
173
330
15C
100
AcDbEntity
  8
AM_9
100
AcDbPolyline
 90
        3
 70
     0
 43
0.0
 10
0.2525907427704612
 20
-0.5505803583290941
 10
0.2211588644235643
 20
-0.572039431721995
 10
0.1894430570778459
 20
-0.5974150866404779
  0
LINE
  5
174
330
15C
100
AcDbEntity
  8
AM_9
100
AcDbLine
 10
-0.1321931418159853
 20
-0.2664935211353827
 30
0.0
 11
-0.1621706131788416
 21
-0.2876907944188839
 31
0.0
  0
LINE
  5
175
330
15C
100
AcDbEntity
  8
AM_9
100
AcDbLine
 10
0.1621706131788416
 20
-0.2876907944188839
 30
0.0
 11
0.1321931418159853
 21
-0.2664935211353827
 31
0.0
  0
LINE
  5
176
330
15C
100
AcDbEntity
  8
AM_9
100
AcDbLine
 10
-0.1985852938306408
 20
-0.3432349259540337
 30
0.0
 11
-0.2057184028850727
 21
-0.5408713858628484
 31
0.0
  0
LINE
  5
177
330
15C
100
AcDbEntity
  8
AM_9
100
AcDbLine
 10
0.2057184028850727
 20
-0.5408713858628484
 30
0.0
 11
0.1985852938306408
 21
-0.3432349259540337
 31
0.0
  0
LINE
  5
178
330
15C
100
AcDbEntity
  8
AM_9
100
AcDbLine
 10
0.1017810272422101
 20
-0.7331629608047651
 30
0.0
 11
0.105
 21
-0.7268605661652376
 31
0.0
  0
LINE
  5
179
330
15C
100
AcDbEntity
  8
AM_9
100
AcDbLine
 10
-0.105
 20
-0.7268605661652376
 30
0.0
 11
-0.1017810272422101
 21
-0.7331629608047651
 31
0.0
  0
ELLIPSE
  5
17A
330
15C
100
AcDbEntity
  8
AM_9
100
AcDbEllipse
 10
0.0
 20
-0.7202627944162879
 30
0.0
 11
-0.1049999999999999
 21
1.285879139104720E-17
 31
0.0
210
0.0
220
0.0
230
1.0
 40
0.4999999999999992
 41
0.0
 42
3.141592653589793
  0
LINE
  5
17B
330
15C
100
AcDbEntity
  8
AM_9
100
AcDbLine
 10
-0.105
 20
-0.7385010232287474
 30
0.0
 11
-0.105
 21
-0.7462435565298211
 31
0.0
  0
LINE
  5
17C
330
15C
100
AcDbEntity
  8
AM_9
100
AcDbLine
 10
0.105
 20
-0.7462435565298211
 30
0.0
 11
0.105
 21
-0.7385010232287474
 31
0.0
  0
ELLIPSE
  5
17D
330
15C
100
AcDbEntity
  8
AM_9
100
AcDbEllipse
 10
0.0
 20
-0.7462435565298212
 30
0.0
 11
-0.105
 21
1.285879139104721E-17
 31
0.0
210
0.0
220
0.0
230
1.0
 40
0.5000000000000011
 41
5.990342535451008
 42
9.717620732497958
  0
LINE
  5
17E
330
15C
100
AcDbEntity
  8
AM_9
100
AcDbLine
 10
0.0976523208201058
 20
-0.7261822942776701
 30
0.0
 11
0.1098343496897825
 21
-0.7173954411508202
 31
0.0
  0
LINE
  5
17F
330
15C
100
AcDbEntity
  8
AM_9
100
AcDbLine
 10
-0.1098343496897825
 20
-0.7173954411508201
 30
0.0
 11
-0.0976523208201058
 21
-0.7261822942776701
 31
0.0
  0
ELLIPSE
  5
180
330
15C
100
AcDbEntity
  8
AM_9
100
AcDbEllipse
 10
-0.0000000000000035
 20
-0.6923361785452267
 30
0.0
 11
-0.1188200907349014
 21
1.455126437928950E-17
 31
0.0
210
0.0
220
0.0
230
1.0
 40
0.4999999999999922
 41
0.2500328930987781
 42
2.891559760491032
  0
ELLIPSE
  5
181
330
15C
100
AcDbEntity
  8
AM_9
100
AcDbEllipse
 10
0.0
 20
-0.6451941523068926
 30
0.0
 11
-0.1725340532830157
 21
2.570957760527445E-9
 31
0.0
210
0.0
220
0.0
230
1.0
 40
0.5
 41
0.6061451627428802
 42
2.535447535942498
  0
ELLIPSE
  5
182
330
15C
100
AcDbEntity
  8
AM_9
100
AcDbEllipse
 10
0.000000000000001
 20
-0.6293301270189179
 30
0.0
 11
-0.2187500000000035
 21
3.259629037943376E-9
 31
0.0
210
0.0
220
0.0
230
1.0
 40
0.5000000000000098
 41
1.070141626990735
 42
2.071451051799894
  0
LWPOLYLINE
  5
183
330
15C
100
AcDbEntity
  8
AM_9
100
AcDbPolyline
 90
        3
 70
     0
 43
0.0
 10
0.0
 20
-0.4333525866404779
 10
0.0631476856926153
 20
-0.4354253152012475
 10
0.1262953713852306
 20
-0.4412053583290941
  0
LWPOLYLINE
  5
184
330
15C
100
AcDbEntity
  8
AM_9
100
AcDbPolyline
 90
        4
 70
     0
 43
0.0
 10
-0.1262953713852306
 20
-0.4412053583290941
 10
-0.0967996321117978
 20
-0.4381004951549564
 10
-0.0485424412477544
 20
-0.4345873901204116
 10
0.0
 20
-0.4333525866404779
  0
LINE
  5
185
330
15C
100
AcDbEntity
  8
AM_9
100
AcDbLine
 10
0.1262953713852306
 20
-0.45
 30
0.0
 11
0.1262953713852306
 21
-0.4412053583290941
 31
0.0
  0
LINE
  5
186
330
15C
100
AcDbEntity
  8
AM_9
100
AcDbLine
 10
0.1262953713852306
 20
-0.4412053583290941
 30
0.0
 11
0.1391524702047581
 21
-0.4495959279290518
 31
0.0
  0
LINE
  5
187
330
15C
100
AcDbEntity
  8
AM_9
100
AcDbLine
 10
-0.1262953713852306
 20
-0.45
 30
0.0
 11
-0.1262953713852306
 21
-0.4412053583290941
 31
0.0
  0
LINE
  5
188
330
15C
100
AcDbEntity
  8
AM_9
100
AcDbLine
 10
-0.139147663636084
 20
-0.4495926972572856
 30
0.0
 11
-0.1262953713852306
 21
-0.4412053583290941
 31
0.0
  0
ELLIPSE
  5
189
330
15C
100
AcDbEntity
  8
AM_9
100
AcDbEllipse
 10
-0.0000000000010603
 20
-0.6293301270195415
 30
0.0
 11
-0.2137499999978577
 21
3.185123231329839E-9
 31
0.0
210
0.0
220
0.0
230
1.0
 40
0.5000000000012733
 41
1.04297213728823
 42
2.098620542551147
  0
ELLIPSE
  5
18A
330
15C
100
AcDbEntity
  8
AM_9
100
AcDbEllipse
 10
0.0
 20
-0.7982050807568873
 30
0.0
 11
-0.1349999999999999
 21
1.653273178848926E-17
 31
0.0
210
0.0
220
0.0
230
1.0
 40
0.5000000000000029
 41
0.2354336045415604
 42
2.906159049048233
  0
ELLIPSE
  5
18B
330
15C
100
AcDbEntity
  8
AM_9
100
AcDbEllipse
 10
-0.0000000000000011
 20
-0.3132308546376038
 30
0.0
 11
-0.1619028724722701
 21
1.982738345459277E-17
 31
0.0
210
0.0
220
0.0
230
1.0
 40
0.5000000000000034
 41
0.0
 42
6.283185307179586
  0
ELLIPSE
  5
18C
330
15C
100
AcDbEntity
  8
AM_9
100
AcDbEllipse
 10
0.0000000000000001
 20
-0.5427275866404782
 30
0.0
 11
-0.2187500000000001
 21
3.259629037943326E-9
 31
0.0
210
0.0
220
0.0
230
1.0
 40
0.5000000000000007
 41
0.0
 42
6.283185307179586
  0
ELLIPSE
  5
18D
330
15C
100
AcDbEntity
  8
AM_9
100
AcDbEllipse
 10
-0.0000000000002818
 20
-0.5427275866389495
 30
0.0
 11
-0.2057518972233514
 21
2.519734023530725E-17
 31
0.0
210
0.0
220
0.0
230
1.0
 40
0.4999999999999024
 41
0.0
 42
6.283185307179586
  0
ELLIPSE
  5
18E
330
15C
100
AcDbEntity
  8
AM_9
100
AcDbEllipse
 10
-0.0000000000010605
 20
-0.3450267645639756
 30
0.0
 11
-0.1986176267822758
 21
2.959633296945810E-9
 31
0.0
210
0.0
220
0.0
230
1.0
 40
0.500000000000041
 41
0.0
 42
6.283185307179586
  0
LWPOLYLINE
  5
18F
330
15C
100
AcDbEntity
  8
AM_4
100
AcDbPolyline
 90
        3
 70
     0
 43
0.0
 10
-0.1894430570778459
 20
-0.6840176270189219
 10
-0.1578692142315383
 20
-0.7092886484581522
 10
-0.1262953713852306
 20
-0.7308523553303057
  0
LINE
  5
190
330
15C
100
AcDbEntity
  8
AM_4
100
AcDbLine
 10
-0.1262953713852306
 20
-0.7308523553303057
 30
0.0
 11
-0.1050087569988763
 21
-0.7331594096336509
 31
0.0
  0
LWPOLYLINE
  5
191
330
15C
100
AcDbEntity
  8
AM_4
100
AcDbPolyline
 90
        3
 70
     0
 43
0.0
 10
0.1262953713852306
 20
-0.7308523553303057
 10
0.1577272497321276
 20
-0.7093932819374048
 10
0.1894430570778459
 20
-0.6840176270189219
  0
LINE
  5
192
330
15C
100
AcDbEntity
  8
AM_4
100
AcDbLine
 10
0.1050474083588161
 20
-0.7331555275908062
 30
0.0
 11
0.1262953713852306
 21
-0.7308523553303057
 31
0.0
  0
LWPOLYLINE
  5
193
330
15C
100
AcDbEntity
  8
AM_4
100
AcDbPolyline
 90
        3
 70
     0
 43
0.0
 10
0.1894430570778459
 20
-0.6840176270189219
 10
0.2210168999241535
 20
-0.6546011484581523
 10
0.2525907427704612
 20
-0.6214773553303056
  0
LWPOLYLINE
  5
194
330
15C
100
AcDbEntity
  8
AM_4
100
AcDbPolyline
 90
        3
 70
     0
 43
0.0
 10
-0.2525907427704612
 20
-0.6214773553303056
 10
-0.2211588644235643
 20
-0.6544598922115544
 10
-0.1894430570778459
 20
-0.6840176270189219
  0
LINE
  5
195
330
15C
100
AcDbEntity
  8
AM_4
100
AcDbLine
 10
0.105
 20
-0.7268605661652376
 30
0.0
 11
0.1151252948555658
 21
-0.7070363524104234
 31
0.0
  0
LINE
  5
196
330
15C
100
AcDbEntity
  8
AM_4
100
AcDbLine
 10
-0.1151252948555658
 20
-0.7070363524104234
 30
0.0
 11
-0.105
 21
-0.7268605661652376
 31
0.0
  0
ELLIPSE
  5
197
330
15C
100
AcDbEntity
  8
AM_4
100
AcDbEllipse
 10
-0.0000000000000019
 20
-0.6923361785452221
 30
0.0
 11
-0.1188200907348995
 21
1.455126437928927E-17
 31
0.0
210
0.0
220
0.0
230
1.0
 40
0.4999999999999966
 41
2.891559760490956
 42
6.533218200278434
  0
ELLIPSE
  5
198
330
15C
100
AcDbEntity
  8
AM_4
100
AcDbEllipse
 10
0.0
 20
-0.7202627944162879
 30
0.0
 11
-0.105
 21
1.285879139104721E-17
 31
0.0
210
0.0
220
0.0
230
1.0
 40
0.5000000000000008
 41
3.141592653589793
 42
6.283185307179586
  0
LINE
  5
199
330
15C
100
AcDbEntity
  8
AM_4
100
AcDbLine
 10
-0.105
 20
-0.7202627944162879
 30
0.0
 11
-0.105
 21
-0.7385010232287474
 31
0.0
  0
LINE
  5
19A
330
15C
100
AcDbEntity
  8
AM_4
100
AcDbLine
 10
0.105
 20
-0.7385010232287474
 30
0.0
 11
0.105
 21
-0.7202627944162879
 31
0.0
  0
LINE
  5
19B
330
15C
100
AcDbEntity
  8
AM_4
100
AcDbLine
 10
0.1098343496897825
 20
-0.7173954411508202
 30
0.0
 11
0.1417971541629018
 21
-0.6943407865089637
 31
0.0
  0
LINE
  5
19C
330
15C
100
AcDbEntity
  8
AM_4
100
AcDbLine
 10
-0.1417971541629018
 20
-0.6943407865089637
 30
0.0
 11
-0.1098343496897825
 21
-0.7173954411508201
 31
0.0
  0
ELLIPSE
  5
19D
330
15C
100
AcDbEntity
  8
AM_4
100
AcDbEllipse
 10
-0.0000000000000016
 20
-0.6451941523068921
 30
0.0
 11
-0.172534053283017
 21
2.112932760969656E-17
 31
0.0
210
0.0
220
0.0
230
1.0
 40
0.5000000000000009
 41
2.535447513394708
 42
6.889330447374683
  0
ELLIPSE
  5
19E
330
15C
100
AcDbEntity
  8
AM_4
100
AcDbEllipse
 10
0.0000000000000009
 20
-0.629330127018923
 30
0.0
 11
-0.2187500000000015
 21
2.678914873134853E-17
 31
0.0
210
0.0
220
0.0
230
1.0
 40
0.5000000000000028
 41
2.076348015338564
 42
7.348429945430809
  0
LWPOLYLINE
  5
19F
330
15C
100
AcDbEntity
  8
AM_4
100
AcDbPolyline
 90
        4
 70
     0
 43
0.0
 10
0.0
 20
-0.5199551270189218
 10
-0.0483998160558989
 20
-0.518727483426474
 10
-0.0967996321117978
 20
-0.5152072185044433
 10
-0.1262953713852306
 20
-0.5121023553303057
  0
LWPOLYLINE
  5
1A0
330
15C
100
AcDbEntity
  8
AM_4
100
AcDbPolyline
 90
        3
 70
     0
 43
0.0
 10
0.1262953713852306
 20
-0.5121023553303057
 10
0.0634316146914367
 20
-0.5178640870744795
 10
0.0
 20
-0.5199551270189218
  0
LINE
  5
1A1
330
15C
100
AcDbEntity
  8
AM_4
100
AcDbLine
 10
0.1262953713852306
 20
-0.5121023553303057
 30
0.0
 11
0.1262953713852306
 21
-0.45
 31
0.0
  0
LWPOLYLINE
  5
1A2
330
15C
100
AcDbEntity
  8
AM_4
100
AcDbPolyline
 90
        3
 70
     0
 43
0.0
 10
0.1894430570778459
 20
-0.5746426270189219
 10
0.1578692142315383
 20
-0.5452261484581523
 10
0.1262953713852306
 20
-0.5121023553303057
  0
LWPOLYLINE
  5
1A3
330
15C
100
AcDbEntity
  8
AM_4
100
AcDbPolyline
 90
        3
 70
     0
 43
0.0
 10
0.2525907427704612
 20
-0.6214773553303056
 10
0.2211588644235643
 20
-0.6000182819374048
 10
0.1894430570778459
 20
-0.5746426270189219
  0
LINE
  5
1A4
330
15C
100
AcDbEntity
  8
AM_4
100
AcDbLine
 10
0.2525907427704612
 20
-0.6214773553303056
 30
0.0
 11
0.2525907427704612
 21
-0.5505803583290941
 31
0.0
  0
LWPOLYLINE
  5
1A5
330
15C
100
AcDbEntity
  8
AM_4
100
AcDbPolyline
 90
        3
 70
     0
 43
0.0
 10
0.1894430570778459
 20
-0.488040086640478
 10
0.2210168999241536
 20
-0.5174565652012475
 10
0.2525907427704612
 20
-0.5505803583290941
  0
LWPOLYLINE
  5
1A6
330
15C
100
AcDbEntity
  8
AM_4
100
AcDbPolyline
 90
        3
 70
     0
 43
0.0
 10
0.1391524702047581
 20
-0.4495959279290518
 10
0.1577272497321276
 20
-0.4626644317219951
 10
0.1894430570778459
 20
-0.488040086640478
  0
LINE
  5
1A7
330
15C
100
AcDbEntity
  8
AM_4
100
AcDbLine
 10
-0.2525907427704612
 20
-0.6214773553303056
 30
0.0
 11
-0.2525907427704612
 21
-0.5505803583290941
 31
0.0
  0
LWPOLYLINE
  5
1A8
330
15C
100
AcDbEntity
  8
AM_4
100
AcDbPolyline
 90
        3
 70
     0
 43
0.0
 10
-0.1894430570778459
 20
-0.5746426270189219
 10
-0.2210168999241536
 20
-0.5999136484581523
 10
-0.2525907427704612
 20
-0.6214773553303056
  0
LWPOLYLINE
  5
1A9
330
15C
100
AcDbEntity
  8
AM_4
100
AcDbPolyline
 90
        3
 70
     0
 43
0.0
 10
-0.1262953713852306
 20
-0.5121023553303057
 10
-0.1577272497321276
 20
-0.5450848922115544
 10
-0.1894430570778459
 20
-0.5746426270189219
  0
LINE
  5
1AA
330
15C
100
AcDbEntity
  8
AM_4
100
AcDbLine
 10
-0.1262953713852306
 20
-0.5121023553303057
 30
0.0
 11
-0.1262953713852306
 21
-0.45
 31
0.0
  0
LWPOLYLINE
  5
1AB
330
15C
100
AcDbEntity
  8
AM_4
100
AcDbPolyline
 90
        3
 70
     0
 43
0.0
 10
-0.1894430570778459
 20
-0.488040086640478
 10
-0.1578692142315383
 20
-0.4627690652012475
 10
-0.139147663636084
 20
-0.4495926972572856
  0
LWPOLYLINE
  5
1AC
330
15C
100
AcDbEntity
  8
AM_4
100
AcDbPolyline
 90
        3
 70
     0
 43
0.0
 10
-0.2525907427704612
 20
-0.5505803583290941
 10
-0.2211588644235643
 20
-0.5175978214478454
 10
-0.1894430570778459
 20
-0.488040086640478
  0
ELLIPSE
  5
1AD
330
15C
100
AcDbEntity
  8
AM_4
100
AcDbEllipse
 10
-0.0000000000000003
 20
-0.6293301270189211
 30
0.0
 11
-0.2137500000000004
 21
2.617682533177472E-17
 31
0.0
210
0.0
220
0.0
230
1.0
 40
0.5000000000000016
 41
2.098620529422326
 42
7.326157431347056
  0
LINE
  5
1AE
330
15C
100
AcDbEntity
  8
AM_4
100
AcDbLine
 10
-0.1005298463144155
 20
-0.7310881119635934
 30
0.0
 11
-0.1292526595471057
 21
-0.7787195091717375
 31
0.0
  0
LINE
  5
1AF
330
15C
100
AcDbEntity
  8
AM_4
100
AcDbLine
 10
0.1292526595471057
 20
-0.7787195091717375
 30
0.0
 11
0.1005298463144155
 21
-0.7310881119635934
 31
0.0
  0
ELLIPSE
  5
1B0
330
15C
100
AcDbEntity
  8
AM_4
100
AcDbEllipse
 10
0.0
 20
-0.7462435565298213
 30
0.0
 11
-0.105
 21
1.285879139104721E-17
 31
0.0
210
0.0
220
0.0
230
1.0
 40
0.5000000000000021
 41
3.434435425318373
 42
5.990342535451006
  0
LINE
  5
1B1
330
15C
100
AcDbEntity
  8
AM_4
100
AcDbLine
 10
0.0998453562378797
 20
-0.8794626755008407
 30
0.0
 11
0.1312757938985219
 21
-0.8139504446484651
 31
0.0
  0
LINE
  5
1B2
330
15C
100
AcDbEntity
  8
AM_4
100
AcDbLine
 10
-0.1312757938985219
 20
-0.8139504446484651
 30
0.0
 11
-0.0998453562378797
 21
-0.8794626755008407
 31
0.0
  0
ELLIPSE
  5
1B3
330
15C
100
AcDbEntity
  8
AM_4
100
AcDbEllipse
 10
0.0000000000000039
 20
-0.7982050807568822
 30
0.0
 11
-0.1349999999999961
 21
2.011656777702107E-9
 31
0.0
210
0.0
220
0.0
230
1.0
 40
0.500000000000007
 41
2.906159077634265
 42
6.518618940307322
  0
ELLIPSE
  5
1B4
330
15C
100
AcDbEntity
  8
AM_4
100
AcDbEllipse
 10
0.0
 20
-0.8674871130596424
 30
0.0
 11
-0.1026779019331875
 21
1.257441639456439E-17
 31
0.0
210
0.0
220
0.0
230
1.0
 40
0.4999999999999951
 41
0.0
 42
6.283185307179586
  0
ENDBLK
  5
15F
330
15C
100
AcDbEntity
  8
0
100
AcDbBlockEnd
  0
BLOCK
  5
1B7
330
1B5
100
AcDbEntity
  8
0
100
AcDbBlockBegin
  2
6_070727H_0_in_070727_4
 70
     2
 10
0.0
 20
0.0
 30
0.0
  3
6_070727H_0_in_070727_4
  1

  0
ATTDEF
  5
1B9
330
1B5
100
AcDbEntity
  8
AM_6
100
AcDbText
 10
7.624999999999998
 20
1.21875
 30
0.0
 40
0.5
  1
FC-S2 -(Labyrinth Seal)-Housing
100
AcDbAttributeDefinition
  3

  2
NN
 70
     8
280
     0
  0
ATTDEF
  5
1BA
330
1B5
100
AcDbEntity
  8
AM_6
100
AcDbText
 10
7.624999999999998
 20
0.71875
 30
0.0
 40
0.5
  1
S-2000 Piloted Flange Bearing -Inch
100
AcDbAttributeDefinition
  3

  2
NT
 70
     8
280
     0
  0
ATTDEF
  5
1BB
330
1B5
100
AcDbEntity
  8
AM_6
100
AcDbText
 10
7.624999999999998
 20
0.21875
 30
0.0
 40
0.5
  1
070727H
100
AcDbAttributeDefinition
  3

  2
NB
 70
     8
280
     0
  0
ATTDEF
  5
1BC
330
1B5
100
AcDbEntity
  8
AM_6
100
AcDbText
 10
7.624999999999998
 20
-0.28125
 30
0.0
 40
0.5
  1
$PN.H
100
AcDbAttributeDefinition
  3

  2
NBSYN
 70
     8
280
     0
  0
ATTDEF
  5
1BD
330
1B5
100
AcDbEntity
  8
AM_6
100
AcDbText
 10
7.624999999999998
 20
-0.78125
 30
0.0
 40
0.5
  1
070727
100
AcDbAttributeDefinition
  3

  2
LINA
 70
     8
280
     0
  0
ATTDEF
  5
1BE
330
1B5
100
AcDbEntity
  8
AM_6
100
AcDbText
 10
7.624999999999998
 20
-1.28125
 30
0.0
 40
0.5
  1
1-1/2
100
AcDbAttributeDefinition
  3

  2
SS
 70
     8
280
     0
  0
ATTDEF
  5
1BF
330
1B5
100
AcDbEntity
  8
AM_6
100
AcDbText
 10
7.624999999999998
 20
-1.78125
 30
0.0
 40
0.5
  1
070727
100
AcDbAttributeDefinition
  3

  2
PN
 70
     8
280
     0
  0
ATTDEF
  5
1C0
330
1B5
100
AcDbEntity
  8
AM_6
100
AcDbText
 10
7.624999999999998
 20
-2.28125
 30
0.0
 40
0.5
  1
FC-S2-108LE
100
AcDbAttributeDefinition
  3

  2
DESCRIPTION
 70
     8
280
     0
  0
ATTDEF
  5
1C1
330
1B5
100
AcDbEntity
  8
AM_6
100
AcDbText
 10
7.624999999999998
 20
-2.78125
 30
0.0
 40
0.5
  1
Expansion Type
100
AcDbAttributeDefinition
  3

  2
EF
 70
     8
280
     0
  0
ATTDEF
  5
1C2
330
1B5
100
AcDbEntity
  8
AM_6
100
AcDbText
 10
7.624999999999998
 20
-3.28125
 30
0.0
 40
0.5
  1
2-17/32
100
AcDbAttributeDefinition
  3

  2
A
 70
     8
280
     0
  0
ATTDEF
  5
1C3
330
1B5
100
AcDbEntity
  8
AM_6
100
AcDbText
 10
7.624999999999998
 20
-3.78125
 30
0.0
 40
0.5
  1
5-1/4
100
AcDbAttributeDefinition
  3

  2
B
 70
     8
280
     0
  0
ATTDEF
  5
1C4
330
1B5
100
AcDbEntity
  8
AM_6
100
AcDbText
 10
7.624999999999998
 20
-4.28125
 30
0.0
 40
0.5
  1
1-27/32
100
AcDbAttributeDefinition
  3

  2
C
 70
     8
280
     0
  0
ATTDEF
  5
1C5
330
1B5
100
AcDbEntity
  8
AM_6
100
AcDbText
 10
7.624999999999998
 20
-4.78125
 30
0.0
 40
0.5
  1
4-3/8
100
AcDbAttributeDefinition
  3

  2
DD
 70
     8
280
     0
  0
ATTDEF
  5
1C6
330
1B5
100
AcDbEntity
  8
AM_6
100
AcDbText
 10
7.624999999999998
 20
-5.28125
 30
0.0
 40
0.5
  1
3/4
100
AcDbAttributeDefinition
  3

  2
E
 70
     8
280
     0
  0
ATTDEF
  5
1C7
330
1B5
100
AcDbEntity
  8
AM_6
100
AcDbText
 10
7.624999999999998
 20
-5.78125
 30
0.0
 40
0.5
  1
3/8
100
AcDbAttributeDefinition
  3

  2
F
 70
     8
280
     0
  0
ATTDEF
  5
1C8
330
1B5
100
AcDbEntity
  8
AM_6
100
AcDbText
 10
7.624999999999998
 20
-6.28125
 30
0.0
 40
0.5
  1
1-5/16
100
AcDbAttributeDefinition
  3

  2
G
 70
     8
280
     0
  0
ATTDEF
  5
1C9
330
1B5
100
AcDbEntity
  8
AM_6
100
AcDbText
 10
7.624999999999998
 20
-6.78125
 30
0.0
 40
0.5
  1
1/2
100
AcDbAttributeDefinition
  3

  2
H
 70
     8
280
     0
  0
ATTDEF
  5
1CA
330
1B5
100
AcDbEntity
  8
AM_6
100
AcDbText
 10
7.624999999999998
 20
-7.28125
 30
0.0
 40
0.5
  1
3.625
100
AcDbAttributeDefinition
  3

  2
K
 70
     8
280
     0
  0
ATTDEF
  5
1CB
330
1B5
100
AcDbEntity
  8
AM_6
100
AcDbText
 10
7.624999999999998
 20
-7.78125
 30
0.0
 40
0.5
  1
2-3/4
100
AcDbAttributeDefinition
  3

  2
L
 70
     8
280
     0
  0
ATTDEF
  5
1CC
330
1B5
100
AcDbEntity
  8
AM_6
100
AcDbText
 10
7.624999999999998
 20
-8.28125
 30
0.0
 40
0.5
  1
3/8-16
100
AcDbAttributeDefinition
  3

  2
M
 70
     8
280
     0
  0
ATTDEF
  5
1CD
330
1B5
100
AcDbEntity
  8
AM_6
100
AcDbText
 10
7.624999999999998
 20
-8.78125
 30
0.0
 40
0.5
  1
0.3750
100
AcDbAttributeDefinition
  3

  2
MNDM
 70
     8
280
     0
  0
ATTDEF
  5
1CE
330
1B5
100
AcDbEntity
  8
AM_6
100
AcDbText
 10
7.624999999999998
 20
-9.28125
 30
0.0
 40
0.5
  1
0.3299
100
AcDbAttributeDefinition
  3

  2
MKDM
 70
     8
280
     0
  0
ATTDEF
  5
1CF
330
1B5
100
AcDbEntity
  8
AM_6
100
AcDbText
 10
7.624999999999998
 20
-9.78125
 30
0.0
 40
0.5
  1
2-17/32
100
AcDbAttributeDefinition
  3

  2
N
 70
     8
280
     0
  0
ATTDEF
  5
1D0
330
1B5
100
AcDbEntity
  8
AM_6
100
AcDbText
 10
7.624999999999998
 20
-10.28125
 30
0.0
 40
0.5
  1
2.531250
100
AcDbAttributeDefinition
  3

  2
N1
 70
     8
280
     0
  0
ATTDEF
  5
1D1
330
1B5
100
AcDbEntity
  8
AM_6
100
AcDbText
 10
7.624999999999998
 20
-10.78125
 30
0.0
 40
0.5
  1
1-7/32
100
AcDbAttributeDefinition
  3

  2
P
 70
     8
280
     0
  0
ATTDEF
  5
1D2
330
1B5
100
AcDbEntity
  8
AM_6
100
AcDbText
 10
7.624999999999998
 20
-11.28125
 30
0.0
 40
0.5
  1
1-7/32
100
AcDbAttributeDefinition
  3

  2
Q
 70
     8
280
     0
  0
ATTDEF
  5
1D3
330
1B5
100
AcDbEntity
  8
AM_6
100
AcDbText
 10
7.624999999999998
 20
-11.78125
 30
0.0
 40
0.5
  1
1.218750
100
AcDbAttributeDefinition
  3

  2
Q1
 70
     8
280
     0
  0
ATTDEF
  5
1D4
330
1B5
100
AcDbEntity
  8
AM_6
100
AcDbText
 10
7.624999999999998
 20
-12.28125
 30
0.0
 40
0.5
  1
3/16
100
AcDbAttributeDefinition
  3

  2
X
 70
     8
280
     0
  0
ATTDEF
  5
1D5
330
1B5
100
AcDbEntity
  8
AM_6
100
AcDbText
 10
7.624999999999998
 20
-12.78125
 30
0.0
 40
0.5
  1
0.020
100
AcDbAttributeDefinition
  3

  2
Y
 70
     8
280
     0
  0
ATTDEF
  5
1D6
330
1B5
100
AcDbEntity
  8
AM_6
100
AcDbText
 10
7.624999999999998
 20
-13.28125
 30
0.0
 40
0.5
  1
1-51/64
100
AcDbAttributeDefinition
  3

  2
Z
 70
     8
280
     0
  0
ATTDEF
  5
1D7
330
1B5
100
AcDbEntity
  8
AM_6
100
AcDbText
 10
7.624999999999998
 20
-13.78125
 30
0.0
 40
0.5
  1
baldor
100
AcDbAttributeDefinition
  3

  2
COMPANY
 70
     8
280
     0
  0
LINE
  5
1D8
330
1B5
100
AcDbEntity
  8
AM_9
100
AcDbLine
 10
2.02255
 20
-0.02255
 30
0.0
 11
2.02255
 21
-0.4274500000000001
 31
0.0
  0
LINE
  5
1D9
330
1B5
100
AcDbEntity
  8
AM_9
100
AcDbLine
 10
2.35245
 20
-0.4274500000000001
 30
0.0
 11
2.35245
 21
-0.02255
 31
0.0
  0
LINE
  5
1DA
330
1B5
100
AcDbEntity
  8
AM_9
100
AcDbLine
 10
-2.02255
 20
-0.4274500000000007
 30
0.0
 11
-2.02255
 21
-0.0225500000000016
 31
0.0
  0
LINE
  5
1DB
330
1B5
100
AcDbEntity
  8
AM_9
100
AcDbLine
 10
-2.35245
 20
-0.0225500000000016
 30
0.0
 11
-2.35245
 21
-0.4274500000000007
 31
0.0
  0
LINE
  5
1DC
330
1B5
100
AcDbEntity
  8
AM_9
100
AcDbLine
 10
-2.35245
 20
-0.0225500000000016
 30
0.0
 11
-2.02255
 21
-0.0225500000000016
 31
0.0
  0
LINE
  5
1DD
330
1B5
100
AcDbEntity
  8
AM_9
100
AcDbLine
 10
-2.02255
 20
-0.0225500000000016
 30
0.0
 11
-2.0
 21
0.0
 31
0.0
  0
LINE
  5
1DE
330
1B5
100
AcDbEntity
  8
AM_9
100
AcDbLine
 10
-2.375
 20
0.0
 30
0.0
 11
-2.35245
 21
-0.0225500000000016
 31
0.0
  0
LINE
  5
1DF
330
1B5
100
AcDbEntity
  8
AM_9
100
AcDbLine
 10
2.35245
 20
-0.02255
 30
0.0
 11
2.02255
 21
-0.02255
 31
0.0
  0
LINE
  5
1E0
330
1B5
100
AcDbEntity
  8
AM_9
100
AcDbLine
 10
2.35245
 20
-0.02255
 30
0.0
 11
2.375
 21
0.0
 31
0.0
  0
LINE
  5
1E1
330
1B5
100
AcDbEntity
  8
AM_9
100
AcDbLine
 10
2.0
 20
0.0
 30
0.0
 11
2.02255
 21
-0.02255
 31
0.0
  0
LINE
  5
1E2
330
1B5
100
AcDbEntity
  8
AM_9
100
AcDbLine
 10
-2.35245
 20
-0.4274500000000007
 30
0.0
 11
-2.02255
 21
-0.4274500000000007
 31
0.0
  0
LINE
  5
1E3
330
1B5
100
AcDbEntity
  8
AM_9
100
AcDbLine
 10
-2.35245
 20
-0.4274500000000007
 30
0.0
 11
-2.375
 21
-0.4500000000000004
 31
0.0
  0
LINE
  5
1E4
330
1B5
100
AcDbEntity
  8
AM_9
100
AcDbLine
 10
-2.0
 20
-0.4500000000000004
 30
0.0
 11
-2.02255
 21
-0.4274500000000007
 31
0.0
  0
LINE
  5
1E5
330
1B5
100
AcDbEntity
  8
AM_9
100
AcDbLine
 10
2.35245
 20
-0.4274500000000001
 30
0.0
 11
2.02255
 21
-0.4274500000000001
 31
0.0
  0
LINE
  5
1E6
330
1B5
100
AcDbEntity
  8
AM_9
100
AcDbLine
 10
2.02255
 20
-0.4274500000000001
 30
0.0
 11
2.0
 21
-0.4500000000000001
 31
0.0
  0
LINE
  5
1E7
330
1B5
100
AcDbEntity
  8
AM_9
100
AcDbLine
 10
2.375
 20
-0.4500000000000001
 30
0.0
 11
2.35245
 21
-0.4274500000000001
 31
0.0
  0
LINE
  5
1E8
330
1B5
100
AcDbEntity
  8
AM_9
100
AcDbLine
 10
1.689670124698043
 20
-0.4500000000000001
 30
0.0
 11
1.689670124698043
 21
-0.5000000000000001
 31
0.0
  0
LINE
  5
1E9
330
1B5
100
AcDbEntity
  8
AM_9
100
AcDbLine
 10
1.655761133002229
 20
-0.4500000000000001
 30
0.0
 11
1.655761133002229
 21
-0.5000000000000001
 31
0.0
  0
LINE
  5
1EA
330
1B5
100
AcDbEntity
  8
AM_9
100
AcDbLine
 10
-1.689670124698043
 20
-0.4500000000000001
 30
0.0
 11
-1.689670124698043
 21
-0.5000000000000001
 31
0.0
  0
LINE
  5
1EB
330
1B5
100
AcDbEntity
  8
AM_9
100
AcDbLine
 10
-1.655761133002229
 20
-0.5000000000000001
 30
0.0
 11
-1.655761133002229
 21
-0.4500000000000001
 31
0.0
  0
LINE
  5
1EC
330
1B5
100
AcDbEntity
  8
AM_9
100
AcDbLine
 10
-1.67045540178327
 20
-0.4500000000000001
 30
0.0
 11
-1.67045540178327
 21
-0.5000000000000001
 31
0.0
  0
LINE
  5
1ED
330
1B5
100
AcDbEntity
  8
AM_9
100
AcDbLine
 10
-1.8125
 20
-0.4500000000000001
 30
0.0
 11
-1.8125
 21
-0.5
 31
0.0
  0
LINE
  5
1EE
330
1B5
100
AcDbEntity
  8
AM_9
100
AcDbLine
 10
1.67045540178327
 20
-0.4500000000000001
 30
0.0
 11
1.670455401783271
 21
-0.5000000000000001
 31
0.0
  0
LINE
  5
1EF
330
1B5
100
AcDbEntity
  8
AM_9
100
AcDbLine
 10
1.8125
 20
-0.5
 30
0.0
 11
1.8125
 21
-0.4500000000000001
 31
0.0
  0
LINE
  5
1F0
330
1B5
100
AcDbEntity
  8
AM_9
100
AcDbLine
 10
1.655761133002229
 20
-0.4500000000000001
 30
0.0
 11
2.137665643454645
 21
-0.4500000000000001
 31
0.0
  0
LINE
  5
1F1
330
1B5
100
AcDbEntity
  8
AM_9
100
AcDbLine
 10
-2.137665643454646
 20
-0.4500000000000001
 30
0.0
 11
-1.655761133002229
 21
-0.4500000000000001
 31
0.0
  0
LINE
  5
1F2
330
1B5
100
AcDbEntity
  8
AM_9
100
AcDbLine
 10
1.5748
 20
-0.4220394736842106
 30
0.0
 11
1.5748
 21
1.21875
 31
0.0
  0
LINE
  5
1F3
330
1B5
100
AcDbEntity
  8
AM_9
100
AcDbLine
 10
-1.5748
 20
1.21875
 30
0.0
 11
-1.5748
 21
-0.4220394736842106
 31
0.0
  0
LINE
  5
1F4
330
1B5
100
AcDbEntity
  8
AM_9
100
AcDbLine
 10
-1.5748
 20
-0.4220394736842106
 30
0.0
 11
1.5748
 21
-0.4220394736842106
 31
0.0
  0
LINE
  5
1F5
330
1B5
100
AcDbEntity
  8
AM_9
100
AcDbLine
 10
-1.5748
 20
-0.4220394736842106
 30
0.0
 11
-1.64867159030995
 21
-0.625
 31
0.0
  0
LINE
  5
1F6
330
1B5
100
AcDbEntity
  8
AM_9
100
AcDbLine
 10
1.64867159030995
 20
-0.625
 30
0.0
 11
1.5748
 21
-0.4220394736842106
 31
0.0
  0
LINE
  5
1F7
330
1B5
100
AcDbEntity
  8
AM_9
100
AcDbLine
 10
1.359296083845573
 20
0.0
 30
0.0
 11
1.359296083845573
 21
-0.5000000000000001
 31
0.0
  0
LINE
  5
1F8
330
1B5
100
AcDbEntity
  8
AM_9
100
AcDbLine
 10
1.734296083845573
 20
-0.5000000000000001
 30
0.0
 11
1.734296083845573
 21
0.0
 31
0.0
  0
LINE
  5
1F9
330
1B5
100
AcDbEntity
  8
AM_9
100
AcDbLine
 10
-1.734296083845573
 20
0.0
 30
0.0
 11
-1.734296083845573
 21
-0.5000000000000001
 31
0.0
  0
LINE
  5
1FA
330
1B5
100
AcDbEntity
  8
AM_9
100
AcDbLine
 10
-1.359296083845573
 20
-0.5000000000000001
 30
0.0
 11
-1.359296083845573
 21
0.0
 31
0.0
  0
LINE
  5
1FB
330
1B5
100
AcDbEntity
  8
AM_9
100
AcDbLine
 10
0.2492329320035895
 20
-0.625
 30
0.0
 11
-0.2492337135911767
 21
-0.625
 31
0.0
  0
LINE
  5
1FC
330
1B5
100
AcDbEntity
  8
AM_9
100
AcDbLine
 10
0.1448415455157333
 20
-0.0000000000000003
 30
0.0
 11
0.1448415455157372
 21
-0.4500000000000004
 31
0.0
  0
LINE
  5
1FD
330
1B5
100
AcDbEntity
  8
AM_9
100
AcDbLine
 10
-0.1448415455157443
 20
-0.0000000000000003
 30
0.0
 11
-0.1448415455157443
 21
-0.4500000000000004
 31
0.0
  0
LINE
  5
1FE
330
1B5
100
AcDbEntity
  8
AM_5
100
AcDbLine
 10
2.375
 20
-0.0000000000000001
 30
0.0
 11
2.375
 21
-0.4500000000000001
 31
0.0
  0
LINE
  5
1FF
330
1B5
100
AcDbEntity
  8
AM_5
100
AcDbLine
 10
2.0
 20
0.0000000000000003
 30
0.0
 11
2.0
 21
-0.4500000000000001
 31
0.0
  0
LINE
  5
200
330
1B5
100
AcDbEntity
  8
AM_5
100
AcDbLine
 10
-2.375
 20
-0.0000000000000001
 30
0.0
 11
-2.375
 21
-0.4500000000000001
 31
0.0
  0
LINE
  5
201
330
1B5
100
AcDbEntity
  8
AM_5
100
AcDbLine
 10
-2.0
 20
0.0000000000000003
 30
0.0
 11
-2.0
 21
-0.4500000000000001
 31
0.0
  0
LINE
  5
202
330
1B5
100
AcDbEntity
  8
AM_7
100
AcDbLine
 10
1.546796083845573
 20
-0.5250000000000002
 30
0.0
 11
1.546796083845573
 21
0.0249999999999998
 31
0.0
  0
LINE
  5
203
330
1B5
100
AcDbEntity
  8
AM_7
100
AcDbLine
 10
-1.546796083845573
 20
-0.5250000000000002
 30
0.0
 11
-1.546796083845573
 21
0.0249999999999998
 31
0.0
  0
LINE
  5
204
330
1B5
100
AcDbEntity
  8
AM_7
100
AcDbLine
 10
2.1875
 20
0.0225
 30
0.0
 11
2.1875
 21
-0.4725000000000001
 31
0.0
  0
LINE
  5
205
330
1B5
100
AcDbEntity
  8
AM_7
100
AcDbLine
 10
-2.1875
 20
0.0225
 30
0.0
 11
-2.1875
 21
-0.4725000000000004
 31
0.0
  0
LINE
  5
206
330
1B5
100
AcDbEntity
  8
AM_4
100
AcDbLine
 10
-1.8125
 20
-0.5
 30
0.0
 11
-1.8125
 21
-0.625
 31
0.0
  0
LINE
  5
207
330
1B5
100
AcDbEntity
  8
AM_4
100
AcDbLine
 10
1.8125
 20
-0.625
 30
0.0
 11
1.8125
 21
-0.5
 31
0.0
  0
LINE
  5
208
330
1B5
100
AcDbEntity
  8
AM_4
100
AcDbLine
 10
-1.464582532621103
 20
-0.625
 30
0.0
 11
-1.464582532621103
 21
-0.5000000000000001
 31
0.0
  0
LINE
  5
209
330
1B5
100
AcDbEntity
  8
AM_4
100
AcDbLine
 10
1.464582532621103
 20
-0.625
 30
0.0
 11
1.464582532621103
 21
-0.5000000000000001
 31
0.0
  0
LINE
  5
20A
330
1B5
100
AcDbEntity
  8
AM_4
100
AcDbLine
 10
1.726190476190476
 20
1.21875
 30
0.0
 11
-1.726190476190476
 21
1.21875
 31
0.0
  0
LINE
  5
20B
330
1B5
100
AcDbEntity
  8
AM_4
100
AcDbLine
 10
1.726190476190476
 20
0.7499999999999999
 30
0.0
 11
1.726190476190476
 21
1.21875
 31
0.0
  0
LINE
  5
20C
330
1B5
100
AcDbEntity
  8
AM_4
100
AcDbLine
 10
-1.726190476190476
 20
1.21875
 30
0.0
 11
-1.726190476190476
 21
0.7499999999999999
 31
0.0
  0
LINE
  5
20D
330
1B5
100
AcDbEntity
  8
AM_4
100
AcDbLine
 10
-0.5
 20
-0.4500000000000001
 30
0.0
 11
-0.5
 21
-0.625
 31
0.0
  0
LINE
  5
20E
330
1B5
100
AcDbEntity
  8
AM_4
100
AcDbLine
 10
-0.7033740119261543
 20
-0.4500000000000001
 30
0.0
 11
-0.7033740119261543
 21
-0.5000000000000001
 31
0.0
  0
LINE
  5
20F
330
1B5
100
AcDbEntity
  8
AM_4
100
AcDbLine
 10
-1.067780059347971
 20
-0.625
 30
0.0
 11
-1.067780059347971
 21
-0.5000000000000001
 31
0.0
  0
LINE
  5
210
330
1B5
100
AcDbEntity
  8
AM_4
100
AcDbLine
 10
0.5
 20
-0.4500000000000001
 30
0.0
 11
0.5
 21
-0.625
 31
0.0
  0
LINE
  5
211
330
1B5
100
AcDbEntity
  8
AM_4
100
AcDbLine
 10
1.06778005934797
 20
-0.625
 30
0.0
 11
1.06778005934797
 21
-0.5000000000000001
 31
0.0
  0
LINE
  5
212
330
1B5
100
AcDbEntity
  8
AM_4
100
AcDbLine
 10
0.7033740119261538
 20
-0.4500000000000001
 30
0.0
 11
0.7033740119261538
 21
-0.5000000000000001
 31
0.0
  0
LINE
  5
213
330
1B5
100
AcDbEntity
  8
AM_4
100
AcDbLine
 10
1.8125
 20
0.7499999999999999
 30
0.0
 11
-1.8125
 21
0.7499999999999999
 31
0.0
  0
LINE
  5
214
330
1B5
100
AcDbEntity
  8
AM_4
100
AcDbLine
 10
1.8125
 20
-0.0000000000000001
 30
0.0
 11
1.8125
 21
0.7499999999999999
 31
0.0
  0
LINE
  5
215
330
1B5
100
AcDbEntity
  8
AM_4
100
AcDbLine
 10
-1.8125
 20
0.7499999999999999
 30
0.0
 11
-1.8125
 21
-0.0000000000000001
 31
0.0
  0
LINE
  5
216
330
1B5
100
AcDbEntity
  8
AM_4
100
AcDbLine
 10
-0.2492337135911767
 20
-0.625
 30
0.0
 11
-1.8125
 21
-0.625
 31
0.0
  0
LINE
  5
217
330
1B5
100
AcDbEntity
  8
AM_4
100
AcDbLine
 10
1.8125
 20
-0.625
 30
0.0
 11
0.2492329320035895
 21
-0.625
 31
0.0
  0
LINE
  5
218
330
1B5
100
AcDbEntity
  8
AM_4
100
AcDbLine
 10
0.8836824225619223
 20
-0.4500000000000001
 30
0.0
 11
0.8836824225619223
 21
-0.5000000000000001
 31
0.0
  0
LINE
  5
219
330
1B5
100
AcDbEntity
  8
AM_4
100
AcDbLine
 10
-0.8836824225619223
 20
-0.4500000000000001
 30
0.0
 11
-0.8836824225619223
 21
-0.5000000000000001
 31
0.0
  0
LINE
  5
21A
330
1B5
100
AcDbEntity
  8
AM_4
100
AcDbLine
 10
-1.523486329703565
 20
-0.4500000000000001
 30
0.0
 11
1.523486329703562
 21
-0.4500000000000001
 31
0.0
  0
LINE
  5
21B
330
1B5
100
AcDbEntity
  8
AM_4
100
AcDbLine
 10
-2.137665643454646
 20
-0.4500000000000001
 30
0.0
 11
-2.137665643454647
 21
-0.5000000000000001
 31
0.0
  0
LINE
  5
21C
330
1B5
100
AcDbEntity
  8
AM_4
100
AcDbLine
 10
-0.7033740119261543
 20
-0.5000000000000001
 30
0.0
 11
-2.137665643454647
 21
-0.5000000000000001
 31
0.0
  0
LINE
  5
21D
330
1B5
100
AcDbEntity
  8
AM_4
100
AcDbLine
 10
-1.523486329703564
 20
-0.5000000000000001
 30
0.0
 11
-1.523486329703565
 21
-0.4500000000000001
 31
0.0
  0
LINE
  5
21E
330
1B5
100
AcDbEntity
  8
AM_4
100
AcDbLine
 10
1.523486329703562
 20
-0.4500000000000001
 30
0.0
 11
1.523486329703563
 21
-0.5000000000000001
 31
0.0
  0
LINE
  5
21F
330
1B5
100
AcDbEntity
  8
AM_4
100
AcDbLine
 10
2.137665643454645
 20
-0.5000000000000001
 30
0.0
 11
0.7033740119261538
 21
-0.5000000000000001
 31
0.0
  0
LINE
  5
220
330
1B5
100
AcDbEntity
  8
AM_4
100
AcDbLine
 10
2.137665643454645
 20
-0.5000000000000001
 30
0.0
 11
2.137665643454645
 21
-0.4500000000000001
 31
0.0
  0
LINE
  5
221
330
1B5
100
AcDbEntity
  8
AM_4
100
AcDbLine
 10
2.137665643454645
 20
-0.4500000000000001
 30
0.0
 11
2.624999999999998
 21
-0.4500000000000001
 31
0.0
  0
LINE
  5
222
330
1B5
100
AcDbEntity
  8
AM_4
100
AcDbLine
 10
-2.625000000000002
 20
-0.0000000000000001
 30
0.0
 11
-2.625000000000002
 21
-0.4500000000000001
 31
0.0
  0
LINE
  5
223
330
1B5
100
AcDbEntity
  8
AM_4
100
AcDbLine
 10
2.624999999999998
 20
-0.4500000000000001
 30
0.0
 11
2.624999999999998
 21
-0.0000000000000001
 31
0.0
  0
LINE
  5
224
330
1B5
100
AcDbEntity
  8
AM_4
100
AcDbLine
 10
2.624999999999998
 20
-0.0000000000000001
 30
0.0
 11
-2.625000000000002
 21
-0.0000000000000001
 31
0.0
  0
LINE
  5
225
330
1B5
100
AcDbEntity
  8
AM_4
100
AcDbLine
 10
-2.625000000000002
 20
-0.4500000000000001
 30
0.0
 11
-2.137665643454646
 21
-0.4500000000000001
 31
0.0
  0
ENDBLK
  5
1B8
330
1B5
100
AcDbEntity
  8
0
100
AcDbBlockEnd
  0
ENDSEC
  0
SECTION
  2
ENTITIES
  0
INSERT
  5
6F
330
1F
100
AcDbEntity
  8
0
100
AcDbBlockReference
  2
1_070727_4
 10
0.0
 20
0.0
 30
0.0
  0
POINT
  5
227
330
1F
100
AcDbEntity
  8
ConnectionPoints
100
AcDbPoint
 10
0.0
 20
-1.125
 30
0.0000000000000001
  0
POINT
  5
228
330
1F
100
AcDbEntity
  8
ConnectionPoints
100
AcDbPoint
 10
0.0
 20
-1.125
 30
0.0000000000000001
  0
POINT
  5
229
330
1F
100
AcDbEntity
  8
ConnectionPoints
100
AcDbPoint
 10
0.0
 20
1.9975
 30
-0.0000000000000001
  0
POINT
  5
22A
330
1F
100
AcDbEntity
  8
ConnectionPoints
100
AcDbPoint
 10
0.0
 20
-1.125
 30
0.0000000000000001
  0
POINT
  5
22B
330
1F
100
AcDbEntity
  8
ConnectionPoints
100
AcDbPoint
 10
0.0
 20
-0.542727586640478
 30
1.89
  0
POINT
  5
22C
330
1F
100
AcDbEntity
  8
ConnectionPoints
100
AcDbPoint
 10
0.0
 20
1.171875
 30
-0.0000000000000001
  0
POINT
  5
22D
330
1F
100
AcDbEntity
  8
ConnectionPoints
100
AcDbPoint
 10
0.0
 20
-0.5427275866404779
 30
1.89
  0
POINT
  5
22E
330
1F
100
AcDbEntity
  8
ConnectionPoints
100
AcDbPoint
 10
0.0
 20
-0.5156642927722144
 30
2.155625
  0
POINT
  5
22F
330
1F
100
AcDbEntity
  8
ConnectionPoints
100
AcDbPoint
 10
0.0
 20
-1.125
 30
0.0000000000000001
  0
POINT
  5
230
330
1F
100
AcDbEntity
  8
ConnectionPoints
100
AcDbPoint
 10
0.0
 20
-1.3125
 30
0.0000000000000001
  0
ENDSEC
  0
SECTION
  2
OBJECTS
  0
DICTIONARY
  5
C
330
0
100
AcDbDictionary
281
     1
  3
ACAD_DETAILVIEWSTYLE
350
238
  3
ACAD_GROUP
350
D
  3
ACAD_LAYOUT
350
1A
  3
ACAD_MATERIAL
350
43
  3
ACAD_MLEADERSTYLE
350
6B
  3
ACAD_MLINESTYLE
350
17
  3
ACAD_PLOTSETTINGS
350
19
  3
ACAD_PLOTSTYLENAME
350
E
  3
ACAD_SCALELIST
350
47
  3
ACAD_SECTIONVIEWSTYLE
350
239
  3
ACAD_TABLESTYLE
350
69
  3
ACAD_VISUALSTYLE
350
2A
  3
ACDB_RECOMPOSE_DATA
350
235
  3
AcDbVariableDictionary
350
231
  0
SUN
  5
6D
330
29
100
AcDbSun
 90
        1
290
     0
 63
     7
421
 16777215
 40
1.0
291
     1
 91
  2455826
 92
 54000000
292
     0
 70
     2
 71
   256
280
     1
  0
DICTIONARY
  5
238
102
{ACAD_REACTORS
330
C
102
}
330
C
100
AcDbDictionary
281
     1
  0
DICTIONARY
  5
D
102
{ACAD_REACTORS
330
C
102
}
330
C
100
AcDbDictionary
281
     1
  0
DICTIONARY
  5
1A
102
{ACAD_REACTORS
330
C
102
}
330
C
100
AcDbDictionary
281
     1
  3
Layout1
350
1E
  3
Layout2
350
26
  3
Model
350
22
  0
DICTIONARY
  5
43
102
{ACAD_REACTORS
330
C
102
}
330
C
100
AcDbDictionary
281
     1
  3
ByBlock
350
45
  3
ByLayer
350
44
  3
Global
350
46
  0
DICTIONARY
  5
6B
102
{ACAD_REACTORS
330
C
102
}
330
C
100
AcDbDictionary
281
     1
  3
Standard
350
6C
  0
DICTIONARY
  5
17
102
{ACAD_REACTORS
330
C
102
}
330
C
100
AcDbDictionary
281
     1
  3
Standard
350
18
  0
DICTIONARY
  5
19
102
{ACAD_REACTORS
330
C
102
}
330
C
100
AcDbDictionary
281
     1
  0
ACDBDICTIONARYWDFLT
  5
E
102
{ACAD_REACTORS
330
C
102
}
330
C
100
AcDbDictionary
281
     1
  3
Normal
350
F
100
AcDbDictionaryWithDefault
340
F
  0
DICTIONARY
  5
47
102
{ACAD_REACTORS
330
C
102
}
330
C
100
AcDbDictionary
281
     1
  3
A0
350
48
  3
A1
350
49
  3
A2
350
4A
  3
A3
350
4B
  3
A4
350
4C
  3
A5
350
4D
  3
A6
350
4E
  3
A7
350
4F
  3
A8
350
50
  3
A9
350
51
  3
B0
350
52
  3
B1
350
53
  3
B2
350
54
  3
B3
350
55
  3
B4
350
56
  3
B5
350
57
  3
B6
350
58
  3
B7
350
59
  3
B8
350
5A
  3
B9
350
5B
  3
C0
350
5C
  3
C1
350
5D
  3
C2
350
5E
  3
C3
350
5F
  3
C4
350
60
  3
C5
350
61
  3
C6
350
62
  3
C7
350
63
  3
C8
350
64
  3
C9
350
65
  3
D0
350
66
  3
D1
350
67
  3
D2
350
68
  0
DICTIONARY
  5
239
102
{ACAD_REACTORS
330
C
102
}
330
C
100
AcDbDictionary
281
     1
  0
DICTIONARY
  5
69
102
{ACAD_REACTORS
330
C
102
}
330
C
100
AcDbDictionary
281
     1
  3
Standard
350
6A
  0
DICTIONARY
  5
2A
102
{ACAD_REACTORS
330
C
102
}
330
C
100
AcDbDictionary
281
     1
  3
2dWireframe
350
2F
  3
Basic
350
32
  3
Brighten
350
36
  3
ColorChange
350
3A
  3
Conceptual
350
34
  3
Dim
350
35
  3
EdgeColorOff
350
3D
  3
Facepattern
350
39
  3
Flat
350
2B
  3
FlatWithEdges
350
2C
  3
Gouraud
350
2D
  3
GouraudWithEdges
350
2E
  3
Hidden
350
31
  3
JitterOff
350
3B
  3
Linepattern
350
38
  3
OverhangOff
350
3C
  3
Realistic
350
33
  3
Shaded
350
42
  3
Shaded with edges
350
41
  3
Shades of Gray
350
3E
  3
Sketchy
350
3F
  3
Thicken
350
37
  3
Wireframe
350
30
  3
X-Ray
350
40
  0
XRECORD
  5
235
102
{ACAD_REACTORS
330
C
102
}
330
C
100
AcDbXrecord
280
     1
 90
        1
330
6A
  0
DICTIONARY
  5
231
102
{ACAD_REACTORS
330
C
102
}
330
C
100
AcDbDictionary
281
     1
  3
CANNOSCALE
350
232
  3
CMLEADERSTYLE
350
237
  3
CTABLESTYLE
350
236
  0
LAYOUT
  5
1E
102
{ACAD_REACTORS
330
1A
102
}
330
1A
100
AcDbPlotSettings
  1

  2
none_device
  4

  6

 40
0.0
 41
0.0
 42
0.0
 43
0.0
 44
0.0
 45
0.0
 46
0.0
 47
0.0
 48
0.0
 49
0.0
140
0.0
141
0.0
142
1.0
143
1.0
 70
   688
 72
     0
 73
     0
 74
     5
  7

 75
    16
 76
     0
 77
     2
 78
   300
147
1.0
148
0.0
149
0.0
100
AcDbLayout
  1
Layout1
 70
     1
 71
     1
 10
0.0
 20
0.0
 11
12.0
 21
9.0
 12
0.0
 22
0.0
 32
0.0
 14
1.000000000000000E+20
 24
1.000000000000000E+20
 34
1.000000000000000E+20
 15
-1.000000000000000E+20
 25
-1.000000000000000E+20
 35
-1.000000000000000E+20
146
0.0
 13
0.0
 23
0.0
 33
0.0
 16
1.0
 26
0.0
 36
0.0
 17
0.0
 27
1.0
 37
0.0
 76
     0
330
1B
  0
LAYOUT
  5
26
102
{ACAD_REACTORS
330
1A
102
}
330
1A
100
AcDbPlotSettings
  1

  2
none_device
  4

  6

 40
0.0
 41
0.0
 42
0.0
 43
0.0
 44
0.0
 45
0.0
 46
0.0
 47
0.0
 48
0.0
 49
0.0
140
0.0
141
0.0
142
1.0
143
1.0
 70
   688
 72
     0
 73
     0
 74
     5
  7

 75
    16
 76
     0
 77
     2
 78
   300
147
1.0
148
0.0
149
0.0
100
AcDbLayout
  1
Layout2
 70
     1
 71
     2
 10
0.0
 20
0.0
 11
0.0
 21
0.0
 12
0.0
 22
0.0
 32
0.0
 14
0.0
 24
0.0
 34
0.0
 15
0.0
 25
0.0
 35
0.0
146
0.0
 13
0.0
 23
0.0
 33
0.0
 16
1.0
 26
0.0
 36
0.0
 17
0.0
 27
1.0
 37
0.0
 76
     0
330
23
  0
LAYOUT
  5
22
102
{ACAD_REACTORS
330
1A
102
}
330
1A
100
AcDbPlotSettings
  1

  2
none_device
  4
Letter_(8.50_x_11.00_Inches)
  6

 40
6.35
 41
6.35
 42
6.35000508
 43
6.35000508
 44
215.9
 45
279.4
 46
0.0
 47
0.0
 48
0.0
 49
0.0
140
0.0
141
0.0
142
1.0
143
1.0
 70
  1712
 72
     0
 73
     0
 74
     0
  7

 75
     0
 76
     0
 77
     2
 78
   300
147
1.0
148
0.0
149
0.0
100
AcDbLayout
  1
Model
 70
     1
 71
     0
 10
0.0
 20
0.0
 11
12.0
 21
9.0
 12
0.0
 22
0.0
 32
0.0
 14
1.000000000000000E+20
 24
1.000000000000000E+20
 34
1.000000000000000E+20
 15
-1.000000000000000E+20
 25
-1.000000000000000E+20
 35
-1.000000000000000E+20
146
0.0
 13
0.0
 23
0.0
 33
0.0
 16
1.0
 26
0.0
 36
0.0
 17
0.0
 27
1.0
 37
0.0
 76
     0
330
1F
331
29
  0
MATERIAL
  5
45
102
{ACAD_REACTORS
330
43
102
}
330
43
100
AcDbMaterial
  1
ByBlock
 72
     1
 94
      127
  0
MATERIAL
  5
44
102
{ACAD_REACTORS
330
43
102
}
330
43
100
AcDbMaterial
  1
ByLayer
 72
     1
 94
      127
  0
MATERIAL
  5
46
102
{ACAD_REACTORS
330
43
102
}
330
43
100
AcDbMaterial
  1
Global
 72
     1
 94
      127
  0
MLEADERSTYLE
  5
6C
102
{ACAD_REACTORS
330
6B
102
}
330
6B
100
AcDbMLeaderStyle
179
     2
170
     2
171
     1
172
     0
 90
        2
 40
0.0
 41
0.0
173
     1
 91
-1056964608
340
14
 92
       -2
290
     1
 42
0.09
291
     1
 43
0.36
  3
Standard
341
0
 44
0.18
300

342
11
174
     1
178
     6
175
     1
176
     0
 93
-1056964608
 45
0.18
292
     0
297
     0
 46
0.18
343
0
 94
-1056964608
 47
1.0
 49
1.0
140
1.0
293
     1
141
0.0
294
     1
177
     0
142
1.0
295
     0
296
     0
143
0.125
271
     0
272
     9
273
     9
298
     0
  0
MLINESTYLE
  5
18
102
{ACAD_REACTORS
330
17
102
}
330
17
100
AcDbMlineStyle
  2
Standard
 70
     0
  3

 62
   256
 51
90.0
 52
90.0
 71
     2
 49
0.5
 62
   256
  6
BYLAYER
 49
-0.5
 62
   256
  6
BYLAYER
  0
ACDBPLACEHOLDER
  5
F
102
{ACAD_REACTORS
330
E
102
}
330
E
  0
SCALE
  5
48
102
{ACAD_REACTORS
330
47
102
}
330
47
100
AcDbScale
 70
     0
300
1:1
140
1.0
141
1.0
290
     1
  0
SCALE
  5
49
102
{ACAD_REACTORS
330
47
102
}
330
47
100
AcDbScale
 70
     0
300
1:2
140
1.0
141
2.0
290
     0
  0
SCALE
  5
4A
102
{ACAD_REACTORS
330
47
102
}
330
47
100
AcDbScale
 70
     0
300
1:4
140
1.0
141
4.0
290
     0
  0
SCALE
  5
4B
102
{ACAD_REACTORS
330
47
102
}
330
47
100
AcDbScale
 70
     0
300
1:5
140
1.0
141
5.0
290
     0
  0
SCALE
  5
4C
102
{ACAD_REACTORS
330
47
102
}
330
47
100
AcDbScale
 70
     0
300
1:8
140
1.0
141
8.0
290
     0
  0
SCALE
  5
4D
102
{ACAD_REACTORS
330
47
102
}
330
47
100
AcDbScale
 70
     0
300
1:10
140
1.0
141
10.0
290
     0
  0
SCALE
  5
4E
102
{ACAD_REACTORS
330
47
102
}
330
47
100
AcDbScale
 70
     0
300
1:16
140
1.0
141
16.0
290
     0
  0
SCALE
  5
4F
102
{ACAD_REACTORS
330
47
102
}
330
47
100
AcDbScale
 70
     0
300
1:20
140
1.0
141
20.0
290
     0
  0
SCALE
  5
50
102
{ACAD_REACTORS
330
47
102
}
330
47
100
AcDbScale
 70
     0
300
1:30
140
1.0
141
30.0
290
     0
  0
SCALE
  5
51
102
{ACAD_REACTORS
330
47
102
}
330
47
100
AcDbScale
 70
     0
300
1:40
140
1.0
141
40.0
290
     0
  0
SCALE
  5
52
102
{ACAD_REACTORS
330
47
102
}
330
47
100
AcDbScale
 70
     0
300
1:50
140
1.0
141
50.0
290
     0
  0
SCALE
  5
53
102
{ACAD_REACTORS
330
47
102
}
330
47
100
AcDbScale
 70
     0
300
1:100
140
1.0
141
100.0
290
     0
  0
SCALE
  5
54
102
{ACAD_REACTORS
330
47
102
}
330
47
100
AcDbScale
 70
     0
300
2:1
140
2.0
141
1.0
290
     0
  0
SCALE
  5
55
102
{ACAD_REACTORS
330
47
102
}
330
47
100
AcDbScale
 70
     0
300
4:1
140
4.0
141
1.0
290
     0
  0
SCALE
  5
56
102
{ACAD_REACTORS
330
47
102
}
330
47
100
AcDbScale
 70
     0
300
8:1
140
8.0
141
1.0
290
     0
  0
SCALE
  5
57
102
{ACAD_REACTORS
330
47
102
}
330
47
100
AcDbScale
 70
     0
300
10:1
140
10.0
141
1.0
290
     0
  0
SCALE
  5
58
102
{ACAD_REACTORS
330
47
102
}
330
47
100
AcDbScale
 70
     0
300
100:1
140
100.0
141
1.0
290
     0
  0
SCALE
  5
59
102
{ACAD_REACTORS
330
47
102
}
330
47
100
AcDbScale
 70
     0
300
1/128" = 1'-0"
140
0.0078125
141
12.0
290
     0
  0
SCALE
  5
5A
102
{ACAD_REACTORS
330
47
102
}
330
47
100
AcDbScale
 70
     0
300
1/64" = 1'-0"
140
0.015625
141
12.0
290
     0
  0
SCALE
  5
5B
102
{ACAD_REACTORS
330
47
102
}
330
47
100
AcDbScale
 70
     0
300
1/32" = 1'-0"
140
0.03125
141
12.0
290
     0
  0
SCALE
  5
5C
102
{ACAD_REACTORS
330
47
102
}
330
47
100
AcDbScale
 70
     0
300
1/16" = 1'-0"
140
0.0625
141
12.0
290
     0
  0
SCALE
  5
5D
102
{ACAD_REACTORS
330
47
102
}
330
47
100
AcDbScale
 70
     0
300
3/32" = 1'-0"
140
0.09375
141
12.0
290
     0
  0
SCALE
  5
5E
102
{ACAD_REACTORS
330
47
102
}
330
47
100
AcDbScale
 70
     0
300
1/8" = 1'-0"
140
0.125
141
12.0
290
     0
  0
SCALE
  5
5F
102
{ACAD_REACTORS
330
47
102
}
330
47
100
AcDbScale
 70
     0
300
3/16" = 1'-0"
140
0.1875
141
12.0
290
     0
  0
SCALE
  5
60
102
{ACAD_REACTORS
330
47
102
}
330
47
100
AcDbScale
 70
     0
300
1/4" = 1'-0"
140
0.25
141
12.0
290
     0
  0
SCALE
  5
61
102
{ACAD_REACTORS
330
47
102
}
330
47
100
AcDbScale
 70
     0
300
3/8" = 1'-0"
140
0.375
141
12.0
290
     0
  0
SCALE
  5
62
102
{ACAD_REACTORS
330
47
102
}
330
47
100
AcDbScale
 70
     0
300
1/2" = 1'-0"
140
0.5
141
12.0
290
     0
  0
SCALE
  5
63
102
{ACAD_REACTORS
330
47
102
}
330
47
100
AcDbScale
 70
     0
300
3/4" = 1'-0"
140
0.75
141
12.0
290
     0
  0
SCALE
  5
64
102
{ACAD_REACTORS
330
47
102
}
330
47
100
AcDbScale
 70
     0
300
1" = 1'-0"
140
1.0
141
12.0
290
     0
  0
SCALE
  5
65
102
{ACAD_REACTORS
330
47
102
}
330
47
100
AcDbScale
 70
     0
300
1-1/2" = 1'-0"
140
1.5
141
12.0
290
     0
  0
SCALE
  5
66
102
{ACAD_REACTORS
330
47
102
}
330
47
100
AcDbScale
 70
     0
300
3" = 1'-0"
140
3.0
141
12.0
290
     0
  0
SCALE
  5
67
102
{ACAD_REACTORS
330
47
102
}
330
47
100
AcDbScale
 70
     0
300
6" = 1'-0"
140
6.0
141
12.0
290
     0
  0
SCALE
  5
68
102
{ACAD_REACTORS
330
47
102
}
330
47
100
AcDbScale
 70
     0
300
1'-0" = 1'-0"
140
12.0
141
12.0
290
     0
  0
TABLESTYLE
  5
6A
102
{ACAD_REACTORS
330
69
102
}
102
{ACAD_XDICTIONARY
360
233
102
}
330
69
100
AcDbTableStyle
  3
Standard
 70
     0
 71
     0
 40
0.06
 41
0.06
280
     0
281
     0
  7
Standard
140
0.18
170
     2
 62
     0
 63
   257
283
     0
 90
        4
 91
        0
  1

274
    -2
284
     1
 64
     0
275
    -2
285
     1
 65
     0
276
    -2
286
     1
 66
     0
277
    -2
287
     1
 67
     0
278
    -2
288
     1
 68
     0
279
    -2
289
     1
 69
     0
  7
Standard
140
0.25
170
     5
 62
     0
 63
   257
283
     0
 90
        4
 91
        0
  1

274
    -2
284
     1
 64
     0
275
    -2
285
     1
 65
     0
276
    -2
286
     1
 66
     0
277
    -2
287
     1
 67
     0
278
    -2
288
     1
 68
     0
279
    -2
289
     1
 69
     0
  7
Standard
140
0.18
170
     5
 62
     0
 63
   257
283
     0
 90
        4
 91
        0
  1

274
    -2
284
     1
 64
     0
275
    -2
285
     1
 65
     0
276
    -2
286
     1
 66
     0
277
    -2
287
     1
 67
     0
278
    -2
288
     1
 68
     0
279
    -2
289
     1
 69
     0
  0
VISUALSTYLE
  5
2F
102
{ACAD_REACTORS
330
2A
102
}
330
2A
100
AcDbVisualStyle
  2
2dWireframe
 70
     4
177
     3
291
     0
 70
    58
 90
        0
176
     1
 90
        2
176
     1
 90
        0
176
     1
 90
        0
176
     1
 40
0.6
176
     1
 40
30.0
176
     1
 62
     7
420
 16777215
176
     1
 90
        1
176
     1
 90
        4
176
     1
 62
     7
176
     1
 62
   257
176
     1
 90
        1
176
     1
 90
        1
176
     1
 40
1.0
176
     1
 90
        0
176
     1
 62
   257
176
     1
 40
1.0
176
     1
 90
        1
176
     1
 90
        6
176
     1
 90
        2
176
     1
 62
     7
176
     1
 90
        5
176
     1
 90
        0
176
     1
 90
        0
176
     1
290
     0
176
     1
 90
        1
176
     1
 40
0.0
176
     1
 90
        0
176
     1
290
     1
176
     1
290
     1
176
     1
290
     0
176
     1
290
     0
176
     1
290
     0
176
     1
290
     0
176
     1
290
     0
176
     1
290
     0
176
     1
290
     0
176
     1
 90
       50
176
     1
 40
0.0
176
     1
 40
1.0
176
     1
 90
        0
176
     1
 62
    18
420
        0
176
     1
 90
       50
176
     1
 90
        3
176
     1
 62
     5
420
      255
176
     1
290
     0
176
     1
 90
       50
176
     1
 90
       50
176
     1
 90
       50
176
     1
290
     0
176
     1
 90
       50
176
     1
 62
   256
176
     0
 40
1.0
176
     0
 90
        2
176
     1
  1
strokes_ogs.tif
176
     1
290
     0
176
     1
 40
1.0
176
     1
 40
1.0
176
     1
  0
VISUALSTYLE
  5
32
102
{ACAD_REACTORS
330
2A
102
}
330
2A
100
AcDbVisualStyle
  2
Basic
 70
     7
177
     3
291
     1
 70
    58
 90
        1
176
     1
 90
        0
176
     1
 90
        1
176
     1
 90
        0
176
     1
 40
0.6
176
     1
 40
30.0
176
     1
 62
     7
420
 16777215
176
     1
 90
        0
176
     1
 90
        4
176
     1
 62
     7
176
     1
 62
   257
176
     1
 90
        1
176
     1
 90
        1
176
     1
 40
1.0
176
     1
 90
        8
176
     1
 62
     7
176
     1
 40
1.0
176
     1
 90
        1
176
     1
 90
        6
176
     1
 90
        2
176
     1
 62
     7
176
     1
 90
        5
176
     1
 90
        0
176
     1
 90
        0
176
     1
290
     0
176
     1
 90
        1
176
     1
 40
0.0
176
     1
 90
        0
176
     1
290
     0
176
     1
290
     1
176
     1
290
     1
176
     1
290
     0
176
     1
290
     0
176
     1
290
     0
176
     1
290
     0
176
     1
290
     0
176
     1
290
     0
176
     1
 90
       50
176
     1
 40
0.0
176
     1
 40
1.0
176
     1
 90
        0
176
     1
 62
    18
420
        0
176
     1
 90
       50
176
     1
 90
        3
176
     1
 62
     5
420
      255
176
     1
290
     0
176
     1
 90
       50
176
     1
 90
       50
176
     1
 90
       50
176
     1
290
     0
176
     1
 90
       50
176
     1
 62
   256
176
     0
 40
1.0
176
     0
 90
        2
176
     1
  1
strokes_ogs.tif
176
     1
290
     0
176
     1
 40
1.0
176
     1
 40
1.0
176
     1
  0
VISUALSTYLE
  5
36
102
{ACAD_REACTORS
330
2A
102
}
330
2A
100
AcDbVisualStyle
  2
Brighten
 70
    12
177
     3
291
     1
 70
    58
 90
        2
176
     1
 90
        2
176
     1
 90
        0
176
     1
 90
        0
176
     1
 40
0.6
176
     1
 40
30.0
176
     1
 62
     7
420
 16777215
176
     1
 90
        1
176
     1
 90
        4
176
     1
 62
     7
176
     1
 62
   257
176
     1
 90
        1
176
     1
 90
        1
176
     1
 40
1.0
176
     1
 90
        8
176
     1
 62
     7
176
     1
 40
1.0
176
     1
 90
        1
176
     1
 90
        6
176
     1
 90
        2
176
     1
 62
     7
176
     1
 90
        5
176
     1
 90
        0
176
     1
 90
        0
176
     1
290
     0
176
     1
 90
        1
176
     1
 40
50.0
176
     1
 90
        0
176
     1
290
     0
176
     1
290
     1
176
     1
290
     1
176
     1
290
     0
176
     1
290
     0
176
     1
290
     0
176
     1
290
     0
176
     1
290
     0
176
     1
290
     0
176
     1
 90
       50
176
     1
 40
0.0
176
     1
 40
1.0
176
     1
 90
        0
176
     1
 62
    18
420
        0
176
     1
 90
       50
176
     1
 90
        3
176
     1
 62
     5
420
      255
176
     1
290
     0
176
     1
 90
       50
176
     1
 90
       50
176
     1
 90
       50
176
     1
290
     0
176
     1
 90
       50
176
     1
 62
   256
176
     0
 40
1.0
176
     0
 90
        2
176
     1
  1
strokes_ogs.tif
176
     1
290
     0
176
     1
 40
1.0
176
     1
 40
1.0
176
     1
  0
VISUALSTYLE
  5
3A
102
{ACAD_REACTORS
330
2A
102
}
330
2A
100
AcDbVisualStyle
  2
ColorChange
 70
    16
177
     3
291
     1
 70
    58
 90
        2
176
     1
 90
        2
176
     1
 90
        3
176
     1
 90
        0
176
     1
 40
0.6
176
     1
 40
30.0
176
     1
 62
     8
420
  8421504
176
     1
 90
        1
176
     1
 90
        4
176
     1
 62
     7
176
     1
 62
   257
176
     1
 90
        1
176
     1
 90
        1
176
     1
 40
1.0
176
     1
 90
        8
176
     1
 62
     8
420
  8421504
176
     1
 40
1.0
176
     1
 90
        1
176
     1
 90
        6
176
     1
 90
        2
176
     1
 62
     7
176
     1
 90
        5
176
     1
 90
        0
176
     1
 90
        0
176
     1
290
     0
176
     1
 90
        1
176
     1
 40
0.0
176
     1
 90
        0
176
     1
290
     0
176
     1
290
     1
176
     1
290
     1
176
     1
290
     0
176
     1
290
     0
176
     1
290
     0
176
     1
290
     0
176
     1
290
     0
176
     1
290
     0
176
     1
 90
       50
176
     1
 40
0.0
176
     1
 40
1.0
176
     1
 90
        0
176
     1
 62
    18
420
        0
176
     1
 90
       50
176
     1
 90
        3
176
     1
 62
     5
420
      255
176
     1
290
     0
176
     1
 90
       50
176
     1
 90
       50
176
     1
 90
       50
176
     1
290
     0
176
     1
 90
       50
176
     1
 62
   256
176
     0
 40
1.0
176
     0
 90
        2
176
     1
  1
strokes_ogs.tif
176
     1
290
     0
176
     1
 40
1.0
176
     1
 40
1.0
176
     1
  0
VISUALSTYLE
  5
34
102
{ACAD_REACTORS
330
2A
102
}
330
2A
100
AcDbVisualStyle
  2
Conceptual
 70
     9
177
     3
291
     0
 70
    58
 90
        3
176
     1
 90
        2
176
     1
 90
        0
176
     1
 90
        0
176
     1
 40
0.6
176
     1
 40
30.0
176
     1
 62
     7
420
 16777215
176
     1
 90
        2
176
     1
 90
        2
176
     1
 62
     7
176
     1
 62
   257
176
     1
 90
        1
176
     1
 90
        1
176
     1
 40
179.0
176
     1
 90
        8
176
     1
 62
     7
176
     1
 40
1.0
176
     1
 90
        1
176
     1
 90
        6
176
     1
 90
        2
176
     1
 62
     7
176
     1
 90
        3
176
     1
 90
        0
176
     1
 90
        0
176
     1
290
     0
176
     1
 90
        1
176
     1
 40
0.0
176
     1
 90
        0
176
     1
290
     0
176
     1
290
     1
176
     1
290
     1
176
     1
290
     0
176
     1
290
     0
176
     1
290
     0
176
     1
290
     0
176
     1
290
     0
176
     1
290
     0
176
     1
 90
       50
176
     1
 40
0.0
176
     1
 40
1.0
176
     1
 90
        0
176
     1
 62
    18
420
        0
176
     1
 90
       50
176
     1
 90
        3
176
     1
 62
     5
420
      255
176
     1
290
     0
176
     1
 90
       50
176
     1
 90
       50
176
     1
 90
       50
176
     1
290
     0
176
     1
 90
       50
176
     1
 62
   256
176
     0
 40
1.0
176
     0
 90
        2
176
     1
  1
strokes_ogs.tif
176
     1
290
     0
176
     1
 40
1.0
176
     1
 40
1.0
176
     1
  0
VISUALSTYLE
  5
35
102
{ACAD_REACTORS
330
2A
102
}
330
2A
100
AcDbVisualStyle
  2
Dim
 70
    11
177
     3
291
     1
 70
    58
 90
        2
176
     1
 90
        2
176
     1
 90
        0
176
     1
 90
        0
176
     1
 40
0.6
176
     1
 40
30.0
176
     1
 62
     7
420
 16777215
176
     1
 90
        1
176
     1
 90
        4
176
     1
 62
     7
176
     1
 62
   257
176
     1
 90
        1
176
     1
 90
        1
176
     1
 40
1.0
176
     1
 90
        8
176
     1
 62
     7
176
     1
 40
1.0
176
     1
 90
        1
176
     1
 90
        6
176
     1
 90
        2
176
     1
 62
     7
176
     1
 90
        5
176
     1
 90
        0
176
     1
 90
        0
176
     1
290
     0
176
     1
 90
        1
176
     1
 40
-50.0
176
     1
 90
        0
176
     1
290
     0
176
     1
290
     1
176
     1
290
     1
176
     1
290
     0
176
     1
290
     0
176
     1
290
     0
176
     1
290
     0
176
     1
290
     0
176
     1
290
     0
176
     1
 90
       50
176
     1
 40
0.0
176
     1
 40
1.0
176
     1
 90
        0
176
     1
 62
    18
420
        0
176
     1
 90
       50
176
     1
 90
        3
176
     1
 62
     5
420
      255
176
     1
290
     0
176
     1
 90
       50
176
     1
 90
       50
176
     1
 90
       50
176
     1
290
     0
176
     1
 90
       50
176
     1
 62
   256
176
     0
 40
1.0
176
     0
 90
        2
176
     1
  1
strokes_ogs.tif
176
     1
290
     0
176
     1
 40
1.0
176
     1
 40
1.0
176
     1
  0
VISUALSTYLE
  5
3D
102
{ACAD_REACTORS
330
2A
102
}
330
2A
100
AcDbVisualStyle
  2
EdgeColorOff
 70
    22
177
     3
291
     1
 70
    58
 90
        2
176
     0
 90
        2
176
     0
 90
        0
176
     0
 90
        0
176
     0
 40
0.6
176
     0
 40
30.0
176
     0
 62
     7
420
 16777215
176
     0
 90
        1
176
     0
 90
        4
176
     0
 62
     7
176
     0
 62
   257
176
     0
 90
        1
176
     0
 90
        1
176
     0
 40
1.0
176
     0
 90
        8
176
     2
 62
     7
176
     0
 40
1.0
176
     0
 90
        1
176
     0
 90
        6
176
     0
 90
        2
176
     0
 62
     7
176
     0
 90
        5
176
     0
 90
        0
176
     0
 90
        0
176
     0
290
     0
176
     0
 90
        1
176
     0
 40
0.0
176
     0
 90
        0
176
     0
290
     0
176
     0
290
     1
176
     0
290
     1
176
     0
290
     0
176
     0
290
     0
176
     0
290
     0
176
     0
290
     0
176
     0
290
     0
176
     0
290
     0
176
     0
 90
       50
176
     0
 40
0.0
176
     0
 40
1.0
176
     0
 90
        0
176
     0
 62
    18
420
        0
176
     0
 90
       50
176
     0
 90
        3
176
     0
 62
     5
420
      255
176
     0
290
     0
176
     0
 90
       50
176
     0
 90
       50
176
     0
 90
       50
176
     0
290
     0
176
     0
 90
       50
176
     0
 62
   256
176
     0
 40
1.0
176
     0
 90
        2
176
     0
  1
strokes_ogs.tif
176
     0
290
     0
176
     0
 40
1.0
176
     0
 40
1.0
176
     0
  0
VISUALSTYLE
  5
39
102
{ACAD_REACTORS
330
2A
102
}
330
2A
100
AcDbVisualStyle
  2
Facepattern
 70
    15
177
     3
291
     1
 70
    58
 90
        2
176
     1
 90
        2
176
     1
 90
        0
176
     1
 90
        0
176
     1
 40
0.6
176
     1
 40
30.0
176
     1
 62
     7
420
 16777215
176
     1
 90
        1
176
     1
 90
        4
176
     1
 62
     7
176
     1
 62
   257
176
     1
 90
        1
176
     1
 90
        1
176
     1
 40
1.0
176
     1
 90
        8
176
     1
 62
     7
176
     1
 40
1.0
176
     1
 90
        1
176
     1
 90
        6
176
     1
 90
        2
176
     1
 62
     7
176
     1
 90
        5
176
     1
 90
        0
176
     1
 90
        0
176
     1
290
     0
176
     1
 90
        1
176
     1
 40
0.0
176
     1
 90
        0
176
     1
290
     0
176
     1
290
     1
176
     1
290
     1
176
     1
290
     0
176
     1
290
     0
176
     1
290
     0
176
     1
290
     0
176
     1
290
     0
176
     1
290
     0
176
     1
 90
       50
176
     1
 40
0.0
176
     1
 40
1.0
176
     1
 90
        0
176
     1
 62
    18
420
        0
176
     1
 90
       50
176
     1
 90
        3
176
     1
 62
     5
420
      255
176
     1
290
     0
176
     1
 90
       50
176
     1
 90
       50
176
     1
 90
       50
176
     1
290
     0
176
     1
 90
       50
176
     1
 62
   256
176
     0
 40
1.0
176
     0
 90
        2
176
     1
  1
strokes_ogs.tif
176
     1
290
     0
176
     1
 40
1.0
176
     1
 40
1.0
176
     1
  0
VISUALSTYLE
  5
2B
102
{ACAD_REACTORS
330
2A
102
}
330
2A
100
AcDbVisualStyle
  2
Flat
 70
     0
177
     3
291
     1
 70
    58
 90
        2
176
     1
 90
        1
176
     1
 90
        1
176
     1
 90
        2
176
     1
 40
0.6
176
     1
 40
30.0
176
     1
 62
     7
420
 16777215
176
     1
 90
        0
176
     1
 90
        0
176
     1
 62
     7
176
     1
 62
   257
176
     1
 90
        1
176
     1
 90
        1
176
     1
 40
1.0
176
     1
 90
        8
176
     1
 62
     7
176
     1
 40
1.0
176
     1
 90
        1
176
     1
 90
        6
176
     1
 90
        2
176
     1
 62
     7
176
     1
 90
        5
176
     1
 90
        0
176
     1
 90
        0
176
     1
290
     0
176
     1
 90
       13
176
     1
 40
0.0
176
     1
 90
        0
176
     1
290
     0
176
     1
290
     1
176
     1
290
     1
176
     1
290
     0
176
     1
290
     0
176
     1
290
     0
176
     1
290
     0
176
     1
290
     0
176
     1
290
     0
176
     1
 90
       50
176
     1
 40
0.0
176
     1
 40
1.0
176
     1
 90
        0
176
     1
 62
    18
420
        0
176
     1
 90
       50
176
     1
 90
        3
176
     1
 62
     5
420
      255
176
     1
290
     0
176
     1
 90
       50
176
     1
 90
       50
176
     1
 90
       50
176
     1
290
     0
176
     1
 90
       50
176
     1
 62
   256
176
     0
 40
1.0
176
     0
 90
        2
176
     1
  1
strokes_ogs.tif
176
     1
290
     0
176
     1
 40
1.0
176
     1
 40
1.0
176
     1
  0
VISUALSTYLE
  5
2C
102
{ACAD_REACTORS
330
2A
102
}
330
2A
100
AcDbVisualStyle
  2
FlatWithEdges
 70
     1
177
     3
291
     1
 70
    58
 90
        2
176
     1
 90
        1
176
     1
 90
        1
176
     1
 90
        2
176
     1
 40
0.6
176
     1
 40
30.0
176
     1
 62
     7
420
 16777215
176
     1
 90
        1
176
     1
 90
        0
176
     1
 62
     7
176
     1
 62
   257
176
     1
 90
        1
176
     1
 90
        1
176
     1
 40
1.0
176
     1
 90
        0
176
     1
 62
   257
176
     1
 40
1.0
176
     1
 90
        1
176
     1
 90
        6
176
     1
 90
        2
176
     1
 62
     7
176
     1
 90
        5
176
     1
 90
        0
176
     1
 90
        0
176
     1
290
     0
176
     1
 90
       13
176
     1
 40
0.0
176
     1
 90
        0
176
     1
290
     0
176
     1
290
     1
176
     1
290
     1
176
     1
290
     0
176
     1
290
     0
176
     1
290
     0
176
     1
290
     0
176
     1
290
     0
176
     1
290
     0
176
     1
 90
       50
176
     1
 40
0.0
176
     1
 40
1.0
176
     1
 90
        0
176
     1
 62
    18
420
        0
176
     1
 90
       50
176
     1
 90
        3
176
     1
 62
     5
420
      255
176
     1
290
     0
176
     1
 90
       50
176
     1
 90
       50
176
     1
 90
       50
176
     1
290
     0
176
     1
 90
       50
176
     1
 62
   256
176
     0
 40
1.0
176
     0
 90
        2
176
     1
  1
strokes_ogs.tif
176
     1
290
     0
176
     1
 40
1.0
176
     1
 40
1.0
176
     1
  0
VISUALSTYLE
  5
2D
102
{ACAD_REACTORS
330
2A
102
}
330
2A
100
AcDbVisualStyle
  2
Gouraud
 70
     2
177
     3
291
     1
 70
    58
 90
        2
176
     1
 90
        2
176
     1
 90
        1
176
     1
 90
        2
176
     1
 40
0.6
176
     1
 40
30.0
176
     1
 62
     7
420
 16777215
176
     1
 90
        0
176
     1
 90
        0
176
     1
 62
     7
176
     1
 62
   257
176
     1
 90
        1
176
     1
 90
        1
176
     1
 40
1.0
176
     1
 90
        0
176
     1
 62
     7
176
     1
 40
1.0
176
     1
 90
        1
176
     1
 90
        6
176
     1
 90
        2
176
     1
 62
     7
176
     1
 90
        5
176
     1
 90
        0
176
     1
 90
        0
176
     1
290
     0
176
     1
 90
       13
176
     1
 40
0.0
176
     1
 90
        0
176
     1
290
     0
176
     1
290
     1
176
     1
290
     1
176
     1
290
     0
176
     1
290
     0
176
     1
290
     0
176
     1
290
     0
176
     1
290
     0
176
     1
290
     0
176
     1
 90
       50
176
     1
 40
0.0
176
     1
 40
1.0
176
     1
 90
        0
176
     1
 62
    18
420
        0
176
     1
 90
       50
176
     1
 90
        3
176
     1
 62
     5
420
      255
176
     1
290
     0
176
     1
 90
       50
176
     1
 90
       50
176
     1
 90
       50
176
     1
290
     0
176
     1
 90
       50
176
     1
 62
   256
176
     0
 40
1.0
176
     0
 90
        2
176
     1
  1
strokes_ogs.tif
176
     1
290
     0
176
     1
 40
1.0
176
     1
 40
1.0
176
     1
  0
VISUALSTYLE
  5
2E
102
{ACAD_REACTORS
330
2A
102
}
330
2A
100
AcDbVisualStyle
  2
GouraudWithEdges
 70
     3
177
     3
291
     1
 70
    58
 90
        2
176
     1
 90
        2
176
     1
 90
        1
176
     1
 90
        2
176
     1
 40
0.6
176
     1
 40
30.0
176
     1
 62
     7
420
 16777215
176
     1
 90
        1
176
     1
 90
        0
176
     1
 62
     7
176
     1
 62
   257
176
     1
 90
        1
176
     1
 90
        1
176
     1
 40
1.0
176
     1
 90
        0
176
     1
 62
   257
176
     1
 40
1.0
176
     1
 90
        1
176
     1
 90
        6
176
     1
 90
        2
176
     1
 62
     7
176
     1
 90
        5
176
     1
 90
        0
176
     1
 90
        0
176
     1
290
     0
176
     1
 90
       13
176
     1
 40
0.0
176
     1
 90
        0
176
     1
290
     0
176
     1
290
     1
176
     1
290
     1
176
     1
290
     0
176
     1
290
     0
176
     1
290
     0
176
     1
290
     0
176
     1
290
     0
176
     1
290
     0
176
     1
 90
       50
176
     1
 40
0.0
176
     1
 40
1.0
176
     1
 90
        0
176
     1
 62
    18
420
        0
176
     1
 90
       50
176
     1
 90
        3
176
     1
 62
     5
420
      255
176
     1
290
     0
176
     1
 90
       50
176
     1
 90
       50
176
     1
 90
       50
176
     1
290
     0
176
     1
 90
       50
176
     1
 62
   256
176
     0
 40
1.0
176
     0
 90
        2
176
     1
  1
strokes_ogs.tif
176
     1
290
     0
176
     1
 40
1.0
176
     1
 40
1.0
176
     1
  0
VISUALSTYLE
  5
31
102
{ACAD_REACTORS
330
2A
102
}
330
2A
100
AcDbVisualStyle
  2
Hidden
 70
     6
177
     3
291
     0
 70
    58
 90
        1
176
     1
 90
        2
176
     1
 90
        2
176
     1
 90
        0
176
     1
 40
0.6
176
     1
 40
30.0
176
     1
 62
     7
420
 16777215
176
     1
 90
        2
176
     1
 90
        2
176
     1
 62
     7
176
     1
 62
   257
176
     1
 90
        2
176
     1
 90
        1
176
     1
 40
40.0
176
     1
 90
        0
176
     1
 62
   257
176
     1
 40
1.0
176
     1
 90
        1
176
     1
 90
        6
176
     1
 90
        2
176
     1
 62
     7
176
     1
 90
        3
176
     1
 90
        0
176
     1
 90
        0
176
     1
290
     0
176
     1
 90
        1
176
     1
 40
0.0
176
     1
 90
        0
176
     1
290
     0
176
     1
290
     1
176
     1
290
     1
176
     1
290
     0
176
     1
290
     0
176
     1
290
     0
176
     1
290
     0
176
     1
290
     0
176
     1
290
     0
176
     1
 90
       50
176
     1
 40
0.0
176
     1
 40
1.0
176
     1
 90
        0
176
     1
 62
    18
420
        0
176
     1
 90
       50
176
     1
 90
        3
176
     1
 62
     5
420
      255
176
     1
290
     0
176
     1
 90
       50
176
     1
 90
       50
176
     1
 90
       50
176
     1
290
     0
176
     1
 90
       50
176
     1
 62
   256
176
     0
 40
1.0
176
     0
 90
        2
176
     1
  1
strokes_ogs.tif
176
     1
290
     0
176
     1
 40
1.0
176
     1
 40
1.0
176
     1
  0
VISUALSTYLE
  5
3B
102
{ACAD_REACTORS
330
2A
102
}
330
2A
100
AcDbVisualStyle
  2
JitterOff
 70
    20
177
     3
291
     1
 70
    58
 90
        2
176
     0
 90
        2
176
     0
 90
        0
176
     0
 90
        0
176
     0
 40
0.6
176
     0
 40
30.0
176
     0
 62
     7
420
 16777215
176
     0
 90
        1
176
     0
 90
        4
176
     0
 62
     7
176
     0
 62
   257
176
     0
 90
        1
176
     0
 90
        1
176
     0
 40
1.0
176
     0
 90
       10
176
     2
 62
     7
176
     0
 40
1.0
176
     0
 90
        1
176
     0
 90
        6
176
     0
 90
        2
176
     0
 62
     7
176
     0
 90
        5
176
     0
 90
        0
176
     0
 90
        0
176
     0
290
     0
176
     0
 90
        1
176
     0
 40
0.0
176
     0
 90
        0
176
     0
290
     0
176
     0
290
     1
176
     0
290
     1
176
     0
290
     0
176
     0
290
     0
176
     0
290
     0
176
     0
290
     0
176
     0
290
     0
176
     0
290
     0
176
     0
 90
       50
176
     0
 40
0.0
176
     0
 40
1.0
176
     0
 90
        0
176
     0
 62
    18
420
        0
176
     0
 90
       50
176
     0
 90
        3
176
     0
 62
     5
420
      255
176
     0
290
     0
176
     0
 90
       50
176
     0
 90
       50
176
     0
 90
       50
176
     0
290
     0
176
     0
 90
       50
176
     0
 62
   256
176
     0
 40
1.0
176
     0
 90
        2
176
     0
  1
strokes_ogs.tif
176
     0
290
     0
176
     0
 40
1.0
176
     0
 40
1.0
176
     0
  0
VISUALSTYLE
  5
38
102
{ACAD_REACTORS
330
2A
102
}
330
2A
100
AcDbVisualStyle
  2
Linepattern
 70
    14
177
     3
291
     1
 70
    58
 90
        2
176
     1
 90
        2
176
     1
 90
        0
176
     1
 90
        0
176
     1
 40
0.6
176
     1
 40
30.0
176
     1
 62
     7
420
 16777215
176
     1
 90
        1
176
     1
 90
        4
176
     1
 62
     7
176
     1
 62
   257
176
     1
 90
        7
176
     1
 90
        7
176
     1
 40
1.0
176
     1
 90
        8
176
     1
 62
     7
176
     1
 40
1.0
176
     1
 90
        1
176
     1
 90
        6
176
     1
 90
        2
176
     1
 62
     7
176
     1
 90
        5
176
     1
 90
        0
176
     1
 90
        0
176
     1
290
     0
176
     1
 90
        1
176
     1
 40
0.0
176
     1
 90
        0
176
     1
290
     0
176
     1
290
     1
176
     1
290
     1
176
     1
290
     0
176
     1
290
     0
176
     1
290
     0
176
     1
290
     0
176
     1
290
     0
176
     1
290
     0
176
     1
 90
       50
176
     1
 40
0.0
176
     1
 40
1.0
176
     1
 90
        0
176
     1
 62
    18
420
        0
176
     1
 90
       50
176
     1
 90
        3
176
     1
 62
     5
420
      255
176
     1
290
     0
176
     1
 90
       50
176
     1
 90
       50
176
     1
 90
       50
176
     1
290
     0
176
     1
 90
       50
176
     1
 62
   256
176
     0
 40
1.0
176
     0
 90
        2
176
     1
  1
strokes_ogs.tif
176
     1
290
     0
176
     1
 40
1.0
176
     1
 40
1.0
176
     1
  0
VISUALSTYLE
  5
3C
102
{ACAD_REACTORS
330
2A
102
}
330
2A
100
AcDbVisualStyle
  2
OverhangOff
 70
    21
177
     3
291
     1
 70
    58
 90
        2
176
     0
 90
        2
176
     0
 90
        0
176
     0
 90
        0
176
     0
 40
0.6
176
     0
 40
30.0
176
     0
 62
     7
420
 16777215
176
     0
 90
        1
176
     0
 90
        4
176
     0
 62
     7
176
     0
 62
   257
176
     0
 90
        1
176
     0
 90
        1
176
     0
 40
1.0
176
     0
 90
        9
176
     2
 62
     7
176
     0
 40
1.0
176
     0
 90
        1
176
     0
 90
        6
176
     0
 90
        2
176
     0
 62
     7
176
     0
 90
        5
176
     0
 90
        0
176
     0
 90
        0
176
     0
290
     0
176
     0
 90
        1
176
     0
 40
0.0
176
     0
 90
        0
176
     0
290
     0
176
     0
290
     1
176
     0
290
     1
176
     0
290
     0
176
     0
290
     0
176
     0
290
     0
176
     0
290
     0
176
     0
290
     0
176
     0
290
     0
176
     0
 90
       50
176
     0
 40
0.0
176
     0
 40
1.0
176
     0
 90
        0
176
     0
 62
    18
420
        0
176
     0
 90
       50
176
     0
 90
        3
176
     0
 62
     5
420
      255
176
     0
290
     0
176
     0
 90
       50
176
     0
 90
       50
176
     0
 90
       50
176
     0
290
     0
176
     0
 90
       50
176
     0
 62
   256
176
     0
 40
1.0
176
     0
 90
        2
176
     0
  1
strokes_ogs.tif
176
     0
290
     0
176
     0
 40
1.0
176
     0
 40
1.0
176
     0
  0
VISUALSTYLE
  5
33
102
{ACAD_REACTORS
330
2A
102
}
330
2A
100
AcDbVisualStyle
  2
Realistic
 70
     8
177
     3
291
     0
 70
    58
 90
        2
176
     1
 90
        3
176
     1
 90
        0
176
     1
 90
        2
176
     1
 40
0.6
176
     1
 40
30.0
176
     1
 62
     7
420
 16777215
176
     1
 90
        0
176
     1
 90
        0
176
     1
 62
     7
176
     1
 62
   257
176
     1
 90
        1
176
     1
 90
        1
176
     1
 40
1.0
176
     1
 90
        8
176
     1
 62
   257
176
     1
 40
1.0
176
     1
 90
        1
176
     1
 90
        6
176
     1
 90
        2
176
     1
 62
     7
176
     1
 90
        3
176
     1
 90
        0
176
     1
 90
        0
176
     1
290
     0
176
     1
 90
       13
176
     1
 40
0.0
176
     1
 90
        0
176
     1
290
     0
176
     1
290
     1
176
     1
290
     1
176
     1
290
     0
176
     1
290
     0
176
     1
290
     0
176
     1
290
     0
176
     1
290
     0
176
     1
290
     0
176
     1
 90
       50
176
     1
 40
0.0
176
     1
 40
1.0
176
     1
 90
        0
176
     1
 62
    18
420
        0
176
     1
 90
       50
176
     1
 90
        3
176
     1
 62
     5
420
      255
176
     1
290
     0
176
     1
 90
       50
176
     1
 90
       50
176
     1
 90
       50
176
     1
290
     0
176
     1
 90
       50
176
     1
 62
   256
176
     0
 40
1.0
176
     0
 90
        2
176
     1
  1
strokes_ogs.tif
176
     1
290
     0
176
     1
 40
1.0
176
     1
 40
1.0
176
     1
  0
VISUALSTYLE
  5
42
102
{ACAD_REACTORS
330
2A
102
}
330
2A
100
AcDbVisualStyle
  2
Shaded
 70
    27
177
     3
291
     0
 70
    58
 90
        2
176
     1
 90
        2
176
     1
 90
        1
176
     1
 90
        2
176
     1
 40
0.6
176
     1
 40
30.0
176
     1
 62
     7
420
 16777215
176
     1
 90
        0
176
     1
 90
        4
176
     1
 62
     7
176
     1
 62
   257
176
     1
 90
        1
176
     1
 90
        1
176
     1
 40
1.0
176
     1
 90
        8
176
     1
 62
   257
176
     1
 40
1.0
176
     1
 90
        1
176
     1
 90
        6
176
     1
 90
        2
176
     1
 62
     8
420
  7895160
176
     1
 90
        3
176
     1
 90
        0
176
     1
 90
        0
176
     1
290
     0
176
     1
 90
        5
176
     1
 40
0.0
176
     1
 90
        0
176
     1
290
     0
176
     1
290
     1
176
     1
290
     1
176
     1
290
     0
176
     1
290
     0
176
     1
290
     0
176
     1
290
     0
176
     1
290
     0
176
     1
290
     0
176
     1
 90
       50
176
     1
 40
0.0
176
     1
 40
1.0
176
     1
 90
        0
176
     1
 62
    18
420
        0
176
     1
 90
       50
176
     1
 90
        3
176
     1
 62
     5
420
      255
176
     1
290
     0
176
     1
 90
       50
176
     1
 90
       50
176
     1
 90
       50
176
     1
290
     0
176
     1
 90
       50
176
     1
 62
   256
176
     0
 40
1.0
176
     0
 90
        2
176
     1
  1
strokes_ogs.tif
176
     1
290
     0
176
     1
 40
1.0
176
     1
 40
1.0
176
     1
  0
VISUALSTYLE
  5
41
102
{ACAD_REACTORS
330
2A
102
}
330
2A
100
AcDbVisualStyle
  2
Shaded with edges
 70
    26
177
     3
291
     0
 70
    58
 90
        2
176
     1
 90
        2
176
     1
 90
        1
176
     1
 90
        2
176
     1
 40
0.6
176
     1
 40
30.0
176
     1
 62
     7
420
 16777215
176
     1
 90
        1
176
     1
 90
       10
176
     1
 62
     7
176
     1
 62
   257
176
     1
 90
        2
176
     1
 90
        1
176
     1
 40
1.0
176
     1
 90
        8
176
     1
 62
   257
176
     1
 40
1.0
176
     1
 90
        1
176
     1
 90
        6
176
     1
 90
        2
176
     1
 62
     7
176
     1
 90
        3
176
     1
 90
        0
176
     1
 90
        0
176
     1
290
     0
176
     1
 90
        5
176
     1
 40
0.0
176
     1
 90
        0
176
     1
290
     0
176
     1
290
     1
176
     1
290
     1
176
     1
290
     0
176
     1
290
     0
176
     1
290
     0
176
     1
290
     0
176
     1
290
     0
176
     1
290
     0
176
     1
 90
       50
176
     1
 40
0.0
176
     1
 40
1.0
176
     1
 90
        0
176
     1
 62
    18
420
        0
176
     1
 90
       50
176
     1
 90
        3
176
     1
 62
     5
420
      255
176
     1
290
     0
176
     1
 90
       50
176
     1
 90
       50
176
     1
 90
       50
176
     1
290
     0
176
     1
 90
       50
176
     1
 62
   256
176
     0
 40
1.0
176
     0
 90
        2
176
     1
  1
strokes_ogs.tif
176
     1
290
     0
176
     1
 40
1.0
176
     1
 40
1.0
176
     1
  0
VISUALSTYLE
  5
3E
102
{ACAD_REACTORS
330
2A
102
}
330
2A
100
AcDbVisualStyle
  2
Shades of Gray
 70
    23
177
     3
291
     0
 70
    58
 90
        2
176
     1
 90
        2
176
     1
 90
        3
176
     1
 90
        0
176
     1
 40
0.6
176
     1
 40
30.0
176
     1
 62
     7
420
 16777215
176
     1
 90
        2
176
     1
 90
        2
176
     1
 62
     7
176
     1
 62
     7
176
     1
 90
        1
176
     1
 90
        1
176
     1
 40
40.0
176
     1
 90
        8
176
     1
 62
     7
176
     1
 40
1.0
176
     1
 90
        1
176
     1
 90
        6
176
     1
 90
        2
176
     1
 62
     7
176
     1
 90
        3
176
     1
 90
        0
176
     1
 90
        0
176
     1
290
     0
176
     1
 90
        1
176
     1
 40
0.0
176
     1
 90
        0
176
     1
290
     0
176
     1
290
     1
176
     1
290
     1
176
     1
290
     0
176
     1
290
     0
176
     1
290
     0
176
     1
290
     0
176
     1
290
     0
176
     1
290
     0
176
     1
 90
       50
176
     1
 40
0.0
176
     1
 40
1.0
176
     1
 90
        0
176
     1
 62
    18
420
        0
176
     1
 90
       50
176
     1
 90
        3
176
     1
 62
     5
420
      255
176
     1
290
     0
176
     1
 90
       50
176
     1
 90
       50
176
     1
 90
       50
176
     1
290
     0
176
     1
 90
       50
176
     1
 62
   256
176
     0
 40
1.0
176
     0
 90
        2
176
     1
  1
strokes_ogs.tif
176
     1
290
     0
176
     1
 40
1.0
176
     1
 40
1.0
176
     1
  0
VISUALSTYLE
  5
3F
102
{ACAD_REACTORS
330
2A
102
}
330
2A
100
AcDbVisualStyle
  2
Sketchy
 70
    24
177
     3
291
     0
 70
    58
 90
        1
176
     1
 90
        2
176
     1
 90
        2
176
     1
 90
        0
176
     1
 40
0.6
176
     1
 40
30.0
176
     1
 62
     7
420
 16777215
176
     1
 90
        2
176
     1
 90
        2
176
     1
 62
     7
176
     1
 62
     7
176
     1
 90
        1
176
     1
 90
        1
176
     1
 40
40.0
176
     1
 90
       11
176
     1
 62
     7
176
     1
 40
1.0
176
     1
 90
        1
176
     1
 90
        6
176
     1
 90
        2
176
     1
 62
     7
176
     1
 90
        6
176
     1
 90
        0
176
     1
 90
        0
176
     1
290
     0
176
     1
 90
        1
176
     1
 40
0.0
176
     1
 90
        0
176
     1
290
     0
176
     1
290
     1
176
     1
290
     1
176
     1
290
     0
176
     1
290
     0
176
     1
290
     0
176
     1
290
     0
176
     1
290
     0
176
     1
290
     0
176
     1
 90
       50
176
     1
 40
0.0
176
     1
 40
1.0
176
     1
 90
        0
176
     1
 62
    18
420
        0
176
     1
 90
       50
176
     1
 90
        3
176
     1
 62
     5
420
      255
176
     1
290
     0
176
     1
 90
       50
176
     1
 90
       50
176
     1
 90
       50
176
     1
290
     0
176
     1
 90
       50
176
     1
 62
   256
176
     0
 40
1.0
176
     0
 90
        2
176
     1
  1
strokes_ogs.tif
176
     1
290
     0
176
     1
 40
1.0
176
     1
 40
1.0
176
     1
  0
VISUALSTYLE
  5
37
102
{ACAD_REACTORS
330
2A
102
}
330
2A
100
AcDbVisualStyle
  2
Thicken
 70
    13
177
     3
291
     1
 70
    58
 90
        2
176
     1
 90
        2
176
     1
 90
        0
176
     1
 90
        0
176
     1
 40
0.6
176
     1
 40
30.0
176
     1
 62
     7
420
 16777215
176
     1
 90
        1
176
     1
 90
        4
176
     1
 62
     7
176
     1
 62
   257
176
     1
 90
        1
176
     1
 90
        1
176
     1
 40
1.0
176
     1
 90
       12
176
     1
 62
     7
176
     1
 40
1.0
176
     1
 90
        1
176
     1
 90
        6
176
     1
 90
        2
176
     1
 62
     7
176
     1
 90
        5
176
     1
 90
        0
176
     1
 90
        0
176
     1
290
     0
176
     1
 90
        1
176
     1
 40
0.0
176
     1
 90
        0
176
     1
290
     0
176
     1
290
     1
176
     1
290
     1
176
     1
290
     0
176
     1
290
     0
176
     1
290
     0
176
     1
290
     0
176
     1
290
     0
176
     1
290
     0
176
     1
 90
       50
176
     1
 40
0.0
176
     1
 40
1.0
176
     1
 90
        0
176
     1
 62
    18
420
        0
176
     1
 90
       50
176
     1
 90
        3
176
     1
 62
     5
420
      255
176
     1
290
     0
176
     1
 90
       50
176
     1
 90
       50
176
     1
 90
       50
176
     1
290
     0
176
     1
 90
       50
176
     1
 62
   256
176
     0
 40
1.0
176
     0
 90
        2
176
     1
  1
strokes_ogs.tif
176
     1
290
     0
176
     1
 40
1.0
176
     1
 40
1.0
176
     1
  0
VISUALSTYLE
  5
30
102
{ACAD_REACTORS
330
2A
102
}
330
2A
100
AcDbVisualStyle
  2
Wireframe
 70
     5
177
     3
291
     0
 70
    58
 90
        0
176
     1
 90
        2
176
     1
 90
        0
176
     1
 90
        0
176
     1
 40
0.6
176
     1
 40
30.0
176
     1
 62
     7
420
 16777215
176
     1
 90
        1
176
     1
 90
        4
176
     1
 62
     7
176
     1
 62
   257
176
     1
 90
        1
176
     1
 90
        1
176
     1
 40
1.0
176
     1
 90
        0
176
     1
 62
   257
176
     1
 40
1.0
176
     1
 90
        1
176
     1
 90
        6
176
     1
 90
        2
176
     1
 62
     7
176
     1
 90
        3
176
     1
 90
        0
176
     1
 90
        0
176
     1
290
     0
176
     1
 90
        1
176
     1
 40
0.0
176
     1
 90
        0
176
     1
290
     0
176
     1
290
     1
176
     1
290
     1
176
     1
290
     0
176
     1
290
     0
176
     1
290
     0
176
     1
290
     0
176
     1
290
     0
176
     1
290
     0
176
     1
 90
       50
176
     1
 40
0.0
176
     1
 40
1.0
176
     1
 90
        0
176
     1
 62
    18
420
        0
176
     1
 90
       50
176
     1
 90
        3
176
     1
 62
     5
420
      255
176
     1
290
     0
176
     1
 90
       50
176
     1
 90
       50
176
     1
 90
       50
176
     1
290
     0
176
     1
 90
       50
176
     1
 62
   256
176
     0
 40
1.0
176
     0
 90
        2
176
     1
  1
strokes_ogs.tif
176
     1
290
     0
176
     1
 40
1.0
176
     1
 40
1.0
176
     1
  0
VISUALSTYLE
  5
40
102
{ACAD_REACTORS
330
2A
102
}
330
2A
100
AcDbVisualStyle
  2
X-Ray
 70
    25
177
     3
291
     0
 70
    58
 90
        2
176
     1
 90
        2
176
     1
 90
        1
176
     1
 90
        1
176
     1
 40
0.5
176
     1
 40
30.0
176
     1
 62
     7
420
 16777215
176
     1
 90
        1
176
     1
 90
        0
176
     1
 62
     7
176
     1
 62
   257
176
     1
 90
        1
176
     1
 90
        1
176
     1
 40
1.0
176
     1
 90
        8
176
     1
 62
     7
176
     1
 40
1.0
176
     1
 90
        1
176
     1
 90
        6
176
     1
 90
        2
176
     1
 62
     7
176
     1
 90
        3
176
     1
 90
        0
176
     1
 90
        0
176
     1
290
     0
176
     1
 90
       13
176
     1
 40
0.0
176
     1
 90
        0
176
     1
290
     0
176
     1
290
     1
176
     1
290
     1
176
     1
290
     0
176
     1
290
     0
176
     1
290
     0
176
     1
290
     0
176
     1
290
     0
176
     1
290
     0
176
     1
 90
       50
176
     1
 40
0.0
176
     1
 40
1.0
176
     1
 90
        0
176
     1
 62
    18
420
        0
176
     1
 90
       50
176
     1
 90
        3
176
     1
 62
     5
420
      255
176
     1
290
     0
176
     1
 90
       50
176
     1
 90
       50
176
     1
 90
       50
176
     1
290
     0
176
     1
 90
       50
176
     1
 62
   256
176
     0
 40
1.0
176
     0
 90
        2
176
     1
  1
strokes_ogs.tif
176
     1
290
     0
176
     1
 40
1.0
176
     1
 40
1.0
176
     1
  0
DICTIONARYVAR
  5
232
102
{ACAD_REACTORS
330
231
102
}
330
231
100
DictionaryVariables
280
     0
  1
1:1
  0
DICTIONARYVAR
  5
237
102
{ACAD_REACTORS
330
231
102
}
330
231
100
DictionaryVariables
280
     0
  1
Standard
  0
DICTIONARYVAR
  5
236
102
{ACAD_REACTORS
330
231
102
}
330
231
100
DictionaryVariables
280
     0
  1
Standard
  0
DICTIONARY
  5
233
330
6A
100
AcDbDictionary
280
     1
281
     1
  3
ACAD_ROUNDTRIP_2008_TABLESTYLE_CELLSTYLEMAP
360
234
  0
CELLSTYLEMAP
  5
234
102
{ACAD_REACTORS
330
233
102
}
330
233
100
AcDbCellStyleMap
 90
        3
300
CELLSTYLE
  1
TABLEFORMAT_BEGIN
 90
        5
170
     1
 91
        0
 92
    32768
 62
   257
 93
        1
300
CONTENTFORMAT
  1
CONTENTFORMAT_BEGIN
 90
        0
 91
        0
 92
        4
 93
        0
300

 40
0.0
140
1.0
 94
        5
 62
     0
340
11
144
0.25
309
CONTENTFORMAT_END
171
     1
301
MARGIN
  1
CELLMARGIN_BEGIN
 40
0.06
 40
0.06
 40
0.06
 40
0.06
 40
0.06
 40
0.06
309
CELLMARGIN_END
 94
        6
 95
        1
302
GRIDFORMAT
  1
GRIDFORMAT_BEGIN
 90
        0
 91
        1
 62
     0
 92
       -2
340
14
 93
        0
 40
0.045
309
GRIDFORMAT_END
 95
        2
302
GRIDFORMAT
  1
GRIDFORMAT_BEGIN
 90
        0
 91
        1
 62
     0
 92
       -2
340
14
 93
        0
 40
0.045
309
GRIDFORMAT_END
 95
        4
302
GRIDFORMAT
  1
GRIDFORMAT_BEGIN
 90
        0
 91
        1
 62
     0
 92
       -2
340
14
 93
        0
 40
0.045
309
GRIDFORMAT_END
 95
        8
302
GRIDFORMAT
  1
GRIDFORMAT_BEGIN
 90
        0
 91
        1
 62
     0
 92
       -2
340
14
 93
        0
 40
0.045
309
GRIDFORMAT_END
 95
       16
302
GRIDFORMAT
  1
GRIDFORMAT_BEGIN
 90
        0
 91
        1
 62
     0
 92
       -2
340
14
 93
        0
 40
0.045
309
GRIDFORMAT_END
 95
       32
302
GRIDFORMAT
  1
GRIDFORMAT_BEGIN
 90
        0
 91
        1
 62
     0
 92
       -2
340
14
 93
        0
 40
0.045
309
GRIDFORMAT_END
309
TABLEFORMAT_END
  1
CELLSTYLE_BEGIN
 90
        1
 91
        1
300
_TITLE
309
CELLSTYLE_END
300
CELLSTYLE
  1
TABLEFORMAT_BEGIN
 90
        5
170
     1
 91
        0
 92
        0
 62
   257
 93
        1
300
CONTENTFORMAT
  1
CONTENTFORMAT_BEGIN
 90
        0
 91
        0
 92
        4
 93
        0
300

 40
0.0
140
1.0
 94
        5
 62
     0
340
11
144
0.18
309
CONTENTFORMAT_END
171
     1
301
MARGIN
  1
CELLMARGIN_BEGIN
 40
0.06
 40
0.06
 40
0.06
 40
0.06
 40
0.06
 40
0.06
309
CELLMARGIN_END
 94
        6
 95
        1
302
GRIDFORMAT
  1
GRIDFORMAT_BEGIN
 90
        0
 91
        1
 62
     0
 92
       -2
340
14
 93
        0
 40
0.045
309
GRIDFORMAT_END
 95
        2
302
GRIDFORMAT
  1
GRIDFORMAT_BEGIN
 90
        0
 91
        1
 62
     0
 92
       -2
340
14
 93
        0
 40
0.045
309
GRIDFORMAT_END
 95
        4
302
GRIDFORMAT
  1
GRIDFORMAT_BEGIN
 90
        0
 91
        1
 62
     0
 92
       -2
340
14
 93
        0
 40
0.045
309
GRIDFORMAT_END
 95
        8
302
GRIDFORMAT
  1
GRIDFORMAT_BEGIN
 90
        0
 91
        1
 62
     0
 92
       -2
340
14
 93
        0
 40
0.045
309
GRIDFORMAT_END
 95
       16
302
GRIDFORMAT
  1
GRIDFORMAT_BEGIN
 90
        0
 91
        1
 62
     0
 92
       -2
340
14
 93
        0
 40
0.045
309
GRIDFORMAT_END
 95
       32
302
GRIDFORMAT
  1
GRIDFORMAT_BEGIN
 90
        0
 91
        1
 62
     0
 92
       -2
340
14
 93
        0
 40
0.045
309
GRIDFORMAT_END
309
TABLEFORMAT_END
  1
CELLSTYLE_BEGIN
 90
        2
 91
        1
300
_HEADER
309
CELLSTYLE_END
300
CELLSTYLE
  1
TABLEFORMAT_BEGIN
 90
        5
170
     1
 91
        0
 92
        0
 62
   257
 93
        1
300
CONTENTFORMAT
  1
CONTENTFORMAT_BEGIN
 90
        0
 91
        0
 92
        4
 93
        0
300

 40
0.0
140
1.0
 94
        2
 62
     0
340
11
144
0.18
309
CONTENTFORMAT_END
171
     1
301
MARGIN
  1
CELLMARGIN_BEGIN
 40
0.06
 40
0.06
 40
0.06
 40
0.06
 40
0.06
 40
0.06
309
CELLMARGIN_END
 94
        6
 95
        1
302
GRIDFORMAT
  1
GRIDFORMAT_BEGIN
 90
        0
 91
        1
 62
     0
 92
       -2
340
14
 93
        0
 40
0.045
309
GRIDFORMAT_END
 95
        2
302
GRIDFORMAT
  1
GRIDFORMAT_BEGIN
 90
        0
 91
        1
 62
     0
 92
       -2
340
14
 93
        0
 40
0.045
309
GRIDFORMAT_END
 95
        4
302
GRIDFORMAT
  1
GRIDFORMAT_BEGIN
 90
        0
 91
        1
 62
     0
 92
       -2
340
14
 93
        0
 40
0.045
309
GRIDFORMAT_END
 95
        8
302
GRIDFORMAT
  1
GRIDFORMAT_BEGIN
 90
        0
 91
        1
 62
     0
 92
       -2
340
14
 93
        0
 40
0.045
309
GRIDFORMAT_END
 95
       16
302
GRIDFORMAT
  1
GRIDFORMAT_BEGIN
 90
        0
 91
        1
 62
     0
 92
       -2
340
14
 93
        0
 40
0.045
309
GRIDFORMAT_END
 95
       32
302
GRIDFORMAT
  1
GRIDFORMAT_BEGIN
 90
        0
 91
        1
 62
     0
 92
       -2
340
14
 93
        0
 40
0.045
309
GRIDFORMAT_END
309
TABLEFORMAT_END
  1
CELLSTYLE_BEGIN
 90
        3
 91
        2
300
_DATA
309
CELLSTYLE_END
  0
ENDSEC
  0
EOF