0
SECTION
  2
HEADER
  9
$ACADVER
  1
AC1027
  9
$ACADMAINTVER
 70
     8
  9
$DWGCODEPAGE
  3
ANSI_1252
  9
$REQUIREDVERSIONS
160
                 0
  9
$COMMENTS
  1
File was created by Cadenas
  9
$CUSTOMPROPERTYTAG
  1
NN
  9
$CUSTOMPROPERTY
  1
S-2000 Piloted Flange Labyrinth Seal
  9
$CUSTOMPROPERTYTAG
  1
NT
  9
$CUSTOMPROPERTY
  1
S-2000 Piloted Flange Bearing -Inch
  9
$CUSTOMPROPERTYTAG
  1
NB
  9
$CUSTOMPROPERTY
  1
070725
  9
$CUSTOMPROPERTYTAG
  1
NBSYN
  9
$CUSTOMPROPERTY
  1
$PN.
  9
$CUSTOMPROPERTYTAG
  1
LINA
  9
$CUSTOMPROPERTY
  1
070725
  9
$CUSTOMPROPERTYTAG
  1
SS
  9
$CUSTOMPROPERTY
  1
1-3/8
  9
$CUSTOMPROPERTYTAG
  1
PN
  9
$CUSTOMPROPERTY
  1
070725
  9
$CUSTOMPROPERTYTAG
  1
DESCRIPTION
  9
$CUSTOMPROPERTY
  1
FC-S2-106LE
  9
$CUSTOMPROPERTYTAG
  1
EF
  9
$CUSTOMPROPERTY
  1
Expansion Type
  9
$CUSTOMPROPERTYTAG
  1
ST
  9
$CUSTOMPROPERTY
  1
Labyrinth Seal
  9
$CUSTOMPROPERTYTAG
  1
A
  9
$CUSTOMPROPERTY
  1
2-17/32
  9
$CUSTOMPROPERTYTAG
  1
B
  9
$CUSTOMPROPERTY
  1
5-1/4
  9
$CUSTOMPROPERTYTAG
  1
C
  9
$CUSTOMPROPERTY
  1
1-27/32
  9
$CUSTOMPROPERTYTAG
  1
D
  9
$CUSTOMPROPERTY
  1
3-3/32
  9
$CUSTOMPROPERTYTAG
  1
DD
  9
$CUSTOMPROPERTY
  1
4-3/8
  9
$CUSTOMPROPERTYTAG
  1
E
  9
$CUSTOMPROPERTY
  1
3/4
  9
$CUSTOMPROPERTYTAG
  1
F
  9
$CUSTOMPROPERTY
  1
3/8
  9
$CUSTOMPROPERTYTAG
  1
G
  9
$CUSTOMPROPERTY
  1
1-5/16
  9
$CUSTOMPROPERTYTAG
  1
H
  9
$CUSTOMPROPERTY
  1
1/2
  9
$CUSTOMPROPERTYTAG
  1
K
  9
$CUSTOMPROPERTY
  1
3.625
  9
$CUSTOMPROPERTYTAG
  1
L
  9
$CUSTOMPROPERTY
  1
2-3/4
  9
$CUSTOMPROPERTYTAG
  1
M
  9
$CUSTOMPROPERTY
  1
3/8-16
  9
$CUSTOMPROPERTYTAG
  1
N
  9
$CUSTOMPROPERTY
  1
2-17/32
  9
$CUSTOMPROPERTYTAG
  1
P
  9
$CUSTOMPROPERTY
  1
1-7/32
  9
$CUSTOMPROPERTYTAG
  1
Q
  9
$CUSTOMPROPERTY
  1
1-7/32
  9
$CUSTOMPROPERTYTAG
  1
X
  9
$CUSTOMPROPERTY
  1
3/16
  9
$CUSTOMPROPERTYTAG
  1
Y
  9
$CUSTOMPROPERTY
  1
0.020
  9
$CUSTOMPROPERTYTAG
  1
Z
  9
$CUSTOMPROPERTY
  1
1-51/64
  9
$CUSTOMPROPERTYTAG
  1
COMPANY
  9
$CUSTOMPROPERTY
  1
baldor
  9
$INSBASE
 10
0.0
 20
0.0
 30
0.0
  9
$EXTMIN
 10
1.000000000000000E+20
 20
1.000000000000000E+20
 30
1.000000000000000E+20
  9
$EXTMAX
 10
-1.000000000000000E+20
 20
-1.000000000000000E+20
 30
-1.000000000000000E+20
  9
$LIMMIN
 10
0.0
 20
0.0
  9
$LIMMAX
 10
12.0
 20
9.0
  9
$ORTHOMODE
 70
     0
  9
$REGENMODE
 70
     1
  9
$FILLMODE
 70
     1
  9
$QTEXTMODE
 70
     0
  9
$MIRRTEXT
 70
     1
  9
$LTSCALE
 40
1.0
  9
$ATTMODE
 70
     1
  9
$TEXTSIZE
 40
0.2
  9
$TRACEWID
 40
0.05
  9
$TEXTSTYLE
  7
Standard
  9
$CLAYER
  8
0
  9
$CELTYPE
  6
ByLayer
  9
$CECOLOR
 62
   256
  9
$CELTSCALE
 40
1.0
  9
$DISPSILH
 70
     0
  9
$DIMSCALE
 40
1.0
  9
$DIMASZ
 40
0.18
  9
$DIMEXO
 40
0.0625
  9
$DIMDLI
 40
0.38
  9
$DIMRND
 40
0.0
  9
$DIMDLE
 40
0.0
  9
$DIMEXE
 40
0.18
  9
$DIMTP
 40
0.0
  9
$DIMTM
 40
0.0
  9
$DIMTXT
 40
0.18
  9
$DIMCEN
 40
0.09
  9
$DIMTSZ
 40
0.0
  9
$DIMTOL
 70
     0
  9
$DIMLIM
 70
     0
  9
$DIMTIH
 70
     1
  9
$DIMTOH
 70
     1
  9
$DIMSE1
 70
     0
  9
$DIMSE2
 70
     0
  9
$DIMTAD
 70
     0
  9
$DIMZIN
 70
     0
  9
$DIMBLK
  1

  9
$DIMASO
 70
     1
  9
$DIMSHO
 70
     1
  9
$DIMPOST
  1

  9
$DIMAPOST
  1

  9
$DIMALT
 70
     0
  9
$DIMALTD
 70
     2
  9
$DIMALTF
 40
25.4
  9
$DIMLFAC
 40
1.0
  9
$DIMTOFL
 70
     0
  9
$DIMTVP
 40
0.0
  9
$DIMTIX
 70
     0
  9
$DIMSOXD
 70
     0
  9
$DIMSAH
 70
     0
  9
$DIMBLK1
  1

  9
$DIMBLK2
  1

  9
$DIMSTYLE
  2
Standard
  9
$DIMCLRD
 70
     0
  9
$DIMCLRE
 70
     0
  9
$DIMCLRT
 70
     0
  9
$DIMTFAC
 40
1.0
  9
$DIMGAP
 40
0.09
  9
$DIMJUST
 70
     0
  9
$DIMSD1
 70
     0
  9
$DIMSD2
 70
     0
  9
$DIMTOLJ
 70
     1
  9
$DIMTZIN
 70
     0
  9
$DIMALTZ
 70
     0
  9
$DIMALTTZ
 70
     0
  9
$DIMUPT
 70
     0
  9
$DIMDEC
 70
     4
  9
$DIMTDEC
 70
     4
  9
$DIMALTU
 70
     2
  9
$DIMALTTD
 70
     2
  9
$DIMTXSTY
  7
Standard
  9
$DIMAUNIT
 70
     0
  9
$DIMADEC
 70
     0
  9
$DIMALTRND
 40
0.0
  9
$DIMAZIN
 70
     0
  9
$DIMDSEP
 70
    46
  9
$DIMATFIT
 70
     3
  9
$DIMFRAC
 70
     0
  9
$DIMLDRBLK
  1

  9
$DIMLUNIT
 70
     2
  9
$DIMLWD
 70
    -2
  9
$DIMLWE
 70
    -2
  9
$DIMTMOVE
 70
     0
  9
$DIMFXL
 40
1.0
  9
$DIMFXLON
 70
     0
  9
$DIMJOGANG
 40
0.7853981633974483
  9
$DIMTFILL
 70
     0
  9
$DIMTFILLCLR
 70
     0
  9
$DIMARCSYM
 70
     0
  9
$DIMLTYPE
  6

  9
$DIMLTEX1
  6

  9
$DIMLTEX2
  6

  9
$DIMTXTDIRECTION
 70
     0
  9
$LUNITS
 70
     2
  9
$LUPREC
 70
     4
  9
$SKETCHINC
 40
0.1
  9
$FILLETRAD
 40
0.5
  9
$AUNITS
 70
     0
  9
$AUPREC
 70
     0
  9
$MENU
  1
.
  9
$ELEVATION
 40
0.0
  9
$PELEVATION
 40
0.0
  9
$THICKNESS
 40
0.0
  9
$LIMCHECK
 70
     0
  9
$CHAMFERA
 40
0.0
  9
$CHAMFERB
 40
0.0
  9
$CHAMFERC
 40
0.0
  9
$CHAMFERD
 40
0.0
  9
$SKPOLY
 70
     0
  9
$TDCREATE
 40
2458168.985588356
  9
$TDUCREATE
 40
2458168.94392169
  9
$TDUPDATE
 40
2458168.98558853
  9
$TDUUPDATE
 40
2458168.943921864
  9
$TDINDWG
 40
0.0000000116
  9
$TDUSRTIMER
 40
0.0000000116
  9
$USRTIMER
 70
     1
  9
$ANGBASE
 50
0.0
  9
$ANGDIR
 70
     0
  9
$PDMODE
 70
     0
  9
$PDSIZE
 40
0.0
  9
$PLINEWID
 40
0.0
  9
$SPLFRAME
 70
     0
  9
$SPLINETYPE
 70
     6
  9
$SPLINESEGS
 70
     8
  9
$HANDSEED
  5
20C
  9
$SURFTAB1
 70
     6
  9
$SURFTAB2
 70
     6
  9
$SURFTYPE
 70
     6
  9
$SURFU
 70
     6
  9
$SURFV
 70
     6
  9
$UCSBASE
  2

  9
$UCSNAME
  2

  9
$UCSORG
 10
0.0
 20
0.0
 30
0.0
  9
$UCSXDIR
 10
1.0
 20
0.0
 30
0.0
  9
$UCSYDIR
 10
0.0
 20
1.0
 30
0.0
  9
$UCSORTHOREF
  2

  9
$UCSORTHOVIEW
 70
     0
  9
$UCSORGTOP
 10
0.0
 20
0.0
 30
0.0
  9
$UCSORGBOTTOM
 10
0.0
 20
0.0
 30
0.0
  9
$UCSORGLEFT
 10
0.0
 20
0.0
 30
0.0
  9
$UCSORGRIGHT
 10
0.0
 20
0.0
 30
0.0
  9
$UCSORGFRONT
 10
0.0
 20
0.0
 30
0.0
  9
$UCSORGBACK
 10
0.0
 20
0.0
 30
0.0
  9
$PUCSBASE
  2

  9
$PUCSNAME
  2

  9
$PUCSORG
 10
0.0
 20
0.0
 30
0.0
  9
$PUCSXDIR
 10
1.0
 20
0.0
 30
0.0
  9
$PUCSYDIR
 10
0.0
 20
1.0
 30
0.0
  9
$PUCSORTHOREF
  2

  9
$PUCSORTHOVIEW
 70
     0
  9
$PUCSORGTOP
 10
0.0
 20
0.0
 30
0.0
  9
$PUCSORGBOTTOM
 10
0.0
 20
0.0
 30
0.0
  9
$PUCSORGLEFT
 10
0.0
 20
0.0
 30
0.0
  9
$PUCSORGRIGHT
 10
0.0
 20
0.0
 30
0.0
  9
$PUCSORGFRONT
 10
0.0
 20
0.0
 30
0.0
  9
$PUCSORGBACK
 10
0.0
 20
0.0
 30
0.0
  9
$USERI1
 70
     0
  9
$USERI2
 70
     0
  9
$USERI3
 70
     0
  9
$USERI4
 70
     0
  9
$USERI5
 70
     0
  9
$USERR1
 40
0.0
  9
$USERR2
 40
0.0
  9
$USERR3
 40
0.0
  9
$USERR4
 40
0.0
  9
$USERR5
 40
0.0
  9
$WORLDVIEW
 70
     1
  9
$SHADEDGE
 70
     3
  9
$SHADEDIF
 70
    70
  9
$TILEMODE
 70
     1
  9
$MAXACTVP
 70
    64
  9
$PINSBASE
 10
0.0
 20
0.0
 30
0.0
  9
$PLIMCHECK
 70
     0
  9
$PEXTMIN
 10
1.000000000000000E+20
 20
1.000000000000000E+20
 30
1.000000000000000E+20
  9
$PEXTMAX
 10
-1.000000000000000E+20
 20
-1.000000000000000E+20
 30
-1.000000000000000E+20
  9
$PLIMMIN
 10
0.0
 20
0.0
  9
$PLIMMAX
 10
12.0
 20
9.0
  9
$UNITMODE
 70
     0
  9
$VISRETAIN
 70
     1
  9
$PLINEGEN
 70
     0
  9
$PSLTSCALE
 70
     1
  9
$TREEDEPTH
 70
  3020
  9
$CMLSTYLE
  2
Standard
  9
$CMLJUST
 70
     0
  9
$CMLSCALE
 40
1.0
  9
$PROXYGRAPHICS
 70
     1
  9
$MEASUREMENT
 70
     0
  9
$CELWEIGHT
370
    -1
  9
$ENDCAPS
280
     0
  9
$JOINSTYLE
280
     0
  9
$LWDISPLAY
290
     0
  9
$INSUNITS
 70
     1
  9
$HYPERLINKBASE
  1

  9
$STYLESHEET
  1

  9
$XEDIT
290
     1
  9
$CEPSNTYPE
380
     0
  9
$PSTYLEMODE
290
     1
  9
$FINGERPRINTGUID
  2
{ACFDFAF8-55AF-426D-91C2-BDFDBFB884E9}
  9
$VERSIONGUID
  2
{FAEB1C32-E019-11D5-929B-00C0DF256EC4}
  9
$EXTNAMES
290
     1
  9
$PSVPSCALE
 40
0.0
  9
$OLESTARTUP
290
     0
  9
$SORTENTS
280
   127
  9
$INDEXCTL
280
     0
  9
$HIDETEXT
280
     1
  9
$XCLIPFRAME
280
     2
  9
$HALOGAP
280
     0
  9
$OBSCOLOR
 70
   257
  9
$OBSLTYPE
280
     0
  9
$INTERSECTIONDISPLAY
280
     0
  9
$INTERSECTIONCOLOR
 70
   257
  9
$DIMASSOC
280
     2
  9
$PROJECTNAME
  1

  9
$CAMERADISPLAY
290
     0
  9
$LENSLENGTH
 40
50.0
  9
$CAMERAHEIGHT
 40
0.0
  9
$STEPSPERSEC
 40
2.0
  9
$STEPSIZE
 40
6.0
  9
$3DDWFPREC
 40
2.0
  9
$PSOLWIDTH
 40
0.25
  9
$PSOLHEIGHT
 40
4.0
  9
$LOFTANG1
 40
1.570796326794897
  9
$LOFTANG2
 40
1.570796326794897
  9
$LOFTMAG1
 40
0.0
  9
$LOFTMAG2
 40
0.0
  9
$LOFTPARAM
 70
     7
  9
$LOFTNORMALS
280
     1
  9
$LATITUDE
 40
37.795
  9
$LONGITUDE
 40
-122.394
  9
$NORTHDIRECTION
 40
0.0
  9
$TIMEZONE
 70
 -8000
  9
$LIGHTGLYPHDISPLAY
280
     1
  9
$TILEMODELIGHTSYNCH
280
     1
  9
$CMATERIAL
347
44
  9
$SOLIDHIST
280
     0
  9
$SHOWHIST
280
     1
  9
$DWFFRAME
280
     2
  9
$DGNFRAME
280
     2
  9
$REALWORLDSCALE
290
     1
  9
$INTERFERECOLOR
 62
   256
  9
$CSHADOW
280
     0
  9
$SHADOWPLANELOCATION
 40
0.0
  0
ENDSEC
  0
SECTION
  2
CLASSES
  0
CLASS
  1
ACDBDICTIONARYWDFLT
  2
AcDbDictionaryWithDefault
  3
ObjectDBX Classes
 90
        0
 91
        4
280
     0
281
     0
  0
CLASS
  1
VISUALSTYLE
  2
AcDbVisualStyle
  3
ObjectDBX Classes
 90
     4095
 91
        4
280
     0
281
     0
  0
CLASS
  1
MATERIAL
  2
AcDbMaterial
  3
ObjectDBX Classes
 90
     1153
 91
        4
280
     0
281
     0
  0
CLASS
  1
SCALE
  2
AcDbScale
  3
ObjectDBX Classes
 90
     1153
 91
        4
280
     0
281
     0
  0
CLASS
  1
TABLESTYLE
  2
AcDbTableStyle
  3
ObjectDBX Classes
 90
     4095
 91
        4
280
     0
281
     0
  0
CLASS
  1
MLEADERSTYLE
  2
AcDbMLeaderStyle
  3
ACDB_MLEADERSTYLE_CLASS
 90
     4095
 91
        4
280
     0
281
     0
  0
CLASS
  1
SUN
  2
AcDbSun
  3
SCENEOE
 90
     1153
 91
        4
280
     0
281
     0
  0
CLASS
  1
DICTIONARYVAR
  2
AcDbDictionaryVar
  3
ObjectDBX Classes
 90
        0
 91
        4
280
     0
281
     0
  0
CLASS
  1
CELLSTYLEMAP
  2
AcDbCellStyleMap
  3
ObjectDBX Classes
 90
     1152
 91
        4
280
     0
281
     0
  0
ENDSEC
  0
SECTION
  2
TABLES
  0
TABLE
  2
VPORT
  5
8
330
0
100
AcDbSymbolTable
 70
     1
  0
VPORT
  5
29
330
8
100
AcDbSymbolTableRecord
100
AcDbViewportTableRecord
  2
*Active
 70
     0
 10
0.0
 20
0.0
 11
1.0
 21
1.0
 12
0.3424999999999994
 22
0.0019995300751878
 13
0.0
 23
0.0
 14
0.5
 24
0.5
 15
0.5
 25
0.5
 16
0.0
 26
0.0
 36
1.0
 17
0.0
 27
0.0
 37
0.0
 40
5.350920958646617
 41
0.6309568065183914
 42
50.0
 43
0.0
 44
0.0
 50
0.0
 51
0.0
 71
     0
 72
   100
 73
     1
 74
     3
 75
     0
 76
     0
 77
     0
 78
     0
281
     0
 65
     1
110
0.0
120
0.0
130
0.0
111
1.0
121
0.0
131
0.0
112
0.0
122
1.0
132
0.0
 79
     0
146
0.0
348
2F
 60
     3
 61
     5
292
     1
282
     1
141
0.0
142
0.0
 63
   250
361
6D
  0
ENDTAB
  0
TABLE
  2
LTYPE
  5
5
330
0
100
AcDbSymbolTable
 70
     3
  0
LTYPE
  5
14
330
5
100
AcDbSymbolTableRecord
100
AcDbLinetypeTableRecord
  2
ByBlock
 70
     0
  3

 72
    65
 73
     0
 40
0.0
  0
LTYPE
  5
15
330
5
100
AcDbSymbolTableRecord
100
AcDbLinetypeTableRecord
  2
ByLayer
 70
     0
  3

 72
    65
 73
     0
 40
0.0
  0
LTYPE
  5
16
330
5
100
AcDbSymbolTableRecord
100
AcDbLinetypeTableRecord
  2
Continuous
 70
     0
  3
Solid line
 72
    65
 73
     0
 40
0.0
  0
LTYPE
  5
A7
330
5
100
AcDbSymbolTableRecord
100
AcDbLinetypeTableRecord
  2
Dashed
 70
     0
  3

 72
    65
 73
     2
 40
2.0
 49
1.0
 74
     0
 49
-1.0
 74
     0
  0
LTYPE
  5
153
330
5
100
AcDbSymbolTableRecord
100
AcDbLinetypeTableRecord
  2
Center
 70
     0
  3

 72
    65
 73
     4
 40
1.5
 49
0.45
 74
     0
 49
-0.5
 74
     0
 49
0.05
 74
     0
 49
-0.5
 74
     0
  0
ENDTAB
  0
TABLE
  2
LAYER
  5
2
330
0
100
AcDbSymbolTable
 70
     7
  0
LAYER
  5
10
330
2
100
AcDbSymbolTableRecord
100
AcDbLayerTableRecord
  2
0
 70
     0
 62
     7
  6
Continuous
370
    -3
390
F
347
46
348
0
  0
LAYER
  5
72
330
2
100
AcDbSymbolTableRecord
100
AcDbLayerTableRecord
  2
AM_6
 70
     0
 62
    -2
  6
Continuous
370
    35
390
F
347
46
348
0
  0
LAYER
  5
A8
330
2
100
AcDbSymbolTableRecord
100
AcDbLayerTableRecord
  2
AM_9
 70
     0
 62
     6
  6
Dashed
370
    25
390
F
347
46
348
0
  0
LAYER
  5
E1
330
2
100
AcDbSymbolTableRecord
100
AcDbLayerTableRecord
  2
AM_5
 70
     0
 62
     3
  6
Continuous
370
    25
390
F
347
46
348
0
  0
LAYER
  5
E6
330
2
100
AcDbSymbolTableRecord
100
AcDbLayerTableRecord
  2
AM_4
 70
     0
 62
     7
  6
Continuous
370
    50
390
F
347
46
348
0
  0
LAYER
  5
154
330
2
100
AcDbSymbolTableRecord
100
AcDbLayerTableRecord
  2
AM_7
 70
     0
 62
     7
  6
Center
370
    25
390
F
347
46
348
0
  0
LAYER
  5
1F8
330
2
100
AcDbSymbolTableRecord
100
AcDbLayerTableRecord
  2
ConnectionPoints
 70
     0
 62
     7
  6
Continuous
370
    50
390
F
347
46
348
0
  0
ENDTAB
  0
TABLE
  2
STYLE
  5
3
330
0
100
AcDbSymbolTable
 70
     1
  0
STYLE
  5
11
330
3
100
AcDbSymbolTableRecord
100
AcDbTextStyleTableRecord
  2
Standard
 70
     0
 40
0.0
 41
1.0
 50
0.0
 71
     0
 42
0.2
  3
txt
  4

  0
ENDTAB
  0
TABLE
  2
VIEW
  5
6
330
0
100
AcDbSymbolTable
 70
     0
  0
ENDTAB
  0
TABLE
  2
UCS
  5
7
330
0
100
AcDbSymbolTable
 70
     0
  0
ENDTAB
  0
TABLE
  2
APPID
  5
9
330
0
100
AcDbSymbolTable
 70
     1
  0
APPID
  5
12
330
9
100
AcDbSymbolTableRecord
100
AcDbRegAppTableRecord
  2
ACAD
 70
     0
  0
ENDTAB
  0
TABLE
  2
DIMSTYLE
  5
A
330
0
100
AcDbSymbolTable
 70
     1
100
AcDbDimStyleTable
  0
DIMSTYLE
105
27
330
A
100
AcDbSymbolTableRecord
100
AcDbDimStyleTableRecord
  2
Standard
 70
     0
178
     0
340
11
  0
ENDTAB
  0
TABLE
  2
BLOCK_RECORD
  5
1
330
0
100
AcDbSymbolTable
 70
     7
  0
BLOCK_RECORD
  5
1F
330
1
100
AcDbSymbolTableRecord
100
AcDbBlockTableRecord
  2
*Model_Space
340
22
 70
     0
280
     1
281
     0
  0
BLOCK_RECORD
  5
1B
330
1
100
AcDbSymbolTableRecord
100
AcDbBlockTableRecord
  2
*Paper_Space
340
1E
 70
     0
280
     1
281
     0
  0
BLOCK_RECORD
  5
23
330
1
100
AcDbSymbolTableRecord
100
AcDbBlockTableRecord
  2
*Paper_Space0
340
26
 70
     0
280
     1
281
     0
  0
BLOCK_RECORD
  5
6E
330
1
100
AcDbSymbolTableRecord
100
AcDbBlockTableRecord
  2
1_070725_2
340
0
102
{BLKREFS
331
6F
102
}
 70
     0
280
     1
281
     0
  0
BLOCK_RECORD
  5
90
330
1
100
AcDbSymbolTableRecord
100
AcDbBlockTableRecord
  2
2_1_3_8_Disc_0_in_070725_2
340
0
102
{BLKREFS
331
91
102
}
 70
     0
280
     1
281
     0
  0
BLOCK_RECORD
  5
B4
330
1
100
AcDbSymbolTableRecord
100
AcDbBlockTableRecord
  2
3_1_3_8CS2i_0_in_070725_2
340
0
102
{BLKREFS
331
B5
102
}
 70
     0
280
     1
281
     0
  0
BLOCK_RECORD
  5
F8
330
1
100
AcDbSymbolTableRecord
100
AcDbBlockTableRecord
  2
4_070016i_0_in_070725_2
340
0
102
{BLKREFS
331
F9
102
}
 70
     0
280
     1
281
     0
  0
BLOCK_RECORD
  5
15A
330
1
100
AcDbSymbolTableRecord
100
AcDbBlockTableRecord
  2
5_405015E_Inch_0_in_070725_2
340
0
102
{BLKREFS
331
15B
102
}
 70
     0
280
     1
281
     0
  0
BLOCK_RECORD
  5
195
330
1
100
AcDbSymbolTableRecord
100
AcDbBlockTableRecord
  2
6_070725H_0_in_070725_2
340
0
102
{BLKREFS
331
196
102
}
 70
     0
280
     1
281
     0
  0
ENDTAB
  0
ENDSEC
  0
SECTION
  2
BLOCKS
  0
BLOCK
  5
20
330
1F
100
AcDbEntity
  8
0
100
AcDbBlockBegin
  2
*Model_Space
 70
     0
 10
0.0
 20
0.0
 30
0.0
  3
*Model_Space
  1

  0
ENDBLK
  5
21
330
1F
100
AcDbEntity
  8
0
100
AcDbBlockEnd
  0
BLOCK
  5
1C
330
1B
100
AcDbEntity
 67
     1
  8
0
100
AcDbBlockBegin
  2
*Paper_Space
 70
     0
 10
0.0
 20
0.0
 30
0.0
  3
*Paper_Space
  1

  0
ENDBLK
  5
1D
330
1B
100
AcDbEntity
 67
     1
  8
0
100
AcDbBlockEnd
  0
BLOCK
  5
24
330
23
100
AcDbEntity
  8
0
100
AcDbBlockBegin
  2
*Paper_Space0
 70
     0
 10
0.0
 20
0.0
 30
0.0
  3
*Paper_Space0
  1

  0
ENDBLK
  5
25
330
23
100
AcDbEntity
  8
0
100
AcDbBlockEnd
  0
BLOCK
  5
70
330
6E
100
AcDbEntity
  8
0
100
AcDbBlockBegin
  2
1_070725_2
 70
     2
 10
0.0
 20
0.0
 30
0.0
  3
1_070725_2
  1

  0
ATTDEF
  5
73
330
6E
100
AcDbEntity
  8
AM_6
100
AcDbText
 10
6.532812499999999
 20
2.625
 30
0.0
 40
0.5
  1
S-2000 Piloted Flange Labyrinth Seal
100
AcDbAttributeDefinition
  3

  2
NN
 70
     8
280
     0
  0
ATTDEF
  5
74
330
6E
100
AcDbEntity
  8
AM_6
100
AcDbText
 10
6.532812499999999
 20
2.125
 30
0.0
 40
0.5
  1
S-2000 Piloted Flange Bearing -Inch
100
AcDbAttributeDefinition
  3

  2
NT
 70
     8
280
     0
  0
ATTDEF
  5
75
330
6E
100
AcDbEntity
  8
AM_6
100
AcDbText
 10
6.532812499999999
 20
1.625
 30
0.0
 40
0.5
  1
070725
100
AcDbAttributeDefinition
  3

  2
NB
 70
     8
280
     0
  0
ATTDEF
  5
76
330
6E
100
AcDbEntity
  8
AM_6
100
AcDbText
 10
6.532812499999999
 20
1.125
 30
0.0
 40
0.5
  1
$PN.
100
AcDbAttributeDefinition
  3

  2
NBSYN
 70
     8
280
     0
  0
ATTDEF
  5
77
330
6E
100
AcDbEntity
  8
AM_6
100
AcDbText
 10
6.532812499999999
 20
0.625
 30
0.0
 40
0.5
  1
070725
100
AcDbAttributeDefinition
  3

  2
LINA
 70
     8
280
     0
  0
ATTDEF
  5
78
330
6E
100
AcDbEntity
  8
AM_6
100
AcDbText
 10
6.532812499999999
 20
0.125
 30
0.0
 40
0.5
  1
1-3/8
100
AcDbAttributeDefinition
  3

  2
SS
 70
     8
280
     0
  0
ATTDEF
  5
79
330
6E
100
AcDbEntity
  8
AM_6
100
AcDbText
 10
6.532812499999999
 20
-0.375
 30
0.0
 40
0.5
  1
070725
100
AcDbAttributeDefinition
  3

  2
PN
 70
     8
280
     0
  0
ATTDEF
  5
7A
330
6E
100
AcDbEntity
  8
AM_6
100
AcDbText
 10
6.532812499999999
 20
-0.875
 30
0.0
 40
0.5
  1
FC-S2-106LE
100
AcDbAttributeDefinition
  3

  2
DESCRIPTION
 70
     8
280
     0
  0
ATTDEF
  5
7B
330
6E
100
AcDbEntity
  8
AM_6
100
AcDbText
 10
6.532812499999999
 20
-1.375
 30
0.0
 40
0.5
  1
Expansion Type
100
AcDbAttributeDefinition
  3

  2
EF
 70
     8
280
     0
  0
ATTDEF
  5
7C
330
6E
100
AcDbEntity
  8
AM_6
100
AcDbText
 10
6.532812499999999
 20
-1.875
 30
0.0
 40
0.5
  1
Labyrinth Seal
100
AcDbAttributeDefinition
  3

  2
ST
 70
     8
280
     0
  0
ATTDEF
  5
7D
330
6E
100
AcDbEntity
  8
AM_6
100
AcDbText
 10
6.532812499999999
 20
-2.375
 30
0.0
 40
0.5
  1
2-17/32
100
AcDbAttributeDefinition
  3

  2
A
 70
     8
280
     0
  0
ATTDEF
  5
7E
330
6E
100
AcDbEntity
  8
AM_6
100
AcDbText
 10
6.532812499999999
 20
-2.875
 30
0.0
 40
0.5
  1
5-1/4
100
AcDbAttributeDefinition
  3

  2
B
 70
     8
280
     0
  0
ATTDEF
  5
7F
330
6E
100
AcDbEntity
  8
AM_6
100
AcDbText
 10
6.532812499999999
 20
-3.375
 30
0.0
 40
0.5
  1
1-27/32
100
AcDbAttributeDefinition
  3

  2
C
 70
     8
280
     0
  0
ATTDEF
  5
80
330
6E
100
AcDbEntity
  8
AM_6
100
AcDbText
 10
6.532812499999999
 20
-3.875
 30
0.0
 40
0.5
  1
3-3/32
100
AcDbAttributeDefinition
  3

  2
D
 70
     8
280
     0
  0
ATTDEF
  5
81
330
6E
100
AcDbEntity
  8
AM_6
100
AcDbText
 10
6.532812499999999
 20
-4.375
 30
0.0
 40
0.5
  1
4-3/8
100
AcDbAttributeDefinition
  3

  2
DD
 70
     8
280
     0
  0
ATTDEF
  5
82
330
6E
100
AcDbEntity
  8
AM_6
100
AcDbText
 10
6.532812499999999
 20
-4.875
 30
0.0
 40
0.5
  1
3/4
100
AcDbAttributeDefinition
  3

  2
E
 70
     8
280
     0
  0
ATTDEF
  5
83
330
6E
100
AcDbEntity
  8
AM_6
100
AcDbText
 10
6.532812499999999
 20
-5.375
 30
0.0
 40
0.5
  1
3/8
100
AcDbAttributeDefinition
  3

  2
F
 70
     8
280
     0
  0
ATTDEF
  5
84
330
6E
100
AcDbEntity
  8
AM_6
100
AcDbText
 10
6.532812499999999
 20
-5.875
 30
0.0
 40
0.5
  1
1-5/16
100
AcDbAttributeDefinition
  3

  2
G
 70
     8
280
     0
  0
ATTDEF
  5
85
330
6E
100
AcDbEntity
  8
AM_6
100
AcDbText
 10
6.532812499999999
 20
-6.375
 30
0.0
 40
0.5
  1
1/2
100
AcDbAttributeDefinition
  3

  2
H
 70
     8
280
     0
  0
ATTDEF
  5
86
330
6E
100
AcDbEntity
  8
AM_6
100
AcDbText
 10
6.532812499999999
 20
-6.875
 30
0.0
 40
0.5
  1
3.625
100
AcDbAttributeDefinition
  3

  2
K
 70
     8
280
     0
  0
ATTDEF
  5
87
330
6E
100
AcDbEntity
  8
AM_6
100
AcDbText
 10
6.532812499999999
 20
-7.375
 30
0.0
 40
0.5
  1
2-3/4
100
AcDbAttributeDefinition
  3

  2
L
 70
     8
280
     0
  0
ATTDEF
  5
88
330
6E
100
AcDbEntity
  8
AM_6
100
AcDbText
 10
6.532812499999999
 20
-7.875
 30
0.0
 40
0.5
  1
3/8-16
100
AcDbAttributeDefinition
  3

  2
M
 70
     8
280
     0
  0
ATTDEF
  5
89
330
6E
100
AcDbEntity
  8
AM_6
100
AcDbText
 10
6.532812499999999
 20
-8.375
 30
0.0
 40
0.5
  1
2-17/32
100
AcDbAttributeDefinition
  3

  2
N
 70
     8
280
     0
  0
ATTDEF
  5
8A
330
6E
100
AcDbEntity
  8
AM_6
100
AcDbText
 10
6.532812499999999
 20
-8.875
 30
0.0
 40
0.5
  1
1-7/32
100
AcDbAttributeDefinition
  3

  2
P
 70
     8
280
     0
  0
ATTDEF
  5
8B
330
6E
100
AcDbEntity
  8
AM_6
100
AcDbText
 10
6.532812499999999
 20
-9.375
 30
0.0
 40
0.5
  1
1-7/32
100
AcDbAttributeDefinition
  3

  2
Q
 70
     8
280
     0
  0
ATTDEF
  5
8C
330
6E
100
AcDbEntity
  8
AM_6
100
AcDbText
 10
6.532812499999999
 20
-9.875
 30
0.0
 40
0.5
  1
3/16
100
AcDbAttributeDefinition
  3

  2
X
 70
     8
280
     0
  0
ATTDEF
  5
8D
330
6E
100
AcDbEntity
  8
AM_6
100
AcDbText
 10
6.532812499999999
 20
-10.375
 30
0.0
 40
0.5
  1
0.020
100
AcDbAttributeDefinition
  3

  2
Y
 70
     8
280
     0
  0
ATTDEF
  5
8E
330
6E
100
AcDbEntity
  8
AM_6
100
AcDbText
 10
6.532812499999999
 20
-10.875
 30
0.0
 40
0.5
  1
1-51/64
100
AcDbAttributeDefinition
  3

  2
Z
 70
     8
280
     0
  0
ATTDEF
  5
8F
330
6E
100
AcDbEntity
  8
AM_6
100
AcDbText
 10
6.532812499999999
 20
-11.375
 30
0.0
 40
0.5
  1
baldor
100
AcDbAttributeDefinition
  3

  2
COMPANY
 70
     8
280
     0
  0
INSERT
  5
91
330
6E
100
AcDbEntity
  8
0
100
AcDbBlockReference
  2
2_1_3_8_Disc_0_in_070725_2
 10
0.0
 20
0.0
 30
0.0
  0
INSERT
  5
B5
330
6E
100
AcDbEntity
  8
0
100
AcDbBlockReference
  2
3_1_3_8CS2i_0_in_070725_2
 10
0.0
 20
0.0
 30
0.0
  0
INSERT
  5
F9
330
6E
100
AcDbEntity
  8
0
100
AcDbBlockReference
  2
4_070016i_0_in_070725_2
 10
0.0
 20
0.0
 30
0.0
  0
INSERT
  5
15B
330
6E
100
AcDbEntity
  8
0
100
AcDbBlockReference
  2
5_405015E_Inch_0_in_070725_2
 10
0.0
 20
0.0
 30
0.0
  0
INSERT
  5
196
330
6E
100
AcDbEntity
  8
0
100
AcDbBlockReference
  2
6_070725H_0_in_070725_2
 10
0.0
 20
0.0
 30
0.0
  0
ENDBLK
  5
71
330
6E
100
AcDbEntity
  8
0
100
AcDbBlockEnd
  0
BLOCK
  5
92
330
90
100
AcDbEntity
  8
0
100
AcDbBlockBegin
  2
2_1_3_8_Disc_0_in_070725_2
 70
     2
 10
0.0
 20
0.0
 30
0.0
  3
2_1_3_8_Disc_0_in_070725_2
  1

  0
ATTDEF
  5
94
330
90
100
AcDbEntity
  8
AM_6
100
AcDbText
 10
6.171875
 20
1.5748
 30
0.0
 40
0.5
  1
S-2000 -Disc -Inch
100
AcDbAttributeDefinition
  3

  2
NN
 70
     8
280
     0
  0
ATTDEF
  5
95
330
90
100
AcDbEntity
  8
AM_6
100
AcDbText
 10
6.171875
 20
1.0748
 30
0.0
 40
0.5
  1
S-2000 Bearings
100
AcDbAttributeDefinition
  3

  2
NT
 70
     8
280
     0
  0
ATTDEF
  5
96
330
90
100
AcDbEntity
  8
AM_6
100
AcDbText
 10
6.171875
 20
0.5747999999999998
 30
0.0
 40
0.5
  1
1-3/8-Disc
100
AcDbAttributeDefinition
  3

  2
NB
 70
     8
280
     0
  0
ATTDEF
  5
97
330
90
100
AcDbEntity
  8
AM_6
100
AcDbText
 10
6.171875
 20
0.0747999999999998
 30
0.0
 40
0.5
  1
$SS.-Disc
100
AcDbAttributeDefinition
  3

  2
NBSYN
 70
     8
280
     0
  0
ATTDEF
  5
98
330
90
100
AcDbEntity
  8
AM_6
100
AcDbText
 10
6.171875
 20
-0.4252000000000002
 30
0.0
 40
0.5
  1
1-3/8-Disc
100
AcDbAttributeDefinition
  3

  2
LINA
 70
     8
280
     0
  0
ATTDEF
  5
99
330
90
100
AcDbEntity
  8
AM_6
100
AcDbText
 10
6.171875
 20
-0.9252000000000002
 30
0.0
 40
0.5
  1
1-3/8
100
AcDbAttributeDefinition
  3

  2
SS
 70
     8
280
     0
  0
ATTDEF
  5
9A
330
90
100
AcDbEntity
  8
AM_6
100
AcDbText
 10
6.171875
 20
-1.4252
 30
0.0
 40
0.5
  1
1.75
100
AcDbAttributeDefinition
  3

  2
CC
 70
     8
280
     0
  0
ATTDEF
  5
9B
330
90
100
AcDbEntity
  8
AM_6
100
AcDbText
 10
6.171875
 20
-1.9252
 30
0.0
 40
0.5
  1
0.35
100
AcDbAttributeDefinition
  3

  2
CSD
 70
     8
280
     0
  0
ATTDEF
  5
9C
330
90
100
AcDbEntity
  8
AM_6
100
AcDbText
 10
6.171875
 20
-2.4252
 30
0.0
 40
0.5
  1
1.375000
100
AcDbAttributeDefinition
  3

  2
SS1
 70
     8
280
     0
  0
ATTDEF
  5
9D
330
90
100
AcDbEntity
  8
AM_6
100
AcDbText
 10
6.171875
 20
-2.9252
 30
0.0
 40
0.5
  1
3.1496
100
AcDbAttributeDefinition
  3

  2
A
 70
     8
280
     0
  0
ATTDEF
  5
9E
330
90
100
AcDbEntity
  8
AM_6
100
AcDbText
 10
6.171875
 20
-3.4252
 30
0.0
 40
0.5
  1
61/64
100
AcDbAttributeDefinition
  3

  2
B
 70
     8
280
     0
  0
ATTDEF
  5
9F
330
90
100
AcDbEntity
  8
AM_6
100
AcDbText
 10
6.171875
 20
-3.9252
 30
0.0
 40
0.5
  1
0.953125
100
AcDbAttributeDefinition
  3

  2
B1
 70
     8
280
     0
  0
ATTDEF
  5
A0
330
90
100
AcDbEntity
  8
AM_6
100
AcDbText
 10
6.171875
 20
-4.4252
 30
0.0
 40
0.5
  1
2-17/32
100
AcDbAttributeDefinition
  3

  2
C
 70
     8
280
     0
  0
ATTDEF
  5
A1
330
90
100
AcDbEntity
  8
AM_6
100
AcDbText
 10
6.171875
 20
-4.9252
 30
0.0
 40
0.5
  1
2.531250
100
AcDbAttributeDefinition
  3

  2
C1
 70
     8
280
     0
  0
ATTDEF
  5
A2
330
90
100
AcDbEntity
  8
AM_6
100
AcDbText
 10
6.171875
 20
-5.4252
 30
0.0
 40
0.5
  1
0.970
100
AcDbAttributeDefinition
  3

  2
D
 70
     8
280
     0
  0
ATTDEF
  5
A3
330
90
100
AcDbEntity
  8
AM_6
100
AcDbText
 10
6.171875
 20
-5.9252
 30
0.0
 40
0.5
  1
2-21/32
100
AcDbAttributeDefinition
  3

  2
E
 70
     8
280
     0
  0
ATTDEF
  5
A4
330
90
100
AcDbEntity
  8
AM_6
100
AcDbText
 10
6.171875
 20
-6.4252
 30
0.0
 40
0.5
  1
2.656250
100
AcDbAttributeDefinition
  3

  2
E1
 70
     8
280
     0
  0
ATTDEF
  5
A5
330
90
100
AcDbEntity
  8
AM_6
100
AcDbText
 10
6.171875
 20
-6.9252
 30
0.0
 40
0.5
  1
0.286
100
AcDbAttributeDefinition
  3

  2
F
 70
     8
280
     0
  0
ATTDEF
  5
A6
330
90
100
AcDbEntity
  8
AM_6
100
AcDbText
 10
6.171875
 20
-7.4252
 30
0.0
 40
0.5
  1
baldor
100
AcDbAttributeDefinition
  3

  2
COMPANY
 70
     8
280
     0
  0
LINE
  5
A9
330
90
100
AcDbEntity
  8
AM_9
100
AcDbLine
 10
1.078125
 20
-0.8750000000000001
 30
0.0
 11
1.171875
 21
-0.8750000000000001
 31
0.0
  0
LINE
  5
AA
330
90
100
AcDbEntity
  8
AM_9
100
AcDbLine
 10
1.171875
 20
0.8750000000000001
 30
0.0
 11
1.078125
 21
0.8750000000000001
 31
0.0
  0
LINE
  5
AB
330
90
100
AcDbEntity
  8
AM_9
100
AcDbLine
 10
0.7718750000000001
 20
-1.48105
 30
0.0
 11
1.078125
 21
-1.48105
 31
0.0
  0
LINE
  5
AC
330
90
100
AcDbEntity
  8
AM_9
100
AcDbLine
 10
1.078125
 20
1.48105
 30
0.0
 11
0.7718750000000001
 21
1.48105
 31
0.0
  0
LINE
  5
AD
330
90
100
AcDbEntity
  8
AM_9
100
AcDbLine
 10
1.171875
 20
1.48105
 30
0.0
 11
1.171875
 21
-1.48105
 31
0.0
  0
ARC
  5
AE
330
90
100
AcDbEntity
  8
AM_9
100
AcDbCircle
 10
1.078125
 20
-1.48105
 30
0.0
 40
0.0937499999999996
100
AcDbArc
 50
270.0
 51
0.0
  0
ARC
  5
AF
330
90
100
AcDbEntity
  8
AM_9
100
AcDbCircle
 10
1.078125
 20
1.48105
 30
0.0
 40
0.0937499999999998
100
AcDbArc
 50
0.0
 51
90.0
  0
LINE
  5
B0
330
90
100
AcDbEntity
  8
AM_9
100
AcDbLine
 10
0.7718750000000001
 20
-1.5748
 30
0.0
 11
1.078125
 21
-1.5748
 31
0.0
  0
LINE
  5
B1
330
90
100
AcDbEntity
  8
AM_9
100
AcDbLine
 10
1.078125
 20
1.5748
 30
0.0
 11
0.7718750000000001
 21
1.5748
 31
0.0
  0
LINE
  5
B2
330
90
100
AcDbEntity
  8
AM_9
100
AcDbLine
 10
0.7718750000000001
 20
1.5748
 30
0.0
 11
0.7718750000000001
 21
-1.5748
 31
0.0
  0
LINE
  5
B3
330
90
100
AcDbEntity
  8
AM_9
100
AcDbLine
 10
1.078125
 20
1.5748
 30
0.0
 11
1.078125
 21
-1.5748
 31
0.0
  0
ENDBLK
  5
93
330
90
100
AcDbEntity
  8
0
100
AcDbBlockEnd
  0
BLOCK
  5
B6
330
B4
100
AcDbEntity
  8
0
100
AcDbBlockBegin
  2
3_1_3_8CS2i_0_in_070725_2
 70
     2
 10
0.0
 20
0.0
 30
0.0
  3
3_1_3_8CS2i_0_in_070725_2
  1

  0
ATTDEF
  5
B8
330
B4
100
AcDbEntity
  8
AM_6
100
AcDbText
 10
4.447
 20
1.375
 30
0.0
 40
0.5
  1
S-2000 Collar -Inch
100
AcDbAttributeDefinition
  3

  2
NN
 70
     8
280
     0
  0
ATTDEF
  5
B9
330
B4
100
AcDbEntity
  8
AM_6
100
AcDbText
 10
4.447
 20
0.875
 30
0.0
 40
0.5
  1
S-2000 Bearings
100
AcDbAttributeDefinition
  3

  2
NT
 70
     8
280
     0
  0
ATTDEF
  5
BA
330
B4
100
AcDbEntity
  8
AM_6
100
AcDbText
 10
4.447
 20
0.375
 30
0.0
 40
0.5
  1
1-3/8CS2i
100
AcDbAttributeDefinition
  3

  2
NB
 70
     8
280
     0
  0
ATTDEF
  5
BB
330
B4
100
AcDbEntity
  8
AM_6
100
AcDbText
 10
4.447
 20
-0.125
 30
0.0
 40
0.5
  1
$BORE.CS2i
100
AcDbAttributeDefinition
  3

  2
NBSYN
 70
     8
280
     0
  0
ATTDEF
  5
BC
330
B4
100
AcDbEntity
  8
AM_6
100
AcDbText
 10
4.447
 20
-0.625
 30
0.0
 40
0.5
  1
1-3/8CS2i
100
AcDbAttributeDefinition
  3

  2
LINA
 70
     8
280
     0
  0
ATTDEF
  5
BD
330
B4
100
AcDbEntity
  8
AM_6
100
AcDbText
 10
4.447
 20
-1.125
 30
0.0
 40
0.5
  1
1-3/8
100
AcDbAttributeDefinition
  3

  2
BORE
 70
     8
280
     0
  0
ATTDEF
  5
BE
330
B4
100
AcDbEntity
  8
AM_6
100
AcDbText
 10
4.447
 20
-1.625
 30
0.0
 40
0.5
  1
1.375000
100
AcDbAttributeDefinition
  3

  2
BORE1
 70
     8
280
     0
  0
ATTDEF
  5
BF
330
B4
100
AcDbEntity
  8
AM_6
100
AcDbText
 10
4.447
 20
-2.125
 30
0.0
 40
0.5
  1
2-3/4
100
AcDbAttributeDefinition
  3

  2
L1
 70
     8
280
     0
  0
ATTDEF
  5
C0
330
B4
100
AcDbEntity
  8
AM_6
100
AcDbText
 10
4.447
 20
-2.625
 30
0.0
 40
0.5
  1
2.75000
100
AcDbAttributeDefinition
  3

  2
L
 70
     8
280
     0
  0
ATTDEF
  5
C1
330
B4
100
AcDbEntity
  8
AM_6
100
AcDbText
 10
4.447
 20
-3.125
 30
0.0
 40
0.5
  1
2.65625
100
AcDbAttributeDefinition
  3

  2
L2
 70
     8
280
     0
  0
ATTDEF
  5
C2
330
B4
100
AcDbEntity
  8
AM_6
100
AcDbText
 10
4.447
 20
-3.625
 30
0.0
 40
0.5
  1
3.00
100
AcDbAttributeDefinition
  3

  2
A
 70
     8
280
     0
  0
ATTDEF
  5
C3
330
B4
100
AcDbEntity
  8
AM_6
100
AcDbText
 10
4.447
 20
-4.125
 30
0.0
 40
0.5
  1
1.25
100
AcDbAttributeDefinition
  3

  2
B
 70
     8
280
     0
  0
ATTDEF
  5
C4
330
B4
100
AcDbEntity
  8
AM_6
100
AcDbText
 10
4.447
 20
-4.625
 30
0.0
 40
0.5
  1
1.75
100
AcDbAttributeDefinition
  3

  2
C
 70
     8
280
     0
  0
ATTDEF
  5
C5
330
B4
100
AcDbEntity
  8
AM_6
100
AcDbText
 10
4.447
 20
-5.125
 30
0.0
 40
0.5
  1
2.81
100
AcDbAttributeDefinition
  3

  2
D
 70
     8
280
     0
  0
ATTDEF
  5
C6
330
B4
100
AcDbEntity
  8
AM_6
100
AcDbText
 10
4.447
 20
-5.625
 30
0.0
 40
0.5
  1
0.35
100
AcDbAttributeDefinition
  3

  2
E
 70
     8
280
     0
  0
ATTDEF
  5
C7
330
B4
100
AcDbEntity
  8
AM_6
100
AcDbText
 10
4.447
 20
-6.125
 30
0.0
 40
0.5
  1
0.286
100
AcDbAttributeDefinition
  3

  2
F
 70
     8
280
     0
  0
ATTDEF
  5
C8
330
B4
100
AcDbEntity
  8
AM_6
100
AcDbText
 10
4.447
 20
-6.625
 30
0.0
 40
0.5
  1
5/16-18
100
AcDbAttributeDefinition
  3

  2
CS
 70
     8
280
     0
  0
ATTDEF
  5
C9
330
B4
100
AcDbEntity
  8
AM_6
100
AcDbText
 10
4.447
 20
-7.125
 30
0.0
 40
0.5
  1
0.3125
100
AcDbAttributeDefinition
  3

  2
NDM
 70
     8
280
     0
  0
ATTDEF
  5
CA
330
B4
100
AcDbEntity
  8
AM_6
100
AcDbText
 10
4.447
 20
-7.625
 30
0.0
 40
0.5
  1
0.2520
100
AcDbAttributeDefinition
  3

  2
KDM
 70
     8
280
     0
  0
ATTDEF
  5
CB
330
B4
100
AcDbEntity
  8
AM_6
100
AcDbText
 10
4.447
 20
-8.125
 30
0.0
 40
0.5
  1
1
100
AcDbAttributeDefinition
  3

  2
DD
 70
     8
280
     0
  0
ATTDEF
  5
CC
330
B4
100
AcDbEntity
  8
AM_6
100
AcDbText
 10
4.447
 20
-8.625
 30
0.0
 40
0.5
  1
baldor
100
AcDbAttributeDefinition
  3

  2
COMPANY
 70
     8
280
     0
  0
LINE
  5
CD
330
B4
100
AcDbEntity
  8
AM_9
100
AcDbLine
 10
-0.7128
 20
0.8842166666666609
 30
0.0
 11
-0.7128
 21
1.34495
 31
0.0
  0
LINE
  5
CE
330
B4
100
AcDbEntity
  8
AM_9
100
AcDbLine
 10
-0.9652
 20
1.328086163487361
 30
0.0
 11
-0.9652
 21
0.8842166666666609
 31
0.0
  0
LINE
  5
CF
330
B4
100
AcDbEntity
  8
AM_9
100
AcDbLine
 10
-0.839
 20
1.34495
 30
0.0
 11
-0.7128
 21
1.34495
 31
0.0
  0
LINE
  5
D0
330
B4
100
AcDbEntity
  8
AM_9
100
AcDbLine
 10
-0.7128
 20
1.34495
 30
0.0
 11
-0.68275
 21
1.375
 31
0.0
  0
LINE
  5
D1
330
B4
100
AcDbEntity
  8
AM_9
100
AcDbLine
 10
-0.9652
 20
0.8842166666666609
 30
0.0
 11
-0.7128
 21
0.8842166666666609
 31
0.0
  0
LINE
  5
D2
330
B4
100
AcDbEntity
  8
AM_9
100
AcDbLine
 10
-0.9652
 20
0.8842166666666609
 30
0.0
 11
-0.9743227561355077
 21
0.8750939105311548
 31
0.0
  0
LINE
  5
D3
330
B4
100
AcDbEntity
  8
AM_9
100
AcDbLine
 10
-0.7038013766927215
 20
0.8752180433593841
 30
0.0
 11
-0.7128
 21
0.8842166666666609
 31
0.0
  0
LWPOLYLINE
  5
D4
330
B4
100
AcDbEntity
  8
AM_9
100
AcDbPolyline
 90
       39
 70
     0
 43
0.0
 10
-0.7415129446152816
 20
0.2743731080557927
 10
-0.7289783962842995
 20
0.2900431990230303
 10
-0.718652100472583
 20
0.3074241341673319
 10
-0.7098584635596461
 20
0.3291323250881162
 10
-0.7047498608061338
 20
0.3522153566566855
 10
-0.7037187214006178
 20
0.3757484283205691
 10
-0.7070255488478535
 20
0.3994424596119319
 10
-0.7145151790480074
 20
0.4215623928784862
 10
-0.7264743149732604
 20
0.4425398213078152
 10
-0.7416736064694524
 20
0.4602755353260868
 10
-0.7609280288318504
 20
0.4756867412286175
 10
-0.7811588132970468
 20
0.4866399689347879
 10
-0.8042755603921126
 20
0.4944473998520149
 10
-0.8255796318358689
 20
0.4980067119982921
 10
-0.8480446842419648
 20
0.4983421825221649
 10
-0.8680338898983458
 20
0.4957190211894688
 10
-0.8877646660595625
 20
0.4902387315737613
 10
-0.9059390508757683
 20
0.4822578649689223
 10
-0.922819681444544
 20
0.4716906817304885
 10
-0.9383730840253628
 20
0.4582454568362628
 10
-0.9516369511731988
 20
0.4423822146551882
 10
-0.9625628780899802
 20
0.4235753471184192
 10
-0.9701563676909808
 20
0.4026972617325483
 10
-0.9740156790856171
 20
0.3800258070966475
 10
-0.9737101889872255
 20
0.3561175715320626
 10
-0.9691365185574791
 20
0.3324626764493715
 10
-0.9600783155985705
 20
0.3088956051556692
 10
-0.9473320458891871
 20
0.2876546331235579
 10
-0.9303183041458911
 20
0.2680703259489703
 10
-0.9113875340118676
 20
0.2527845423837479
 10
-0.8890725105451502
 20
0.2406364257056903
 10
-0.8677325148273058
 20
0.2336298343277319
 10
-0.8446348770907002
 20
0.2304276571482684
 10
-0.8240871938683617
 20
0.2311909422092792
 10
-0.8033702799089217
 20
0.235448895554187
 10
-0.7845346868685052
 20
0.2426071725042922
 10
-0.7666561156076687
 20
0.2527551944583894
 10
-0.7534954491768323
 20
0.2627850154356767
 10
-0.7415129446152816
 20
0.2743731080557927
  0
LINE
  5
D5
330
B4
100
AcDbEntity
  8
AM_9
100
AcDbLine
 10
-1.125
 20
-0.875
 30
0.0
 11
-0.553
 21
-0.875
 31
0.0
  0
LINE
  5
D6
330
B4
100
AcDbEntity
  8
AM_9
100
AcDbLine
 10
-0.553
 20
0.875
 30
0.0
 11
-0.7041169625357319
 21
0.875
 31
0.0
  0
LINE
  5
D7
330
B4
100
AcDbEntity
  8
AM_9
100
AcDbLine
 10
-0.9741864351410064
 20
0.875
 30
0.0
 11
-1.125
 21
0.875
 31
0.0
  0
LWPOLYLINE
  5
D8
330
B4
100
AcDbEntity
  8
AM_9
100
AcDbPolyline
 90
       21
 70
     0
 43
0.0
 10
-0.9744166666659922
 20
0.8749999999998772
 10
-0.9743836061568055
 20
0.874993947356603
 10
-0.9716362302029126
 20
0.8744957887278755
 10
-0.9646810165602072
 20
0.873277482940251
 10
-0.9532489709000064
 20
0.8714097172826724
 10
-0.9384824847023353
 20
0.8692487463534143
 10
-0.919615093504593
 20
0.8669077065439224
 10
-0.8995871744922731
 20
0.8649477428884089
 10
-0.876574299387511
 20
0.8633744315584263
 10
-0.8552385640700803
 20
0.8625721331397559
 10
-0.8326342062829822
 20
0.8624159782618532
 10
-0.8125382021697586
 20
0.8628773888899471
 10
-0.7926256338747297
 20
0.8638897112264659
 10
-0.7743237003044867
 20
0.8653035315819461
 10
-0.7572536790738008
 20
0.8670346320224149
 10
-0.7414857014662128
 20
0.8689823829023264
 10
-0.7279416026371406
 20
0.8709186336298376
 10
-0.71664543156556
 20
0.8727166463535221
 10
-0.7086175485574318
 20
0.8740942665872905
 10
-0.7042509730492928
 20
0.8748780373430577
 10
-0.703583333333421
 20
0.8749999999999847
  0
ELLIPSE
  5
D9
330
B4
100
AcDbEntity
  8
AM_9
100
AcDbEllipse
 10
-0.8390000000000002
 20
0.3736861106688197
 30
0.0
 11
0.1261999999999998
 21
0.0
 31
0.0
210
0.0
220
0.0
230
1.0
 40
0.9063077870366496
 41
2.18661550744485
 42
6.283185307179586
  0
LINE
  5
DA
330
B4
100
AcDbEntity
  8
AM_9
100
AcDbLine
 10
-0.7128
 20
0.3736861106688196
 30
0.0
 11
-0.7127999999999999
 21
0.5684004311281539
 31
0.0
  0
LINE
  5
DB
330
B4
100
AcDbEntity
  8
AM_9
100
AcDbLine
 10
-0.9651999999999998
 20
0.561273465854903
 30
0.0
 11
-0.9652
 21
0.3736861106688196
 31
0.0
  0
ELLIPSE
  5
DC
330
B4
100
AcDbEntity
  8
AM_9
100
AcDbEllipse
 10
-0.8389999999999996
 20
0.3736861106688196
 30
0.0
 11
0.1261999999999996
 21
0.0
 31
0.0
210
0.0
220
0.0
230
1.0
 40
0.9063077870366504
 41
0.0
 42
1.01827201918943
  0
LINE
  5
DD
330
B4
100
AcDbEntity
  8
AM_9
100
AcDbLine
 10
-0.839
 20
0.4540243884041286
 30
0.0
 11
-0.839
 21
0.673126225968746
 31
0.0
  0
LINE
  5
DE
330
B4
100
AcDbEntity
  8
AM_9
100
AcDbLine
 10
-0.625
 20
-1.375
 30
0.0
 11
-0.553
 21
-1.375
 31
0.0
  0
LINE
  5
DF
330
B4
100
AcDbEntity
  8
AM_9
100
AcDbLine
 10
-0.553
 20
1.375
 30
0.0
 11
-0.625
 21
1.375
 31
0.0
  0
LINE
  5
E0
330
B4
100
AcDbEntity
  8
AM_9
100
AcDbLine
 10
-0.553
 20
1.375
 30
0.0
 11
-0.553
 21
-1.375
 31
0.0
  0
LINE
  5
E2
330
B4
100
AcDbEntity
  8
AM_5
100
AcDbLine
 10
-0.99525
 20
1.328125
 30
0.0
 11
-0.99525
 21
0.875
 31
0.0
  0
LINE
  5
E3
330
B4
100
AcDbEntity
  8
AM_5
100
AcDbLine
 10
-0.917125
 20
0.8541666666666666
 30
0.0
 11
-0.99525
 21
0.8541666666666666
 31
0.0
  0
LINE
  5
E4
330
B4
100
AcDbEntity
  8
AM_5
100
AcDbLine
 10
-0.68275
 20
1.375
 30
0.0
 11
-0.68275
 21
0.875
 31
0.0
  0
LINE
  5
E5
330
B4
100
AcDbEntity
  8
AM_5
100
AcDbLine
 10
-0.760875
 20
0.8541666666666666
 30
0.0
 11
-0.68275
 21
0.8541666666666666
 31
0.0
  0
ELLIPSE
  5
E7
330
B4
100
AcDbEntity
  8
AM_4
100
AcDbEllipse
 10
-0.8390000000000002
 20
0.3736861106688202
 30
0.0
 11
0.1261999999999992
 21
0.0
 31
0.0
210
0.0
220
0.0
230
1.0
 40
0.9063077870366509
 41
1.018272019189423
 42
2.186615507444854
  0
LWPOLYLINE
  5
E8
330
B4
100
AcDbEntity
  8
AM_4
100
AcDbPolyline
 90
       11
 70
     0
 43
0.0
 10
-0.9651999994601385
 20
0.561279299440075
 10
-0.9643827697420564
 20
0.5742525279795131
 10
-0.9603056637951592
 20
0.5926409968782259
 10
-0.9526528130313218
 20
0.6105297327198234
 10
-0.9420468111916305
 20
0.6264734582406946
 10
-0.9281954275088081
 20
0.6409339142733167
 10
-0.9121849054018376
 20
0.6527853311965214
 10
-0.8936011691324248
 20
0.6623432374875075
 10
-0.8739993152474469
 20
0.6688354692756739
 10
-0.8528118039968398
 20
0.672469656366686
 10
-0.8389999999999999
 20
0.673126225968746
  0
ELLIPSE
  5
E9
330
B4
100
AcDbEntity
  8
AM_4
100
AcDbEllipse
 10
-0.8389999999999997
 20
0.568400431128154
 30
0.0
 11
0.1261999999999999
 21
0.0
 31
0.0
210
0.0
220
0.0
230
1.0
 40
0.9063077870366493
 41
4.71238898038469
 42
7.853981633974483
  0
LINE
  5
EA
330
B4
100
AcDbEntity
  8
AM_4
100
AcDbLine
 10
-0.839
 20
-1.375
 30
0.0
 11
-0.8389999999999999
 21
0.4540243884041286
 31
0.0
  0
LINE
  5
EB
330
B4
100
AcDbEntity
  8
AM_4
100
AcDbLine
 10
-1.125
 20
1.232791666666667
 30
0.0
 11
-1.125
 21
-1.232791666666667
 31
0.0
  0
ARC
  5
EC
330
B4
100
AcDbEntity
  8
AM_4
100
AcDbCircle
 10
-1.029666666666667
 20
-1.232791666666667
 30
0.0
 40
0.0953333333333335
100
AcDbArc
 50
180.0
 51
270.0
  0
ARC
  5
ED
330
B4
100
AcDbEntity
  8
AM_4
100
AcDbCircle
 10
-1.029666666666667
 20
1.232791666666667
 30
0.0
 40
0.0953333333333335
100
AcDbArc
 50
90.0
 51
180.0
  0
LWPOLYLINE
  5
EE
330
B4
100
AcDbEntity
  8
AM_4
100
AcDbPolyline
 90
       11
 70
     0
 43
0.0
 10
-0.8389999999999999
 20
0.4443741405206955
 10
-0.8598329771839495
 20
0.4460127036798998
 10
-0.8806659543678991
 20
0.4510651019306764
 10
-0.8997477616260581
 20
0.4590865122440448
 10
-0.9176329986566002
 20
0.4702776107509175
 10
-0.9328728630425076
 20
0.4837129672851778
 10
-0.945853249577083
 20
0.4997155039350314
 10
-0.9555030411698902
 20
0.5169478755405935
 10
-0.9620706193298455
 20
0.5358529389538452
 10
-0.9649944404765027
 20
0.5547561536879979
 10
-0.9651999994601385
 20
0.561279299440075
  0
LWPOLYLINE
  5
EF
330
B4
100
AcDbEntity
  8
AM_4
100
AcDbPolyline
 90
       11
 70
     0
 43
0.0
 10
-0.839
 20
1.322115568180407
 10
-0.8598329771839495
 20
1.322279693772595
 10
-0.8806659543678992
 20
1.322771948363885
 10
-0.8997477616260582
 20
1.323510432965141
 10
-0.9176329986566002
 20
1.32445185797851
 10
-0.9328728630425076
 20
1.325443959600253
 10
-0.9458532495770832
 20
1.326426474618998
 10
-0.9555030411698903
 20
1.327238687737376
 10
-0.9620706193298455
 20
1.327831296877443
 10
-0.9649944404765028
 20
1.328105483256502
 10
-0.9651999999999564
 20
1.328124999999996
  0
LINE
  5
F0
330
B4
100
AcDbEntity
  8
AM_4
100
AcDbLine
 10
-1.029666666666667
 20
-1.328125
 30
0.0
 11
-0.839
 21
-1.328125
 31
0.0
  0
LINE
  5
F1
330
B4
100
AcDbEntity
  8
AM_4
100
AcDbLine
 10
-0.9647899725513349
 20
1.328125
 30
0.0
 11
-1.029666666666667
 21
1.328125
 31
0.0
  0
LINE
  5
F2
330
B4
100
AcDbEntity
  8
AM_4
100
AcDbLine
 10
-1.029666666666667
 20
1.328125
 30
0.0
 11
-1.029666666666667
 21
-1.328125
 31
0.0
  0
LINE
  5
F3
330
B4
100
AcDbEntity
  8
AM_4
100
AcDbLine
 10
-0.839
 20
1.366986120150041
 30
0.0
 11
-0.8389999999999999
 21
0.673126225968746
 31
0.0
  0
LWPOLYLINE
  5
F4
330
B4
100
AcDbEntity
  8
AM_4
100
AcDbPolyline
 90
       20
 70
     0
 43
0.0
 10
-0.8389999999999999
 20
0.7120608479335562
 10
-0.8194866812557859
 20
0.7110597205305221
 10
-0.7999733625115718
 20
0.7080055127829642
 10
-0.7743087648710238
 20
0.7005638011899226
 10
-0.7497898376763376
 20
0.689076887904278
 10
-0.7289551895200647
 20
0.6747177650532961
 10
-0.7107884417305418
 20
0.6567261169850118
 10
-0.6975662421021899
 20
0.6375390015711062
 10
-0.688109496559511
 20
0.6157201069407842
 10
-0.6835338827187484
 20
0.5944913855738717
 10
-0.6831076757379649
 20
0.5720101051467508
 10
-0.6866816802000517
 20
0.5510173269649237
 10
-0.6942306885823998
 20
0.530126943770674
 10
-0.7051712520078384
 20
0.5109184911616327
 10
-0.719677875021348
 20
0.4930148281165235
 10
-0.7373357239544825
 20
0.4771816162833635
 10
-0.7579904905934378
 20
0.4637826156352803
 10
-0.7812263630812696
 20
0.4533720290668613
 10
-0.80660550004842
 20
0.4464377804878872
 10
-0.839
 20
0.4433657479093907
  0
LINE
  5
F5
330
B4
100
AcDbEntity
  8
AM_4
100
AcDbLine
 10
-0.839
 20
-1.375
 30
0.0
 11
-0.625
 21
-1.375
 31
0.0
  0
LINE
  5
F6
330
B4
100
AcDbEntity
  8
AM_4
100
AcDbLine
 10
-0.625
 20
1.375
 30
0.0
 11
-0.68275
 21
1.375
 31
0.0
  0
LWPOLYLINE
  5
F7
330
B4
100
AcDbEntity
  8
AM_4
100
AcDbPolyline
 90
       11
 70
     0
 43
0.0
 10
-0.6827500000000318
 20
1.374999999999997
 10
-0.6831076757379649
 20
1.374963543381437
 10
-0.6866816802000519
 20
1.374603753150546
 10
-0.6942306885824
 20
1.373870707077001
 10
-0.7051712520078387
 20
1.372873314516525
 10
-0.7196778750213482
 20
1.371669886595542
 10
-0.7373357239544825
 20
1.370389074696999
 10
-0.7579904905934378
 20
1.369148571323816
 10
-0.7812263630812698
 20
1.368086741003399
 10
-0.8066055000484201
 20
1.367332328078934
 10
-0.839
 20
1.366986120150041
  0
ENDBLK
  5
B7
330
B4
100
AcDbEntity
  8
0
100
AcDbBlockEnd
  0
BLOCK
  5
FA
330
F8
100
AcDbEntity
  8
0
100
AcDbBlockBegin
  2
4_070016i_0_in_070725_2
 70
     2
 10
0.0
 20
0.0
 30
0.0
  3
4_070016i_0_in_070725_2
  1

  0
ATTDEF
  5
FC
330
F8
100
AcDbEntity
  8
AM_6
100
AcDbText
 10
6.532812499999999
 20
1.5748
 30
0.0
 40
0.5
  1
S-2000 Insert -Inch
100
AcDbAttributeDefinition
  3

  2
NN
 70
     8
280
     0
  0
ATTDEF
  5
FD
330
F8
100
AcDbEntity
  8
AM_6
100
AcDbText
 10
6.532812499999999
 20
1.0748
 30
0.0
 40
0.5
  1
S-2000 Bearings
100
AcDbAttributeDefinition
  3

  2
NT
 70
     8
280
     0
  0
ATTDEF
  5
FE
330
F8
100
AcDbEntity
  8
AM_6
100
AcDbText
 10
6.532812499999999
 20
0.5748000000000002
 30
0.0
 40
0.5
  1
070016i
100
AcDbAttributeDefinition
  3

  2
NB
 70
     8
280
     0
  0
ATTDEF
  5
FF
330
F8
100
AcDbEntity
  8
AM_6
100
AcDbText
 10
6.532812499999999
 20
0.0748000000000002
 30
0.0
 40
0.5
  1
$PN.i
100
AcDbAttributeDefinition
  3

  2
NBSYN
 70
     8
280
     0
  0
ATTDEF
  5
100
330
F8
100
AcDbEntity
  8
AM_6
100
AcDbText
 10
6.532812499999999
 20
-0.4251999999999998
 30
0.0
 40
0.5
  1
070016i
100
AcDbAttributeDefinition
  3

  2
LINA
 70
     8
280
     0
  0
ATTDEF
  5
101
330
F8
100
AcDbEntity
  8
AM_6
100
AcDbText
 10
6.532812499999999
 20
-0.9251999999999998
 30
0.0
 40
0.5
  1
1-3/8
100
AcDbAttributeDefinition
  3

  2
SS
 70
     8
280
     0
  0
ATTDEF
  5
102
330
F8
100
AcDbEntity
  8
AM_6
100
AcDbText
 10
6.532812499999999
 20
-1.4252
 30
0.0
 40
0.5
  1
1.75
100
AcDbAttributeDefinition
  3

  2
CC
 70
     8
280
     0
  0
ATTDEF
  5
103
330
F8
100
AcDbEntity
  8
AM_6
100
AcDbText
 10
6.532812499999999
 20
-1.9252
 30
0.0
 40
0.5
  1
1.375000
100
AcDbAttributeDefinition
  3

  2
SS1
 70
     8
280
     0
  0
ATTDEF
  5
104
330
F8
100
AcDbEntity
  8
AM_6
100
AcDbText
 10
6.532812499999999
 20
-2.4252
 30
0.0
 40
0.5
  1
070016
100
AcDbAttributeDefinition
  3

  2
PN
 70
     8
280
     0
  0
ATTDEF
  5
105
330
F8
100
AcDbEntity
  8
AM_6
100
AcDbText
 10
6.532812499999999
 20
-2.9252
 30
0.0
 40
0.5
  1
INS-S2-106L
100
AcDbAttributeDefinition
  3

  2
DESCRIPTION
 70
     8
280
     0
  0
ATTDEF
  5
106
330
F8
100
AcDbEntity
  8
AM_6
100
AcDbText
 10
6.532812499999999
 20
-3.4252
 30
0.0
 40
0.5
  1
Labyrinth Seal
100
AcDbAttributeDefinition
  3

  2
ST
 70
     8
280
     0
  0
ATTDEF
  5
107
330
F8
100
AcDbEntity
  8
AM_6
100
AcDbText
 10
6.532812499999999
 20
-3.9252
 30
0.0
 40
0.5
  1
2
100
AcDbAttributeDefinition
  3

  2
ST1
 70
     8
280
     0
  0
ATTDEF
  5
108
330
F8
100
AcDbEntity
  8
AM_6
100
AcDbText
 10
6.532812499999999
 20
-4.4252
 30
0.0
 40
0.5
  1
3.1496
100
AcDbAttributeDefinition
  3

  2
A
 70
     8
280
     0
  0
ATTDEF
  5
109
330
F8
100
AcDbEntity
  8
AM_6
100
AcDbText
 10
6.532812499999999
 20
-4.9252
 30
0.0
 40
0.5
  1
61/64
100
AcDbAttributeDefinition
  3

  2
B
 70
     8
280
     0
  0
ATTDEF
  5
10A
330
F8
100
AcDbEntity
  8
AM_6
100
AcDbText
 10
6.532812499999999
 20
-5.4252
 30
0.0
 40
0.5
  1
2-17/32
100
AcDbAttributeDefinition
  3

  2
C
 70
     8
280
     0
  0
ATTDEF
  5
10B
330
F8
100
AcDbEntity
  8
AM_6
100
AcDbText
 10
6.532812499999999
 20
-5.9252
 30
0.0
 40
0.5
  1
0.970
100
AcDbAttributeDefinition
  3

  2
D
 70
     8
280
     0
  0
ATTDEF
  5
10C
330
F8
100
AcDbEntity
  8
AM_6
100
AcDbText
 10
6.532812499999999
 20
-6.4252
 30
0.0
 40
0.5
  1
2-21/32
100
AcDbAttributeDefinition
  3

  2
E
 70
     8
280
     0
  0
ATTDEF
  5
10D
330
F8
100
AcDbEntity
  8
AM_6
100
AcDbText
 10
6.532812499999999
 20
-6.9252
 30
0.0
 40
0.5
  1
0.28125
100
AcDbAttributeDefinition
  3

  2
F
 70
     8
280
     0
  0
ATTDEF
  5
10E
330
F8
100
AcDbEntity
  8
AM_6
100
AcDbText
 10
6.532812499999999
 20
-7.4252
 30
0.0
 40
0.5
  1
1
100
AcDbAttributeDefinition
  3

  2
DD
 70
     8
280
     0
  0
ATTDEF
  5
10F
330
F8
100
AcDbEntity
  8
AM_6
100
AcDbText
 10
6.532812499999999
 20
-7.9252
 30
0.0
 40
0.5
  1
baldor
100
AcDbAttributeDefinition
  3

  2
COMPANY
 70
     8
280
     0
  0
LINE
  5
110
330
F8
100
AcDbEntity
  8
AM_9
100
AcDbLine
 10
-1.014
 20
0.8748810429011844
 30
0.0
 11
-1.014
 21
0.6875
 31
0.0
  0
LINE
  5
111
330
F8
100
AcDbEntity
  8
AM_9
100
AcDbLine
 10
-0.664
 20
0.6875
 30
0.0
 11
-0.664
 21
0.8749488859246093
 31
0.0
  0
LINE
  5
112
330
F8
100
AcDbEntity
  8
AM_9
100
AcDbLine
 10
-1.014
 20
0.3697909790231121
 30
0.0
 11
-1.014
 21
0.2905026548801895
 31
0.0
  0
LINE
  5
113
330
F8
100
AcDbEntity
  8
AM_9
100
AcDbLine
 10
-0.664
 20
0.2904844444938264
 30
0.0
 11
-0.664
 21
0.3697909790231121
 31
0.0
  0
LWPOLYLINE
  5
114
330
F8
100
AcDbEntity
  8
AM_9
100
AcDbPolyline
 90
        4
 70
     0
 43
0.0
 10
-1.008480648159471
 20
0.329483737873428
 10
-1.01016035805238
 20
0.32309596731643
 10
-1.013862249602311
 20
0.2968269806199512
 10
-1.013999998957692
 20
0.2905673652706828
  0
LWPOLYLINE
  5
115
330
F8
100
AcDbEntity
  8
AM_9
100
AcDbPolyline
 90
        5
 70
     0
 43
0.0
 10
-0.9617177716451004
 20
0.3987978756374057
 10
-0.9707245707327982
 20
0.3908581080460294
 10
-0.9882837373413418
 20
0.3707090655216231
 10
-1.00160169151855
 20
0.347895997270777
 10
-1.008480648159471
 20
0.329483737873428
  0
LWPOLYLINE
  5
116
330
F8
100
AcDbEntity
  8
AM_9
100
AcDbPolyline
 90
        7
 70
     0
 43
0.0
 10
-0.839
 20
0.4395834344139
 10
-0.8442082112781054
 20
0.439508794679851
 10
-0.8730626584531687
 20
0.4369184996994815
 10
-0.9004524813935606
 20
0.4306682078459794
 10
-0.926163838131698
 20
0.4209144145790709
 10
-0.9499589108057488
 20
0.4074964480027323
 10
-0.9617177716451004
 20
0.3987978756374057
  0
LWPOLYLINE
  5
117
330
F8
100
AcDbEntity
  8
AM_9
100
AcDbPolyline
 90
        6
 70
     0
 43
0.0
 10
-0.7165824787944698
 20
0.3990418902408798
 10
-0.7336464117497229
 20
0.4111105206478161
 10
-0.758619451530553
 20
0.4239090201373764
 10
-0.7861162552700226
 20
0.4330408599720411
 10
-0.815202557749883
 20
0.4382900723273782
 10
-0.839
 20
0.4395834344139
  0
LWPOLYLINE
  5
118
330
F8
100
AcDbEntity
  8
AM_9
100
AcDbPolyline
 90
        6
 70
     0
 43
0.0
 10
-0.669827398001835
 20
0.3305212830451177
 10
-0.6700911569862915
 20
0.3313273653789507
 10
-0.6797536110475249
 20
0.3546927502517386
 10
-0.6937875871451973
 20
0.3760931224668245
 10
-0.711677334083305
 20
0.3948950624766338
 10
-0.7165824787944698
 20
0.3990418902408798
  0
LWPOLYLINE
  5
119
330
F8
100
AcDbEntity
  8
AM_9
100
AcDbPolyline
 90
        3
 70
     0
 43
0.0
 10
-0.6640000002706263
 20
0.2905412343860763
 10
-0.6648851021875972
 20
0.3063865627025081
 10
-0.669827398001835
 20
0.3305212830451177
  0
LWPOLYLINE
  5
11A
330
F8
100
AcDbEntity
  8
AM_9
100
AcDbPolyline
 90
       11
 70
     0
 43
0.0
 10
-1.013999998957692
 20
0.2905673652706828
 10
-1.012610910777273
 20
0.2705849335804341
 10
-1.006691111265947
 20
0.244421307477519
 10
-0.9963021977126095
 20
0.2192650527770275
 10
-0.981789342620553
 20
0.1956917496758791
 10
-0.9630017205636856
 20
0.1739295827559999
 10
-0.9407967001115841
 20
0.1552445621429873
 10
-0.9151952364246682
 20
0.140058771161522
 10
-0.8873337384184639
 20
0.1292865566329515
 10
-0.8634185468559251
 20
0.1241272119987382
 10
-0.839
 20
0.1223757089510726
  0
LWPOLYLINE
  5
11B
330
F8
100
AcDbEntity
  8
AM_9
100
AcDbPolyline
 90
        8
 70
     0
 43
0.0
 10
-0.7420508809301404
 20
0.4966698752292248
 10
-0.7254318289613538
 20
0.4861360443036571
 10
-0.7048984410836228
 20
0.4686266234022796
 10
-0.6878741658006359
 20
0.4478449178684511
 10
-0.6751343171369127
 20
0.424548689604124
 10
-0.6671569579175083
 20
0.3994248455457204
 10
-0.6640368735398665
 20
0.3730435618409575
 10
-0.6640000007940354
 20
0.3698060877460544
  0
LWPOLYLINE
  5
11C
330
F8
100
AcDbEntity
  8
AM_9
100
AcDbPolyline
 90
        9
 70
     0
 43
0.0
 10
-0.9410134523727054
 20
0.4937444118914656
 10
-0.9173088925809327
 20
0.5056665267301663
 10
-0.8897720014844346
 20
0.5147216145558063
 10
-0.8607465893250632
 20
0.5198107376650554
 10
-0.8315776195157242
 20
0.5207808966294853
 10
-0.8026212999821721
 20
0.5177848399256204
 10
-0.7749798810772448
 20
0.5109244826368345
 10
-0.749106953035973
 20
0.5003857056993662
 10
-0.7420508809301404
 20
0.4966698752292248
  0
LWPOLYLINE
  5
11D
330
F8
100
AcDbEntity
  8
AM_9
100
AcDbPolyline
 90
        8
 70
     0
 43
0.0
 10
-1.013999999531642
 20
0.3697793752210052
 10
-1.013009250110168
 20
0.3865604251005008
 10
-1.007551802629401
 20
0.4118544494447836
 10
-0.9975368929209849
 20
0.4356214211437488
 10
-0.9830947881089699
 20
0.4573781044779421
 10
-0.9647353134041887
 20
0.4765108919669643
 10
-0.9424941222325582
 20
0.4928277828524043
 10
-0.9410134523727054
 20
0.4937444118914656
  0
LWPOLYLINE
  5
11E
330
F8
100
AcDbEntity
  8
AM_9
100
AcDbPolyline
 90
       11
 70
     0
 43
0.0
 10
-0.6640000007940354
 20
0.3698060877460544
 10
-0.6658711818998085
 20
0.3466110232193444
 10
-0.6724352564930864
 20
0.3204469326772156
 10
-0.6835626386450264
 20
0.2953902633695363
 10
-0.6988809026798988
 20
0.2721087156624933
 10
-0.7183606691365241
 20
0.2510158163233128
 10
-0.7412072259961375
 20
0.2331403424479246
 10
-0.7671302096155267
 20
0.2189993924174686
 10
-0.7951482415404427
 20
0.2092496540465204
 10
-0.8168912373875618
 20
0.2051135709773875
 10
-0.839
 20
0.2037158213049312
  0
LWPOLYLINE
  5
11F
330
F8
100
AcDbEntity
  8
AM_9
100
AcDbPolyline
 90
       11
 70
     0
 43
0.0
 10
-0.839
 20
0.1223757089510726
 10
-0.8101603289729253
 20
0.1248287609740013
 10
-0.7821470560002561
 20
0.1320042375025998
 10
-0.7557907617210694
 20
0.1436616797362527
 10
-0.7317231276664129
 20
0.1593048508562815
 10
-0.7101856240701155
 20
0.1788683610494619
 10
-0.6922229459273357
 20
0.2013769301336684
 10
-0.6782069920509014
 20
0.2265235771088611
 10
-0.6687961235981514
 20
0.2531634660643796
 10
-0.6644127500266738
 20
0.2798747138334464
 10
-0.6640000002706263
 20
0.2905412343860763
  0
LWPOLYLINE
  5
120
330
F8
100
AcDbEntity
  8
AM_9
100
AcDbPolyline
 90
       11
 70
     0
 43
0.0
 10
-0.839
 20
0.6648543073486101
 10
-0.8105735280001279
 20
0.665461730162118
 10
-0.7821470560002561
 20
0.6672806810042069
 10
-0.7561308224506742
 20
0.669998918348158
 10
-0.7317231276664129
 20
0.673453470803794
 10
-0.7104507859772579
 20
0.6771677417197784
 10
-0.6922229459273355
 20
0.6808632414826415
 10
-0.6783670256427611
 20
0.6839840659334495
 10
-0.6687961235981514
 20
0.6862948415529695
 10
-0.6644236368059973
 20
0.6873922872610984
 10
-0.6640000000010791
 20
0.6874999999997253
  0
LINE
  5
121
330
F8
100
AcDbEntity
  8
AM_9
100
AcDbLine
 10
1.40625
 20
0.6875
 30
0.0
 11
-0.664
 21
0.6875
 31
0.0
  0
LINE
  5
122
330
F8
100
AcDbEntity
  8
AM_9
100
AcDbLine
 10
-1.014
 20
0.6875
 30
0.0
 11
-1.125
 21
0.6875
 31
0.0
  0
LINE
  5
123
330
F8
100
AcDbEntity
  8
AM_9
100
AcDbLine
 10
-1.125
 20
-0.6875
 30
0.0
 11
1.40625
 21
-0.6875
 31
0.0
  0
LINE
  5
124
330
F8
100
AcDbEntity
  8
AM_9
100
AcDbLine
 10
-1.01265400273585
 20
0.687158615361972
 30
0.0
 11
-1.013999999996248
 21
0.6874999999990448
 31
0.0
  0
LINE
  5
125
330
F8
100
AcDbEntity
  8
AM_9
100
AcDbLine
 10
-0.826865958227984
 20
0.6649650253733087
 30
0.0
 11
-0.841604990581615
 21
0.6648594106846426
 31
0.0
  0
LWPOLYLINE
  5
126
330
F8
100
AcDbEntity
  8
AM_9
100
AcDbPolyline
 90
       11
 70
     0
 43
0.0
 10
-1.013999999996248
 20
0.6874999999990448
 10
-1.012680331779525
 20
0.6871652695291328
 10
-1.006691111265947
 20
0.6856759867441824
 10
-0.9964856680960715
 20
0.683251773254681
 10
-0.9817893426205533
 20
0.6800147398152555
 10
-0.9632959424061481
 20
0.6763732189395382
 10
-0.9407967001115841
 20
0.6726022733782632
 10
-0.9156021141954364
 20
0.6692526682047749
 10
-0.8873337384184639
 20
0.6666088810310768
 10
-0.863673040975886
 20
0.6653119636313461
 10
-0.839
 20
0.6648543073486101
  0
LINE
  5
127
330
F8
100
AcDbEntity
  8
AM_9
100
AcDbLine
 10
1.21875
 20
0.8749999999999998
 30
0.0
 11
1.14425
 21
0.8749999999999998
 31
0.0
  0
LINE
  5
128
330
F8
100
AcDbEntity
  8
AM_9
100
AcDbLine
 10
1.14425
 20
-0.8749999999999998
 30
0.0
 11
1.21875
 21
-0.8749999999999998
 31
0.0
  0
LWPOLYLINE
  5
129
330
F8
100
AcDbEntity
  8
AM_9
100
AcDbPolyline
 90
       11
 70
     0
 43
0.0
 10
-0.839
 20
0.2037158213049312
 10
-0.8680464201800655
 20
0.2061429975843998
 10
-0.8962659709786691
 20
0.2132554189937574
 10
-0.922829225665774
 20
0.2248434207094195
 10
-0.9470652534591514
 20
0.2404354906910037
 10
-0.9685443329202762
 20
0.2598212932158233
 10
-0.9864061015151953
 20
0.2821524353384291
 10
-1.000202793243253
 20
0.3069842750009513
 10
-1.009410875531932
 20
0.3333244789163157
 10
-1.013649912038659
 20
0.3600035783308752
 10
-1.013999999531642
 20
0.3697793752210052
  0
LWPOLYLINE
  5
12A
330
F8
100
AcDbEntity
  8
AM_9
100
AcDbPolyline
 90
       11
 70
     0
 43
0.0
 10
-0.839
 20
0.8573214099741124
 10
-0.8676329854893345
 20
0.8577994216936919
 10
-0.8962659709786691
 20
0.8592318612761808
 10
-0.9224810308058305
 20
0.8613762723133278
 10
-0.9470652534591514
 20
0.8641053749428892
 10
-0.9682777781747461
 20
0.8670136930463088
 10
-0.9864061015151953
 20
0.8699014649739983
 10
-1.000048654765078
 20
0.8723168399163468
 10
-1.009410875531932
 20
0.8740937401100409
 10
-1.01364128569591
 20
0.8749283277329181
 10
-1.013999999999272
 20
0.8749999999998544
  0
LINE
  5
12B
330
F8
100
AcDbEntity
  8
AM_9
100
AcDbLine
 10
-0.2717499999999999
 20
0.8750000000000001
 30
0.0
 11
-0.6642576090145241
 21
0.8750000000000001
 31
0.0
  0
LINE
  5
12C
330
F8
100
AcDbEntity
  8
AM_9
100
AcDbLine
 10
-1.01340372543194
 20
0.8750000000000001
 30
0.0
 11
-1.125
 21
0.8750000000000001
 31
0.0
  0
LINE
  5
12D
330
F8
100
AcDbEntity
  8
AM_9
100
AcDbLine
 10
-1.125
 20
-0.8750000000000001
 30
0.0
 11
-0.2717499999999999
 21
-0.8750000000000001
 31
0.0
  0
LINE
  5
12E
330
F8
100
AcDbEntity
  8
AM_9
100
AcDbLine
 10
-0.6731012913115461
 20
0.8732252753697045
 30
0.0
 11
-0.664000000001128
 21
0.8749999999997746
 31
0.0
  0
LINE
  5
12F
330
F8
100
AcDbEntity
  8
AM_9
100
AcDbLine
 10
-0.8499988759759374
 20
0.8573919612830061
 30
0.0
 11
-0.8348870793277269
 21
0.8573312755968118
 31
0.0
  0
LWPOLYLINE
  5
130
330
F8
100
AcDbEntity
  8
AM_9
100
AcDbPolyline
 90
       11
 70
     0
 43
0.0
 10
-0.664000000001128
 20
0.8749999999997746
 10
-0.665793494267661
 20
0.8746430664150988
 10
-0.6724352564930864
 20
0.8733520560344059
 10
-0.683364851050496
 20
0.8713336327656211
 10
-0.6988809026798988
 20
0.8686963574424611
 10
-0.7180515038112859
 20
0.8658109139588803
 10
-0.7412072259961374
 20
0.8628808878677117
 10
-0.7667245127332178
 20
0.8603625666308657
 10
-0.7951482415404427
 20
0.8584421801845454
 10
-0.8167067580413316
 20
0.8576112106526057
 10
-0.839
 20
0.8573214099741124
  0
LINE
  5
131
330
F8
100
AcDbEntity
  8
AM_9
100
AcDbLine
 10
1.14425
 20
-1.1645275
 30
0.0
 11
1.14425
 21
1.1645275
 31
0.0
  0
ARC
  5
132
330
F8
100
AcDbEntity
  8
AM_9
100
AcDbCircle
 10
1.0489375
 20
1.1645275
 30
0.0
 40
0.0953124999999999
100
AcDbArc
 50
0.0
 51
90.0
  0
ARC
  5
133
330
F8
100
AcDbEntity
  8
AM_9
100
AcDbCircle
 10
1.0489375
 20
-1.1645275
 30
0.0
 40
0.0953124999999999
100
AcDbArc
 50
270.0
 51
0.0
  0
LINE
  5
134
330
F8
100
AcDbEntity
  8
AM_9
100
AcDbLine
 10
-0.27175
 20
-1.1645275
 30
0.0
 11
-0.27175
 21
1.1645275
 31
0.0
  0
ARC
  5
135
330
F8
100
AcDbEntity
  8
AM_9
100
AcDbCircle
 10
-0.1764375000000004
 20
1.1645275
 30
0.0
 40
0.0953124999999997
100
AcDbArc
 50
90.0
 51
179.9999991462263
  0
ARC
  5
136
330
F8
100
AcDbEntity
  8
AM_9
100
AcDbCircle
 10
-0.1764375000000004
 20
-1.1645275
 30
0.0
 40
0.0953124999999996
100
AcDbArc
 50
180.0
 51
270.0
  0
LINE
  5
137
330
F8
100
AcDbEntity
  8
AM_9
100
AcDbLine
 10
-0.1764375000000003
 20
-1.25984
 30
0.0
 11
-0.1764375000000003
 21
1.25984
 31
0.0
  0
LINE
  5
138
330
F8
100
AcDbEntity
  8
AM_9
100
AcDbLine
 10
-0.0403125
 20
1.25984
 30
0.0
 11
-0.1764375000000003
 21
1.25984
 31
0.0
  0
LINE
  5
139
330
F8
100
AcDbEntity
  8
AM_9
100
AcDbLine
 10
-0.1764375000000003
 20
-1.25984
 30
0.0
 11
-0.0403125
 21
-1.25984
 31
0.0
  0
LINE
  5
13A
330
F8
100
AcDbEntity
  8
AM_9
100
AcDbLine
 10
1.0489375
 20
-1.25984
 30
0.0
 11
1.0489375
 21
1.25984
 31
0.0
  0
LINE
  5
13B
330
F8
100
AcDbEntity
  8
AM_9
100
AcDbLine
 10
1.0489375
 20
1.25984
 30
0.0
 11
0.9128124999999999
 21
1.25984
 31
0.0
  0
LINE
  5
13C
330
F8
100
AcDbEntity
  8
AM_9
100
AcDbLine
 10
0.9128124999999999
 20
-1.25984
 30
0.0
 11
1.0489375
 21
-1.25984
 31
0.0
  0
LINE
  5
13D
330
F8
100
AcDbEntity
  8
AM_9
100
AcDbLine
 10
0.4839062499999989
 20
1.511808
 30
0.0
 11
0.3885937500000012
 21
1.511808
 31
0.0
  0
LINE
  5
13E
330
F8
100
AcDbEntity
  8
AM_9
100
AcDbLine
 10
0.3885937500000012
 20
-1.511808
 30
0.0
 11
0.4839062499999989
 21
-1.511808
 31
0.0
  0
LINE
  5
13F
330
F8
100
AcDbEntity
  8
AM_9
100
AcDbLine
 10
0.9128124999999996
 20
-1.479487500000001
 30
0.0
 11
0.9128124999999996
 21
1.479487500000001
 31
0.0
  0
ARC
  5
140
330
F8
100
AcDbEntity
  8
AM_9
100
AcDbCircle
 10
0.8175000000000004
 20
1.479487500000001
 30
0.0
 40
0.0953124999999991
100
AcDbArc
 50
0.0
 51
90.0
  0
ARC
  5
141
330
F8
100
AcDbEntity
  8
AM_9
100
AcDbCircle
 10
0.8174999999997054
 20
-1.479487499999706
 30
0.0
 40
0.0953125000002941
100
AcDbArc
 50
270.0
 51
0.0000008537736463
  0
LINE
  5
142
330
F8
100
AcDbEntity
  8
AM_9
100
AcDbLine
 10
0.3885937500000012
 20
-1.511808
 30
0.0
 11
0.3885937500000012
 21
1.511808
 31
0.0
  0
LINE
  5
143
330
F8
100
AcDbEntity
  8
AM_9
100
AcDbLine
 10
0.3885937500000012
 20
1.511808
 30
0.0
 11
0.3522253018432082
 21
1.5748
 31
0.0
  0
LINE
  5
144
330
F8
100
AcDbEntity
  8
AM_9
100
AcDbLine
 10
0.3522253018432082
 20
-1.5748
 30
0.0
 11
0.3885937500000012
 21
-1.511808
 31
0.0
  0
LINE
  5
145
330
F8
100
AcDbEntity
  8
AM_9
100
AcDbLine
 10
0.4839062499999989
 20
-1.511808
 30
0.0
 11
0.4839062499999989
 21
1.511808
 31
0.0
  0
LINE
  5
146
330
F8
100
AcDbEntity
  8
AM_9
100
AcDbLine
 10
0.4839062499999989
 20
-1.511808
 30
0.0
 11
0.5202746981567918
 21
-1.5748
 31
0.0
  0
LINE
  5
147
330
F8
100
AcDbEntity
  8
AM_9
100
AcDbLine
 10
0.5202746981567918
 20
1.5748
 30
0.0
 11
0.4839062499999989
 21
1.511808
 31
0.0
  0
LINE
  5
148
330
F8
100
AcDbEntity
  8
AM_9
100
AcDbLine
 10
0.8175
 20
-1.5748
 30
0.0
 11
0.8175
 21
1.5748
 31
0.0
  0
LINE
  5
149
330
F8
100
AcDbEntity
  8
AM_9
100
AcDbLine
 10
0.5202746981567918
 20
-1.5748
 30
0.0
 11
0.5202746981567918
 21
1.5748
 31
0.0
  0
LINE
  5
14A
330
F8
100
AcDbEntity
  8
AM_9
100
AcDbLine
 10
0.8175
 20
1.5748
 30
0.0
 11
0.5202746981567918
 21
1.5748
 31
0.0
  0
LINE
  5
14B
330
F8
100
AcDbEntity
  8
AM_9
100
AcDbLine
 10
0.5202746981567918
 20
-1.5748
 30
0.0
 11
0.8175
 21
-1.5748
 31
0.0
  0
LINE
  5
14C
330
F8
100
AcDbEntity
  8
AM_9
100
AcDbLine
 10
-0.0403125
 20
-1.4794875
 30
0.0
 11
-0.0403125
 21
1.4794875
 31
0.0
  0
ARC
  5
14D
330
F8
100
AcDbEntity
  8
AM_9
100
AcDbCircle
 10
0.0549999999999999
 20
1.4794875
 30
0.0
 40
0.0953124999999999
100
AcDbArc
 50
90.0
 51
179.9999991462263
  0
ARC
  5
14E
330
F8
100
AcDbEntity
  8
AM_9
100
AcDbCircle
 10
0.0549999999999997
 20
-1.479487500000001
 30
0.0
 40
0.0953124999999997
100
AcDbArc
 50
180.0
 51
270.0
  0
LINE
  5
14F
330
F8
100
AcDbEntity
  8
AM_9
100
AcDbLine
 10
0.3522253018432082
 20
-1.5748
 30
0.0
 11
0.3522253018432082
 21
1.5748
 31
0.0
  0
LINE
  5
150
330
F8
100
AcDbEntity
  8
AM_9
100
AcDbLine
 10
0.0549999999999997
 20
-1.5748
 30
0.0
 11
0.0549999999999997
 21
1.5748
 31
0.0
  0
LINE
  5
151
330
F8
100
AcDbEntity
  8
AM_9
100
AcDbLine
 10
0.3522253018432082
 20
1.5748
 30
0.0
 11
0.0549999999999997
 21
1.5748
 31
0.0
  0
LINE
  5
152
330
F8
100
AcDbEntity
  8
AM_9
100
AcDbLine
 10
0.0549999999999997
 20
-1.5748
 30
0.0
 11
0.3522253018432082
 21
-1.5748
 31
0.0
  0
LINE
  5
155
330
F8
100
AcDbEntity
  8
AM_7
100
AcDbLine
 10
1.5328125
 20
0.0
 30
0.0
 11
-1.2515625
 21
0.0
 31
0.0
  0
LINE
  5
156
330
F8
100
AcDbEntity
  8
AM_7
100
AcDbLine
 10
-0.839
 20
-0.0448717948717949
 30
0.0
 11
-0.839
 21
1.401041666666667
 31
0.0
  0
LINE
  5
157
330
F8
100
AcDbEntity
  8
AM_4
100
AcDbLine
 10
1.40625
 20
-0.8749999999999998
 30
0.0
 11
1.40625
 21
0.8749999999999998
 31
0.0
  0
LINE
  5
158
330
F8
100
AcDbEntity
  8
AM_4
100
AcDbLine
 10
1.40625
 20
0.8749999999999998
 30
0.0
 11
1.21875
 21
0.8749999999999998
 31
0.0
  0
LINE
  5
159
330
F8
100
AcDbEntity
  8
AM_4
100
AcDbLine
 10
1.21875
 20
-0.8749999999999998
 30
0.0
 11
1.40625
 21
-0.8749999999999998
 31
0.0
  0
ENDBLK
  5
FB
330
F8
100
AcDbEntity
  8
0
100
AcDbBlockEnd
  0
BLOCK
  5
15C
330
15A
100
AcDbEntity
  8
0
100
AcDbBlockBegin
  2
5_405015E_Inch_0_in_070725_2
 70
     2
 10
0.0
 20
0.0
 30
0.0
  3
5_405015E_Inch_0_in_070725_2
  1

  0
ATTDEF
  5
15E
330
15A
100
AcDbEntity
  8
AM_6
100
AcDbText
 10
4.767720581598533
 20
2.166421671481428
 30
0.0
 40
0.5
  1
405015E -Inch
100
AcDbAttributeDefinition
  3

  2
NN
 70
     8
280
     0
  0
ATTDEF
  5
15F
330
15A
100
AcDbEntity
  8
AM_6
100
AcDbText
 10
4.767720581598533
 20
1.666421671481428
 30
0.0
 40
0.5
  1
Grease Fitting
100
AcDbAttributeDefinition
  3

  2
NT
 70
     8
280
     0
  0
ATTDEF
  5
160
330
15A
100
AcDbEntity
  8
AM_6
100
AcDbText
 10
4.767720581598533
 20
1.166421671481428
 30
0.0
 40
0.5
  1
405015E-Inch
100
AcDbAttributeDefinition
  3

  2
NB
 70
     8
280
     0
  0
ATTDEF
  5
161
330
15A
100
AcDbEntity
  8
AM_6
100
AcDbText
 10
4.767720581598533
 20
0.6664216714814275
 30
0.0
 40
0.5
  1
$MN.-Inch
100
AcDbAttributeDefinition
  3

  2
NBSYN
 70
     8
280
     0
  0
ATTDEF
  5
162
330
15A
100
AcDbEntity
  8
AM_6
100
AcDbText
 10
4.767720581598533
 20
0.1664216714814275
 30
0.0
 40
0.5
  1
405015E
100
AcDbAttributeDefinition
  3

  2
LINA
 70
     8
280
     0
  0
ATTDEF
  5
163
330
15A
100
AcDbEntity
  8
AM_6
100
AcDbText
 10
4.767720581598533
 20
-0.3335783285185725
 30
0.0
 40
0.5
  1
405015E
100
AcDbAttributeDefinition
  3

  2
MN
 70
     8
280
     0
  0
ATTDEF
  5
164
330
15A
100
AcDbEntity
  8
AM_6
100
AcDbText
 10
4.767720581598533
 20
-0.8335783285185725
 30
0.0
 40
0.5
  1
1/8 x 27PTF
100
AcDbAttributeDefinition
  3

  2
T
 70
     8
280
     0
  0
ATTDEF
  5
165
330
15A
100
AcDbEntity
  8
AM_6
100
AcDbText
 10
4.767720581598533
 20
-1.333578328518572
 30
0.0
 40
0.5
  1
baldor
100
AcDbAttributeDefinition
  3

  2
COMPANY
 70
     8
280
     0
  0
LINE
  5
166
330
15A
100
AcDbEntity
  8
AM_9
100
AcDbLine
 10
-0.5000000000000001
 20
1.964006350946109
 30
0.0
 11
-0.433352586640478
 21
2.079443057077845
 31
0.0
  0
LINE
  5
167
330
15A
100
AcDbEntity
  8
AM_9
100
AcDbLine
 10
-0.433352586640478
 20
2.079443057077845
 30
0.0
 11
-0.5000000000000001
 21
2.117921959121758
 31
0.0
  0
LINE
  5
168
330
15A
100
AcDbEntity
  8
AM_9
100
AcDbLine
 10
-0.3941822908737364
 20
1.617287999493343
 30
0.0
 11
-0.2322794184014673
 21
1.897712000506657
 31
0.0
  0
LINE
  5
169
330
15A
100
AcDbEntity
  8
AM_9
100
AcDbLine
 10
-0.2322794184014673
 20
1.897712000506657
 30
0.0
 11
-0.245717951172246
 21
1.947865287586382
 31
0.0
  0
LINE
  5
16A
330
15A
100
AcDbEntity
  8
AM_9
100
AcDbLine
 10
-0.4443355779534614
 20
1.603849466722564
 30
0.0
 11
-0.3941822908737364
 21
1.617287999493343
 31
0.0
  0
LINE
  5
16B
330
15A
100
AcDbEntity
  8
AM_9
100
AcDbLine
 10
-0.4443355779534614
 20
1.603849466722564
 30
0.0
 11
-0.245717951172246
 21
1.947865287586382
 31
0.0
  0
LINE
  5
16C
330
15A
100
AcDbEntity
  8
AM_9
100
AcDbLine
 10
-0.245717951172246
 20
1.947865287586382
 30
0.0
 11
-0.4398516380289433
 21
2.068186369872023
 31
0.0
  0
LINE
  5
16D
330
15A
100
AcDbEntity
  8
AM_9
100
AcDbLine
 10
-0.625
 20
1.700761481159337
 30
0.0
 11
-0.4443355779534614
 21
1.603849466722564
 31
0.0
  0
LWPOLYLINE
  5
16E
330
15A
100
AcDbEntity
  8
AM_9
100
AcDbPolyline
 90
        3
 70
     0
 43
0.0
 10
-0.4412053583290943
 20
2.083976856926153
 10
-0.4626644317219951
 20
2.03350250203231
 10
-0.4880400866404782
 20
1.984721528538923
  0
LINE
  5
16F
330
15A
100
AcDbEntity
  8
AM_9
100
AcDbLine
 10
-0.4880400866404782
 20
1.984721528538923
 30
0.0
 11
-0.4995139090380922
 21
1.965654047042466
 31
0.0
  0
LINE
  5
170
330
15A
100
AcDbEntity
  8
AM_5
100
AcDbLine
 10
-0.5703979905105697
 20
1.711813630127977
 30
0.0
 11
-0.3941822908737364
 21
1.617287999493343
 31
0.0
  0
LINE
  5
171
330
15A
100
AcDbEntity
  8
AM_5
100
AcDbLine
 10
-0.6109625191006355
 20
1.711813630127977
 30
0.0
 11
-0.5703979905105697
 21
1.711813630127977
 31
0.0
  0
LINE
  5
172
330
15A
100
AcDbEntity
  8
AM_5
100
AcDbLine
 10
-0.4022488656582218
 20
2.003056457620486
 30
0.0
 11
-0.2322794184014673
 21
1.897712000506657
 31
0.0
  0
LINE
  5
173
330
15A
100
AcDbEntity
  8
AM_5
100
AcDbLine
 10
-0.4398516380289441
 20
2.068186369872024
 30
0.0
 11
-0.4022488656582218
 21
2.003056457620486
 31
0.0
  0
LINE
  5
174
330
15A
100
AcDbEntity
  8
AM_5
100
AcDbLine
 10
-0.5881816709601742
 20
1.681011392043692
 30
0.0
 11
-0.3844651852086172
 21
2.03385869570477
 31
0.0
  0
LINE
  5
175
330
15A
100
AcDbEntity
  8
AM_7
100
AcDbLine
 10
-0.8951999259807445
 20
2.0935
 30
0.0
 11
-0.2855180417164999
 21
1.7415
 31
0.0
  0
LINE
  5
176
330
15A
100
AcDbEntity
  8
AM_4
100
AcDbLine
 10
-0.6677627944162879
 20
2.083432667397366
 30
0.0
 11
-0.6937435565298212
 21
2.098432667397366
 31
0.0
  0
LINE
  5
177
330
15A
100
AcDbEntity
  8
AM_4
100
AcDbLine
 10
-0.7987435565298212
 20
1.916567332602634
 30
0.0
 11
-0.7727627944162879
 21
1.901567332602634
 31
0.0
  0
LINE
  5
178
330
15A
100
AcDbEntity
  8
AM_4
100
AcDbLine
 10
-0.7727627944162879
 20
1.901567332602634
 30
0.0
 11
-0.6677627944162879
 21
2.083432667397366
 31
0.0
  0
LINE
  5
179
330
15A
100
AcDbEntity
  8
AM_4
100
AcDbLine
 10
-0.7727627944162879
 20
1.901567332602634
 30
0.0
 11
-0.7517462239126733
 21
1.873475343752893
 31
0.0
  0
LINE
  5
17A
330
15A
100
AcDbEntity
  8
AM_4
100
AcDbLine
 10
-0.6329261331777758
 20
2.079277777865679
 30
0.0
 11
-0.6677627944162879
 21
2.083432667397366
 31
0.0
  0
LINE
  5
17B
330
15A
100
AcDbEntity
  8
AM_4
100
AcDbLine
 10
-0.7987435565298212
 20
1.916567332602634
 30
0.0
 11
-0.6937435565298212
 21
2.098432667397366
 31
0.0
  0
LINE
  5
17C
330
15A
100
AcDbEntity
  8
AM_4
100
AcDbLine
 10
-0.6937435565298212
 20
2.098432667397366
 30
0.0
 11
-0.7307050807568874
 21
2.154413429510899
 31
0.0
  0
LINE
  5
17D
330
15A
100
AcDbEntity
  8
AM_4
100
AcDbLine
 10
-0.8657050807568875
 20
1.920586570489101
 30
0.0
 11
-0.7987435565298212
 21
1.916567332602634
 31
0.0
  0
LINE
  5
17E
330
15A
100
AcDbEntity
  8
AM_4
100
AcDbLine
 10
-0.9188260640262365
 20
1.988578328518572
 30
0.0
 11
-0.8161481620930489
 21
2.166421671481428
 31
0.0
  0
LINE
  5
17F
330
15A
100
AcDbEntity
  8
AM_4
100
AcDbLine
 10
-0.8657050807568875
 20
1.920586570489101
 30
0.0
 11
-0.7307050807568874
 21
2.154413429510899
 31
0.0
  0
LINE
  5
180
330
15A
100
AcDbEntity
  8
AM_4
100
AcDbLine
 10
-0.9188260640262365
 20
1.988578328518572
 30
0.0
 11
-0.8657050807568875
 21
1.920586570489101
 31
0.0
  0
LINE
  5
181
330
15A
100
AcDbEntity
  8
AM_4
100
AcDbLine
 10
-0.7307050807568874
 20
2.154413429510899
 30
0.0
 11
-0.8161481620930489
 21
2.166421671481428
 31
0.0
  0
LINE
  5
182
330
15A
100
AcDbEntity
  8
AM_4
100
AcDbLine
 10
-0.7517462239126733
 20
1.873475343752893
 30
0.0
 11
-0.6329261331777758
 21
2.079277777865679
 31
0.0
  0
LINE
  5
183
330
15A
100
AcDbEntity
  8
AM_4
100
AcDbLine
 10
-0.7517462239126733
 20
1.873475343752893
 30
0.0
 11
-0.7314611789484007
 21
1.799740226109452
 31
0.0
  0
LINE
  5
184
330
15A
100
AcDbEntity
  8
AM_4
100
AcDbLine
 10
-0.5589271256653852
 20
2.09857797243143
 30
0.0
 11
-0.6329261331777758
 21
2.079277777865679
 31
0.0
  0
LINE
  5
185
330
15A
100
AcDbEntity
  8
AM_4
100
AcDbLine
 10
-0.5000000000000001
 20
2.117921959121758
 30
0.0
 11
-0.5199551270189219
 21
2.129443057077846
 31
0.0
  0
LINE
  5
186
330
15A
100
AcDbEntity
  8
AM_4
100
AcDbLine
 10
-0.738705127018922
 20
1.750556942922154
 30
0.0
 11
-0.5199551270189219
 21
2.129443057077846
 31
0.0
  0
LINE
  5
187
330
15A
100
AcDbEntity
  8
AM_4
100
AcDbLine
 10
-0.6521025866404782
 20
1.700556942922154
 30
0.0
 11
-0.5000000000000001
 21
1.964006350946109
 31
0.0
  0
LINE
  5
188
330
15A
100
AcDbEntity
  8
AM_4
100
AcDbLine
 10
-0.738705127018922
 20
1.750556942922154
 30
0.0
 11
-0.6521025866404782
 21
1.700556942922154
 31
0.0
  0
LINE
  5
189
330
15A
100
AcDbEntity
  8
AM_4
100
AcDbLine
 10
-0.6456035352520129
 20
1.711813630127977
 30
0.0
 11
-0.625
 21
1.700761481159337
 31
0.0
  0
LINE
  5
18A
330
15A
100
AcDbEntity
  8
AM_4
100
AcDbLine
 10
-0.7314611789484007
 20
1.799740226109452
 30
0.0
 11
-0.5589271256653852
 21
2.09857797243143
 31
0.0
  0
LINE
  5
18B
330
15A
100
AcDbEntity
  8
AM_4
100
AcDbLine
 10
-0.7314611789484007
 20
1.799740226109452
 30
0.0
 11
-0.7362051270189219
 21
1.754887069941076
 31
0.0
  0
LINE
  5
18C
330
15A
100
AcDbEntity
  8
AM_4
100
AcDbLine
 10
-0.5224551270189219
 20
2.125112930058923
 30
0.0
 11
-0.5589271256653852
 21
2.09857797243143
 31
0.0
  0
LWPOLYLINE
  5
18D
330
15A
100
AcDbEntity
  8
AM_4
100
AcDbPolyline
 90
        3
 70
     0
 43
0.0
 10
-0.574642627018922
 20
2.034721528538923
 10
-0.5452261484581524
 20
2.080885602415867
 10
-0.5121023553303058
 20
2.124909257229538
  0
LWPOLYLINE
  5
18E
330
15A
100
AcDbEntity
  8
AM_4
100
AcDbPolyline
 90
        3
 70
     0
 43
0.0
 10
-0.6214773553303058
 20
1.935466200151692
 10
-0.6000182819374049
 20
1.985940555045535
 10
-0.574642627018922
 20
2.034721528538923
  0
LINE
  5
18F
330
15A
100
AcDbEntity
  8
AM_4
100
AcDbLine
 10
-0.6214773553303058
 20
1.935466200151692
 30
0.0
 11
-0.5505803583290942
 21
1.894533799848307
 31
0.0
  0
LWPOLYLINE
  5
190
330
15A
100
AcDbEntity
  8
AM_4
100
AcDbPolyline
 90
        3
 70
     0
 43
0.0
 10
-0.6840176270189219
 20
1.845278471461077
 10
-0.6546011484581523
 20
1.891442545338021
 10
-0.6214773553303058
 20
1.935466200151692
  0
LWPOLYLINE
  5
191
330
15A
100
AcDbEntity
  8
AM_4
100
AcDbPolyline
 90
        3
 70
     0
 43
0.0
 10
-0.7308523553303057
 20
1.746023143073847
 10
-0.7093932819374049
 20
1.796497497967689
 10
-0.6840176270189219
 20
1.845278471461077
  0
LWPOLYLINE
  5
192
330
15A
100
AcDbEntity
  8
AM_4
100
AcDbPolyline
 90
        3
 70
     0
 43
0.0
 10
-0.5974150866404782
 20
1.795278471461077
 10
-0.6268315652012476
 20
1.749114397584133
 10
-0.6599553583290944
 20
1.705090742770461
  0
LWPOLYLINE
  5
193
330
15A
100
AcDbEntity
  8
AM_4
100
AcDbPolyline
 90
        3
 70
     0
 43
0.0
 10
-0.4995139090380922
 20
1.965654047042466
 10
-0.5174565652012476
 20
1.938557454661979
 10
-0.5505803583290942
 20
1.894533799848307
  0
LWPOLYLINE
  5
194
330
15A
100
AcDbEntity
  8
AM_4
100
AcDbPolyline
 90
        3
 70
     0
 43
0.0
 10
-0.5505803583290942
 20
1.894533799848307
 10
-0.5720394317219951
 20
1.844059444954464
 10
-0.5974150866404782
 20
1.795278471461077
  0
ENDBLK
  5
15D
330
15A
100
AcDbEntity
  8
0
100
AcDbBlockEnd
  0
BLOCK
  5
197
330
195
100
AcDbEntity
  8
0
100
AcDbBlockBegin
  2
6_070725H_0_in_070725_2
 70
     2
 10
0.0
 20
0.0
 30
0.0
  3
6_070725H_0_in_070725_2
  1

  0
ATTDEF
  5
199
330
195
100
AcDbEntity
  8
AM_6
100
AcDbText
 10
6.21875
 20
2.625
 30
0.0
 40
0.5
  1
FC-S2 -(Labyrinth Seal)-Housing
100
AcDbAttributeDefinition
  3

  2
NN
 70
     8
280
     0
  0
ATTDEF
  5
19A
330
195
100
AcDbEntity
  8
AM_6
100
AcDbText
 10
6.21875
 20
2.125
 30
0.0
 40
0.5
  1
S-2000 Piloted Flange Bearing -Inch
100
AcDbAttributeDefinition
  3

  2
NT
 70
     8
280
     0
  0
ATTDEF
  5
19B
330
195
100
AcDbEntity
  8
AM_6
100
AcDbText
 10
6.21875
 20
1.625
 30
0.0
 40
0.5
  1
070725H
100
AcDbAttributeDefinition
  3

  2
NB
 70
     8
280
     0
  0
ATTDEF
  5
19C
330
195
100
AcDbEntity
  8
AM_6
100
AcDbText
 10
6.21875
 20
1.125
 30
0.0
 40
0.5
  1
$PN.H
100
AcDbAttributeDefinition
  3

  2
NBSYN
 70
     8
280
     0
  0
ATTDEF
  5
19D
330
195
100
AcDbEntity
  8
AM_6
100
AcDbText
 10
6.21875
 20
0.625
 30
0.0
 40
0.5
  1
070725
100
AcDbAttributeDefinition
  3

  2
LINA
 70
     8
280
     0
  0
ATTDEF
  5
19E
330
195
100
AcDbEntity
  8
AM_6
100
AcDbText
 10
6.21875
 20
0.125
 30
0.0
 40
0.5
  1
1-3/8
100
AcDbAttributeDefinition
  3

  2
SS
 70
     8
280
     0
  0
ATTDEF
  5
19F
330
195
100
AcDbEntity
  8
AM_6
100
AcDbText
 10
6.21875
 20
-0.375
 30
0.0
 40
0.5
  1
070725
100
AcDbAttributeDefinition
  3

  2
PN
 70
     8
280
     0
  0
ATTDEF
  5
1A0
330
195
100
AcDbEntity
  8
AM_6
100
AcDbText
 10
6.21875
 20
-0.875
 30
0.0
 40
0.5
  1
FC-S2-106LE
100
AcDbAttributeDefinition
  3

  2
DESCRIPTION
 70
     8
280
     0
  0
ATTDEF
  5
1A1
330
195
100
AcDbEntity
  8
AM_6
100
AcDbText
 10
6.21875
 20
-1.375
 30
0.0
 40
0.5
  1
Expansion Type
100
AcDbAttributeDefinition
  3

  2
EF
 70
     8
280
     0
  0
ATTDEF
  5
1A2
330
195
100
AcDbEntity
  8
AM_6
100
AcDbText
 10
6.21875
 20
-1.875
 30
0.0
 40
0.5
  1
2-17/32
100
AcDbAttributeDefinition
  3

  2
A
 70
     8
280
     0
  0
ATTDEF
  5
1A3
330
195
100
AcDbEntity
  8
AM_6
100
AcDbText
 10
6.21875
 20
-2.375
 30
0.0
 40
0.5
  1
5-1/4
100
AcDbAttributeDefinition
  3

  2
B
 70
     8
280
     0
  0
ATTDEF
  5
1A4
330
195
100
AcDbEntity
  8
AM_6
100
AcDbText
 10
6.21875
 20
-2.875
 30
0.0
 40
0.5
  1
1-27/32
100
AcDbAttributeDefinition
  3

  2
C
 70
     8
280
     0
  0
ATTDEF
  5
1A5
330
195
100
AcDbEntity
  8
AM_6
100
AcDbText
 10
6.21875
 20
-3.375
 30
0.0
 40
0.5
  1
4-3/8
100
AcDbAttributeDefinition
  3

  2
DD
 70
     8
280
     0
  0
ATTDEF
  5
1A6
330
195
100
AcDbEntity
  8
AM_6
100
AcDbText
 10
6.21875
 20
-3.875
 30
0.0
 40
0.5
  1
3/4
100
AcDbAttributeDefinition
  3

  2
E
 70
     8
280
     0
  0
ATTDEF
  5
1A7
330
195
100
AcDbEntity
  8
AM_6
100
AcDbText
 10
6.21875
 20
-4.375
 30
0.0
 40
0.5
  1
3/8
100
AcDbAttributeDefinition
  3

  2
F
 70
     8
280
     0
  0
ATTDEF
  5
1A8
330
195
100
AcDbEntity
  8
AM_6
100
AcDbText
 10
6.21875
 20
-4.875
 30
0.0
 40
0.5
  1
1-5/16
100
AcDbAttributeDefinition
  3

  2
G
 70
     8
280
     0
  0
ATTDEF
  5
1A9
330
195
100
AcDbEntity
  8
AM_6
100
AcDbText
 10
6.21875
 20
-5.375
 30
0.0
 40
0.5
  1
1/2
100
AcDbAttributeDefinition
  3

  2
H
 70
     8
280
     0
  0
ATTDEF
  5
1AA
330
195
100
AcDbEntity
  8
AM_6
100
AcDbText
 10
6.21875
 20
-5.875
 30
0.0
 40
0.5
  1
3.625
100
AcDbAttributeDefinition
  3

  2
K
 70
     8
280
     0
  0
ATTDEF
  5
1AB
330
195
100
AcDbEntity
  8
AM_6
100
AcDbText
 10
6.21875
 20
-6.375
 30
0.0
 40
0.5
  1
2-3/4
100
AcDbAttributeDefinition
  3

  2
L
 70
     8
280
     0
  0
ATTDEF
  5
1AC
330
195
100
AcDbEntity
  8
AM_6
100
AcDbText
 10
6.21875
 20
-6.875
 30
0.0
 40
0.5
  1
3/8-16
100
AcDbAttributeDefinition
  3

  2
M
 70
     8
280
     0
  0
ATTDEF
  5
1AD
330
195
100
AcDbEntity
  8
AM_6
100
AcDbText
 10
6.21875
 20
-7.375
 30
0.0
 40
0.5
  1
0.3750
100
AcDbAttributeDefinition
  3

  2
MNDM
 70
     8
280
     0
  0
ATTDEF
  5
1AE
330
195
100
AcDbEntity
  8
AM_6
100
AcDbText
 10
6.21875
 20
-7.875
 30
0.0
 40
0.5
  1
0.3299
100
AcDbAttributeDefinition
  3

  2
MKDM
 70
     8
280
     0
  0
ATTDEF
  5
1AF
330
195
100
AcDbEntity
  8
AM_6
100
AcDbText
 10
6.21875
 20
-8.375
 30
0.0
 40
0.5
  1
2-17/32
100
AcDbAttributeDefinition
  3

  2
N
 70
     8
280
     0
  0
ATTDEF
  5
1B0
330
195
100
AcDbEntity
  8
AM_6
100
AcDbText
 10
6.21875
 20
-8.875
 30
0.0
 40
0.5
  1
2.531250
100
AcDbAttributeDefinition
  3

  2
N1
 70
     8
280
     0
  0
ATTDEF
  5
1B1
330
195
100
AcDbEntity
  8
AM_6
100
AcDbText
 10
6.21875
 20
-9.375
 30
0.0
 40
0.5
  1
1-7/32
100
AcDbAttributeDefinition
  3

  2
P
 70
     8
280
     0
  0
ATTDEF
  5
1B2
330
195
100
AcDbEntity
  8
AM_6
100
AcDbText
 10
6.21875
 20
-9.875
 30
0.0
 40
0.5
  1
1-7/32
100
AcDbAttributeDefinition
  3

  2
Q
 70
     8
280
     0
  0
ATTDEF
  5
1B3
330
195
100
AcDbEntity
  8
AM_6
100
AcDbText
 10
6.21875
 20
-10.375
 30
0.0
 40
0.5
  1
1.218750
100
AcDbAttributeDefinition
  3

  2
Q1
 70
     8
280
     0
  0
ATTDEF
  5
1B4
330
195
100
AcDbEntity
  8
AM_6
100
AcDbText
 10
6.21875
 20
-10.875
 30
0.0
 40
0.5
  1
3/16
100
AcDbAttributeDefinition
  3

  2
X
 70
     8
280
     0
  0
ATTDEF
  5
1B5
330
195
100
AcDbEntity
  8
AM_6
100
AcDbText
 10
6.21875
 20
-11.375
 30
0.0
 40
0.5
  1
0.020
100
AcDbAttributeDefinition
  3

  2
Y
 70
     8
280
     0
  0
ATTDEF
  5
1B6
330
195
100
AcDbEntity
  8
AM_6
100
AcDbText
 10
6.21875
 20
-11.875
 30
0.0
 40
0.5
  1
1-51/64
100
AcDbAttributeDefinition
  3

  2
Z
 70
     8
280
     0
  0
ATTDEF
  5
1B7
330
195
100
AcDbEntity
  8
AM_6
100
AcDbText
 10
6.21875
 20
-12.375
 30
0.0
 40
0.5
  1
baldor
100
AcDbAttributeDefinition
  3

  2
COMPANY
 70
     8
280
     0
  0
LINE
  5
1B8
330
195
100
AcDbEntity
  8
AM_9
100
AcDbLine
 10
-0.0000000000000001
 20
-2.509999999999994
 30
0.0
 11
-0.4500000000000001
 21
-2.509999999999994
 31
0.0
  0
LINE
  5
1B9
330
195
100
AcDbEntity
  8
AM_9
100
AcDbLine
 10
-0.625
 20
1.6875
 30
0.0
 11
-0.5934362705430508
 21
1.742169983095794
 31
0.0
  0
LINE
  5
1BA
330
195
100
AcDbEntity
  8
AM_9
100
AcDbLine
 10
-0.4500000000000001
 20
1.990608891324553
 30
0.0
 11
-0.5
 21
1.904006350946109
 31
0.0
  0
LINE
  5
1BB
330
195
100
AcDbEntity
  8
AM_9
100
AcDbLine
 10
-0.4500000000000001
 20
-1.689670124698043
 30
0.0
 11
-0.5000000000000001
 21
-1.689670124698043
 31
0.0
  0
LINE
  5
1BC
330
195
100
AcDbEntity
  8
AM_9
100
AcDbLine
 10
-0.4500000000000001
 20
-1.655761133002229
 30
0.0
 11
-0.5000000000000001
 21
-1.655761133002229
 31
0.0
  0
LINE
  5
1BD
330
195
100
AcDbEntity
  8
AM_9
100
AcDbLine
 10
-0.4500000000000001
 20
1.689670124698043
 30
0.0
 11
-0.5000000000000001
 21
1.689670124698043
 31
0.0
  0
LINE
  5
1BE
330
195
100
AcDbEntity
  8
AM_9
100
AcDbLine
 10
-0.5000000000000001
 20
1.655761133002229
 30
0.0
 11
-0.4500000000000001
 21
1.655761133002229
 31
0.0
  0
LINE
  5
1BF
330
195
100
AcDbEntity
  8
AM_9
100
AcDbLine
 10
-0.4500000000000001
 20
1.742169983095794
 30
0.0
 11
-0.5
 21
1.742169983095794
 31
0.0
  0
LINE
  5
1C0
330
195
100
AcDbEntity
  8
AM_9
100
AcDbLine
 10
-0.4500000000000001
 20
1.67045540178327
 30
0.0
 11
-0.5000000000000001
 21
1.67045540178327
 31
0.0
  0
LINE
  5
1C1
330
195
100
AcDbEntity
  8
AM_9
100
AcDbLine
 10
-0.4500000000000001
 20
-1.67045540178327
 30
0.0
 11
-0.5000000000000001
 21
-1.67045540178327
 31
0.0
  0
LINE
  5
1C2
330
195
100
AcDbEntity
  8
AM_9
100
AcDbLine
 10
-0.5
 20
-1.8125
 30
0.0
 11
-0.4500000000000001
 21
-1.8125
 31
0.0
  0
LINE
  5
1C3
330
195
100
AcDbEntity
  8
AM_9
100
AcDbLine
 10
-0.4500000000000001
 20
2.137665643454645
 30
0.0
 11
-0.4500000000000001
 21
1.655761133002229
 31
0.0
  0
LINE
  5
1C4
330
195
100
AcDbEntity
  8
AM_9
100
AcDbLine
 10
-0.4500000000000001
 20
-1.655761133002229
 30
0.0
 11
-0.4500000000000001
 21
-2.137665643454645
 31
0.0
  0
LINE
  5
1C5
330
195
100
AcDbEntity
  8
AM_9
100
AcDbLine
 10
-0.4220394736842106
 20
-1.5748
 30
0.0
 11
1.21875
 21
-1.5748
 31
0.0
  0
LINE
  5
1C6
330
195
100
AcDbEntity
  8
AM_9
100
AcDbLine
 10
1.21875
 20
1.5748
 30
0.0
 11
-0.4220394736842106
 21
1.5748
 31
0.0
  0
LINE
  5
1C7
330
195
100
AcDbEntity
  8
AM_9
100
AcDbLine
 10
-0.4220394736842106
 20
1.5748
 30
0.0
 11
-0.625
 21
1.64867159030995
 31
0.0
  0
LINE
  5
1C8
330
195
100
AcDbEntity
  8
AM_9
100
AcDbLine
 10
-0.625
 20
-1.64867159030995
 30
0.0
 11
-0.4220394736842106
 21
-1.5748
 31
0.0
  0
LINE
  5
1C9
330
195
100
AcDbEntity
  8
AM_9
100
AcDbLine
 10
-0.4220394736842106
 20
1.5748
 30
0.0
 11
-0.4220394736842106
 21
-1.5748
 31
0.0
  0
LINE
  5
1CA
330
195
100
AcDbEntity
  8
AM_9
100
AcDbLine
 10
0.0
 20
1.734296083845573
 30
0.0
 11
-0.5000000000000001
 21
1.734296083845573
 31
0.0
  0
LINE
  5
1CB
330
195
100
AcDbEntity
  8
AM_9
100
AcDbLine
 10
-0.5000000000000001
 20
1.359296083845573
 30
0.0
 11
0.0
 21
1.359296083845573
 31
0.0
  0
LINE
  5
1CC
330
195
100
AcDbEntity
  8
AM_9
100
AcDbLine
 10
0.0
 20
-1.359296083845573
 30
0.0
 11
-0.5000000000000001
 21
-1.359296083845573
 31
0.0
  0
LINE
  5
1CD
330
195
100
AcDbEntity
  8
AM_9
100
AcDbLine
 10
-0.5000000000000001
 20
-1.734296083845573
 30
0.0
 11
0.0
 21
-1.734296083845573
 31
0.0
  0
LINE
  5
1CE
330
195
100
AcDbEntity
  8
AM_9
100
AcDbLine
 10
-0.02255
 20
0.1649500000000001
 30
0.0
 11
-0.4274500000000001
 21
0.1649500000000001
 31
0.0
  0
LINE
  5
1CF
330
195
100
AcDbEntity
  8
AM_9
100
AcDbLine
 10
-0.4274500000000001
 20
-0.1649500000000001
 30
0.0
 11
-0.02255
 21
-0.1649500000000001
 31
0.0
  0
LINE
  5
1D0
330
195
100
AcDbEntity
  8
AM_9
100
AcDbLine
 10
-0.02255
 20
-0.1649500000000001
 30
0.0
 11
-0.02255
 21
0.1649500000000001
 31
0.0
  0
LINE
  5
1D1
330
195
100
AcDbEntity
  8
AM_9
100
AcDbLine
 10
-0.02255
 20
-0.1649500000000001
 30
0.0
 11
0.0000000000000001
 21
-0.1874999999999998
 31
0.0
  0
LINE
  5
1D2
330
195
100
AcDbEntity
  8
AM_9
100
AcDbLine
 10
0.0000000000000001
 20
0.1874999999999998
 30
0.0
 11
-0.02255
 21
0.1649500000000001
 31
0.0
  0
LINE
  5
1D3
330
195
100
AcDbEntity
  8
AM_9
100
AcDbLine
 10
-0.4274500000000001
 20
-0.1649500000000001
 30
0.0
 11
-0.4274500000000001
 21
0.1649500000000001
 31
0.0
  0
LINE
  5
1D4
330
195
100
AcDbEntity
  8
AM_9
100
AcDbLine
 10
-0.4274500000000001
 20
0.1649500000000001
 30
0.0
 11
-0.4500000000000001
 21
0.1874999999999998
 31
0.0
  0
LINE
  5
1D5
330
195
100
AcDbEntity
  8
AM_9
100
AcDbLine
 10
-0.4500000000000001
 20
-0.1874999999999998
 30
0.0
 11
-0.4274500000000001
 21
-0.1649500000000001
 31
0.0
  0
LINE
  5
1D6
330
195
100
AcDbEntity
  8
AM_5
100
AcDbLine
 10
-0.0000000000000003
 20
-0.1874999999999998
 30
0.0
 11
-0.4500000000000001
 21
-0.1874999999999998
 31
0.0
  0
LINE
  5
1D7
330
195
100
AcDbEntity
  8
AM_5
100
AcDbLine
 10
0.0000000000000001
 20
0.1875000000000001
 30
0.0
 11
-0.4500000000000001
 21
0.1875000000000001
 31
0.0
  0
LINE
  5
1D8
330
195
100
AcDbEntity
  8
AM_7
100
AcDbLine
 10
-0.5250000000000002
 20
1.546796083845573
 30
0.0
 11
0.0249999999999998
 21
1.546796083845573
 31
0.0
  0
LINE
  5
1D9
330
195
100
AcDbEntity
  8
AM_7
100
AcDbLine
 10
-0.5250000000000002
 20
-1.546796083845573
 30
0.0
 11
0.0249999999999998
 21
-1.546796083845573
 31
0.0
  0
LINE
  5
1DA
330
195
100
AcDbEntity
  8
AM_4
100
AcDbLine
 10
-0.5
 20
1.904006350946109
 30
0.0
 11
-0.5934362705430508
 21
1.742169983095794
 31
0.0
  0
LINE
  5
1DB
330
195
100
AcDbEntity
  8
AM_4
100
AcDbLine
 10
-0.5
 20
1.742169983095794
 30
0.0
 11
-0.625
 21
1.742169983095794
 31
0.0
  0
LINE
  5
1DC
330
195
100
AcDbEntity
  8
AM_4
100
AcDbLine
 10
-0.625
 20
-1.8125
 30
0.0
 11
-0.5
 21
-1.8125
 31
0.0
  0
LINE
  5
1DD
330
195
100
AcDbEntity
  8
AM_4
100
AcDbLine
 10
-0.625
 20
-1.8125
 30
0.0
 11
-0.625
 21
1.742169983095794
 31
0.0
  0
LINE
  5
1DE
330
195
100
AcDbEntity
  8
AM_4
100
AcDbLine
 10
-0.625
 20
1.464582532621103
 30
0.0
 11
-0.5000000000000001
 21
1.464582532621103
 31
0.0
  0
LINE
  5
1DF
330
195
100
AcDbEntity
  8
AM_4
100
AcDbLine
 10
-0.625
 20
-1.464582532621103
 30
0.0
 11
-0.5000000000000001
 21
-1.464582532621103
 31
0.0
  0
LINE
  5
1E0
330
195
100
AcDbEntity
  8
AM_4
100
AcDbLine
 10
1.21875
 20
-1.726190476190476
 30
0.0
 11
1.21875
 21
1.726190476190476
 31
0.0
  0
LINE
  5
1E1
330
195
100
AcDbEntity
  8
AM_4
100
AcDbLine
 10
0.7499999999999999
 20
-1.726190476190476
 30
0.0
 11
1.21875
 21
-1.726190476190476
 31
0.0
  0
LINE
  5
1E2
330
195
100
AcDbEntity
  8
AM_4
100
AcDbLine
 10
1.21875
 20
1.726190476190476
 30
0.0
 11
0.7499999999999999
 21
1.726190476190476
 31
0.0
  0
LINE
  5
1E3
330
195
100
AcDbEntity
  8
AM_4
100
AcDbLine
 10
-0.625
 20
-1.06778005934797
 30
0.0
 11
-0.5000000000000001
 21
-1.06778005934797
 31
0.0
  0
LINE
  5
1E4
330
195
100
AcDbEntity
  8
AM_4
100
AcDbLine
 10
-0.4500000000000001
 20
-0.7033740119261542
 30
0.0
 11
-0.5000000000000001
 21
-0.7033740119261542
 31
0.0
  0
LINE
  5
1E5
330
195
100
AcDbEntity
  8
AM_4
100
AcDbLine
 10
-0.4500000000000001
 20
0.7033740119261543
 30
0.0
 11
-0.5000000000000001
 21
0.7033740119261526
 31
0.0
  0
LINE
  5
1E6
330
195
100
AcDbEntity
  8
AM_4
100
AcDbLine
 10
-0.625
 20
1.067780059347971
 30
0.0
 11
-0.5000000000000001
 21
1.067780059347971
 31
0.0
  0
LINE
  5
1E7
330
195
100
AcDbEntity
  8
AM_4
100
AcDbLine
 10
0.7499999999999999
 20
-1.8125
 30
0.0
 11
0.7499999999999999
 21
1.8125
 31
0.0
  0
LINE
  5
1E8
330
195
100
AcDbEntity
  8
AM_4
100
AcDbLine
 10
-0.0000000000000001
 20
-1.8125
 30
0.0
 11
0.7499999999999999
 21
-1.8125
 31
0.0
  0
LINE
  5
1E9
330
195
100
AcDbEntity
  8
AM_4
100
AcDbLine
 10
0.7499999999999999
 20
1.8125
 30
0.0
 11
-0.0000000000000001
 21
1.8125
 31
0.0
  0
LINE
  5
1EA
330
195
100
AcDbEntity
  8
AM_4
100
AcDbLine
 10
-0.4500000000000001
 20
-0.8836824225619223
 30
0.0
 11
-0.5000000000000001
 21
-0.8836824225619223
 31
0.0
  0
LINE
  5
1EB
330
195
100
AcDbEntity
  8
AM_4
100
AcDbLine
 10
-0.4500000000000001
 20
0.8836824225619223
 30
0.0
 11
-0.5000000000000001
 21
0.8836824225619223
 31
0.0
  0
LINE
  5
1EC
330
195
100
AcDbEntity
  8
AM_4
100
AcDbLine
 10
-0.5000000000000001
 20
-2.137665643454645
 30
0.0
 11
-0.5000000000000001
 21
-0.7033740119261542
 31
0.0
  0
LINE
  5
1ED
330
195
100
AcDbEntity
  8
AM_4
100
AcDbLine
 10
-0.5000000000000001
 20
-2.137665643454645
 30
0.0
 11
-0.4500000000000001
 21
-2.137665643454645
 31
0.0
  0
LINE
  5
1EE
330
195
100
AcDbEntity
  8
AM_4
100
AcDbLine
 10
-0.4500000000000001
 20
-2.137665643454645
 30
0.0
 11
-0.4500000000000001
 21
-2.621000939849623
 31
0.0
  0
LINE
  5
1EF
330
195
100
AcDbEntity
  8
AM_4
100
AcDbLine
 10
-0.0000000000000001
 20
-2.621000939849624
 30
0.0
 11
-0.4500000000000001
 21
-2.621000939849623
 31
0.0
  0
LINE
  5
1F0
330
195
100
AcDbEntity
  8
AM_4
100
AcDbLine
 10
-0.0000000000000001
 20
-2.621000939849624
 30
0.0
 11
-0.0000000000000001
 21
2.625
 31
0.0
  0
LINE
  5
1F1
330
195
100
AcDbEntity
  8
AM_4
100
AcDbLine
 10
-0.4500000000000001
 20
2.137665643454645
 30
0.0
 11
-0.5000000000000001
 21
2.137665643454646
 31
0.0
  0
LINE
  5
1F2
330
195
100
AcDbEntity
  8
AM_4
100
AcDbLine
 10
-0.5000000000000001
 20
0.7033740119261526
 30
0.0
 11
-0.5000000000000001
 21
2.137665643454646
 31
0.0
  0
LINE
  5
1F3
330
195
100
AcDbEntity
  8
AM_4
100
AcDbLine
 10
-0.5000000000000001
 20
1.523486329703563
 30
0.0
 11
-0.4500000000000001
 21
1.523486329703563
 31
0.0
  0
LINE
  5
1F4
330
195
100
AcDbEntity
  8
AM_4
100
AcDbLine
 10
-0.4500000000000001
 20
1.523486329703563
 30
0.0
 11
-0.4500000000000001
 21
-1.523486329703563
 31
0.0
  0
LINE
  5
1F5
330
195
100
AcDbEntity
  8
AM_4
100
AcDbLine
 10
-0.4500000000000001
 20
-1.523486329703563
 30
0.0
 11
-0.5000000000000001
 21
-1.523486329703563
 31
0.0
  0
LINE
  5
1F6
330
195
100
AcDbEntity
  8
AM_4
100
AcDbLine
 10
-0.0000000000000001
 20
2.625
 30
0.0
 11
-0.4500000000000001
 21
2.625
 31
0.0
  0
LINE
  5
1F7
330
195
100
AcDbEntity
  8
AM_4
100
AcDbLine
 10
-0.4500000000000001
 20
2.625
 30
0.0
 11
-0.4500000000000001
 21
2.137665643454645
 31
0.0
  0
ENDBLK
  5
198
330
195
100
AcDbEntity
  8
0
100
AcDbBlockEnd
  0
ENDSEC
  0
SECTION
  2
ENTITIES
  0
INSERT
  5
6F
330
1F
100
AcDbEntity
  8
0
100
AcDbBlockReference
  2
1_070725_2
 10
0.0
 20
0.0
 30
0.0
  0
POINT
  5
1F9
330
1F
100
AcDbEntity
  8
ConnectionPoints
100
AcDbPoint
 10
-1.125
 20
0.0
 30
0.0000000000000001
  0
POINT
  5
1FA
330
1F
100
AcDbEntity
  8
ConnectionPoints
100
AcDbPoint
 10
-1.125
 20
0.0
 30
0.0000000000000001
  0
POINT
  5
1FB
330
1F
100
AcDbEntity
  8
ConnectionPoints
100
AcDbPoint
 10
1.9975
 20
0.0
 30
-0.0000000000000001
  0
POINT
  5
1FC
330
1F
100
AcDbEntity
  8
ConnectionPoints
100
AcDbPoint
 10
-1.125
 20
0.0
 30
0.0000000000000001
  0
POINT
  5
1FD
330
1F
100
AcDbEntity
  8
ConnectionPoints
100
AcDbPoint
 10
-0.5427275866404782
 20
1.89
 30
0.0
  0
POINT
  5
1FE
330
1F
100
AcDbEntity
  8
ConnectionPoints
100
AcDbPoint
 10
1.171875
 20
0.0
 30
-0.0000000000000001
  0
POINT
  5
1FF
330
1F
100
AcDbEntity
  8
ConnectionPoints
100
AcDbPoint
 10
-0.5427275866404782
 20
1.89
 30
0.0
  0
POINT
  5
200
330
1F
100
AcDbEntity
  8
ConnectionPoints
100
AcDbPoint
 10
-0.5156642927722146
 20
2.155625
 30
0.0
  0
POINT
  5
201
330
1F
100
AcDbEntity
  8
ConnectionPoints
100
AcDbPoint
 10
-1.125
 20
0.0
 30
0.0000000000000001
  0
POINT
  5
202
330
1F
100
AcDbEntity
  8
ConnectionPoints
100
AcDbPoint
 10
-1.3125
 20
0.0
 30
0.0000000000000001
  0
ENDSEC
  0
SECTION
  2
OBJECTS
  0
DICTIONARY
  5
C
330
0
100
AcDbDictionary
281
     1
  3
ACAD_DETAILVIEWSTYLE
350
20A
  3
ACAD_GROUP
350
D
  3
ACAD_LAYOUT
350
1A
  3
ACAD_MATERIAL
350
43
  3
ACAD_MLEADERSTYLE
350
6B
  3
ACAD_MLINESTYLE
350
17
  3
ACAD_PLOTSETTINGS
350
19
  3
ACAD_PLOTSTYLENAME
350
E
  3
ACAD_SCALELIST
350
47
  3
ACAD_SECTIONVIEWSTYLE
350
20B
  3
ACAD_TABLESTYLE
350
69
  3
ACAD_VISUALSTYLE
350
2A
  3
ACDB_RECOMPOSE_DATA
350
207
  3
AcDbVariableDictionary
350
203
  0
SUN
  5
6D
330
29
100
AcDbSun
 90
        1
290
     0
 63
     7
421
 16777215
 40
1.0
291
     1
 91
  2455826
 92
 54000000
292
     0
 70
     2
 71
   256
280
     1
  0
DICTIONARY
  5
20A
102
{ACAD_REACTORS
330
C
102
}
330
C
100
AcDbDictionary
281
     1
  0
DICTIONARY
  5
D
102
{ACAD_REACTORS
330
C
102
}
330
C
100
AcDbDictionary
281
     1
  0
DICTIONARY
  5
1A
102
{ACAD_REACTORS
330
C
102
}
330
C
100
AcDbDictionary
281
     1
  3
Layout1
350
1E
  3
Layout2
350
26
  3
Model
350
22
  0
DICTIONARY
  5
43
102
{ACAD_REACTORS
330
C
102
}
330
C
100
AcDbDictionary
281
     1
  3
ByBlock
350
45
  3
ByLayer
350
44
  3
Global
350
46
  0
DICTIONARY
  5
6B
102
{ACAD_REACTORS
330
C
102
}
330
C
100
AcDbDictionary
281
     1
  3
Standard
350
6C
  0
DICTIONARY
  5
17
102
{ACAD_REACTORS
330
C
102
}
330
C
100
AcDbDictionary
281
     1
  3
Standard
350
18
  0
DICTIONARY
  5
19
102
{ACAD_REACTORS
330
C
102
}
330
C
100
AcDbDictionary
281
     1
  0
ACDBDICTIONARYWDFLT
  5
E
102
{ACAD_REACTORS
330
C
102
}
330
C
100
AcDbDictionary
281
     1
  3
Normal
350
F
100
AcDbDictionaryWithDefault
340
F
  0
DICTIONARY
  5
47
102
{ACAD_REACTORS
330
C
102
}
330
C
100
AcDbDictionary
281
     1
  3
A0
350
48
  3
A1
350
49
  3
A2
350
4A
  3
A3
350
4B
  3
A4
350
4C
  3
A5
350
4D
  3
A6
350
4E
  3
A7
350
4F
  3
A8
350
50
  3
A9
350
51
  3
B0
350
52
  3
B1
350
53
  3
B2
350
54
  3
B3
350
55
  3
B4
350
56
  3
B5
350
57
  3
B6
350
58
  3
B7
350
59
  3
B8
350
5A
  3
B9
350
5B
  3
C0
350
5C
  3
C1
350
5D
  3
C2
350
5E
  3
C3
350
5F
  3
C4
350
60
  3
C5
350
61
  3
C6
350
62
  3
C7
350
63
  3
C8
350
64
  3
C9
350
65
  3
D0
350
66
  3
D1
350
67
  3
D2
350
68
  0
DICTIONARY
  5
20B
102
{ACAD_REACTORS
330
C
102
}
330
C
100
AcDbDictionary
281
     1
  0
DICTIONARY
  5
69
102
{ACAD_REACTORS
330
C
102
}
330
C
100
AcDbDictionary
281
     1
  3
Standard
350
6A
  0
DICTIONARY
  5
2A
102
{ACAD_REACTORS
330
C
102
}
330
C
100
AcDbDictionary
281
     1
  3
2dWireframe
350
2F
  3
Basic
350
32
  3
Brighten
350
36
  3
ColorChange
350
3A
  3
Conceptual
350
34
  3
Dim
350
35
  3
EdgeColorOff
350
3D
  3
Facepattern
350
39
  3
Flat
350
2B
  3
FlatWithEdges
350
2C
  3
Gouraud
350
2D
  3
GouraudWithEdges
350
2E
  3
Hidden
350
31
  3
JitterOff
350
3B
  3
Linepattern
350
38
  3
OverhangOff
350
3C
  3
Realistic
350
33
  3
Shaded
350
42
  3
Shaded with edges
350
41
  3
Shades of Gray
350
3E
  3
Sketchy
350
3F
  3
Thicken
350
37
  3
Wireframe
350
30
  3
X-Ray
350
40
  0
XRECORD
  5
207
102
{ACAD_REACTORS
330
C
102
}
330
C
100
AcDbXrecord
280
     1
 90
        1
330
6A
  0
DICTIONARY
  5
203
102
{ACAD_REACTORS
330
C
102
}
330
C
100
AcDbDictionary
281
     1
  3
CANNOSCALE
350
204
  3
CMLEADERSTYLE
350
209
  3
CTABLESTYLE
350
208
  0
LAYOUT
  5
1E
102
{ACAD_REACTORS
330
1A
102
}
330
1A
100
AcDbPlotSettings
  1

  2
none_device
  4

  6

 40
0.0
 41
0.0
 42
0.0
 43
0.0
 44
0.0
 45
0.0
 46
0.0
 47
0.0
 48
0.0
 49
0.0
140
0.0
141
0.0
142
1.0
143
1.0
 70
   688
 72
     0
 73
     0
 74
     5
  7

 75
    16
 76
     0
 77
     2
 78
   300
147
1.0
148
0.0
149
0.0
100
AcDbLayout
  1
Layout1
 70
     1
 71
     1
 10
0.0
 20
0.0
 11
12.0
 21
9.0
 12
0.0
 22
0.0
 32
0.0
 14
1.000000000000000E+20
 24
1.000000000000000E+20
 34
1.000000000000000E+20
 15
-1.000000000000000E+20
 25
-1.000000000000000E+20
 35
-1.000000000000000E+20
146
0.0
 13
0.0
 23
0.0
 33
0.0
 16
1.0
 26
0.0
 36
0.0
 17
0.0
 27
1.0
 37
0.0
 76
     0
330
1B
  0
LAYOUT
  5
26
102
{ACAD_REACTORS
330
1A
102
}
330
1A
100
AcDbPlotSettings
  1

  2
none_device
  4

  6

 40
0.0
 41
0.0
 42
0.0
 43
0.0
 44
0.0
 45
0.0
 46
0.0
 47
0.0
 48
0.0
 49
0.0
140
0.0
141
0.0
142
1.0
143
1.0
 70
   688
 72
     0
 73
     0
 74
     5
  7

 75
    16
 76
     0
 77
     2
 78
   300
147
1.0
148
0.0
149
0.0
100
AcDbLayout
  1
Layout2
 70
     1
 71
     2
 10
0.0
 20
0.0
 11
0.0
 21
0.0
 12
0.0
 22
0.0
 32
0.0
 14
0.0
 24
0.0
 34
0.0
 15
0.0
 25
0.0
 35
0.0
146
0.0
 13
0.0
 23
0.0
 33
0.0
 16
1.0
 26
0.0
 36
0.0
 17
0.0
 27
1.0
 37
0.0
 76
     0
330
23
  0
LAYOUT
  5
22
102
{ACAD_REACTORS
330
1A
102
}
330
1A
100
AcDbPlotSettings
  1

  2
none_device
  4
Letter_(8.50_x_11.00_Inches)
  6

 40
6.35
 41
6.35
 42
6.35000508
 43
6.35000508
 44
215.9
 45
279.4
 46
0.0
 47
0.0
 48
0.0
 49
0.0
140
0.0
141
0.0
142
1.0
143
1.0
 70
  1712
 72
     0
 73
     0
 74
     0
  7

 75
     0
 76
     0
 77
     2
 78
   300
147
1.0
148
0.0
149
0.0
100
AcDbLayout
  1
Model
 70
     1
 71
     0
 10
0.0
 20
0.0
 11
12.0
 21
9.0
 12
0.0
 22
0.0
 32
0.0
 14
1.000000000000000E+20
 24
1.000000000000000E+20
 34
1.000000000000000E+20
 15
-1.000000000000000E+20
 25
-1.000000000000000E+20
 35
-1.000000000000000E+20
146
0.0
 13
0.0
 23
0.0
 33
0.0
 16
1.0
 26
0.0
 36
0.0
 17
0.0
 27
1.0
 37
0.0
 76
     0
330
1F
331
29
  0
MATERIAL
  5
45
102
{ACAD_REACTORS
330
43
102
}
330
43
100
AcDbMaterial
  1
ByBlock
 72
     1
 94
      127
  0
MATERIAL
  5
44
102
{ACAD_REACTORS
330
43
102
}
330
43
100
AcDbMaterial
  1
ByLayer
 72
     1
 94
      127
  0
MATERIAL
  5
46
102
{ACAD_REACTORS
330
43
102
}
330
43
100
AcDbMaterial
  1
Global
 72
     1
 94
      127
  0
MLEADERSTYLE
  5
6C
102
{ACAD_REACTORS
330
6B
102
}
330
6B
100
AcDbMLeaderStyle
179
     2
170
     2
171
     1
172
     0
 90
        2
 40
0.0
 41
0.0
173
     1
 91
-1056964608
340
14
 92
       -2
290
     1
 42
0.09
291
     1
 43
0.36
  3
Standard
341
0
 44
0.18
300

342
11
174
     1
178
     6
175
     1
176
     0
 93
-1056964608
 45
0.18
292
     0
297
     0
 46
0.18
343
0
 94
-1056964608
 47
1.0
 49
1.0
140
1.0
293
     1
141
0.0
294
     1
177
     0
142
1.0
295
     0
296
     0
143
0.125
271
     0
272
     9
273
     9
298
     0
  0
MLINESTYLE
  5
18
102
{ACAD_REACTORS
330
17
102
}
330
17
100
AcDbMlineStyle
  2
Standard
 70
     0
  3

 62
   256
 51
90.0
 52
90.0
 71
     2
 49
0.5
 62
   256
  6
BYLAYER
 49
-0.5
 62
   256
  6
BYLAYER
  0
ACDBPLACEHOLDER
  5
F
102
{ACAD_REACTORS
330
E
102
}
330
E
  0
SCALE
  5
48
102
{ACAD_REACTORS
330
47
102
}
330
47
100
AcDbScale
 70
     0
300
1:1
140
1.0
141
1.0
290
     1
  0
SCALE
  5
49
102
{ACAD_REACTORS
330
47
102
}
330
47
100
AcDbScale
 70
     0
300
1:2
140
1.0
141
2.0
290
     0
  0
SCALE
  5
4A
102
{ACAD_REACTORS
330
47
102
}
330
47
100
AcDbScale
 70
     0
300
1:4
140
1.0
141
4.0
290
     0
  0
SCALE
  5
4B
102
{ACAD_REACTORS
330
47
102
}
330
47
100
AcDbScale
 70
     0
300
1:5
140
1.0
141
5.0
290
     0
  0
SCALE
  5
4C
102
{ACAD_REACTORS
330
47
102
}
330
47
100
AcDbScale
 70
     0
300
1:8
140
1.0
141
8.0
290
     0
  0
SCALE
  5
4D
102
{ACAD_REACTORS
330
47
102
}
330
47
100
AcDbScale
 70
     0
300
1:10
140
1.0
141
10.0
290
     0
  0
SCALE
  5
4E
102
{ACAD_REACTORS
330
47
102
}
330
47
100
AcDbScale
 70
     0
300
1:16
140
1.0
141
16.0
290
     0
  0
SCALE
  5
4F
102
{ACAD_REACTORS
330
47
102
}
330
47
100
AcDbScale
 70
     0
300
1:20
140
1.0
141
20.0
290
     0
  0
SCALE
  5
50
102
{ACAD_REACTORS
330
47
102
}
330
47
100
AcDbScale
 70
     0
300
1:30
140
1.0
141
30.0
290
     0
  0
SCALE
  5
51
102
{ACAD_REACTORS
330
47
102
}
330
47
100
AcDbScale
 70
     0
300
1:40
140
1.0
141
40.0
290
     0
  0
SCALE
  5
52
102
{ACAD_REACTORS
330
47
102
}
330
47
100
AcDbScale
 70
     0
300
1:50
140
1.0
141
50.0
290
     0
  0
SCALE
  5
53
102
{ACAD_REACTORS
330
47
102
}
330
47
100
AcDbScale
 70
     0
300
1:100
140
1.0
141
100.0
290
     0
  0
SCALE
  5
54
102
{ACAD_REACTORS
330
47
102
}
330
47
100
AcDbScale
 70
     0
300
2:1
140
2.0
141
1.0
290
     0
  0
SCALE
  5
55
102
{ACAD_REACTORS
330
47
102
}
330
47
100
AcDbScale
 70
     0
300
4:1
140
4.0
141
1.0
290
     0
  0
SCALE
  5
56
102
{ACAD_REACTORS
330
47
102
}
330
47
100
AcDbScale
 70
     0
300
8:1
140
8.0
141
1.0
290
     0
  0
SCALE
  5
57
102
{ACAD_REACTORS
330
47
102
}
330
47
100
AcDbScale
 70
     0
300
10:1
140
10.0
141
1.0
290
     0
  0
SCALE
  5
58
102
{ACAD_REACTORS
330
47
102
}
330
47
100
AcDbScale
 70
     0
300
100:1
140
100.0
141
1.0
290
     0
  0
SCALE
  5
59
102
{ACAD_REACTORS
330
47
102
}
330
47
100
AcDbScale
 70
     0
300
1/128" = 1'-0"
140
0.0078125
141
12.0
290
     0
  0
SCALE
  5
5A
102
{ACAD_REACTORS
330
47
102
}
330
47
100
AcDbScale
 70
     0
300
1/64" = 1'-0"
140
0.015625
141
12.0
290
     0
  0
SCALE
  5
5B
102
{ACAD_REACTORS
330
47
102
}
330
47
100
AcDbScale
 70
     0
300
1/32" = 1'-0"
140
0.03125
141
12.0
290
     0
  0
SCALE
  5
5C
102
{ACAD_REACTORS
330
47
102
}
330
47
100
AcDbScale
 70
     0
300
1/16" = 1'-0"
140
0.0625
141
12.0
290
     0
  0
SCALE
  5
5D
102
{ACAD_REACTORS
330
47
102
}
330
47
100
AcDbScale
 70
     0
300
3/32" = 1'-0"
140
0.09375
141
12.0
290
     0
  0
SCALE
  5
5E
102
{ACAD_REACTORS
330
47
102
}
330
47
100
AcDbScale
 70
     0
300
1/8" = 1'-0"
140
0.125
141
12.0
290
     0
  0
SCALE
  5
5F
102
{ACAD_REACTORS
330
47
102
}
330
47
100
AcDbScale
 70
     0
300
3/16" = 1'-0"
140
0.1875
141
12.0
290
     0
  0
SCALE
  5
60
102
{ACAD_REACTORS
330
47
102
}
330
47
100
AcDbScale
 70
     0
300
1/4" = 1'-0"
140
0.25
141
12.0
290
     0
  0
SCALE
  5
61
102
{ACAD_REACTORS
330
47
102
}
330
47
100
AcDbScale
 70
     0
300
3/8" = 1'-0"
140
0.375
141
12.0
290
     0
  0
SCALE
  5
62
102
{ACAD_REACTORS
330
47
102
}
330
47
100
AcDbScale
 70
     0
300
1/2" = 1'-0"
140
0.5
141
12.0
290
     0
  0
SCALE
  5
63
102
{ACAD_REACTORS
330
47
102
}
330
47
100
AcDbScale
 70
     0
300
3/4" = 1'-0"
140
0.75
141
12.0
290
     0
  0
SCALE
  5
64
102
{ACAD_REACTORS
330
47
102
}
330
47
100
AcDbScale
 70
     0
300
1" = 1'-0"
140
1.0
141
12.0
290
     0
  0
SCALE
  5
65
102
{ACAD_REACTORS
330
47
102
}
330
47
100
AcDbScale
 70
     0
300
1-1/2" = 1'-0"
140
1.5
141
12.0
290
     0
  0
SCALE
  5
66
102
{ACAD_REACTORS
330
47
102
}
330
47
100
AcDbScale
 70
     0
300
3" = 1'-0"
140
3.0
141
12.0
290
     0
  0
SCALE
  5
67
102
{ACAD_REACTORS
330
47
102
}
330
47
100
AcDbScale
 70
     0
300
6" = 1'-0"
140
6.0
141
12.0
290
     0
  0
SCALE
  5
68
102
{ACAD_REACTORS
330
47
102
}
330
47
100
AcDbScale
 70
     0
300
1'-0" = 1'-0"
140
12.0
141
12.0
290
     0
  0
TABLESTYLE
  5
6A
102
{ACAD_REACTORS
330
69
102
}
102
{ACAD_XDICTIONARY
360
205
102
}
330
69
100
AcDbTableStyle
  3
Standard
 70
     0
 71
     0
 40
0.06
 41
0.06
280
     0
281
     0
  7
Standard
140
0.18
170
     2
 62
     0
 63
   257
283
     0
 90
        4
 91
        0
  1

274
    -2
284
     1
 64
     0
275
    -2
285
     1
 65
     0
276
    -2
286
     1
 66
     0
277
    -2
287
     1
 67
     0
278
    -2
288
     1
 68
     0
279
    -2
289
     1
 69
     0
  7
Standard
140
0.25
170
     5
 62
     0
 63
   257
283
     0
 90
        4
 91
        0
  1

274
    -2
284
     1
 64
     0
275
    -2
285
     1
 65
     0
276
    -2
286
     1
 66
     0
277
    -2
287
     1
 67
     0
278
    -2
288
     1
 68
     0
279
    -2
289
     1
 69
     0
  7
Standard
140
0.18
170
     5
 62
     0
 63
   257
283
     0
 90
        4
 91
        0
  1

274
    -2
284
     1
 64
     0
275
    -2
285
     1
 65
     0
276
    -2
286
     1
 66
     0
277
    -2
287
     1
 67
     0
278
    -2
288
     1
 68
     0
279
    -2
289
     1
 69
     0
  0
VISUALSTYLE
  5
2F
102
{ACAD_REACTORS
330
2A
102
}
330
2A
100
AcDbVisualStyle
  2
2dWireframe
 70
     4
177
     3
291
     0
 70
    58
 90
        0
176
     1
 90
        2
176
     1
 90
        0
176
     1
 90
        0
176
     1
 40
0.6
176
     1
 40
30.0
176
     1
 62
     7
420
 16777215
176
     1
 90
        1
176
     1
 90
        4
176
     1
 62
     7
176
     1
 62
   257
176
     1
 90
        1
176
     1
 90
        1
176
     1
 40
1.0
176
     1
 90
        0
176
     1
 62
   257
176
     1
 40
1.0
176
     1
 90
        1
176
     1
 90
        6
176
     1
 90
        2
176
     1
 62
     7
176
     1
 90
        5
176
     1
 90
        0
176
     1
 90
        0
176
     1
290
     0
176
     1
 90
        1
176
     1
 40
0.0
176
     1
 90
        0
176
     1
290
     1
176
     1
290
     1
176
     1
290
     0
176
     1
290
     0
176
     1
290
     0
176
     1
290
     0
176
     1
290
     0
176
     1
290
     0
176
     1
290
     0
176
     1
 90
       50
176
     1
 40
0.0
176
     1
 40
1.0
176
     1
 90
        0
176
     1
 62
    18
420
        0
176
     1
 90
       50
176
     1
 90
        3
176
     1
 62
     5
420
      255
176
     1
290
     0
176
     1
 90
       50
176
     1
 90
       50
176
     1
 90
       50
176
     1
290
     0
176
     1
 90
       50
176
     1
 62
   256
176
     0
 40
1.0
176
     0
 90
        2
176
     1
  1
strokes_ogs.tif
176
     1
290
     0
176
     1
 40
1.0
176
     1
 40
1.0
176
     1
  0
VISUALSTYLE
  5
32
102
{ACAD_REACTORS
330
2A
102
}
330
2A
100
AcDbVisualStyle
  2
Basic
 70
     7
177
     3
291
     1
 70
    58
 90
        1
176
     1
 90
        0
176
     1
 90
        1
176
     1
 90
        0
176
     1
 40
0.6
176
     1
 40
30.0
176
     1
 62
     7
420
 16777215
176
     1
 90
        0
176
     1
 90
        4
176
     1
 62
     7
176
     1
 62
   257
176
     1
 90
        1
176
     1
 90
        1
176
     1
 40
1.0
176
     1
 90
        8
176
     1
 62
     7
176
     1
 40
1.0
176
     1
 90
        1
176
     1
 90
        6
176
     1
 90
        2
176
     1
 62
     7
176
     1
 90
        5
176
     1
 90
        0
176
     1
 90
        0
176
     1
290
     0
176
     1
 90
        1
176
     1
 40
0.0
176
     1
 90
        0
176
     1
290
     0
176
     1
290
     1
176
     1
290
     1
176
     1
290
     0
176
     1
290
     0
176
     1
290
     0
176
     1
290
     0
176
     1
290
     0
176
     1
290
     0
176
     1
 90
       50
176
     1
 40
0.0
176
     1
 40
1.0
176
     1
 90
        0
176
     1
 62
    18
420
        0
176
     1
 90
       50
176
     1
 90
        3
176
     1
 62
     5
420
      255
176
     1
290
     0
176
     1
 90
       50
176
     1
 90
       50
176
     1
 90
       50
176
     1
290
     0
176
     1
 90
       50
176
     1
 62
   256
176
     0
 40
1.0
176
     0
 90
        2
176
     1
  1
strokes_ogs.tif
176
     1
290
     0
176
     1
 40
1.0
176
     1
 40
1.0
176
     1
  0
VISUALSTYLE
  5
36
102
{ACAD_REACTORS
330
2A
102
}
330
2A
100
AcDbVisualStyle
  2
Brighten
 70
    12
177
     3
291
     1
 70
    58
 90
        2
176
     1
 90
        2
176
     1
 90
        0
176
     1
 90
        0
176
     1
 40
0.6
176
     1
 40
30.0
176
     1
 62
     7
420
 16777215
176
     1
 90
        1
176
     1
 90
        4
176
     1
 62
     7
176
     1
 62
   257
176
     1
 90
        1
176
     1
 90
        1
176
     1
 40
1.0
176
     1
 90
        8
176
     1
 62
     7
176
     1
 40
1.0
176
     1
 90
        1
176
     1
 90
        6
176
     1
 90
        2
176
     1
 62
     7
176
     1
 90
        5
176
     1
 90
        0
176
     1
 90
        0
176
     1
290
     0
176
     1
 90
        1
176
     1
 40
50.0
176
     1
 90
        0
176
     1
290
     0
176
     1
290
     1
176
     1
290
     1
176
     1
290
     0
176
     1
290
     0
176
     1
290
     0
176
     1
290
     0
176
     1
290
     0
176
     1
290
     0
176
     1
 90
       50
176
     1
 40
0.0
176
     1
 40
1.0
176
     1
 90
        0
176
     1
 62
    18
420
        0
176
     1
 90
       50
176
     1
 90
        3
176
     1
 62
     5
420
      255
176
     1
290
     0
176
     1
 90
       50
176
     1
 90
       50
176
     1
 90
       50
176
     1
290
     0
176
     1
 90
       50
176
     1
 62
   256
176
     0
 40
1.0
176
     0
 90
        2
176
     1
  1
strokes_ogs.tif
176
     1
290
     0
176
     1
 40
1.0
176
     1
 40
1.0
176
     1
  0
VISUALSTYLE
  5
3A
102
{ACAD_REACTORS
330
2A
102
}
330
2A
100
AcDbVisualStyle
  2
ColorChange
 70
    16
177
     3
291
     1
 70
    58
 90
        2
176
     1
 90
        2
176
     1
 90
        3
176
     1
 90
        0
176
     1
 40
0.6
176
     1
 40
30.0
176
     1
 62
     8
420
  8421504
176
     1
 90
        1
176
     1
 90
        4
176
     1
 62
     7
176
     1
 62
   257
176
     1
 90
        1
176
     1
 90
        1
176
     1
 40
1.0
176
     1
 90
        8
176
     1
 62
     8
420
  8421504
176
     1
 40
1.0
176
     1
 90
        1
176
     1
 90
        6
176
     1
 90
        2
176
     1
 62
     7
176
     1
 90
        5
176
     1
 90
        0
176
     1
 90
        0
176
     1
290
     0
176
     1
 90
        1
176
     1
 40
0.0
176
     1
 90
        0
176
     1
290
     0
176
     1
290
     1
176
     1
290
     1
176
     1
290
     0
176
     1
290
     0
176
     1
290
     0
176
     1
290
     0
176
     1
290
     0
176
     1
290
     0
176
     1
 90
       50
176
     1
 40
0.0
176
     1
 40
1.0
176
     1
 90
        0
176
     1
 62
    18
420
        0
176
     1
 90
       50
176
     1
 90
        3
176
     1
 62
     5
420
      255
176
     1
290
     0
176
     1
 90
       50
176
     1
 90
       50
176
     1
 90
       50
176
     1
290
     0
176
     1
 90
       50
176
     1
 62
   256
176
     0
 40
1.0
176
     0
 90
        2
176
     1
  1
strokes_ogs.tif
176
     1
290
     0
176
     1
 40
1.0
176
     1
 40
1.0
176
     1
  0
VISUALSTYLE
  5
34
102
{ACAD_REACTORS
330
2A
102
}
330
2A
100
AcDbVisualStyle
  2
Conceptual
 70
     9
177
     3
291
     0
 70
    58
 90
        3
176
     1
 90
        2
176
     1
 90
        0
176
     1
 90
        0
176
     1
 40
0.6
176
     1
 40
30.0
176
     1
 62
     7
420
 16777215
176
     1
 90
        2
176
     1
 90
        2
176
     1
 62
     7
176
     1
 62
   257
176
     1
 90
        1
176
     1
 90
        1
176
     1
 40
179.0
176
     1
 90
        8
176
     1
 62
     7
176
     1
 40
1.0
176
     1
 90
        1
176
     1
 90
        6
176
     1
 90
        2
176
     1
 62
     7
176
     1
 90
        3
176
     1
 90
        0
176
     1
 90
        0
176
     1
290
     0
176
     1
 90
        1
176
     1
 40
0.0
176
     1
 90
        0
176
     1
290
     0
176
     1
290
     1
176
     1
290
     1
176
     1
290
     0
176
     1
290
     0
176
     1
290
     0
176
     1
290
     0
176
     1
290
     0
176
     1
290
     0
176
     1
 90
       50
176
     1
 40
0.0
176
     1
 40
1.0
176
     1
 90
        0
176
     1
 62
    18
420
        0
176
     1
 90
       50
176
     1
 90
        3
176
     1
 62
     5
420
      255
176
     1
290
     0
176
     1
 90
       50
176
     1
 90
       50
176
     1
 90
       50
176
     1
290
     0
176
     1
 90
       50
176
     1
 62
   256
176
     0
 40
1.0
176
     0
 90
        2
176
     1
  1
strokes_ogs.tif
176
     1
290
     0
176
     1
 40
1.0
176
     1
 40
1.0
176
     1
  0
VISUALSTYLE
  5
35
102
{ACAD_REACTORS
330
2A
102
}
330
2A
100
AcDbVisualStyle
  2
Dim
 70
    11
177
     3
291
     1
 70
    58
 90
        2
176
     1
 90
        2
176
     1
 90
        0
176
     1
 90
        0
176
     1
 40
0.6
176
     1
 40
30.0
176
     1
 62
     7
420
 16777215
176
     1
 90
        1
176
     1
 90
        4
176
     1
 62
     7
176
     1
 62
   257
176
     1
 90
        1
176
     1
 90
        1
176
     1
 40
1.0
176
     1
 90
        8
176
     1
 62
     7
176
     1
 40
1.0
176
     1
 90
        1
176
     1
 90
        6
176
     1
 90
        2
176
     1
 62
     7
176
     1
 90
        5
176
     1
 90
        0
176
     1
 90
        0
176
     1
290
     0
176
     1
 90
        1
176
     1
 40
-50.0
176
     1
 90
        0
176
     1
290
     0
176
     1
290
     1
176
     1
290
     1
176
     1
290
     0
176
     1
290
     0
176
     1
290
     0
176
     1
290
     0
176
     1
290
     0
176
     1
290
     0
176
     1
 90
       50
176
     1
 40
0.0
176
     1
 40
1.0
176
     1
 90
        0
176
     1
 62
    18
420
        0
176
     1
 90
       50
176
     1
 90
        3
176
     1
 62
     5
420
      255
176
     1
290
     0
176
     1
 90
       50
176
     1
 90
       50
176
     1
 90
       50
176
     1
290
     0
176
     1
 90
       50
176
     1
 62
   256
176
     0
 40
1.0
176
     0
 90
        2
176
     1
  1
strokes_ogs.tif
176
     1
290
     0
176
     1
 40
1.0
176
     1
 40
1.0
176
     1
  0
VISUALSTYLE
  5
3D
102
{ACAD_REACTORS
330
2A
102
}
330
2A
100
AcDbVisualStyle
  2
EdgeColorOff
 70
    22
177
     3
291
     1
 70
    58
 90
        2
176
     0
 90
        2
176
     0
 90
        0
176
     0
 90
        0
176
     0
 40
0.6
176
     0
 40
30.0
176
     0
 62
     7
420
 16777215
176
     0
 90
        1
176
     0
 90
        4
176
     0
 62
     7
176
     0
 62
   257
176
     0
 90
        1
176
     0
 90
        1
176
     0
 40
1.0
176
     0
 90
        8
176
     2
 62
     7
176
     0
 40
1.0
176
     0
 90
        1
176
     0
 90
        6
176
     0
 90
        2
176
     0
 62
     7
176
     0
 90
        5
176
     0
 90
        0
176
     0
 90
        0
176
     0
290
     0
176
     0
 90
        1
176
     0
 40
0.0
176
     0
 90
        0
176
     0
290
     0
176
     0
290
     1
176
     0
290
     1
176
     0
290
     0
176
     0
290
     0
176
     0
290
     0
176
     0
290
     0
176
     0
290
     0
176
     0
290
     0
176
     0
 90
       50
176
     0
 40
0.0
176
     0
 40
1.0
176
     0
 90
        0
176
     0
 62
    18
420
        0
176
     0
 90
       50
176
     0
 90
        3
176
     0
 62
     5
420
      255
176
     0
290
     0
176
     0
 90
       50
176
     0
 90
       50
176
     0
 90
       50
176
     0
290
     0
176
     0
 90
       50
176
     0
 62
   256
176
     0
 40
1.0
176
     0
 90
        2
176
     0
  1
strokes_ogs.tif
176
     0
290
     0
176
     0
 40
1.0
176
     0
 40
1.0
176
     0
  0
VISUALSTYLE
  5
39
102
{ACAD_REACTORS
330
2A
102
}
330
2A
100
AcDbVisualStyle
  2
Facepattern
 70
    15
177
     3
291
     1
 70
    58
 90
        2
176
     1
 90
        2
176
     1
 90
        0
176
     1
 90
        0
176
     1
 40
0.6
176
     1
 40
30.0
176
     1
 62
     7
420
 16777215
176
     1
 90
        1
176
     1
 90
        4
176
     1
 62
     7
176
     1
 62
   257
176
     1
 90
        1
176
     1
 90
        1
176
     1
 40
1.0
176
     1
 90
        8
176
     1
 62
     7
176
     1
 40
1.0
176
     1
 90
        1
176
     1
 90
        6
176
     1
 90
        2
176
     1
 62
     7
176
     1
 90
        5
176
     1
 90
        0
176
     1
 90
        0
176
     1
290
     0
176
     1
 90
        1
176
     1
 40
0.0
176
     1
 90
        0
176
     1
290
     0
176
     1
290
     1
176
     1
290
     1
176
     1
290
     0
176
     1
290
     0
176
     1
290
     0
176
     1
290
     0
176
     1
290
     0
176
     1
290
     0
176
     1
 90
       50
176
     1
 40
0.0
176
     1
 40
1.0
176
     1
 90
        0
176
     1
 62
    18
420
        0
176
     1
 90
       50
176
     1
 90
        3
176
     1
 62
     5
420
      255
176
     1
290
     0
176
     1
 90
       50
176
     1
 90
       50
176
     1
 90
       50
176
     1
290
     0
176
     1
 90
       50
176
     1
 62
   256
176
     0
 40
1.0
176
     0
 90
        2
176
     1
  1
strokes_ogs.tif
176
     1
290
     0
176
     1
 40
1.0
176
     1
 40
1.0
176
     1
  0
VISUALSTYLE
  5
2B
102
{ACAD_REACTORS
330
2A
102
}
330
2A
100
AcDbVisualStyle
  2
Flat
 70
     0
177
     3
291
     1
 70
    58
 90
        2
176
     1
 90
        1
176
     1
 90
        1
176
     1
 90
        2
176
     1
 40
0.6
176
     1
 40
30.0
176
     1
 62
     7
420
 16777215
176
     1
 90
        0
176
     1
 90
        0
176
     1
 62
     7
176
     1
 62
   257
176
     1
 90
        1
176
     1
 90
        1
176
     1
 40
1.0
176
     1
 90
        8
176
     1
 62
     7
176
     1
 40
1.0
176
     1
 90
        1
176
     1
 90
        6
176
     1
 90
        2
176
     1
 62
     7
176
     1
 90
        5
176
     1
 90
        0
176
     1
 90
        0
176
     1
290
     0
176
     1
 90
       13
176
     1
 40
0.0
176
     1
 90
        0
176
     1
290
     0
176
     1
290
     1
176
     1
290
     1
176
     1
290
     0
176
     1
290
     0
176
     1
290
     0
176
     1
290
     0
176
     1
290
     0
176
     1
290
     0
176
     1
 90
       50
176
     1
 40
0.0
176
     1
 40
1.0
176
     1
 90
        0
176
     1
 62
    18
420
        0
176
     1
 90
       50
176
     1
 90
        3
176
     1
 62
     5
420
      255
176
     1
290
     0
176
     1
 90
       50
176
     1
 90
       50
176
     1
 90
       50
176
     1
290
     0
176
     1
 90
       50
176
     1
 62
   256
176
     0
 40
1.0
176
     0
 90
        2
176
     1
  1
strokes_ogs.tif
176
     1
290
     0
176
     1
 40
1.0
176
     1
 40
1.0
176
     1
  0
VISUALSTYLE
  5
2C
102
{ACAD_REACTORS
330
2A
102
}
330
2A
100
AcDbVisualStyle
  2
FlatWithEdges
 70
     1
177
     3
291
     1
 70
    58
 90
        2
176
     1
 90
        1
176
     1
 90
        1
176
     1
 90
        2
176
     1
 40
0.6
176
     1
 40
30.0
176
     1
 62
     7
420
 16777215
176
     1
 90
        1
176
     1
 90
        0
176
     1
 62
     7
176
     1
 62
   257
176
     1
 90
        1
176
     1
 90
        1
176
     1
 40
1.0
176
     1
 90
        0
176
     1
 62
   257
176
     1
 40
1.0
176
     1
 90
        1
176
     1
 90
        6
176
     1
 90
        2
176
     1
 62
     7
176
     1
 90
        5
176
     1
 90
        0
176
     1
 90
        0
176
     1
290
     0
176
     1
 90
       13
176
     1
 40
0.0
176
     1
 90
        0
176
     1
290
     0
176
     1
290
     1
176
     1
290
     1
176
     1
290
     0
176
     1
290
     0
176
     1
290
     0
176
     1
290
     0
176
     1
290
     0
176
     1
290
     0
176
     1
 90
       50
176
     1
 40
0.0
176
     1
 40
1.0
176
     1
 90
        0
176
     1
 62
    18
420
        0
176
     1
 90
       50
176
     1
 90
        3
176
     1
 62
     5
420
      255
176
     1
290
     0
176
     1
 90
       50
176
     1
 90
       50
176
     1
 90
       50
176
     1
290
     0
176
     1
 90
       50
176
     1
 62
   256
176
     0
 40
1.0
176
     0
 90
        2
176
     1
  1
strokes_ogs.tif
176
     1
290
     0
176
     1
 40
1.0
176
     1
 40
1.0
176
     1
  0
VISUALSTYLE
  5
2D
102
{ACAD_REACTORS
330
2A
102
}
330
2A
100
AcDbVisualStyle
  2
Gouraud
 70
     2
177
     3
291
     1
 70
    58
 90
        2
176
     1
 90
        2
176
     1
 90
        1
176
     1
 90
        2
176
     1
 40
0.6
176
     1
 40
30.0
176
     1
 62
     7
420
 16777215
176
     1
 90
        0
176
     1
 90
        0
176
     1
 62
     7
176
     1
 62
   257
176
     1
 90
        1
176
     1
 90
        1
176
     1
 40
1.0
176
     1
 90
        0
176
     1
 62
     7
176
     1
 40
1.0
176
     1
 90
        1
176
     1
 90
        6
176
     1
 90
        2
176
     1
 62
     7
176
     1
 90
        5
176
     1
 90
        0
176
     1
 90
        0
176
     1
290
     0
176
     1
 90
       13
176
     1
 40
0.0
176
     1
 90
        0
176
     1
290
     0
176
     1
290
     1
176
     1
290
     1
176
     1
290
     0
176
     1
290
     0
176
     1
290
     0
176
     1
290
     0
176
     1
290
     0
176
     1
290
     0
176
     1
 90
       50
176
     1
 40
0.0
176
     1
 40
1.0
176
     1
 90
        0
176
     1
 62
    18
420
        0
176
     1
 90
       50
176
     1
 90
        3
176
     1
 62
     5
420
      255
176
     1
290
     0
176
     1
 90
       50
176
     1
 90
       50
176
     1
 90
       50
176
     1
290
     0
176
     1
 90
       50
176
     1
 62
   256
176
     0
 40
1.0
176
     0
 90
        2
176
     1
  1
strokes_ogs.tif
176
     1
290
     0
176
     1
 40
1.0
176
     1
 40
1.0
176
     1
  0
VISUALSTYLE
  5
2E
102
{ACAD_REACTORS
330
2A
102
}
330
2A
100
AcDbVisualStyle
  2
GouraudWithEdges
 70
     3
177
     3
291
     1
 70
    58
 90
        2
176
     1
 90
        2
176
     1
 90
        1
176
     1
 90
        2
176
     1
 40
0.6
176
     1
 40
30.0
176
     1
 62
     7
420
 16777215
176
     1
 90
        1
176
     1
 90
        0
176
     1
 62
     7
176
     1
 62
   257
176
     1
 90
        1
176
     1
 90
        1
176
     1
 40
1.0
176
     1
 90
        0
176
     1
 62
   257
176
     1
 40
1.0
176
     1
 90
        1
176
     1
 90
        6
176
     1
 90
        2
176
     1
 62
     7
176
     1
 90
        5
176
     1
 90
        0
176
     1
 90
        0
176
     1
290
     0
176
     1
 90
       13
176
     1
 40
0.0
176
     1
 90
        0
176
     1
290
     0
176
     1
290
     1
176
     1
290
     1
176
     1
290
     0
176
     1
290
     0
176
     1
290
     0
176
     1
290
     0
176
     1
290
     0
176
     1
290
     0
176
     1
 90
       50
176
     1
 40
0.0
176
     1
 40
1.0
176
     1
 90
        0
176
     1
 62
    18
420
        0
176
     1
 90
       50
176
     1
 90
        3
176
     1
 62
     5
420
      255
176
     1
290
     0
176
     1
 90
       50
176
     1
 90
       50
176
     1
 90
       50
176
     1
290
     0
176
     1
 90
       50
176
     1
 62
   256
176
     0
 40
1.0
176
     0
 90
        2
176
     1
  1
strokes_ogs.tif
176
     1
290
     0
176
     1
 40
1.0
176
     1
 40
1.0
176
     1
  0
VISUALSTYLE
  5
31
102
{ACAD_REACTORS
330
2A
102
}
330
2A
100
AcDbVisualStyle
  2
Hidden
 70
     6
177
     3
291
     0
 70
    58
 90
        1
176
     1
 90
        2
176
     1
 90
        2
176
     1
 90
        0
176
     1
 40
0.6
176
     1
 40
30.0
176
     1
 62
     7
420
 16777215
176
     1
 90
        2
176
     1
 90
        2
176
     1
 62
     7
176
     1
 62
   257
176
     1
 90
        2
176
     1
 90
        1
176
     1
 40
40.0
176
     1
 90
        0
176
     1
 62
   257
176
     1
 40
1.0
176
     1
 90
        1
176
     1
 90
        6
176
     1
 90
        2
176
     1
 62
     7
176
     1
 90
        3
176
     1
 90
        0
176
     1
 90
        0
176
     1
290
     0
176
     1
 90
        1
176
     1
 40
0.0
176
     1
 90
        0
176
     1
290
     0
176
     1
290
     1
176
     1
290
     1
176
     1
290
     0
176
     1
290
     0
176
     1
290
     0
176
     1
290
     0
176
     1
290
     0
176
     1
290
     0
176
     1
 90
       50
176
     1
 40
0.0
176
     1
 40
1.0
176
     1
 90
        0
176
     1
 62
    18
420
        0
176
     1
 90
       50
176
     1
 90
        3
176
     1
 62
     5
420
      255
176
     1
290
     0
176
     1
 90
       50
176
     1
 90
       50
176
     1
 90
       50
176
     1
290
     0
176
     1
 90
       50
176
     1
 62
   256
176
     0
 40
1.0
176
     0
 90
        2
176
     1
  1
strokes_ogs.tif
176
     1
290
     0
176
     1
 40
1.0
176
     1
 40
1.0
176
     1
  0
VISUALSTYLE
  5
3B
102
{ACAD_REACTORS
330
2A
102
}
330
2A
100
AcDbVisualStyle
  2
JitterOff
 70
    20
177
     3
291
     1
 70
    58
 90
        2
176
     0
 90
        2
176
     0
 90
        0
176
     0
 90
        0
176
     0
 40
0.6
176
     0
 40
30.0
176
     0
 62
     7
420
 16777215
176
     0
 90
        1
176
     0
 90
        4
176
     0
 62
     7
176
     0
 62
   257
176
     0
 90
        1
176
     0
 90
        1
176
     0
 40
1.0
176
     0
 90
       10
176
     2
 62
     7
176
     0
 40
1.0
176
     0
 90
        1
176
     0
 90
        6
176
     0
 90
        2
176
     0
 62
     7
176
     0
 90
        5
176
     0
 90
        0
176
     0
 90
        0
176
     0
290
     0
176
     0
 90
        1
176
     0
 40
0.0
176
     0
 90
        0
176
     0
290
     0
176
     0
290
     1
176
     0
290
     1
176
     0
290
     0
176
     0
290
     0
176
     0
290
     0
176
     0
290
     0
176
     0
290
     0
176
     0
290
     0
176
     0
 90
       50
176
     0
 40
0.0
176
     0
 40
1.0
176
     0
 90
        0
176
     0
 62
    18
420
        0
176
     0
 90
       50
176
     0
 90
        3
176
     0
 62
     5
420
      255
176
     0
290
     0
176
     0
 90
       50
176
     0
 90
       50
176
     0
 90
       50
176
     0
290
     0
176
     0
 90
       50
176
     0
 62
   256
176
     0
 40
1.0
176
     0
 90
        2
176
     0
  1
strokes_ogs.tif
176
     0
290
     0
176
     0
 40
1.0
176
     0
 40
1.0
176
     0
  0
VISUALSTYLE
  5
38
102
{ACAD_REACTORS
330
2A
102
}
330
2A
100
AcDbVisualStyle
  2
Linepattern
 70
    14
177
     3
291
     1
 70
    58
 90
        2
176
     1
 90
        2
176
     1
 90
        0
176
     1
 90
        0
176
     1
 40
0.6
176
     1
 40
30.0
176
     1
 62
     7
420
 16777215
176
     1
 90
        1
176
     1
 90
        4
176
     1
 62
     7
176
     1
 62
   257
176
     1
 90
        7
176
     1
 90
        7
176
     1
 40
1.0
176
     1
 90
        8
176
     1
 62
     7
176
     1
 40
1.0
176
     1
 90
        1
176
     1
 90
        6
176
     1
 90
        2
176
     1
 62
     7
176
     1
 90
        5
176
     1
 90
        0
176
     1
 90
        0
176
     1
290
     0
176
     1
 90
        1
176
     1
 40
0.0
176
     1
 90
        0
176
     1
290
     0
176
     1
290
     1
176
     1
290
     1
176
     1
290
     0
176
     1
290
     0
176
     1
290
     0
176
     1
290
     0
176
     1
290
     0
176
     1
290
     0
176
     1
 90
       50
176
     1
 40
0.0
176
     1
 40
1.0
176
     1
 90
        0
176
     1
 62
    18
420
        0
176
     1
 90
       50
176
     1
 90
        3
176
     1
 62
     5
420
      255
176
     1
290
     0
176
     1
 90
       50
176
     1
 90
       50
176
     1
 90
       50
176
     1
290
     0
176
     1
 90
       50
176
     1
 62
   256
176
     0
 40
1.0
176
     0
 90
        2
176
     1
  1
strokes_ogs.tif
176
     1
290
     0
176
     1
 40
1.0
176
     1
 40
1.0
176
     1
  0
VISUALSTYLE
  5
3C
102
{ACAD_REACTORS
330
2A
102
}
330
2A
100
AcDbVisualStyle
  2
OverhangOff
 70
    21
177
     3
291
     1
 70
    58
 90
        2
176
     0
 90
        2
176
     0
 90
        0
176
     0
 90
        0
176
     0
 40
0.6
176
     0
 40
30.0
176
     0
 62
     7
420
 16777215
176
     0
 90
        1
176
     0
 90
        4
176
     0
 62
     7
176
     0
 62
   257
176
     0
 90
        1
176
     0
 90
        1
176
     0
 40
1.0
176
     0
 90
        9
176
     2
 62
     7
176
     0
 40
1.0
176
     0
 90
        1
176
     0
 90
        6
176
     0
 90
        2
176
     0
 62
     7
176
     0
 90
        5
176
     0
 90
        0
176
     0
 90
        0
176
     0
290
     0
176
     0
 90
        1
176
     0
 40
0.0
176
     0
 90
        0
176
     0
290
     0
176
     0
290
     1
176
     0
290
     1
176
     0
290
     0
176
     0
290
     0
176
     0
290
     0
176
     0
290
     0
176
     0
290
     0
176
     0
290
     0
176
     0
 90
       50
176
     0
 40
0.0
176
     0
 40
1.0
176
     0
 90
        0
176
     0
 62
    18
420
        0
176
     0
 90
       50
176
     0
 90
        3
176
     0
 62
     5
420
      255
176
     0
290
     0
176
     0
 90
       50
176
     0
 90
       50
176
     0
 90
       50
176
     0
290
     0
176
     0
 90
       50
176
     0
 62
   256
176
     0
 40
1.0
176
     0
 90
        2
176
     0
  1
strokes_ogs.tif
176
     0
290
     0
176
     0
 40
1.0
176
     0
 40
1.0
176
     0
  0
VISUALSTYLE
  5
33
102
{ACAD_REACTORS
330
2A
102
}
330
2A
100
AcDbVisualStyle
  2
Realistic
 70
     8
177
     3
291
     0
 70
    58
 90
        2
176
     1
 90
        3
176
     1
 90
        0
176
     1
 90
        2
176
     1
 40
0.6
176
     1
 40
30.0
176
     1
 62
     7
420
 16777215
176
     1
 90
        0
176
     1
 90
        0
176
     1
 62
     7
176
     1
 62
   257
176
     1
 90
        1
176
     1
 90
        1
176
     1
 40
1.0
176
     1
 90
        8
176
     1
 62
   257
176
     1
 40
1.0
176
     1
 90
        1
176
     1
 90
        6
176
     1
 90
        2
176
     1
 62
     7
176
     1
 90
        3
176
     1
 90
        0
176
     1
 90
        0
176
     1
290
     0
176
     1
 90
       13
176
     1
 40
0.0
176
     1
 90
        0
176
     1
290
     0
176
     1
290
     1
176
     1
290
     1
176
     1
290
     0
176
     1
290
     0
176
     1
290
     0
176
     1
290
     0
176
     1
290
     0
176
     1
290
     0
176
     1
 90
       50
176
     1
 40
0.0
176
     1
 40
1.0
176
     1
 90
        0
176
     1
 62
    18
420
        0
176
     1
 90
       50
176
     1
 90
        3
176
     1
 62
     5
420
      255
176
     1
290
     0
176
     1
 90
       50
176
     1
 90
       50
176
     1
 90
       50
176
     1
290
     0
176
     1
 90
       50
176
     1
 62
   256
176
     0
 40
1.0
176
     0
 90
        2
176
     1
  1
strokes_ogs.tif
176
     1
290
     0
176
     1
 40
1.0
176
     1
 40
1.0
176
     1
  0
VISUALSTYLE
  5
42
102
{ACAD_REACTORS
330
2A
102
}
330
2A
100
AcDbVisualStyle
  2
Shaded
 70
    27
177
     3
291
     0
 70
    58
 90
        2
176
     1
 90
        2
176
     1
 90
        1
176
     1
 90
        2
176
     1
 40
0.6
176
     1
 40
30.0
176
     1
 62
     7
420
 16777215
176
     1
 90
        0
176
     1
 90
        4
176
     1
 62
     7
176
     1
 62
   257
176
     1
 90
        1
176
     1
 90
        1
176
     1
 40
1.0
176
     1
 90
        8
176
     1
 62
   257
176
     1
 40
1.0
176
     1
 90
        1
176
     1
 90
        6
176
     1
 90
        2
176
     1
 62
     8
420
  7895160
176
     1
 90
        3
176
     1
 90
        0
176
     1
 90
        0
176
     1
290
     0
176
     1
 90
        5
176
     1
 40
0.0
176
     1
 90
        0
176
     1
290
     0
176
     1
290
     1
176
     1
290
     1
176
     1
290
     0
176
     1
290
     0
176
     1
290
     0
176
     1
290
     0
176
     1
290
     0
176
     1
290
     0
176
     1
 90
       50
176
     1
 40
0.0
176
     1
 40
1.0
176
     1
 90
        0
176
     1
 62
    18
420
        0
176
     1
 90
       50
176
     1
 90
        3
176
     1
 62
     5
420
      255
176
     1
290
     0
176
     1
 90
       50
176
     1
 90
       50
176
     1
 90
       50
176
     1
290
     0
176
     1
 90
       50
176
     1
 62
   256
176
     0
 40
1.0
176
     0
 90
        2
176
     1
  1
strokes_ogs.tif
176
     1
290
     0
176
     1
 40
1.0
176
     1
 40
1.0
176
     1
  0
VISUALSTYLE
  5
41
102
{ACAD_REACTORS
330
2A
102
}
330
2A
100
AcDbVisualStyle
  2
Shaded with edges
 70
    26
177
     3
291
     0
 70
    58
 90
        2
176
     1
 90
        2
176
     1
 90
        1
176
     1
 90
        2
176
     1
 40
0.6
176
     1
 40
30.0
176
     1
 62
     7
420
 16777215
176
     1
 90
        1
176
     1
 90
       10
176
     1
 62
     7
176
     1
 62
   257
176
     1
 90
        2
176
     1
 90
        1
176
     1
 40
1.0
176
     1
 90
        8
176
     1
 62
   257
176
     1
 40
1.0
176
     1
 90
        1
176
     1
 90
        6
176
     1
 90
        2
176
     1
 62
     7
176
     1
 90
        3
176
     1
 90
        0
176
     1
 90
        0
176
     1
290
     0
176
     1
 90
        5
176
     1
 40
0.0
176
     1
 90
        0
176
     1
290
     0
176
     1
290
     1
176
     1
290
     1
176
     1
290
     0
176
     1
290
     0
176
     1
290
     0
176
     1
290
     0
176
     1
290
     0
176
     1
290
     0
176
     1
 90
       50
176
     1
 40
0.0
176
     1
 40
1.0
176
     1
 90
        0
176
     1
 62
    18
420
        0
176
     1
 90
       50
176
     1
 90
        3
176
     1
 62
     5
420
      255
176
     1
290
     0
176
     1
 90
       50
176
     1
 90
       50
176
     1
 90
       50
176
     1
290
     0
176
     1
 90
       50
176
     1
 62
   256
176
     0
 40
1.0
176
     0
 90
        2
176
     1
  1
strokes_ogs.tif
176
     1
290
     0
176
     1
 40
1.0
176
     1
 40
1.0
176
     1
  0
VISUALSTYLE
  5
3E
102
{ACAD_REACTORS
330
2A
102
}
330
2A
100
AcDbVisualStyle
  2
Shades of Gray
 70
    23
177
     3
291
     0
 70
    58
 90
        2
176
     1
 90
        2
176
     1
 90
        3
176
     1
 90
        0
176
     1
 40
0.6
176
     1
 40
30.0
176
     1
 62
     7
420
 16777215
176
     1
 90
        2
176
     1
 90
        2
176
     1
 62
     7
176
     1
 62
     7
176
     1
 90
        1
176
     1
 90
        1
176
     1
 40
40.0
176
     1
 90
        8
176
     1
 62
     7
176
     1
 40
1.0
176
     1
 90
        1
176
     1
 90
        6
176
     1
 90
        2
176
     1
 62
     7
176
     1
 90
        3
176
     1
 90
        0
176
     1
 90
        0
176
     1
290
     0
176
     1
 90
        1
176
     1
 40
0.0
176
     1
 90
        0
176
     1
290
     0
176
     1
290
     1
176
     1
290
     1
176
     1
290
     0
176
     1
290
     0
176
     1
290
     0
176
     1
290
     0
176
     1
290
     0
176
     1
290
     0
176
     1
 90
       50
176
     1
 40
0.0
176
     1
 40
1.0
176
     1
 90
        0
176
     1
 62
    18
420
        0
176
     1
 90
       50
176
     1
 90
        3
176
     1
 62
     5
420
      255
176
     1
290
     0
176
     1
 90
       50
176
     1
 90
       50
176
     1
 90
       50
176
     1
290
     0
176
     1
 90
       50
176
     1
 62
   256
176
     0
 40
1.0
176
     0
 90
        2
176
     1
  1
strokes_ogs.tif
176
     1
290
     0
176
     1
 40
1.0
176
     1
 40
1.0
176
     1
  0
VISUALSTYLE
  5
3F
102
{ACAD_REACTORS
330
2A
102
}
330
2A
100
AcDbVisualStyle
  2
Sketchy
 70
    24
177
     3
291
     0
 70
    58
 90
        1
176
     1
 90
        2
176
     1
 90
        2
176
     1
 90
        0
176
     1
 40
0.6
176
     1
 40
30.0
176
     1
 62
     7
420
 16777215
176
     1
 90
        2
176
     1
 90
        2
176
     1
 62
     7
176
     1
 62
     7
176
     1
 90
        1
176
     1
 90
        1
176
     1
 40
40.0
176
     1
 90
       11
176
     1
 62
     7
176
     1
 40
1.0
176
     1
 90
        1
176
     1
 90
        6
176
     1
 90
        2
176
     1
 62
     7
176
     1
 90
        6
176
     1
 90
        0
176
     1
 90
        0
176
     1
290
     0
176
     1
 90
        1
176
     1
 40
0.0
176
     1
 90
        0
176
     1
290
     0
176
     1
290
     1
176
     1
290
     1
176
     1
290
     0
176
     1
290
     0
176
     1
290
     0
176
     1
290
     0
176
     1
290
     0
176
     1
290
     0
176
     1
 90
       50
176
     1
 40
0.0
176
     1
 40
1.0
176
     1
 90
        0
176
     1
 62
    18
420
        0
176
     1
 90
       50
176
     1
 90
        3
176
     1
 62
     5
420
      255
176
     1
290
     0
176
     1
 90
       50
176
     1
 90
       50
176
     1
 90
       50
176
     1
290
     0
176
     1
 90
       50
176
     1
 62
   256
176
     0
 40
1.0
176
     0
 90
        2
176
     1
  1
strokes_ogs.tif
176
     1
290
     0
176
     1
 40
1.0
176
     1
 40
1.0
176
     1
  0
VISUALSTYLE
  5
37
102
{ACAD_REACTORS
330
2A
102
}
330
2A
100
AcDbVisualStyle
  2
Thicken
 70
    13
177
     3
291
     1
 70
    58
 90
        2
176
     1
 90
        2
176
     1
 90
        0
176
     1
 90
        0
176
     1
 40
0.6
176
     1
 40
30.0
176
     1
 62
     7
420
 16777215
176
     1
 90
        1
176
     1
 90
        4
176
     1
 62
     7
176
     1
 62
   257
176
     1
 90
        1
176
     1
 90
        1
176
     1
 40
1.0
176
     1
 90
       12
176
     1
 62
     7
176
     1
 40
1.0
176
     1
 90
        1
176
     1
 90
        6
176
     1
 90
        2
176
     1
 62
     7
176
     1
 90
        5
176
     1
 90
        0
176
     1
 90
        0
176
     1
290
     0
176
     1
 90
        1
176
     1
 40
0.0
176
     1
 90
        0
176
     1
290
     0
176
     1
290
     1
176
     1
290
     1
176
     1
290
     0
176
     1
290
     0
176
     1
290
     0
176
     1
290
     0
176
     1
290
     0
176
     1
290
     0
176
     1
 90
       50
176
     1
 40
0.0
176
     1
 40
1.0
176
     1
 90
        0
176
     1
 62
    18
420
        0
176
     1
 90
       50
176
     1
 90
        3
176
     1
 62
     5
420
      255
176
     1
290
     0
176
     1
 90
       50
176
     1
 90
       50
176
     1
 90
       50
176
     1
290
     0
176
     1
 90
       50
176
     1
 62
   256
176
     0
 40
1.0
176
     0
 90
        2
176
     1
  1
strokes_ogs.tif
176
     1
290
     0
176
     1
 40
1.0
176
     1
 40
1.0
176
     1
  0
VISUALSTYLE
  5
30
102
{ACAD_REACTORS
330
2A
102
}
330
2A
100
AcDbVisualStyle
  2
Wireframe
 70
     5
177
     3
291
     0
 70
    58
 90
        0
176
     1
 90
        2
176
     1
 90
        0
176
     1
 90
        0
176
     1
 40
0.6
176
     1
 40
30.0
176
     1
 62
     7
420
 16777215
176
     1
 90
        1
176
     1
 90
        4
176
     1
 62
     7
176
     1
 62
   257
176
     1
 90
        1
176
     1
 90
        1
176
     1
 40
1.0
176
     1
 90
        0
176
     1
 62
   257
176
     1
 40
1.0
176
     1
 90
        1
176
     1
 90
        6
176
     1
 90
        2
176
     1
 62
     7
176
     1
 90
        3
176
     1
 90
        0
176
     1
 90
        0
176
     1
290
     0
176
     1
 90
        1
176
     1
 40
0.0
176
     1
 90
        0
176
     1
290
     0
176
     1
290
     1
176
     1
290
     1
176
     1
290
     0
176
     1
290
     0
176
     1
290
     0
176
     1
290
     0
176
     1
290
     0
176
     1
290
     0
176
     1
 90
       50
176
     1
 40
0.0
176
     1
 40
1.0
176
     1
 90
        0
176
     1
 62
    18
420
        0
176
     1
 90
       50
176
     1
 90
        3
176
     1
 62
     5
420
      255
176
     1
290
     0
176
     1
 90
       50
176
     1
 90
       50
176
     1
 90
       50
176
     1
290
     0
176
     1
 90
       50
176
     1
 62
   256
176
     0
 40
1.0
176
     0
 90
        2
176
     1
  1
strokes_ogs.tif
176
     1
290
     0
176
     1
 40
1.0
176
     1
 40
1.0
176
     1
  0
VISUALSTYLE
  5
40
102
{ACAD_REACTORS
330
2A
102
}
330
2A
100
AcDbVisualStyle
  2
X-Ray
 70
    25
177
     3
291
     0
 70
    58
 90
        2
176
     1
 90
        2
176
     1
 90
        1
176
     1
 90
        1
176
     1
 40
0.5
176
     1
 40
30.0
176
     1
 62
     7
420
 16777215
176
     1
 90
        1
176
     1
 90
        0
176
     1
 62
     7
176
     1
 62
   257
176
     1
 90
        1
176
     1
 90
        1
176
     1
 40
1.0
176
     1
 90
        8
176
     1
 62
     7
176
     1
 40
1.0
176
     1
 90
        1
176
     1
 90
        6
176
     1
 90
        2
176
     1
 62
     7
176
     1
 90
        3
176
     1
 90
        0
176
     1
 90
        0
176
     1
290
     0
176
     1
 90
       13
176
     1
 40
0.0
176
     1
 90
        0
176
     1
290
     0
176
     1
290
     1
176
     1
290
     1
176
     1
290
     0
176
     1
290
     0
176
     1
290
     0
176
     1
290
     0
176
     1
290
     0
176
     1
290
     0
176
     1
 90
       50
176
     1
 40
0.0
176
     1
 40
1.0
176
     1
 90
        0
176
     1
 62
    18
420
        0
176
     1
 90
       50
176
     1
 90
        3
176
     1
 62
     5
420
      255
176
     1
290
     0
176
     1
 90
       50
176
     1
 90
       50
176
     1
 90
       50
176
     1
290
     0
176
     1
 90
       50
176
     1
 62
   256
176
     0
 40
1.0
176
     0
 90
        2
176
     1
  1
strokes_ogs.tif
176
     1
290
     0
176
     1
 40
1.0
176
     1
 40
1.0
176
     1
  0
DICTIONARYVAR
  5
204
102
{ACAD_REACTORS
330
203
102
}
330
203
100
DictionaryVariables
280
     0
  1
1:1
  0
DICTIONARYVAR
  5
209
102
{ACAD_REACTORS
330
203
102
}
330
203
100
DictionaryVariables
280
     0
  1
Standard
  0
DICTIONARYVAR
  5
208
102
{ACAD_REACTORS
330
203
102
}
330
203
100
DictionaryVariables
280
     0
  1
Standard
  0
DICTIONARY
  5
205
330
6A
100
AcDbDictionary
280
     1
281
     1
  3
ACAD_ROUNDTRIP_2008_TABLESTYLE_CELLSTYLEMAP
360
206
  0
CELLSTYLEMAP
  5
206
102
{ACAD_REACTORS
330
205
102
}
330
205
100
AcDbCellStyleMap
 90
        3
300
CELLSTYLE
  1
TABLEFORMAT_BEGIN
 90
        5
170
     1
 91
        0
 92
    32768
 62
   257
 93
        1
300
CONTENTFORMAT
  1
CONTENTFORMAT_BEGIN
 90
        0
 91
        0
 92
        4
 93
        0
300

 40
0.0
140
1.0
 94
        5
 62
     0
340
11
144
0.25
309
CONTENTFORMAT_END
171
     1
301
MARGIN
  1
CELLMARGIN_BEGIN
 40
0.06
 40
0.06
 40
0.06
 40
0.06
 40
0.06
 40
0.06
309
CELLMARGIN_END
 94
        6
 95
        1
302
GRIDFORMAT
  1
GRIDFORMAT_BEGIN
 90
        0
 91
        1
 62
     0
 92
       -2
340
14
 93
        0
 40
0.045
309
GRIDFORMAT_END
 95
        2
302
GRIDFORMAT
  1
GRIDFORMAT_BEGIN
 90
        0
 91
        1
 62
     0
 92
       -2
340
14
 93
        0
 40
0.045
309
GRIDFORMAT_END
 95
        4
302
GRIDFORMAT
  1
GRIDFORMAT_BEGIN
 90
        0
 91
        1
 62
     0
 92
       -2
340
14
 93
        0
 40
0.045
309
GRIDFORMAT_END
 95
        8
302
GRIDFORMAT
  1
GRIDFORMAT_BEGIN
 90
        0
 91
        1
 62
     0
 92
       -2
340
14
 93
        0
 40
0.045
309
GRIDFORMAT_END
 95
       16
302
GRIDFORMAT
  1
GRIDFORMAT_BEGIN
 90
        0
 91
        1
 62
     0
 92
       -2
340
14
 93
        0
 40
0.045
309
GRIDFORMAT_END
 95
       32
302
GRIDFORMAT
  1
GRIDFORMAT_BEGIN
 90
        0
 91
        1
 62
     0
 92
       -2
340
14
 93
        0
 40
0.045
309
GRIDFORMAT_END
309
TABLEFORMAT_END
  1
CELLSTYLE_BEGIN
 90
        1
 91
        1
300
_TITLE
309
CELLSTYLE_END
300
CELLSTYLE
  1
TABLEFORMAT_BEGIN
 90
        5
170
     1
 91
        0
 92
        0
 62
   257
 93
        1
300
CONTENTFORMAT
  1
CONTENTFORMAT_BEGIN
 90
        0
 91
        0
 92
        4
 93
        0
300

 40
0.0
140
1.0
 94
        5
 62
     0
340
11
144
0.18
309
CONTENTFORMAT_END
171
     1
301
MARGIN
  1
CELLMARGIN_BEGIN
 40
0.06
 40
0.06
 40
0.06
 40
0.06
 40
0.06
 40
0.06
309
CELLMARGIN_END
 94
        6
 95
        1
302
GRIDFORMAT
  1
GRIDFORMAT_BEGIN
 90
        0
 91
        1
 62
     0
 92
       -2
340
14
 93
        0
 40
0.045
309
GRIDFORMAT_END
 95
        2
302
GRIDFORMAT
  1
GRIDFORMAT_BEGIN
 90
        0
 91
        1
 62
     0
 92
       -2
340
14
 93
        0
 40
0.045
309
GRIDFORMAT_END
 95
        4
302
GRIDFORMAT
  1
GRIDFORMAT_BEGIN
 90
        0
 91
        1
 62
     0
 92
       -2
340
14
 93
        0
 40
0.045
309
GRIDFORMAT_END
 95
        8
302
GRIDFORMAT
  1
GRIDFORMAT_BEGIN
 90
        0
 91
        1
 62
     0
 92
       -2
340
14
 93
        0
 40
0.045
309
GRIDFORMAT_END
 95
       16
302
GRIDFORMAT
  1
GRIDFORMAT_BEGIN
 90
        0
 91
        1
 62
     0
 92
       -2
340
14
 93
        0
 40
0.045
309
GRIDFORMAT_END
 95
       32
302
GRIDFORMAT
  1
GRIDFORMAT_BEGIN
 90
        0
 91
        1
 62
     0
 92
       -2
340
14
 93
        0
 40
0.045
309
GRIDFORMAT_END
309
TABLEFORMAT_END
  1
CELLSTYLE_BEGIN
 90
        2
 91
        1
300
_HEADER
309
CELLSTYLE_END
300
CELLSTYLE
  1
TABLEFORMAT_BEGIN
 90
        5
170
     1
 91
        0
 92
        0
 62
   257
 93
        1
300
CONTENTFORMAT
  1
CONTENTFORMAT_BEGIN
 90
        0
 91
        0
 92
        4
 93
        0
300

 40
0.0
140
1.0
 94
        2
 62
     0
340
11
144
0.18
309
CONTENTFORMAT_END
171
     1
301
MARGIN
  1
CELLMARGIN_BEGIN
 40
0.06
 40
0.06
 40
0.06
 40
0.06
 40
0.06
 40
0.06
309
CELLMARGIN_END
 94
        6
 95
        1
302
GRIDFORMAT
  1
GRIDFORMAT_BEGIN
 90
        0
 91
        1
 62
     0
 92
       -2
340
14
 93
        0
 40
0.045
309
GRIDFORMAT_END
 95
        2
302
GRIDFORMAT
  1
GRIDFORMAT_BEGIN
 90
        0
 91
        1
 62
     0
 92
       -2
340
14
 93
        0
 40
0.045
309
GRIDFORMAT_END
 95
        4
302
GRIDFORMAT
  1
GRIDFORMAT_BEGIN
 90
        0
 91
        1
 62
     0
 92
       -2
340
14
 93
        0
 40
0.045
309
GRIDFORMAT_END
 95
        8
302
GRIDFORMAT
  1
GRIDFORMAT_BEGIN
 90
        0
 91
        1
 62
     0
 92
       -2
340
14
 93
        0
 40
0.045
309
GRIDFORMAT_END
 95
       16
302
GRIDFORMAT
  1
GRIDFORMAT_BEGIN
 90
        0
 91
        1
 62
     0
 92
       -2
340
14
 93
        0
 40
0.045
309
GRIDFORMAT_END
 95
       32
302
GRIDFORMAT
  1
GRIDFORMAT_BEGIN
 90
        0
 91
        1
 62
     0
 92
       -2
340
14
 93
        0
 40
0.045
309
GRIDFORMAT_END
309
TABLEFORMAT_END
  1
CELLSTYLE_BEGIN
 90
        3
 91
        2
300
_DATA
309
CELLSTYLE_END
  0
ENDSEC
  0
EOF