0
SECTION
  2
HEADER
  9
$ACADVER
  1
AC1027
  9
$ACADMAINTVER
 70
     8
  9
$DWGCODEPAGE
  3
ANSI_1252
  9
$REQUIREDVERSIONS
160
                 0
  9
$COMMENTS
  1
File was created by Cadenas
  9
$CUSTOMPROPERTYTAG
  1
NN
  9
$CUSTOMPROPERTY
  1
S-2000 Piloted Flange Labyrinth Seal
  9
$CUSTOMPROPERTYTAG
  1
NT
  9
$CUSTOMPROPERTY
  1
S-2000 Piloted Flange Bearing -Inch
  9
$CUSTOMPROPERTYTAG
  1
NB
  9
$CUSTOMPROPERTY
  1
070716
  9
$CUSTOMPROPERTYTAG
  1
NBSYN
  9
$CUSTOMPROPERTY
  1
$PN.
  9
$CUSTOMPROPERTYTAG
  1
LINA
  9
$CUSTOMPROPERTY
  1
070716
  9
$CUSTOMPROPERTYTAG
  1
SS
  9
$CUSTOMPROPERTY
  1
3-15/16
  9
$CUSTOMPROPERTYTAG
  1
PN
  9
$CUSTOMPROPERTY
  1
070716
  9
$CUSTOMPROPERTYTAG
  1
DESCRIPTION
  9
$CUSTOMPROPERTY
  1
FC-S2-315L
  9
$CUSTOMPROPERTYTAG
  1
EF
  9
$CUSTOMPROPERTY
  1
Non-Expansion Type
  9
$CUSTOMPROPERTYTAG
  1
ST
  9
$CUSTOMPROPERTY
  1
Labyrinth Seal
  9
$CUSTOMPROPERTYTAG
  1
A
  9
$CUSTOMPROPERTY
  1
4-15/32
  9
$CUSTOMPROPERTYTAG
  1
B
  9
$CUSTOMPROPERTY
  1
10-7/8
  9
$CUSTOMPROPERTYTAG
  1
C
  9
$CUSTOMPROPERTY
  1
3-1/2
  9
$CUSTOMPROPERTYTAG
  1
D
  9
$CUSTOMPROPERTY
  1
6-5/8
  9
$CUSTOMPROPERTYTAG
  1
DD
  9
$CUSTOMPROPERTY
  1
9-3/8
  9
$CUSTOMPROPERTYTAG
  1
E
  9
$CUSTOMPROPERTY
  1
1-15/32
  9
$CUSTOMPROPERTYTAG
  1
F
  9
$CUSTOMPROPERTY
  1
3/4
  9
$CUSTOMPROPERTYTAG
  1
G
  9
$CUSTOMPROPERTY
  1
2-21/32
  9
$CUSTOMPROPERTYTAG
  1
H
  9
$CUSTOMPROPERTY
  1
1-1/8
  9
$CUSTOMPROPERTYTAG
  1
K
  9
$CUSTOMPROPERTY
  1
8.125
  9
$CUSTOMPROPERTYTAG
  1
L
  9
$CUSTOMPROPERTY
  1
6
  9
$CUSTOMPROPERTYTAG
  1
M
  9
$CUSTOMPROPERTY
  1
3/4-10
  9
$CUSTOMPROPERTYTAG
  1
N
  9
$CUSTOMPROPERTY
  1
4-9/16
  9
$CUSTOMPROPERTYTAG
  1
P
  9
$CUSTOMPROPERTY
  1
1-13/16
  9
$CUSTOMPROPERTYTAG
  1
Q
  9
$CUSTOMPROPERTY
  1
1-29/32
  9
$CUSTOMPROPERTYTAG
  1
X
  9
$CUSTOMPROPERTY
  1
5/16
  9
$CUSTOMPROPERTYTAG
  1
Y
  9
$CUSTOMPROPERTY
  1
0.025
  9
$CUSTOMPROPERTYTAG
  1
Z
  9
$CUSTOMPROPERTY
  1
4-1/2
  9
$CUSTOMPROPERTYTAG
  1
COMPANY
  9
$CUSTOMPROPERTY
  1
baldor
  9
$INSBASE
 10
0.0
 20
0.0
 30
0.0
  9
$EXTMIN
 10
1.000000000000000E+20
 20
1.000000000000000E+20
 30
1.000000000000000E+20
  9
$EXTMAX
 10
-1.000000000000000E+20
 20
-1.000000000000000E+20
 30
-1.000000000000000E+20
  9
$LIMMIN
 10
0.0
 20
0.0
  9
$LIMMAX
 10
12.0
 20
9.0
  9
$ORTHOMODE
 70
     0
  9
$REGENMODE
 70
     1
  9
$FILLMODE
 70
     1
  9
$QTEXTMODE
 70
     0
  9
$MIRRTEXT
 70
     1
  9
$LTSCALE
 40
1.0
  9
$ATTMODE
 70
     1
  9
$TEXTSIZE
 40
0.2
  9
$TRACEWID
 40
0.05
  9
$TEXTSTYLE
  7
Standard
  9
$CLAYER
  8
0
  9
$CELTYPE
  6
ByLayer
  9
$CECOLOR
 62
   256
  9
$CELTSCALE
 40
1.0
  9
$DISPSILH
 70
     0
  9
$DIMSCALE
 40
1.0
  9
$DIMASZ
 40
0.18
  9
$DIMEXO
 40
0.0625
  9
$DIMDLI
 40
0.38
  9
$DIMRND
 40
0.0
  9
$DIMDLE
 40
0.0
  9
$DIMEXE
 40
0.18
  9
$DIMTP
 40
0.0
  9
$DIMTM
 40
0.0
  9
$DIMTXT
 40
0.18
  9
$DIMCEN
 40
0.09
  9
$DIMTSZ
 40
0.0
  9
$DIMTOL
 70
     0
  9
$DIMLIM
 70
     0
  9
$DIMTIH
 70
     1
  9
$DIMTOH
 70
     1
  9
$DIMSE1
 70
     0
  9
$DIMSE2
 70
     0
  9
$DIMTAD
 70
     0
  9
$DIMZIN
 70
     0
  9
$DIMBLK
  1

  9
$DIMASO
 70
     1
  9
$DIMSHO
 70
     1
  9
$DIMPOST
  1

  9
$DIMAPOST
  1

  9
$DIMALT
 70
     0
  9
$DIMALTD
 70
     2
  9
$DIMALTF
 40
25.4
  9
$DIMLFAC
 40
1.0
  9
$DIMTOFL
 70
     0
  9
$DIMTVP
 40
0.0
  9
$DIMTIX
 70
     0
  9
$DIMSOXD
 70
     0
  9
$DIMSAH
 70
     0
  9
$DIMBLK1
  1

  9
$DIMBLK2
  1

  9
$DIMSTYLE
  2
Standard
  9
$DIMCLRD
 70
     0
  9
$DIMCLRE
 70
     0
  9
$DIMCLRT
 70
     0
  9
$DIMTFAC
 40
1.0
  9
$DIMGAP
 40
0.09
  9
$DIMJUST
 70
     0
  9
$DIMSD1
 70
     0
  9
$DIMSD2
 70
     0
  9
$DIMTOLJ
 70
     1
  9
$DIMTZIN
 70
     0
  9
$DIMALTZ
 70
     0
  9
$DIMALTTZ
 70
     0
  9
$DIMUPT
 70
     0
  9
$DIMDEC
 70
     4
  9
$DIMTDEC
 70
     4
  9
$DIMALTU
 70
     2
  9
$DIMALTTD
 70
     2
  9
$DIMTXSTY
  7
Standard
  9
$DIMAUNIT
 70
     0
  9
$DIMADEC
 70
     0
  9
$DIMALTRND
 40
0.0
  9
$DIMAZIN
 70
     0
  9
$DIMDSEP
 70
    46
  9
$DIMATFIT
 70
     3
  9
$DIMFRAC
 70
     0
  9
$DIMLDRBLK
  1

  9
$DIMLUNIT
 70
     2
  9
$DIMLWD
 70
    -2
  9
$DIMLWE
 70
    -2
  9
$DIMTMOVE
 70
     0
  9
$DIMFXL
 40
1.0
  9
$DIMFXLON
 70
     0
  9
$DIMJOGANG
 40
0.7853981633974483
  9
$DIMTFILL
 70
     0
  9
$DIMTFILLCLR
 70
     0
  9
$DIMARCSYM
 70
     0
  9
$DIMLTYPE
  6

  9
$DIMLTEX1
  6

  9
$DIMLTEX2
  6

  9
$DIMTXTDIRECTION
 70
     0
  9
$LUNITS
 70
     2
  9
$LUPREC
 70
     4
  9
$SKETCHINC
 40
0.1
  9
$FILLETRAD
 40
0.5
  9
$AUNITS
 70
     0
  9
$AUPREC
 70
     0
  9
$MENU
  1
.
  9
$ELEVATION
 40
0.0
  9
$PELEVATION
 40
0.0
  9
$THICKNESS
 40
0.0
  9
$LIMCHECK
 70
     0
  9
$CHAMFERA
 40
0.0
  9
$CHAMFERB
 40
0.0
  9
$CHAMFERC
 40
0.0
  9
$CHAMFERD
 40
0.0
  9
$SKPOLY
 70
     0
  9
$TDCREATE
 40
2458168.985398924
  9
$TDUCREATE
 40
2458168.943732257
  9
$TDUPDATE
 40
2458168.985399097
  9
$TDUUPDATE
 40
2458168.943732431
  9
$TDINDWG
 40
0.0000000116
  9
$TDUSRTIMER
 40
0.0000000116
  9
$USRTIMER
 70
     1
  9
$ANGBASE
 50
0.0
  9
$ANGDIR
 70
     0
  9
$PDMODE
 70
     0
  9
$PDSIZE
 40
0.0
  9
$PLINEWID
 40
0.0
  9
$SPLFRAME
 70
     0
  9
$SPLINETYPE
 70
     6
  9
$SPLINESEGS
 70
     8
  9
$HANDSEED
  5
215
  9
$SURFTAB1
 70
     6
  9
$SURFTAB2
 70
     6
  9
$SURFTYPE
 70
     6
  9
$SURFU
 70
     6
  9
$SURFV
 70
     6
  9
$UCSBASE
  2

  9
$UCSNAME
  2

  9
$UCSORG
 10
0.0
 20
0.0
 30
0.0
  9
$UCSXDIR
 10
1.0
 20
0.0
 30
0.0
  9
$UCSYDIR
 10
0.0
 20
1.0
 30
0.0
  9
$UCSORTHOREF
  2

  9
$UCSORTHOVIEW
 70
     0
  9
$UCSORGTOP
 10
0.0
 20
0.0
 30
0.0
  9
$UCSORGBOTTOM
 10
0.0
 20
0.0
 30
0.0
  9
$UCSORGLEFT
 10
0.0
 20
0.0
 30
0.0
  9
$UCSORGRIGHT
 10
0.0
 20
0.0
 30
0.0
  9
$UCSORGFRONT
 10
0.0
 20
0.0
 30
0.0
  9
$UCSORGBACK
 10
0.0
 20
0.0
 30
0.0
  9
$PUCSBASE
  2

  9
$PUCSNAME
  2

  9
$PUCSORG
 10
0.0
 20
0.0
 30
0.0
  9
$PUCSXDIR
 10
1.0
 20
0.0
 30
0.0
  9
$PUCSYDIR
 10
0.0
 20
1.0
 30
0.0
  9
$PUCSORTHOREF
  2

  9
$PUCSORTHOVIEW
 70
     0
  9
$PUCSORGTOP
 10
0.0
 20
0.0
 30
0.0
  9
$PUCSORGBOTTOM
 10
0.0
 20
0.0
 30
0.0
  9
$PUCSORGLEFT
 10
0.0
 20
0.0
 30
0.0
  9
$PUCSORGRIGHT
 10
0.0
 20
0.0
 30
0.0
  9
$PUCSORGFRONT
 10
0.0
 20
0.0
 30
0.0
  9
$PUCSORGBACK
 10
0.0
 20
0.0
 30
0.0
  9
$USERI1
 70
     0
  9
$USERI2
 70
     0
  9
$USERI3
 70
     0
  9
$USERI4
 70
     0
  9
$USERI5
 70
     0
  9
$USERR1
 40
0.0
  9
$USERR2
 40
0.0
  9
$USERR3
 40
0.0
  9
$USERR4
 40
0.0
  9
$USERR5
 40
0.0
  9
$WORLDVIEW
 70
     1
  9
$SHADEDGE
 70
     3
  9
$SHADEDIF
 70
    70
  9
$TILEMODE
 70
     1
  9
$MAXACTVP
 70
    64
  9
$PINSBASE
 10
0.0
 20
0.0
 30
0.0
  9
$PLIMCHECK
 70
     0
  9
$PEXTMIN
 10
1.000000000000000E+20
 20
1.000000000000000E+20
 30
1.000000000000000E+20
  9
$PEXTMAX
 10
-1.000000000000000E+20
 20
-1.000000000000000E+20
 30
-1.000000000000000E+20
  9
$PLIMMIN
 10
0.0
 20
0.0
  9
$PLIMMAX
 10
12.0
 20
9.0
  9
$UNITMODE
 70
     0
  9
$VISRETAIN
 70
     1
  9
$PLINEGEN
 70
     0
  9
$PSLTSCALE
 70
     1
  9
$TREEDEPTH
 70
  3020
  9
$CMLSTYLE
  2
Standard
  9
$CMLJUST
 70
     0
  9
$CMLSCALE
 40
1.0
  9
$PROXYGRAPHICS
 70
     1
  9
$MEASUREMENT
 70
     0
  9
$CELWEIGHT
370
    -1
  9
$ENDCAPS
280
     0
  9
$JOINSTYLE
280
     0
  9
$LWDISPLAY
290
     0
  9
$INSUNITS
 70
     1
  9
$HYPERLINKBASE
  1

  9
$STYLESHEET
  1

  9
$XEDIT
290
     1
  9
$CEPSNTYPE
380
     0
  9
$PSTYLEMODE
290
     1
  9
$FINGERPRINTGUID
  2
{19C9A80F-6C6E-4803-92BF-0B07E5501322}
  9
$VERSIONGUID
  2
{FAEB1C32-E019-11D5-929B-00C0DF256EC4}
  9
$EXTNAMES
290
     1
  9
$PSVPSCALE
 40
0.0
  9
$OLESTARTUP
290
     0
  9
$SORTENTS
280
   127
  9
$INDEXCTL
280
     0
  9
$HIDETEXT
280
     1
  9
$XCLIPFRAME
280
     2
  9
$HALOGAP
280
     0
  9
$OBSCOLOR
 70
   257
  9
$OBSLTYPE
280
     0
  9
$INTERSECTIONDISPLAY
280
     0
  9
$INTERSECTIONCOLOR
 70
   257
  9
$DIMASSOC
280
     2
  9
$PROJECTNAME
  1

  9
$CAMERADISPLAY
290
     0
  9
$LENSLENGTH
 40
50.0
  9
$CAMERAHEIGHT
 40
0.0
  9
$STEPSPERSEC
 40
2.0
  9
$STEPSIZE
 40
6.0
  9
$3DDWFPREC
 40
2.0
  9
$PSOLWIDTH
 40
0.25
  9
$PSOLHEIGHT
 40
4.0
  9
$LOFTANG1
 40
1.570796326794897
  9
$LOFTANG2
 40
1.570796326794897
  9
$LOFTMAG1
 40
0.0
  9
$LOFTMAG2
 40
0.0
  9
$LOFTPARAM
 70
     7
  9
$LOFTNORMALS
280
     1
  9
$LATITUDE
 40
37.795
  9
$LONGITUDE
 40
-122.394
  9
$NORTHDIRECTION
 40
0.0
  9
$TIMEZONE
 70
 -8000
  9
$LIGHTGLYPHDISPLAY
280
     1
  9
$TILEMODELIGHTSYNCH
280
     1
  9
$CMATERIAL
347
44
  9
$SOLIDHIST
280
     0
  9
$SHOWHIST
280
     1
  9
$DWFFRAME
280
     2
  9
$DGNFRAME
280
     2
  9
$REALWORLDSCALE
290
     1
  9
$INTERFERECOLOR
 62
   256
  9
$CSHADOW
280
     0
  9
$SHADOWPLANELOCATION
 40
0.0
  0
ENDSEC
  0
SECTION
  2
CLASSES
  0
CLASS
  1
ACDBDICTIONARYWDFLT
  2
AcDbDictionaryWithDefault
  3
ObjectDBX Classes
 90
        0
 91
        4
280
     0
281
     0
  0
CLASS
  1
VISUALSTYLE
  2
AcDbVisualStyle
  3
ObjectDBX Classes
 90
     4095
 91
        4
280
     0
281
     0
  0
CLASS
  1
MATERIAL
  2
AcDbMaterial
  3
ObjectDBX Classes
 90
     1153
 91
        4
280
     0
281
     0
  0
CLASS
  1
SCALE
  2
AcDbScale
  3
ObjectDBX Classes
 90
     1153
 91
        4
280
     0
281
     0
  0
CLASS
  1
TABLESTYLE
  2
AcDbTableStyle
  3
ObjectDBX Classes
 90
     4095
 91
        4
280
     0
281
     0
  0
CLASS
  1
MLEADERSTYLE
  2
AcDbMLeaderStyle
  3
ACDB_MLEADERSTYLE_CLASS
 90
     4095
 91
        4
280
     0
281
     0
  0
CLASS
  1
SUN
  2
AcDbSun
  3
SCENEOE
 90
     1153
 91
        4
280
     0
281
     0
  0
CLASS
  1
DICTIONARYVAR
  2
AcDbDictionaryVar
  3
ObjectDBX Classes
 90
        0
 91
        4
280
     0
281
     0
  0
CLASS
  1
CELLSTYLEMAP
  2
AcDbCellStyleMap
  3
ObjectDBX Classes
 90
     1152
 91
        4
280
     0
281
     0
  0
ENDSEC
  0
SECTION
  2
TABLES
  0
TABLE
  2
VPORT
  5
8
330
0
100
AcDbSymbolTable
 70
     1
  0
VPORT
  5
29
330
8
100
AcDbSymbolTableRecord
100
AcDbViewportTableRecord
  2
*Active
 70
     0
 10
0.0
 20
0.0
 11
1.0
 21
1.0
 12
0.0700156249999999
 22
0.003844997731397
 13
0.0
 23
0.0
 14
0.5
 24
0.5
 15
0.5
 25
0.5
 16
0.0
 26
0.0
 36
1.0
 17
0.0
 27
0.0
 37
0.0
 40
11.08465620462795
 41
0.5430017867840606
 42
50.0
 43
0.0
 44
0.0
 50
0.0
 51
0.0
 71
     0
 72
   100
 73
     1
 74
     3
 75
     0
 76
     0
 77
     0
 78
     0
281
     0
 65
     1
110
0.0
120
0.0
130
0.0
111
1.0
121
0.0
131
0.0
112
0.0
122
1.0
132
0.0
 79
     0
146
0.0
348
2F
 60
     3
 61
     5
292
     1
282
     1
141
0.0
142
0.0
 63
   250
361
6D
  0
ENDTAB
  0
TABLE
  2
LTYPE
  5
5
330
0
100
AcDbSymbolTable
 70
     3
  0
LTYPE
  5
14
330
5
100
AcDbSymbolTableRecord
100
AcDbLinetypeTableRecord
  2
ByBlock
 70
     0
  3

 72
    65
 73
     0
 40
0.0
  0
LTYPE
  5
15
330
5
100
AcDbSymbolTableRecord
100
AcDbLinetypeTableRecord
  2
ByLayer
 70
     0
  3

 72
    65
 73
     0
 40
0.0
  0
LTYPE
  5
16
330
5
100
AcDbSymbolTableRecord
100
AcDbLinetypeTableRecord
  2
Continuous
 70
     0
  3
Solid line
 72
    65
 73
     0
 40
0.0
  0
LTYPE
  5
A7
330
5
100
AcDbSymbolTableRecord
100
AcDbLinetypeTableRecord
  2
Dashed
 70
     0
  3

 72
    65
 73
     2
 40
2.0
 49
1.0
 74
     0
 49
-1.0
 74
     0
  0
LTYPE
  5
15F
330
5
100
AcDbSymbolTableRecord
100
AcDbLinetypeTableRecord
  2
Center
 70
     0
  3

 72
    65
 73
     4
 40
1.5
 49
0.45
 74
     0
 49
-0.5
 74
     0
 49
0.05
 74
     0
 49
-0.5
 74
     0
  0
ENDTAB
  0
TABLE
  2
LAYER
  5
2
330
0
100
AcDbSymbolTable
 70
     7
  0
LAYER
  5
10
330
2
100
AcDbSymbolTableRecord
100
AcDbLayerTableRecord
  2
0
 70
     0
 62
     7
  6
Continuous
370
    -3
390
F
347
46
348
0
  0
LAYER
  5
72
330
2
100
AcDbSymbolTableRecord
100
AcDbLayerTableRecord
  2
AM_6
 70
     0
 62
    -2
  6
Continuous
370
    35
390
F
347
46
348
0
  0
LAYER
  5
A8
330
2
100
AcDbSymbolTableRecord
100
AcDbLayerTableRecord
  2
AM_9
 70
     0
 62
     6
  6
Dashed
370
    25
390
F
347
46
348
0
  0
LAYER
  5
E1
330
2
100
AcDbSymbolTableRecord
100
AcDbLayerTableRecord
  2
AM_5
 70
     0
 62
     3
  6
Continuous
370
    25
390
F
347
46
348
0
  0
LAYER
  5
E6
330
2
100
AcDbSymbolTableRecord
100
AcDbLayerTableRecord
  2
AM_4
 70
     0
 62
     7
  6
Continuous
370
    50
390
F
347
46
348
0
  0
LAYER
  5
160
330
2
100
AcDbSymbolTableRecord
100
AcDbLayerTableRecord
  2
AM_7
 70
     0
 62
     7
  6
Center
370
    25
390
F
347
46
348
0
  0
LAYER
  5
201
330
2
100
AcDbSymbolTableRecord
100
AcDbLayerTableRecord
  2
ConnectionPoints
 70
     0
 62
     7
  6
Continuous
370
    50
390
F
347
46
348
0
  0
ENDTAB
  0
TABLE
  2
STYLE
  5
3
330
0
100
AcDbSymbolTable
 70
     1
  0
STYLE
  5
11
330
3
100
AcDbSymbolTableRecord
100
AcDbTextStyleTableRecord
  2
Standard
 70
     0
 40
0.0
 41
1.0
 50
0.0
 71
     0
 42
0.2
  3
txt
  4

  0
ENDTAB
  0
TABLE
  2
VIEW
  5
6
330
0
100
AcDbSymbolTable
 70
     0
  0
ENDTAB
  0
TABLE
  2
UCS
  5
7
330
0
100
AcDbSymbolTable
 70
     0
  0
ENDTAB
  0
TABLE
  2
APPID
  5
9
330
0
100
AcDbSymbolTable
 70
     1
  0
APPID
  5
12
330
9
100
AcDbSymbolTableRecord
100
AcDbRegAppTableRecord
  2
ACAD
 70
     0
  0
ENDTAB
  0
TABLE
  2
DIMSTYLE
  5
A
330
0
100
AcDbSymbolTable
 70
     1
100
AcDbDimStyleTable
  0
DIMSTYLE
105
27
330
A
100
AcDbSymbolTableRecord
100
AcDbDimStyleTableRecord
  2
Standard
 70
     0
178
     0
340
11
  0
ENDTAB
  0
TABLE
  2
BLOCK_RECORD
  5
1
330
0
100
AcDbSymbolTable
 70
     7
  0
BLOCK_RECORD
  5
1F
330
1
100
AcDbSymbolTableRecord
100
AcDbBlockTableRecord
  2
*Model_Space
340
22
 70
     0
280
     1
281
     0
  0
BLOCK_RECORD
  5
1B
330
1
100
AcDbSymbolTableRecord
100
AcDbBlockTableRecord
  2
*Paper_Space
340
1E
 70
     0
280
     1
281
     0
  0
BLOCK_RECORD
  5
23
330
1
100
AcDbSymbolTableRecord
100
AcDbBlockTableRecord
  2
*Paper_Space0
340
26
 70
     0
280
     1
281
     0
  0
BLOCK_RECORD
  5
6E
330
1
100
AcDbSymbolTableRecord
100
AcDbBlockTableRecord
  2
1_070716_2
340
0
102
{BLKREFS
331
6F
102
}
 70
     0
280
     1
281
     0
  0
BLOCK_RECORD
  5
90
330
1
100
AcDbSymbolTableRecord
100
AcDbBlockTableRecord
  2
2_3_15_16_Disc_0_in_070716_2
340
0
102
{BLKREFS
331
91
102
}
 70
     0
280
     1
281
     0
  0
BLOCK_RECORD
  5
B4
330
1
100
AcDbSymbolTableRecord
100
AcDbBlockTableRecord
  2
3_3_15_16CS2i_0_in_070716_2
340
0
102
{BLKREFS
331
B5
102
}
 70
     0
280
     1
281
     0
  0
BLOCK_RECORD
  5
101
330
1
100
AcDbSymbolTableRecord
100
AcDbBlockTableRecord
  2
4_070029i_0_in_070716_2
340
0
102
{BLKREFS
331
102
102
}
 70
     0
280
     1
281
     0
  0
BLOCK_RECORD
  5
165
330
1
100
AcDbSymbolTableRecord
100
AcDbBlockTableRecord
  2
5_405015E_Inch_0_in_070716_2
340
0
102
{BLKREFS
331
166
102
}
 70
     0
280
     1
281
     0
  0
BLOCK_RECORD
  5
19E
330
1
100
AcDbSymbolTableRecord
100
AcDbBlockTableRecord
  2
6_070716H_0_in_070716_2
340
0
102
{BLKREFS
331
19F
102
}
 70
     0
280
     1
281
     0
  0
ENDTAB
  0
ENDSEC
  0
SECTION
  2
BLOCKS
  0
BLOCK
  5
20
330
1F
100
AcDbEntity
  8
0
100
AcDbBlockBegin
  2
*Model_Space
 70
     0
 10
0.0
 20
0.0
 30
0.0
  3
*Model_Space
  1

  0
ENDBLK
  5
21
330
1F
100
AcDbEntity
  8
0
100
AcDbBlockEnd
  0
BLOCK
  5
1C
330
1B
100
AcDbEntity
 67
     1
  8
0
100
AcDbBlockBegin
  2
*Paper_Space
 70
     0
 10
0.0
 20
0.0
 30
0.0
  3
*Paper_Space
  1

  0
ENDBLK
  5
1D
330
1B
100
AcDbEntity
 67
     1
  8
0
100
AcDbBlockEnd
  0
BLOCK
  5
24
330
23
100
AcDbEntity
  8
0
100
AcDbBlockBegin
  2
*Paper_Space0
 70
     0
 10
0.0
 20
0.0
 30
0.0
  3
*Paper_Space0
  1

  0
ENDBLK
  5
25
330
23
100
AcDbEntity
  8
0
100
AcDbBlockEnd
  0
BLOCK
  5
70
330
6E
100
AcDbEntity
  8
0
100
AcDbBlockBegin
  2
1_070716_2
 70
     2
 10
0.0
 20
0.0
 30
0.0
  3
1_070716_2
  1

  0
ATTDEF
  5
73
330
6E
100
AcDbEntity
  8
AM_6
100
AcDbText
 10
7.090460526315789
 20
5.4375
 30
0.0
 40
0.5
  1
S-2000 Piloted Flange Labyrinth Seal
100
AcDbAttributeDefinition
  3

  2
NN
 70
     8
280
     0
  0
ATTDEF
  5
74
330
6E
100
AcDbEntity
  8
AM_6
100
AcDbText
 10
7.090460526315789
 20
4.9375
 30
0.0
 40
0.5
  1
S-2000 Piloted Flange Bearing -Inch
100
AcDbAttributeDefinition
  3

  2
NT
 70
     8
280
     0
  0
ATTDEF
  5
75
330
6E
100
AcDbEntity
  8
AM_6
100
AcDbText
 10
7.090460526315789
 20
4.4375
 30
0.0
 40
0.5
  1
070716
100
AcDbAttributeDefinition
  3

  2
NB
 70
     8
280
     0
  0
ATTDEF
  5
76
330
6E
100
AcDbEntity
  8
AM_6
100
AcDbText
 10
7.090460526315789
 20
3.9375
 30
0.0
 40
0.5
  1
$PN.
100
AcDbAttributeDefinition
  3

  2
NBSYN
 70
     8
280
     0
  0
ATTDEF
  5
77
330
6E
100
AcDbEntity
  8
AM_6
100
AcDbText
 10
7.090460526315789
 20
3.4375
 30
0.0
 40
0.5
  1
070716
100
AcDbAttributeDefinition
  3

  2
LINA
 70
     8
280
     0
  0
ATTDEF
  5
78
330
6E
100
AcDbEntity
  8
AM_6
100
AcDbText
 10
7.090460526315789
 20
2.9375
 30
0.0
 40
0.5
  1
3-15/16
100
AcDbAttributeDefinition
  3

  2
SS
 70
     8
280
     0
  0
ATTDEF
  5
79
330
6E
100
AcDbEntity
  8
AM_6
100
AcDbText
 10
7.090460526315789
 20
2.4375
 30
0.0
 40
0.5
  1
070716
100
AcDbAttributeDefinition
  3

  2
PN
 70
     8
280
     0
  0
ATTDEF
  5
7A
330
6E
100
AcDbEntity
  8
AM_6
100
AcDbText
 10
7.090460526315789
 20
1.9375
 30
0.0
 40
0.5
  1
FC-S2-315L
100
AcDbAttributeDefinition
  3

  2
DESCRIPTION
 70
     8
280
     0
  0
ATTDEF
  5
7B
330
6E
100
AcDbEntity
  8
AM_6
100
AcDbText
 10
7.090460526315789
 20
1.4375
 30
0.0
 40
0.5
  1
Non-Expansion Type
100
AcDbAttributeDefinition
  3

  2
EF
 70
     8
280
     0
  0
ATTDEF
  5
7C
330
6E
100
AcDbEntity
  8
AM_6
100
AcDbText
 10
7.090460526315789
 20
0.9375
 30
0.0
 40
0.5
  1
Labyrinth Seal
100
AcDbAttributeDefinition
  3

  2
ST
 70
     8
280
     0
  0
ATTDEF
  5
7D
330
6E
100
AcDbEntity
  8
AM_6
100
AcDbText
 10
7.090460526315789
 20
0.4375
 30
0.0
 40
0.5
  1
4-15/32
100
AcDbAttributeDefinition
  3

  2
A
 70
     8
280
     0
  0
ATTDEF
  5
7E
330
6E
100
AcDbEntity
  8
AM_6
100
AcDbText
 10
7.090460526315789
 20
-0.0625
 30
0.0
 40
0.5
  1
10-7/8
100
AcDbAttributeDefinition
  3

  2
B
 70
     8
280
     0
  0
ATTDEF
  5
7F
330
6E
100
AcDbEntity
  8
AM_6
100
AcDbText
 10
7.090460526315789
 20
-0.5625
 30
0.0
 40
0.5
  1
3-1/2
100
AcDbAttributeDefinition
  3

  2
C
 70
     8
280
     0
  0
ATTDEF
  5
80
330
6E
100
AcDbEntity
  8
AM_6
100
AcDbText
 10
7.090460526315789
 20
-1.0625
 30
0.0
 40
0.5
  1
6-5/8
100
AcDbAttributeDefinition
  3

  2
D
 70
     8
280
     0
  0
ATTDEF
  5
81
330
6E
100
AcDbEntity
  8
AM_6
100
AcDbText
 10
7.090460526315789
 20
-1.5625
 30
0.0
 40
0.5
  1
9-3/8
100
AcDbAttributeDefinition
  3

  2
DD
 70
     8
280
     0
  0
ATTDEF
  5
82
330
6E
100
AcDbEntity
  8
AM_6
100
AcDbText
 10
7.090460526315789
 20
-2.0625
 30
0.0
 40
0.5
  1
1-15/32
100
AcDbAttributeDefinition
  3

  2
E
 70
     8
280
     0
  0
ATTDEF
  5
83
330
6E
100
AcDbEntity
  8
AM_6
100
AcDbText
 10
7.090460526315789
 20
-2.5625
 30
0.0
 40
0.5
  1
3/4
100
AcDbAttributeDefinition
  3

  2
F
 70
     8
280
     0
  0
ATTDEF
  5
84
330
6E
100
AcDbEntity
  8
AM_6
100
AcDbText
 10
7.090460526315789
 20
-3.0625
 30
0.0
 40
0.5
  1
2-21/32
100
AcDbAttributeDefinition
  3

  2
G
 70
     8
280
     0
  0
ATTDEF
  5
85
330
6E
100
AcDbEntity
  8
AM_6
100
AcDbText
 10
7.090460526315789
 20
-3.5625
 30
0.0
 40
0.5
  1
1-1/8
100
AcDbAttributeDefinition
  3

  2
H
 70
     8
280
     0
  0
ATTDEF
  5
86
330
6E
100
AcDbEntity
  8
AM_6
100
AcDbText
 10
7.090460526315789
 20
-4.0625
 30
0.0
 40
0.5
  1
8.125
100
AcDbAttributeDefinition
  3

  2
K
 70
     8
280
     0
  0
ATTDEF
  5
87
330
6E
100
AcDbEntity
  8
AM_6
100
AcDbText
 10
7.090460526315789
 20
-4.5625
 30
0.0
 40
0.5
  1
6
100
AcDbAttributeDefinition
  3

  2
L
 70
     8
280
     0
  0
ATTDEF
  5
88
330
6E
100
AcDbEntity
  8
AM_6
100
AcDbText
 10
7.090460526315789
 20
-5.0625
 30
0.0
 40
0.5
  1
3/4-10
100
AcDbAttributeDefinition
  3

  2
M
 70
     8
280
     0
  0
ATTDEF
  5
89
330
6E
100
AcDbEntity
  8
AM_6
100
AcDbText
 10
7.090460526315789
 20
-5.5625
 30
0.0
 40
0.5
  1
4-9/16
100
AcDbAttributeDefinition
  3

  2
N
 70
     8
280
     0
  0
ATTDEF
  5
8A
330
6E
100
AcDbEntity
  8
AM_6
100
AcDbText
 10
7.090460526315789
 20
-6.0625
 30
0.0
 40
0.5
  1
1-13/16
100
AcDbAttributeDefinition
  3

  2
P
 70
     8
280
     0
  0
ATTDEF
  5
8B
330
6E
100
AcDbEntity
  8
AM_6
100
AcDbText
 10
7.090460526315789
 20
-6.5625
 30
0.0
 40
0.5
  1
1-29/32
100
AcDbAttributeDefinition
  3

  2
Q
 70
     8
280
     0
  0
ATTDEF
  5
8C
330
6E
100
AcDbEntity
  8
AM_6
100
AcDbText
 10
7.090460526315789
 20
-7.0625
 30
0.0
 40
0.5
  1
5/16
100
AcDbAttributeDefinition
  3

  2
X
 70
     8
280
     0
  0
ATTDEF
  5
8D
330
6E
100
AcDbEntity
  8
AM_6
100
AcDbText
 10
7.090460526315789
 20
-7.5625
 30
0.0
 40
0.5
  1
0.025
100
AcDbAttributeDefinition
  3

  2
Y
 70
     8
280
     0
  0
ATTDEF
  5
8E
330
6E
100
AcDbEntity
  8
AM_6
100
AcDbText
 10
7.090460526315789
 20
-8.0625
 30
0.0
 40
0.5
  1
4-1/2
100
AcDbAttributeDefinition
  3

  2
Z
 70
     8
280
     0
  0
ATTDEF
  5
8F
330
6E
100
AcDbEntity
  8
AM_6
100
AcDbText
 10
7.090460526315789
 20
-8.5625
 30
0.0
 40
0.5
  1
baldor
100
AcDbAttributeDefinition
  3

  2
COMPANY
 70
     8
280
     0
  0
INSERT
  5
91
330
6E
100
AcDbEntity
  8
0
100
AcDbBlockReference
  2
2_3_15_16_Disc_0_in_070716_2
 10
0.0
 20
0.0
 30
0.0
  0
INSERT
  5
B5
330
6E
100
AcDbEntity
  8
0
100
AcDbBlockReference
  2
3_3_15_16CS2i_0_in_070716_2
 10
0.0
 20
0.0
 30
0.0
  0
INSERT
  5
102
330
6E
100
AcDbEntity
  8
0
100
AcDbBlockReference
  2
4_070029i_0_in_070716_2
 10
0.0
 20
0.0
 30
0.0
  0
INSERT
  5
166
330
6E
100
AcDbEntity
  8
0
100
AcDbBlockReference
  2
5_405015E_Inch_0_in_070716_2
 10
0.0
 20
0.0
 30
0.0
  0
INSERT
  5
19F
330
6E
100
AcDbEntity
  8
0
100
AcDbBlockReference
  2
6_070716H_0_in_070716_2
 10
0.0
 20
0.0
 30
0.0
  0
ENDBLK
  5
71
330
6E
100
AcDbEntity
  8
0
100
AcDbBlockEnd
  0
BLOCK
  5
92
330
90
100
AcDbEntity
  8
0
100
AcDbBlockBegin
  2
2_3_15_16_Disc_0_in_070716_2
 70
     2
 10
0.0
 20
0.0
 30
0.0
  3
2_3_15_16_Disc_0_in_070716_2
  1

  0
ATTDEF
  5
94
330
90
100
AcDbEntity
  8
AM_6
100
AcDbText
 10
6.859375
 20
3.5433
 30
0.0
 40
0.5
  1
S-2000 -Disc -Inch
100
AcDbAttributeDefinition
  3

  2
NN
 70
     8
280
     0
  0
ATTDEF
  5
95
330
90
100
AcDbEntity
  8
AM_6
100
AcDbText
 10
6.859375
 20
3.0433
 30
0.0
 40
0.5
  1
S-2000 Bearings
100
AcDbAttributeDefinition
  3

  2
NT
 70
     8
280
     0
  0
ATTDEF
  5
96
330
90
100
AcDbEntity
  8
AM_6
100
AcDbText
 10
6.859375
 20
2.5433
 30
0.0
 40
0.5
  1
3-15/16-Disc
100
AcDbAttributeDefinition
  3

  2
NB
 70
     8
280
     0
  0
ATTDEF
  5
97
330
90
100
AcDbEntity
  8
AM_6
100
AcDbText
 10
6.859375
 20
2.0433
 30
0.0
 40
0.5
  1
$SS.-Disc
100
AcDbAttributeDefinition
  3

  2
NBSYN
 70
     8
280
     0
  0
ATTDEF
  5
98
330
90
100
AcDbEntity
  8
AM_6
100
AcDbText
 10
6.859375
 20
1.5433
 30
0.0
 40
0.5
  1
3-15/16-Disc
100
AcDbAttributeDefinition
  3

  2
LINA
 70
     8
280
     0
  0
ATTDEF
  5
99
330
90
100
AcDbEntity
  8
AM_6
100
AcDbText
 10
6.859375
 20
1.0433
 30
0.0
 40
0.5
  1
3-15/16
100
AcDbAttributeDefinition
  3

  2
SS
 70
     8
280
     0
  0
ATTDEF
  5
9A
330
90
100
AcDbEntity
  8
AM_6
100
AcDbText
 10
6.859375
 20
0.5432999999999999
 30
0.0
 40
0.5
  1
4.50
100
AcDbAttributeDefinition
  3

  2
CC
 70
     8
280
     0
  0
ATTDEF
  5
9B
330
90
100
AcDbEntity
  8
AM_6
100
AcDbText
 10
6.859375
 20
0.0432999999999999
 30
0.0
 40
0.5
  1
0.66
100
AcDbAttributeDefinition
  3

  2
CSD
 70
     8
280
     0
  0
ATTDEF
  5
9C
330
90
100
AcDbEntity
  8
AM_6
100
AcDbText
 10
6.859375
 20
-0.4567000000000001
 30
0.0
 40
0.5
  1
3.937500
100
AcDbAttributeDefinition
  3

  2
SS1
 70
     8
280
     0
  0
ATTDEF
  5
9D
330
90
100
AcDbEntity
  8
AM_6
100
AcDbText
 10
6.859375
 20
-0.9567000000000001
 30
0.0
 40
0.5
  1
7.0866
100
AcDbAttributeDefinition
  3

  2
A
 70
     8
280
     0
  0
ATTDEF
  5
9E
330
90
100
AcDbEntity
  8
AM_6
100
AcDbText
 10
6.859375
 20
-1.4567
 30
0.0
 40
0.5
  1
1-7/8
100
AcDbAttributeDefinition
  3

  2
B
 70
     8
280
     0
  0
ATTDEF
  5
9F
330
90
100
AcDbEntity
  8
AM_6
100
AcDbText
 10
6.859375
 20
-1.9567
 30
0.0
 40
0.5
  1
1.875000
100
AcDbAttributeDefinition
  3

  2
B1
 70
     8
280
     0
  0
ATTDEF
  5
A0
330
90
100
AcDbEntity
  8
AM_6
100
AcDbText
 10
6.859375
 20
-2.4567
 30
0.0
 40
0.5
  1
4-31/64
100
AcDbAttributeDefinition
  3

  2
C
 70
     8
280
     0
  0
ATTDEF
  5
A1
330
90
100
AcDbEntity
  8
AM_6
100
AcDbText
 10
6.859375
 20
-2.9567
 30
0.0
 40
0.5
  1
4.484375
100
AcDbAttributeDefinition
  3

  2
C1
 70
     8
280
     0
  0
ATTDEF
  5
A2
330
90
100
AcDbEntity
  8
AM_6
100
AcDbText
 10
6.859375
 20
-3.4567
 30
0.0
 40
0.5
  1
1.646
100
AcDbAttributeDefinition
  3

  2
D
 70
     8
280
     0
  0
ATTDEF
  5
A3
330
90
100
AcDbEntity
  8
AM_6
100
AcDbText
 10
6.859375
 20
-3.9567
 30
0.0
 40
0.5
  1
6
100
AcDbAttributeDefinition
  3

  2
E
 70
     8
280
     0
  0
ATTDEF
  5
A4
330
90
100
AcDbEntity
  8
AM_6
100
AcDbText
 10
6.859375
 20
-4.4567
 30
0.0
 40
0.5
  1
6.000000
100
AcDbAttributeDefinition
  3

  2
E1
 70
     8
280
     0
  0
ATTDEF
  5
A5
330
90
100
AcDbEntity
  8
AM_6
100
AcDbText
 10
6.859375
 20
-4.9567
 30
0.0
 40
0.5
  1
0.505
100
AcDbAttributeDefinition
  3

  2
F
 70
     8
280
     0
  0
ATTDEF
  5
A6
330
90
100
AcDbEntity
  8
AM_6
100
AcDbText
 10
6.859375
 20
-5.4567
 30
0.0
 40
0.5
  1
baldor
100
AcDbAttributeDefinition
  3

  2
COMPANY
 70
     8
280
     0
  0
LINE
  5
A9
330
90
100
AcDbEntity
  8
AM_9
100
AcDbLine
 10
1.765625
 20
-2.25
 30
0.0
 11
1.859375
 21
-2.25
 31
0.0
  0
LINE
  5
AA
330
90
100
AcDbEntity
  8
AM_9
100
AcDbLine
 10
1.859375
 20
2.25
 30
0.0
 11
1.765625
 21
2.25
 31
0.0
  0
LINE
  5
AB
330
90
100
AcDbEntity
  8
AM_9
100
AcDbLine
 10
1.459375
 20
-3.44955
 30
0.0
 11
1.765625
 21
-3.44955
 31
0.0
  0
LINE
  5
AC
330
90
100
AcDbEntity
  8
AM_9
100
AcDbLine
 10
1.765625
 20
3.44955
 30
0.0
 11
1.459375
 21
3.44955
 31
0.0
  0
LINE
  5
AD
330
90
100
AcDbEntity
  8
AM_9
100
AcDbLine
 10
1.459375
 20
-3.5433
 30
0.0
 11
1.765625
 21
-3.5433
 31
0.0
  0
LINE
  5
AE
330
90
100
AcDbEntity
  8
AM_9
100
AcDbLine
 10
1.765625
 20
3.5433
 30
0.0
 11
1.459375
 21
3.5433
 31
0.0
  0
LINE
  5
AF
330
90
100
AcDbEntity
  8
AM_9
100
AcDbLine
 10
1.459375
 20
3.5433
 30
0.0
 11
1.459375
 21
-3.5433
 31
0.0
  0
LINE
  5
B0
330
90
100
AcDbEntity
  8
AM_9
100
AcDbLine
 10
1.859375
 20
3.44955
 30
0.0
 11
1.859375
 21
-3.44955
 31
0.0
  0
ARC
  5
B1
330
90
100
AcDbEntity
  8
AM_9
100
AcDbCircle
 10
1.765625
 20
-3.44955
 30
0.0
 40
0.09375
100
AcDbArc
 50
270.0
 51
0.0
  0
ARC
  5
B2
330
90
100
AcDbEntity
  8
AM_9
100
AcDbCircle
 10
1.765625
 20
3.44955
 30
0.0
 40
0.0937499999999998
100
AcDbArc
 50
0.0
 51
90.0
  0
LINE
  5
B3
330
90
100
AcDbEntity
  8
AM_9
100
AcDbLine
 10
1.765625
 20
3.5433
 30
0.0
 11
1.765625
 21
-3.5433
 31
0.0
  0
ENDBLK
  5
93
330
90
100
AcDbEntity
  8
0
100
AcDbBlockEnd
  0
BLOCK
  5
B6
330
B4
100
AcDbEntity
  8
0
100
AcDbBlockBegin
  2
3_3_15_16CS2i_0_in_070716_2
 70
     2
 10
0.0
 20
0.0
 30
0.0
  3
3_3_15_16CS2i_0_in_070716_2
  1

  0
ATTDEF
  5
B8
330
B4
100
AcDbEntity
  8
AM_6
100
AcDbText
 10
3.35375
 20
3.0
 30
0.0
 40
0.5
  1
S-2000 Collar -Inch
100
AcDbAttributeDefinition
  3

  2
NN
 70
     8
280
     0
  0
ATTDEF
  5
B9
330
B4
100
AcDbEntity
  8
AM_6
100
AcDbText
 10
3.35375
 20
2.5
 30
0.0
 40
0.5
  1
S-2000 Bearings
100
AcDbAttributeDefinition
  3

  2
NT
 70
     8
280
     0
  0
ATTDEF
  5
BA
330
B4
100
AcDbEntity
  8
AM_6
100
AcDbText
 10
3.35375
 20
2.0
 30
0.0
 40
0.5
  1
3-15/16CS2i
100
AcDbAttributeDefinition
  3

  2
NB
 70
     8
280
     0
  0
ATTDEF
  5
BB
330
B4
100
AcDbEntity
  8
AM_6
100
AcDbText
 10
3.35375
 20
1.5
 30
0.0
 40
0.5
  1
$BORE.CS2i
100
AcDbAttributeDefinition
  3

  2
NBSYN
 70
     8
280
     0
  0
ATTDEF
  5
BC
330
B4
100
AcDbEntity
  8
AM_6
100
AcDbText
 10
3.35375
 20
0.9999999999999996
 30
0.0
 40
0.5
  1
3-15/16CS2i
100
AcDbAttributeDefinition
  3

  2
LINA
 70
     8
280
     0
  0
ATTDEF
  5
BD
330
B4
100
AcDbEntity
  8
AM_6
100
AcDbText
 10
3.35375
 20
0.4999999999999996
 30
0.0
 40
0.5
  1
3-15/16
100
AcDbAttributeDefinition
  3

  2
BORE
 70
     8
280
     0
  0
ATTDEF
  5
BE
330
B4
100
AcDbEntity
  8
AM_6
100
AcDbText
 10
3.35375
 20
-0.0000000000000004
 30
0.0
 40
0.5
  1
3.937500
100
AcDbAttributeDefinition
  3

  2
BORE1
 70
     8
280
     0
  0
ATTDEF
  5
BF
330
B4
100
AcDbEntity
  8
AM_6
100
AcDbText
 10
3.35375
 20
-0.5000000000000004
 30
0.0
 40
0.5
  1
6
100
AcDbAttributeDefinition
  3

  2
L1
 70
     8
280
     0
  0
ATTDEF
  5
C0
330
B4
100
AcDbEntity
  8
AM_6
100
AcDbText
 10
3.35375
 20
-1.0
 30
0.0
 40
0.5
  1
6.00000
100
AcDbAttributeDefinition
  3

  2
L
 70
     8
280
     0
  0
ATTDEF
  5
C1
330
B4
100
AcDbEntity
  8
AM_6
100
AcDbText
 10
3.35375
 20
-1.5
 30
0.0
 40
0.5
  1
6.00000
100
AcDbAttributeDefinition
  3

  2
L2
 70
     8
280
     0
  0
ATTDEF
  5
C2
330
B4
100
AcDbEntity
  8
AM_6
100
AcDbText
 10
3.35375
 20
-2.0
 30
0.0
 40
0.5
  1
6.25
100
AcDbAttributeDefinition
  3

  2
A
 70
     8
280
     0
  0
ATTDEF
  5
C3
330
B4
100
AcDbEntity
  8
AM_6
100
AcDbText
 10
3.35375
 20
-2.5
 30
0.0
 40
0.5
  1
3.12
100
AcDbAttributeDefinition
  3

  2
B
 70
     8
280
     0
  0
ATTDEF
  5
C4
330
B4
100
AcDbEntity
  8
AM_6
100
AcDbText
 10
3.35375
 20
-3.0
 30
0.0
 40
0.5
  1
4.50
100
AcDbAttributeDefinition
  3

  2
C
 70
     8
280
     0
  0
ATTDEF
  5
C5
330
B4
100
AcDbEntity
  8
AM_6
100
AcDbText
 10
3.35375
 20
-3.5
 30
0.0
 40
0.5
  1
6.38
100
AcDbAttributeDefinition
  3

  2
D
 70
     8
280
     0
  0
ATTDEF
  5
C6
330
B4
100
AcDbEntity
  8
AM_6
100
AcDbText
 10
3.35375
 20
-4.0
 30
0.0
 40
0.5
  1
0.66
100
AcDbAttributeDefinition
  3

  2
E
 70
     8
280
     0
  0
ATTDEF
  5
C7
330
B4
100
AcDbEntity
  8
AM_6
100
AcDbText
 10
3.35375
 20
-4.5
 30
0.0
 40
0.5
  1
0.505
100
AcDbAttributeDefinition
  3

  2
F
 70
     8
280
     0
  0
ATTDEF
  5
C8
330
B4
100
AcDbEntity
  8
AM_6
100
AcDbText
 10
3.35375
 20
-5.0
 30
0.0
 40
0.5
  1
5/8-11
100
AcDbAttributeDefinition
  3

  2
CS
 70
     8
280
     0
  0
ATTDEF
  5
C9
330
B4
100
AcDbEntity
  8
AM_6
100
AcDbText
 10
3.35375
 20
-5.5
 30
0.0
 40
0.5
  1
0.6250
100
AcDbAttributeDefinition
  3

  2
NDM
 70
     8
280
     0
  0
ATTDEF
  5
CA
330
B4
100
AcDbEntity
  8
AM_6
100
AcDbText
 10
3.35375
 20
-6.0
 30
0.0
 40
0.5
  1
0.5270
100
AcDbAttributeDefinition
  3

  2
KDM
 70
     8
280
     0
  0
ATTDEF
  5
CB
330
B4
100
AcDbEntity
  8
AM_6
100
AcDbText
 10
3.35375
 20
-6.5
 30
0.0
 40
0.5
  1
2
100
AcDbAttributeDefinition
  3

  2
DD
 70
     8
280
     0
  0
ATTDEF
  5
CC
330
B4
100
AcDbEntity
  8
AM_6
100
AcDbText
 10
3.35375
 20
-7.0
 30
0.0
 40
0.5
  1
baldor
100
AcDbAttributeDefinition
  3

  2
COMPANY
 70
     8
280
     0
  0
LINE
  5
CD
330
B4
100
AcDbEntity
  8
AM_9
100
AcDbLine
 10
-1.88795
 20
2.257533333333336
 30
0.0
 11
-1.88795
 21
2.9508
 31
0.0
  0
LINE
  5
CE
330
B4
100
AcDbEntity
  8
AM_9
100
AcDbLine
 10
-2.41455
 20
2.9508
 30
0.0
 11
-2.41455
 21
2.257533333333336
 31
0.0
  0
LINE
  5
CF
330
B4
100
AcDbEntity
  8
AM_9
100
AcDbLine
 10
-2.41455
 20
2.257533333333336
 30
0.0
 11
-1.88795
 21
2.257533333333336
 31
0.0
  0
LINE
  5
D0
330
B4
100
AcDbEntity
  8
AM_9
100
AcDbLine
 10
-2.41455
 20
2.257533333333336
 30
0.0
 11
-2.421711664881006
 21
2.250371668452329
 31
0.0
  0
LINE
  5
D1
330
B4
100
AcDbEntity
  8
AM_9
100
AcDbLine
 10
-1.880838192613641
 20
2.250421525946976
 30
0.0
 11
-1.88795
 21
2.257533333333336
 31
0.0
  0
LINE
  5
D2
330
B4
100
AcDbEntity
  8
AM_9
100
AcDbLine
 10
-2.41455
 20
2.9508
 30
0.0
 11
-1.88795
 21
2.9508
 31
0.0
  0
LINE
  5
D3
330
B4
100
AcDbEntity
  8
AM_9
100
AcDbLine
 10
-1.88795
 20
2.9508
 30
0.0
 11
-1.865532346618374
 21
2.973217653381627
 31
0.0
  0
LINE
  5
D4
330
B4
100
AcDbEntity
  8
AM_9
100
AcDbLine
 10
-2.463580746532794
 20
2.999830746532794
 30
0.0
 11
-2.41455
 21
2.9508
 31
0.0
  0
LWPOLYLINE
  5
D5
330
B4
100
AcDbEntity
  8
AM_9
100
AcDbPolyline
 90
       34
 70
     0
 43
0.0
 10
-1.887445565912218
 20
1.009735488647068
 10
-1.889051822298492
 20
1.015969927057264
 10
-1.905345114298601
 20
1.059172018061536
 10
-1.929631185166672
 20
1.098863482832119
 10
-1.96083884653854
 20
1.133231760358891
 10
-1.998500357517013
 20
1.162024936813861
 10
-2.039387637236524
 20
1.18318301644065
 10
-2.084045473323701
 20
1.197639748952637
 10
-2.127694316209666
 20
1.204430008401934
 10
-2.172070447616849
 20
1.2046645068269
 10
-2.213770023580484
 20
1.198675843361117
 10
-2.253742995204235
 20
1.186929354302573
 10
-2.291328911131669
 20
1.169518463868776
 10
-2.325241935643687
 20
1.147141469842896
 10
-2.356292125346484
 20
1.118683004646005
 10
-2.381840758007778
 20
1.086099236352993
 10
-2.402438683155975
 20
1.047629301160185
 10
-2.415856347972985
 20
1.006339788910266
 10
-2.421845235730553
 20
0.9612350181282074
 10
-2.419598926536563
 20
0.9153788040192258
 10
-2.408812895888698
 20
0.8692890937681821
 10
-2.389786016522359
 20
0.8251137778181067
 10
-2.363089356576488
 20
0.7846568450662016
 10
-2.32929501513362
 20
0.748910113851692
 10
-2.290846931006786
 20
0.7204334824210533
 10
-2.247642751805567
 20
0.6988486139934921
 10
-2.20421272900591
 20
0.686007746651513
 10
-2.1590868690661
 20
0.6806889675079326
 10
-2.11643222178112
 20
0.6829229210848248
 10
-2.07477168124918
 20
0.6919417727237
 10
-2.035622715778861
 20
0.7072830282267335
 10
-1.999530229800551
 20
0.7282936061047918
 10
-1.973550304447081
 20
0.7486137619168763
 10
-1.950332972374701
 20
0.7716484722518282
  0
LWPOLYLINE
  5
D6
330
B4
100
AcDbEntity
  8
AM_9
100
AcDbPolyline
 90
        7
 70
     0
 43
0.0
 10
-1.950332972374701
 20
0.7716484722518282
 10
-1.926013396888955
 20
0.8030400480951176
 10
-1.906609313984088
 20
0.8371084369274374
 10
-1.890358572602767
 20
0.8801378002185127
 10
-1.881775839022779
 20
0.9246251201306495
 10
-1.881232978911709
 20
0.9708114462547972
 10
-1.887445565912218
 20
1.009735488647068
  0
LINE
  5
D7
330
B4
100
AcDbEntity
  8
AM_9
100
AcDbLine
 10
-2.65625
 20
-2.25
 30
0.0
 11
-1.64625
 21
-2.25
 31
0.0
  0
LINE
  5
D8
330
B4
100
AcDbEntity
  8
AM_9
100
AcDbLine
 10
-1.64625
 20
2.25
 30
0.0
 11
-1.881393352662144
 21
2.25
 31
0.0
  0
LINE
  5
D9
330
B4
100
AcDbEntity
  8
AM_9
100
AcDbLine
 10
-2.421221946695018
 20
2.25
 30
0.0
 11
-2.65625
 21
2.25
 31
0.0
  0
LWPOLYLINE
  5
DA
330
B4
100
AcDbEntity
  8
AM_9
100
AcDbPolyline
 90
       21
 70
     0
 43
0.0
 10
-2.422083333332893
 20
2.24999999999994
 10
-2.421712607440461
 20
2.249949302510798
 10
-2.414868068610812
 20
2.249025319996151
 10
-2.399896827757243
 20
2.247084011249307
 10
-2.376250172924428
 20
2.244242040041891
 10
-2.34640113198931
 20
2.241050037783132
 10
-2.30884308984657
 20
2.237666694741664
 10
-2.26907770580223
 20
2.23486087262009
 10
-2.223893841859466
 20
2.232650378419628
 10
-2.180951320489271
 20
2.231519601791616
 10
-2.135689621316519
 20
2.231354815614
 10
-2.094370692678948
 20
2.232125189933572
 10
-2.053498441284868
 20
2.233749862445228
 10
-2.01605722837866
 20
2.235987458120684
 10
-1.981271789540425
 20
2.238704008097807
 10
-1.950069443424514
 20
2.241659060044011
 10
-1.923563639702128
 20
2.244550989674321
 10
-1.90241002859325
 20
2.247108357152476
 10
-1.88791998964712
 20
2.248986934055441
 10
-1.880960563360625
 20
2.249925643972231
 10
-1.880416666666967
 20
2.249999999999959
  0
ELLIPSE
  5
DB
330
B4
100
AcDbEntity
  8
AM_9
100
AcDbEllipse
 10
-2.151249999999999
 20
0.9540748131550194
 30
0.0
 11
0.263300000000001
 21
0.0
 31
0.0
210
0.0
220
0.0
230
1.0
 40
0.9063077870366522
 41
2.480611001033205
 42
3.141592653589793
  0
LINE
  5
DC
330
B4
100
AcDbEntity
  8
AM_9
100
AcDbLine
 10
-1.88795
 20
0.9540748131550213
 30
0.0
 11
-1.88795
 21
1.247061966744456
 31
0.0
  0
LINE
  5
DD
330
B4
100
AcDbEntity
  8
AM_9
100
AcDbLine
 10
-2.41455
 20
1.247061966744456
 30
0.0
 11
-2.41455
 21
0.9540748131550213
 31
0.0
  0
ELLIPSE
  5
DE
330
B4
100
AcDbEntity
  8
AM_9
100
AcDbEllipse
 10
-2.15125
 20
0.9540748131550214
 30
0.0
 11
0.2633000000000003
 21
0.0
 31
0.0
210
0.0
220
0.0
230
1.0
 40
0.9063077870366495
 41
3.141592653589793
 42
6.283185307179586
  0
ELLIPSE
  5
DF
330
B4
100
AcDbEntity
  8
AM_9
100
AcDbEllipse
 10
-2.151250000000005
 20
0.954074813155019
 30
0.0
 11
0.2633000000000045
 21
0.0
 31
0.0
210
0.0
220
0.0
230
1.0
 40
0.9063077870366509
 41
0.0
 42
0.6609816525565798
  0
LINE
  5
E0
330
B4
100
AcDbEntity
  8
AM_9
100
AcDbLine
 10
-1.880995141648021
 20
1.130919849384697
 30
0.0
 11
-1.880995141648021
 21
1.401645282845894
 31
0.0
  0
LINE
  5
E2
330
B4
100
AcDbEntity
  8
AM_5
100
AcDbLine
 10
-2.46375
 20
3.0
 30
0.0
 11
-2.46375
 21
2.25
 31
0.0
  0
LINE
  5
E3
330
B4
100
AcDbEntity
  8
AM_5
100
AcDbLine
 10
-2.3075
 20
2.208333333333333
 30
0.0
 11
-2.46375
 21
2.208333333333333
 31
0.0
  0
LINE
  5
E4
330
B4
100
AcDbEntity
  8
AM_5
100
AcDbLine
 10
-1.83875
 20
2.926829268292683
 30
0.0
 11
-1.83875
 21
2.25
 31
0.0
  0
LINE
  5
E5
330
B4
100
AcDbEntity
  8
AM_5
100
AcDbLine
 10
-1.995
 20
2.208333333333333
 30
0.0
 11
-1.83875
 21
2.208333333333333
 31
0.0
  0
ELLIPSE
  5
E7
330
B4
100
AcDbEntity
  8
AM_4
100
AcDbEllipse
 10
-2.15125
 20
0.954074813155021
 30
0.0
 11
0.2632999999999996
 21
0.0
 31
0.0
210
0.0
220
0.0
230
1.0
 40
0.9063077870366526
 41
0.6609816525565835
 42
2.480611001033208
  0
LINE
  5
E8
330
B4
100
AcDbEntity
  8
AM_4
100
AcDbLine
 10
-1.664896922183507
 20
-2.857142857142857
 30
0.0
 11
-1.64625
 21
-2.857142857142857
 31
0.0
  0
LINE
  5
E9
330
B4
100
AcDbEntity
  8
AM_4
100
AcDbLine
 10
-1.64625
 20
2.857142857142857
 30
0.0
 11
-1.664896922183507
 21
2.857142857142857
 31
0.0
  0
LINE
  5
EA
330
B4
100
AcDbEntity
  8
AM_4
100
AcDbLine
 10
-1.64625
 20
2.857142857142857
 30
0.0
 11
-1.64625
 21
-2.857142857142857
 31
0.0
  0
LINE
  5
EB
330
B4
100
AcDbEntity
  8
AM_4
100
AcDbLine
 10
-1.664896922183507
 20
2.857142857142857
 30
0.0
 11
-1.734583333333334
 21
2.926829268292683
 31
0.0
  0
LINE
  5
EC
330
B4
100
AcDbEntity
  8
AM_4
100
AcDbLine
 10
-1.734583333333334
 20
-2.926829268292683
 30
0.0
 11
-1.664896922183507
 21
-2.857142857142857
 31
0.0
  0
LINE
  5
ED
330
B4
100
AcDbEntity
  8
AM_4
100
AcDbLine
 10
-1.664896922183507
 20
2.857142857142857
 30
0.0
 11
-1.664896922183507
 21
-2.857142857142857
 31
0.0
  0
LINE
  5
EE
330
B4
100
AcDbEntity
  8
AM_4
100
AcDbLine
 10
-1.83875
 20
-2.926829268292683
 30
0.0
 11
-1.734583333333334
 21
-2.926829268292683
 31
0.0
  0
LINE
  5
EF
330
B4
100
AcDbEntity
  8
AM_4
100
AcDbLine
 10
-1.734583333333334
 20
2.926829268292683
 30
0.0
 11
-1.83875
 21
2.926829268292683
 31
0.0
  0
LINE
  5
F0
330
B4
100
AcDbEntity
  8
AM_4
100
AcDbLine
 10
-1.734583333333334
 20
2.926829268292683
 30
0.0
 11
-1.734583333333334
 21
-2.926829268292683
 31
0.0
  0
LWPOLYLINE
  5
F1
330
B4
100
AcDbEntity
  8
AM_4
100
AcDbPolyline
 90
        6
 70
     0
 43
0.0
 10
-1.880995141648021
 20
1.401645282845894
 10
-1.869581410424741
 20
1.328032264270016
 10
-1.866507471405561
 20
1.290841565325979
 10
-1.865535354536923
 20
1.254662060742536
 10
-1.869547327016094
 20
1.190417230397991
 10
-1.880995141648012
 20
1.130919849384697
  0
LINE
  5
F2
330
B4
100
AcDbEntity
  8
AM_4
100
AcDbLine
 10
-1.83875
 20
2.926829268292683
 30
0.0
 11
-1.865532346618374
 21
2.973217653381627
 31
0.0
  0
LINE
  5
F3
330
B4
100
AcDbEntity
  8
AM_4
100
AcDbLine
 10
-1.880995141648021
 20
-3.0
 30
0.0
 11
-1.83875
 21
-2.926829268292683
 31
0.0
  0
LINE
  5
F4
330
B4
100
AcDbEntity
  8
AM_4
100
AcDbLine
 10
-1.865532346618374
 20
2.973217653381627
 30
0.0
 11
-1.88099514164801
 21
2.996279812660385
 31
0.0
  0
LINE
  5
F5
330
B4
100
AcDbEntity
  8
AM_4
100
AcDbLine
 10
-1.83875
 20
2.926829268292683
 30
0.0
 11
-1.83875
 21
-2.926829268292683
 31
0.0
  0
LINE
  5
F6
330
B4
100
AcDbEntity
  8
AM_4
100
AcDbLine
 10
-2.65625
 20
2.831666666666667
 30
0.0
 11
-2.65625
 21
-2.831666666666667
 31
0.0
  0
ARC
  5
F7
330
B4
100
AcDbEntity
  8
AM_4
100
AcDbCircle
 10
-2.487916666666667
 20
-2.831666666666667
 30
0.0
 40
0.1683333333333326
100
AcDbArc
 50
180.0
 51
270.0
  0
ARC
  5
F8
330
B4
100
AcDbEntity
  8
AM_4
100
AcDbCircle
 10
-2.487916666666667
 20
2.831666666666667
 30
0.0
 40
0.1683333333333326
100
AcDbArc
 50
90.0
 51
180.0
  0
LWPOLYLINE
  5
F9
330
B4
100
AcDbEntity
  8
AM_4
100
AcDbPolyline
 90
       33
 70
     0
 43
0.0
 10
-1.880995141648012
 20
1.130919849384697
 10
-1.902702326167853
 20
1.10212686343143
 10
-1.93376466800057
 20
1.071011135598303
 10
-1.96940216784804
 20
1.044380961144376
 10
-2.014331113992194
 20
1.020350469449033
 10
-2.062791961948553
 20
1.003354681494908
 10
-2.115498817362393
 20
0.9936804710042252
 10
-2.169175862772161
 20
0.9922613082239952
 10
-2.223406937865601
 20
0.9994663440749381
 10
-2.275590812245213
 20
1.015106293519703
 10
-2.324016196844068
 20
1.038802361319825
 10
-2.367390279055363
 20
1.069831763290451
 10
-2.403281454375199
 20
1.106317515682243
 10
-2.431771007225607
 20
1.147845743831109
 10
-2.45090882138417
 20
1.190990476550913
 10
-2.46160241295304
 20
1.236224323123436
 10
-2.463396021657973
 20
1.280044731703045
 10
-2.457028938395098
 20
1.323191339182526
 10
-2.442911024005842
 20
1.363772427687894
 10
-2.421609289742345
 20
1.401493513277826
 10
-2.39303875325909
 20
1.436138161423449
 10
-2.358571356389244
 20
1.466145058762451
 10
-2.317228732907754
 20
1.491878254164567
 10
-2.271691433730956
 20
1.51145087170175
 10
-2.220911063952347
 20
1.524886524849663
 10
-2.168271954526157
 20
1.531016181830678
 10
-2.113747392702433
 20
1.529511337525659
 10
-2.060273282560687
 20
1.520222803977203
 10
-2.009181617791961
 20
1.503123058201872
 10
-1.962211344280545
 20
1.478652843165043
 10
-1.921661540818162
 20
1.447872617966136
 10
-1.887873133971536
 20
1.41115605055255
 10
-1.880995141648021
 20
1.401645282845894
  0
LINE
  5
FA
330
B4
100
AcDbEntity
  8
AM_4
100
AcDbLine
 10
-1.880995141647982
 20
2.996279812660406
 30
0.0
 11
-1.880995141648021
 21
1.401645282845894
 31
0.0
  0
LWPOLYLINE
  5
FB
330
B4
100
AcDbEntity
  8
AM_4
100
AcDbPolyline
 90
       18
 70
     0
 43
0.0
 10
-1.880995141647983
 20
2.996279812660405
 10
-1.888734006632577
 20
2.995655947954315
 10
-1.918914958800034
 20
2.993394120161889
 10
-1.955678551198745
 20
2.991008338358957
 10
-1.998117307863414
 20
2.988760865678552
 10
-2.045651140104654
 20
2.986890741721657
 10
-2.096692771813926
 20
2.985646520208772
 10
-2.150631691648928
 20
2.985193306560604
 10
-2.204345824239786
 20
2.985622565327727
 10
-2.258077675890446
 20
2.986930456817837
 10
-2.30730126479883
 20
2.988897998242911
 10
-2.353370778962604
 20
2.991403586814966
 10
-2.391266375650638
 20
2.993943887938697
 10
-2.423136618165172
 20
2.996413639119784
 10
-2.445015676987253
 20
2.998284700146204
 10
-2.459026987821324
 20
2.999557740837137
 10
-2.463723821966355
 20
2.999997530475783
 10
-2.463749999999929
 20
2.999999999999993
  0
LINE
  5
FC
330
B4
100
AcDbEntity
  8
AM_4
100
AcDbLine
 10
-1.880995141648012
 20
1.130919849384697
 30
0.0
 11
-1.880995141648021
 21
-3.0
 31
0.0
  0
LINE
  5
FD
330
B4
100
AcDbEntity
  8
AM_4
100
AcDbLine
 10
-2.487916666666667
 20
-3.0
 30
0.0
 11
-1.880995141648021
 21
-3.0
 31
0.0
  0
LINE
  5
FE
330
B4
100
AcDbEntity
  8
AM_4
100
AcDbLine
 10
-2.463439856523403
 20
3.0
 30
0.0
 11
-2.487916666666667
 21
3.0
 31
0.0
  0
LINE
  5
FF
330
B4
100
AcDbEntity
  8
AM_4
100
AcDbLine
 10
-2.487916666666667
 20
3.0
 30
0.0
 11
-2.487916666666667
 21
-3.0
 31
0.0
  0
ELLIPSE
  5
100
330
B4
100
AcDbEntity
  8
AM_4
100
AcDbEllipse
 10
-2.15125
 20
1.247061966744456
 30
0.0
 11
0.2633000000000001
 21
0.0
 31
0.0
210
0.0
220
0.0
230
1.0
 40
0.9063077870366502
 41
0.0
 42
6.283185307179586
  0
ENDBLK
  5
B7
330
B4
100
AcDbEntity
  8
0
100
AcDbBlockEnd
  0
BLOCK
  5
103
330
101
100
AcDbEntity
  8
0
100
AcDbBlockBegin
  2
4_070029i_0_in_070716_2
 70
     2
 10
0.0
 20
0.0
 30
0.0
  3
4_070029i_0_in_070716_2
  1

  0
ATTDEF
  5
105
330
101
100
AcDbEntity
  8
AM_6
100
AcDbText
 10
6.828125
 20
3.5433
 30
0.0
 40
0.5
  1
S-2000 Insert -Inch
100
AcDbAttributeDefinition
  3

  2
NN
 70
     8
280
     0
  0
ATTDEF
  5
106
330
101
100
AcDbEntity
  8
AM_6
100
AcDbText
 10
6.828125
 20
3.0433
 30
0.0
 40
0.5
  1
S-2000 Bearings
100
AcDbAttributeDefinition
  3

  2
NT
 70
     8
280
     0
  0
ATTDEF
  5
107
330
101
100
AcDbEntity
  8
AM_6
100
AcDbText
 10
6.828125
 20
2.5433
 30
0.0
 40
0.5
  1
070029i
100
AcDbAttributeDefinition
  3

  2
NB
 70
     8
280
     0
  0
ATTDEF
  5
108
330
101
100
AcDbEntity
  8
AM_6
100
AcDbText
 10
6.828125
 20
2.0433
 30
0.0
 40
0.5
  1
$PN.i
100
AcDbAttributeDefinition
  3

  2
NBSYN
 70
     8
280
     0
  0
ATTDEF
  5
109
330
101
100
AcDbEntity
  8
AM_6
100
AcDbText
 10
6.828125
 20
1.5433
 30
0.0
 40
0.5
  1
070029i
100
AcDbAttributeDefinition
  3

  2
LINA
 70
     8
280
     0
  0
ATTDEF
  5
10A
330
101
100
AcDbEntity
  8
AM_6
100
AcDbText
 10
6.828125
 20
1.0433
 30
0.0
 40
0.5
  1
3-15/16
100
AcDbAttributeDefinition
  3

  2
SS
 70
     8
280
     0
  0
ATTDEF
  5
10B
330
101
100
AcDbEntity
  8
AM_6
100
AcDbText
 10
6.828125
 20
0.5433000000000003
 30
0.0
 40
0.5
  1
4.50
100
AcDbAttributeDefinition
  3

  2
CC
 70
     8
280
     0
  0
ATTDEF
  5
10C
330
101
100
AcDbEntity
  8
AM_6
100
AcDbText
 10
6.828125
 20
0.0433000000000003
 30
0.0
 40
0.5
  1
3.937500
100
AcDbAttributeDefinition
  3

  2
SS1
 70
     8
280
     0
  0
ATTDEF
  5
10D
330
101
100
AcDbEntity
  8
AM_6
100
AcDbText
 10
6.828125
 20
-0.4566999999999997
 30
0.0
 40
0.5
  1
070029
100
AcDbAttributeDefinition
  3

  2
PN
 70
     8
280
     0
  0
ATTDEF
  5
10E
330
101
100
AcDbEntity
  8
AM_6
100
AcDbText
 10
6.828125
 20
-0.9566999999999997
 30
0.0
 40
0.5
  1
INS-S2-315L
100
AcDbAttributeDefinition
  3

  2
DESCRIPTION
 70
     8
280
     0
  0
ATTDEF
  5
10F
330
101
100
AcDbEntity
  8
AM_6
100
AcDbText
 10
6.828125
 20
-1.4567
 30
0.0
 40
0.5
  1
Labyrinth Seal
100
AcDbAttributeDefinition
  3

  2
ST
 70
     8
280
     0
  0
ATTDEF
  5
110
330
101
100
AcDbEntity
  8
AM_6
100
AcDbText
 10
6.828125
 20
-1.9567
 30
0.0
 40
0.5
  1
2
100
AcDbAttributeDefinition
  3

  2
ST1
 70
     8
280
     0
  0
ATTDEF
  5
111
330
101
100
AcDbEntity
  8
AM_6
100
AcDbText
 10
6.828125
 20
-2.4567
 30
0.0
 40
0.5
  1
7.0866
100
AcDbAttributeDefinition
  3

  2
A
 70
     8
280
     0
  0
ATTDEF
  5
112
330
101
100
AcDbEntity
  8
AM_6
100
AcDbText
 10
6.828125
 20
-2.9567
 30
0.0
 40
0.5
  1
1-7/8
100
AcDbAttributeDefinition
  3

  2
B
 70
     8
280
     0
  0
ATTDEF
  5
113
330
101
100
AcDbEntity
  8
AM_6
100
AcDbText
 10
6.828125
 20
-3.4567
 30
0.0
 40
0.5
  1
4-31/64
100
AcDbAttributeDefinition
  3

  2
C
 70
     8
280
     0
  0
ATTDEF
  5
114
330
101
100
AcDbEntity
  8
AM_6
100
AcDbText
 10
6.828125
 20
-3.9567
 30
0.0
 40
0.5
  1
1.646
100
AcDbAttributeDefinition
  3

  2
D
 70
     8
280
     0
  0
ATTDEF
  5
115
330
101
100
AcDbEntity
  8
AM_6
100
AcDbText
 10
6.828125
 20
-4.4567
 30
0.0
 40
0.5
  1
6
100
AcDbAttributeDefinition
  3

  2
E
 70
     8
280
     0
  0
ATTDEF
  5
116
330
101
100
AcDbEntity
  8
AM_6
100
AcDbText
 10
6.828125
 20
-4.9567
 30
0.0
 40
0.5
  1
0.34375
100
AcDbAttributeDefinition
  3

  2
F
 70
     8
280
     0
  0
ATTDEF
  5
117
330
101
100
AcDbEntity
  8
AM_6
100
AcDbText
 10
6.828125
 20
-5.4567
 30
0.0
 40
0.5
  1
2
100
AcDbAttributeDefinition
  3

  2
DD
 70
     8
280
     0
  0
ATTDEF
  5
118
330
101
100
AcDbEntity
  8
AM_6
100
AcDbText
 10
6.828125
 20
-5.9567
 30
0.0
 40
0.5
  1
baldor
100
AcDbAttributeDefinition
  3

  2
COMPANY
 70
     8
280
     0
  0
LINE
  5
119
330
101
100
AcDbEntity
  8
AM_9
100
AcDbLine
 10
-2.48125
 20
2.249839841516025
 30
0.0
 11
-2.48125
 21
1.96875
 31
0.0
  0
LINE
  5
11A
330
101
100
AcDbEntity
  8
AM_9
100
AcDbLine
 10
-1.82125
 20
1.968749999999999
 30
0.0
 11
-1.82125
 21
2.249976681242325
 31
0.0
  0
LINE
  5
11B
330
101
100
AcDbEntity
  8
AM_9
100
AcDbLine
 10
-2.48125
 20
0.9508910889165738
 30
0.0
 11
-2.48125
 21
0.8320090973733836
 31
0.0
  0
LINE
  5
11C
330
101
100
AcDbEntity
  8
AM_9
100
AcDbLine
 10
-1.82125
 20
0.8319516694638531
 30
0.0
 11
-1.82125
 21
0.9508910889165738
 31
0.0
  0
LWPOLYLINE
  5
11D
330
101
100
AcDbEntity
  8
AM_9
100
AcDbPolyline
 90
        4
 70
     0
 43
0.0
 10
-2.474603023582428
 20
0.8912892166638492
 10
-2.475870617014139
 20
0.8852558198842156
 10
-2.481229038394185
 20
0.8353991737463261
 10
-2.481249999318831
 20
0.8320489192863848
  0
LWPOLYLINE
  5
11E
330
101
100
AcDbEntity
  8
AM_9
100
AcDbPolyline
 90
        5
 70
     0
 43
0.0
 10
-2.402518132203973
 20
1.020985941427456
 10
-2.406244020120581
 20
1.017151886070753
 10
-2.437853061897489
 20
0.9773458558884249
 10
-2.461348461516363
 20
0.9329534646349605
 10
-2.474603023582428
 20
0.8912892166638492
  0
LWPOLYLINE
  5
11F
330
101
100
AcDbEntity
  8
AM_9
100
AcDbPolyline
 90
        3
 70
     0
 43
0.0
 10
-2.331495537185941
 20
1.074314888687767
 10
-2.367761507390496
 20
1.05102034880722
 10
-2.402518132203973
 20
1.020985941427456
  0
LWPOLYLINE
  5
120
330
101
100
AcDbEntity
  8
AM_9
100
AcDbPolyline
 90
        4
 70
     0
 43
0.0
 10
-1.897644706689084
 20
1.018597510294366
 10
-1.915617910331734
 20
1.035670246175773
 10
-1.95779318460304
 20
1.066587286911592
 10
-1.971950953697959
 20
1.07483525018264
  0
LWPOLYLINE
  5
121
330
101
100
AcDbEntity
  8
AM_9
100
AcDbPolyline
 90
        5
 70
     0
 43
0.0
 10
-1.827750953917095
 20
0.8906462817936268
 10
-1.833744766874515
 20
0.9125711646791432
 10
-1.852960374747981
 20
0.9578138179112347
 10
-1.880568949521049
 20
0.999225544000552
 10
-1.897644706689084
 20
1.018597510294366
  0
LWPOLYLINE
  5
122
330
101
100
AcDbEntity
  8
AM_9
100
AcDbPolyline
 90
        3
 70
     0
 43
0.0
 10
-1.821250001081875
 20
0.8320054848414364
 10
-1.823218884608024
 20
0.8645125191401906
 10
-1.827750953917095
 20
0.8906462817936268
  0
LWPOLYLINE
  5
123
330
101
100
AcDbEntity
  8
AM_9
100
AcDbPolyline
 90
       11
 70
     0
 43
0.0
 10
-2.481249999318831
 20
0.8320489192863848
 10
-2.477229543602194
 20
0.7853951404888991
 10
-2.464247818446589
 20
0.7360937982102903
 10
-2.442578327738502
 20
0.6890200890057394
 10
-2.412948055650594
 20
0.6454831633652018
 10
-2.375606265431267
 20
0.6064331769726711
 10
-2.331975872719702
 20
0.5735633145605321
 10
-2.282823403038649
 20
0.5478966060053267
 10
-2.229871342220626
 20
0.530461279055413
 10
-2.190853199391447
 20
0.5235182426957866
 10
-2.15125
 20
0.5211764455951713
  0
LWPOLYLINE
  5
124
330
101
100
AcDbEntity
  8
AM_9
100
AcDbPolyline
 90
        7
 70
     0
 43
0.0
 10
-1.911046194036068
 20
1.151148522610544
 10
-1.895095228979191
 20
1.135374453640431
 10
-1.863761746803392
 20
1.095200640735685
 10
-1.840559699709472
 20
1.050534773329086
 10
-1.826324294062983
 20
1.002644890037912
 10
-1.821256200298957
 20
0.9527240823420591
 10
-1.821250000248493
 20
0.9509026955013133
  0
LWPOLYLINE
  5
125
330
101
100
AcDbEntity
  8
AM_9
100
AcDbPolyline
 90
       12
 70
     0
 43
0.0
 10
-2.390864614195622
 20
1.151687212228244
 10
-2.386060786466518
 20
1.155974339088607
 10
-2.343758931055774
 20
1.187003759664208
 10
-2.295999495644122
 20
1.211369544640846
 10
-2.244008232267906
 20
1.228419383126994
 10
-2.189346912303111
 20
1.237827779064613
 10
-2.134086268224654
 20
1.239286300248901
 10
-2.079313307342159
 20
1.232988271536408
 10
-2.026854226687894
 20
1.219066562927685
 10
-1.977862749819561
 20
1.197930277826203
 10
-1.933438754082994
 20
1.169745602650391
 10
-1.911046194036068
 20
1.151148522610544
  0
LWPOLYLINE
  5
126
330
101
100
AcDbEntity
  8
AM_9
100
AcDbPolyline
 90
        6
 70
     0
 43
0.0
 10
-2.481249998805263
 20
0.9508656390812034
 10
-2.479224039456844
 20
0.9838557987138694
 10
-2.468566269347093
 20
1.032132419329276
 10
-2.449164660889279
 20
1.077638087448723
 10
-2.421347285822628
 20
1.119293738316907
 10
-2.390864614195622
 20
1.151687212228244
  0
LWPOLYLINE
  5
127
330
101
100
AcDbEntity
  8
AM_9
100
AcDbPolyline
 90
       11
 70
     0
 43
0.0
 10
-1.821250000248493
 20
0.9509026955013133
 10
-1.825558630939521
 20
0.902639161094197
 10
-1.838880468604249
 20
0.8533773503322206
 10
-1.860934465591985
 20
0.8064382935248671
 10
-1.890980272438295
 20
0.7631473558397295
 10
-1.928652875115725
 20
0.7245467656363983
 10
-1.972576728268981
 20
0.692183413939932
 10
-2.021872882027202
 20
0.6670944780324813
 10
-2.074884936451605
 20
0.6501981840910687
 10
-2.112801352710035
 20
0.6437120401739358
 10
-2.15125
 20
0.6415265571449762
  0
LWPOLYLINE
  5
128
330
101
100
AcDbEntity
  8
AM_9
100
AcDbPolyline
 90
       11
 70
     0
 43
0.0
 10
-2.15125
 20
0.5211764455951713
 10
-2.096290506710481
 20
0.5257175976807377
 10
-2.042890830395146
 20
0.539037190600032
 10
-1.992614052999512
 20
0.5607708418879074
 10
-1.946761141892519
 20
0.5900585050799412
 10
-1.906313087178227
 20
0.6263802226639686
 10
-1.87272418670843
 20
0.6682588273735796
 10
-1.846903470618385
 20
0.7147454972548836
 10
-1.829720654594451
 20
0.7641082926750179
 10
-1.821856920207309
 20
0.8143782723501716
 10
-1.821250001081875
 20
0.8320054848414364
  0
LWPOLYLINE
  5
129
330
101
100
AcDbEntity
  8
AM_9
100
AcDbPolyline
 90
       11
 70
     0
 43
0.0
 10
-2.15125
 20
1.94089581443724
 10
-2.097070415197573
 20
1.941651871451049
 10
-2.042890830395146
 20
1.943918278153033
 10
-1.99327810805087
 20
1.94731396573485
 10
-1.946761141892519
 20
1.951638351639489
 10
-1.906816873728532
 20
1.956227010272285
 10
-1.87272418670843
 20
1.960778720603049
 10
-1.847188901119034
 20
1.964568582247181
 10
-1.829720654594451
 20
1.967347880385399
 10
-1.821871198468465
 20
1.968645970559041
 10
-1.821250000000836
 20
1.96874999999986
  0
LINE
  5
12A
330
101
100
AcDbEntity
  8
AM_9
100
AcDbLine
 10
1.828125
 20
1.96875
 30
0.0
 11
-1.822356223911617
 21
1.96875
 31
0.0
  0
LINE
  5
12B
330
101
100
AcDbEntity
  8
AM_9
100
AcDbLine
 10
-2.48125
 20
1.96875
 30
0.0
 11
-2.65625
 21
1.96875
 31
0.0
  0
LINE
  5
12C
330
101
100
AcDbEntity
  8
AM_9
100
AcDbLine
 10
-2.65625
 20
-1.96875
 30
0.0
 11
1.828125
 21
-1.96875
 31
0.0
  0
LINE
  5
12D
330
101
100
AcDbEntity
  8
AM_9
100
AcDbLine
 10
-2.46360051269038
 20
1.965868613432226
 30
0.0
 11
-2.481249999999518
 21
1.968749999999919
 31
0.0
  0
LINE
  5
12E
330
101
100
AcDbEntity
  8
AM_9
100
AcDbLine
 10
-2.131493164511475
 20
1.940996366572725
 30
0.0
 11
-2.160605430525699
 21
1.940918361647475
 31
0.0
  0
LWPOLYLINE
  5
12F
330
101
100
AcDbEntity
  8
AM_9
100
AcDbPolyline
 90
       11
 70
     0
 43
0.0
 10
-2.481249999999518
 20
1.968749999999919
 10
-2.477383895755807
 20
1.968105657849918
 10
-2.464247818446589
 20
1.965971565626605
 10
-2.442965203039832
 20
1.962695677425456
 10
-2.412948055650594
 20
1.95845919917452
 10
-2.376201939230085
 20
1.953888414793275
 10
-2.331975872719702
 20
1.949291769738512
 10
-2.283585758440678
 20
1.945402096087611
 10
-2.229871342220626
 20
1.942487548982637
 10
-2.191147970987585
 20
1.941305851891691
 10
-2.15125
 20
1.94089581443724
  0
LINE
  5
130
330
101
100
AcDbEntity
  8
AM_9
100
AcDbLine
 10
1.828125
 20
-2.25
 30
0.0
 11
1.828125
 21
2.25
 31
0.0
  0
LINE
  5
131
330
101
100
AcDbEntity
  8
AM_9
100
AcDbLine
 10
1.828125
 20
2.25
 30
0.0
 11
1.66675
 21
2.25
 31
0.0
  0
LINE
  5
132
330
101
100
AcDbEntity
  8
AM_9
100
AcDbLine
 10
1.66675
 20
-2.25
 30
0.0
 11
1.828125
 21
-2.25
 31
0.0
  0
LWPOLYLINE
  5
133
330
101
100
AcDbEntity
  8
AM_9
100
AcDbPolyline
 90
       11
 70
     0
 43
0.0
 10
-2.15125
 20
0.6415265571449762
 10
-2.206312261214315
 20
0.6460418247264762
 10
-2.259814345510763
 20
0.6592930070427678
 10
-2.310193696294787
 20
0.6809344250376757
 10
-2.356129477737553
 20
0.7101253979294722
 10
-2.396546235998819
 20
0.7462817108212859
 10
-2.43008300116073
 20
0.7879978272721653
 10
-2.455796066386123
 20
0.8342696352803078
 10
-2.472879471052651
 20
0.8834438071145088
 10
-2.480671562493002
 20
0.9336854096388384
 10
-2.481249998805263
 20
0.9508656390812034
  0
LWPOLYLINE
  5
134
330
101
100
AcDbEntity
  8
AM_9
100
AcDbPolyline
 90
       11
 70
     0
 43
0.0
 10
-2.15125
 20
2.225668438918969
 10
-2.205532172755381
 20
2.226330288676648
 10
-2.259814345510763
 20
2.228314658461901
 10
-2.309525488230542
 20
2.231289118463722
 10
-2.356129477737553
 20
2.235078432717298
 10
-2.396041852366745
 20
2.239089781805353
 10
-2.43008300116073
 20
2.243066615715258
 10
-2.455513499958812
 20
2.246369577208343
 10
-2.472879471052651
 20
2.248787565922937
 10
-2.48065836867345
 20
2.249913303519072
 10
-2.481249999999457
 20
2.24999999999992
  0
LINE
  5
135
330
101
100
AcDbEntity
  8
AM_9
100
AcDbLine
 10
-1.64625
 20
2.25
 30
0.0
 11
-1.821410854176023
 21
2.25
 31
0.0
  0
LINE
  5
136
330
101
100
AcDbEntity
  8
AM_9
100
AcDbLine
 10
-1.3025
 20
2.25
 30
0.0
 11
-1.59375
 21
2.25
 31
0.0
  0
LINE
  5
137
330
101
100
AcDbEntity
  8
AM_9
100
AcDbLine
 10
-2.480154843661102
 20
2.25
 30
0.0
 11
-2.65625
 21
2.25
 31
0.0
  0
LINE
  5
138
330
101
100
AcDbEntity
  8
AM_9
100
AcDbLine
 10
-1.59375
 20
-2.25
 30
0.0
 11
-1.3025
 21
-2.25
 31
0.0
  0
LINE
  5
139
330
101
100
AcDbEntity
  8
AM_9
100
AcDbLine
 10
-2.65625
 20
-2.25
 30
0.0
 11
-1.64625
 21
-2.25
 31
0.0
  0
LINE
  5
13A
330
101
100
AcDbEntity
  8
AM_9
100
AcDbLine
 10
-1.830183798260677
 20
2.248707074276086
 30
0.0
 11
-1.821250000000104
 21
2.249999999999985
 31
0.0
  0
LINE
  5
13B
330
101
100
AcDbEntity
  8
AM_9
100
AcDbLine
 10
-2.170467610012509
 20
2.225751404927012
 30
0.0
 11
-2.140920915408016
 21
2.225692406867694
 31
0.0
  0
LWPOLYLINE
  5
13C
330
101
100
AcDbEntity
  8
AM_9
100
AcDbPolyline
 90
       11
 70
     0
 43
0.0
 10
-1.821250000000104
 20
2.249999999999985
 10
-1.825399811186708
 20
2.249395106589694
 10
-1.838880468604248
 20
2.247481862917786
 10
-1.860539633129889
 20
2.244574016914068
 10
-1.890980272438295
 20
2.240834739797883
 10
-1.928050488208413
 20
2.236832139894275
 10
-1.972576728268981
 20
2.232828730115919
 10
-2.021112390363738
 20
2.229469846721825
 10
-2.074884936451604
 20
2.226978137057198
 10
-2.112533342933921
 20
2.226005161614494
 10
-2.15125
 20
2.225668438918969
  0
LINE
  5
13D
330
101
100
AcDbEntity
  8
AM_9
100
AcDbLine
 10
1.66675
 20
-2.647139999999999
 30
0.0
 11
1.66675
 21
2.647139999999999
 31
0.0
  0
ARC
  5
13E
330
101
100
AcDbEntity
  8
AM_9
100
AcDbCircle
 10
1.479250000000001
 20
2.647140000000001
 30
0.0
 40
0.1874999999999989
100
AcDbArc
 50
0.0
 51
90.0
  0
ARC
  5
13F
330
101
100
AcDbEntity
  8
AM_9
100
AcDbCircle
 10
1.479250000000001
 20
-2.647140000000001
 30
0.0
 40
0.1874999999999987
100
AcDbArc
 50
270.0
 51
0.0
  0
LINE
  5
140
330
101
100
AcDbEntity
  8
AM_9
100
AcDbLine
 10
1.47925
 20
-2.834639999999999
 30
0.0
 11
1.47925
 21
2.834639999999999
 31
0.0
  0
LINE
  5
141
330
101
100
AcDbEntity
  8
AM_9
100
AcDbLine
 10
1.47925
 20
2.834639999999999
 30
0.0
 11
1.119625
 21
2.834639999999999
 31
0.0
  0
LINE
  5
142
330
101
100
AcDbEntity
  8
AM_9
100
AcDbLine
 10
1.119625
 20
-2.834639999999999
 30
0.0
 11
1.47925
 21
-2.834639999999999
 31
0.0
  0
LINE
  5
143
330
101
100
AcDbEntity
  8
AM_9
100
AcDbLine
 10
-1.3025
 20
-2.64714
 30
0.0
 11
-1.3025
 21
2.64714
 31
0.0
  0
ARC
  5
144
330
101
100
AcDbEntity
  8
AM_9
100
AcDbCircle
 10
-1.115
 20
2.64714
 30
0.0
 40
0.1874999999999991
100
AcDbArc
 50
90.0
 51
180.0
  0
ARC
  5
145
330
101
100
AcDbEntity
  8
AM_9
100
AcDbCircle
 10
-1.115000000000375
 20
-2.647140000000375
 30
0.0
 40
0.1874999999996243
100
AcDbArc
 50
179.9999991462263
 51
270.0
  0
LINE
  5
146
330
101
100
AcDbEntity
  8
AM_9
100
AcDbLine
 10
-1.115
 20
-2.834639999999999
 30
0.0
 11
-1.115
 21
2.834639999999999
 31
0.0
  0
LINE
  5
147
330
101
100
AcDbEntity
  8
AM_9
100
AcDbLine
 10
-0.755375
 20
2.834639999999999
 30
0.0
 11
-1.115
 21
2.834639999999999
 31
0.0
  0
LINE
  5
148
330
101
100
AcDbEntity
  8
AM_9
100
AcDbLine
 10
-1.115
 20
-2.834639999999999
 30
0.0
 11
-0.755375
 21
-2.834639999999999
 31
0.0
  0
LINE
  5
149
330
101
100
AcDbEntity
  8
AM_9
100
AcDbLine
 10
0.2758750000000012
 20
3.401567999999999
 30
0.0
 11
0.0883749999999989
 21
3.401567999999999
 31
0.0
  0
LINE
  5
14A
330
101
100
AcDbEntity
  8
AM_9
100
AcDbLine
 10
0.0883749999999989
 20
-3.401567999999999
 30
0.0
 11
0.2758750000000012
 21
-3.401567999999999
 31
0.0
  0
LINE
  5
14B
330
101
100
AcDbEntity
  8
AM_9
100
AcDbLine
 10
0.2758750000000012
 20
-3.401567999999999
 30
0.0
 11
0.2758750000000012
 21
3.401567999999999
 31
0.0
  0
LINE
  5
14C
330
101
100
AcDbEntity
  8
AM_9
100
AcDbLine
 10
0.2758750000000012
 20
-3.401567999999999
 30
0.0
 11
0.3577040083527854
 21
-3.5433
 31
0.0
  0
LINE
  5
14D
330
101
100
AcDbEntity
  8
AM_9
100
AcDbLine
 10
0.3577040083527854
 20
3.543299999999999
 30
0.0
 11
0.2758750000000012
 21
3.401567999999999
 31
0.0
  0
LINE
  5
14E
330
101
100
AcDbEntity
  8
AM_9
100
AcDbLine
 10
-0.755375
 20
-3.3558
 30
0.0
 11
-0.755375
 21
3.3558
 31
0.0
  0
ARC
  5
14F
330
101
100
AcDbEntity
  8
AM_9
100
AcDbCircle
 10
-0.567874999999999
 20
3.355799999999999
 30
0.0
 40
0.1875000000000004
100
AcDbArc
 50
90.0
 51
179.9999991462263
  0
ARC
  5
150
330
101
100
AcDbEntity
  8
AM_9
100
AcDbCircle
 10
-0.567874999999999
 20
-3.355799999999999
 30
0.0
 40
0.187500000000001
100
AcDbArc
 50
179.9999991462263
 51
270.0
  0
LINE
  5
151
330
101
100
AcDbEntity
  8
AM_9
100
AcDbLine
 10
1.119625
 20
-3.3558
 30
0.0
 11
1.119625
 21
3.3558
 31
0.0
  0
ARC
  5
152
330
101
100
AcDbEntity
  8
AM_9
100
AcDbCircle
 10
0.9321249999999992
 20
3.355799999999999
 30
0.0
 40
0.1875000000000009
100
AcDbArc
 50
0.0
 51
90.0
  0
ARC
  5
153
330
101
100
AcDbEntity
  8
AM_9
100
AcDbCircle
 10
0.932125
 20
-3.3558
 30
0.0
 40
0.1875
100
AcDbArc
 50
270.0
 51
0.0
  0
LINE
  5
154
330
101
100
AcDbEntity
  8
AM_9
100
AcDbLine
 10
0.0883749999999989
 20
-3.401567999999999
 30
0.0
 11
0.0883749999999989
 21
3.401567999999999
 31
0.0
  0
LINE
  5
155
330
101
100
AcDbEntity
  8
AM_9
100
AcDbLine
 10
0.0883749999999989
 20
3.401567999999999
 30
0.0
 11
0.0065459916472147
 21
3.5433
 31
0.0
  0
LINE
  5
156
330
101
100
AcDbEntity
  8
AM_9
100
AcDbLine
 10
0.0065459916472147
 20
-3.543299999999999
 30
0.0
 11
0.0883749999999989
 21
-3.401567999999999
 31
0.0
  0
LINE
  5
157
330
101
100
AcDbEntity
  8
AM_9
100
AcDbLine
 10
0.932125
 20
-3.5433
 30
0.0
 11
0.932125
 21
3.5433
 31
0.0
  0
LINE
  5
158
330
101
100
AcDbEntity
  8
AM_9
100
AcDbLine
 10
0.3577040083527854
 20
-3.5433
 30
0.0
 11
0.3577040083527854
 21
3.5433
 31
0.0
  0
LINE
  5
159
330
101
100
AcDbEntity
  8
AM_9
100
AcDbLine
 10
0.932125
 20
3.5433
 30
0.0
 11
0.3577040083527854
 21
3.5433
 31
0.0
  0
LINE
  5
15A
330
101
100
AcDbEntity
  8
AM_9
100
AcDbLine
 10
0.3577040083527854
 20
-3.5433
 30
0.0
 11
0.932125
 21
-3.5433
 31
0.0
  0
LINE
  5
15B
330
101
100
AcDbEntity
  8
AM_9
100
AcDbLine
 10
0.0065459916472147
 20
-3.5433
 30
0.0
 11
0.0065459916472147
 21
3.5433
 31
0.0
  0
LINE
  5
15C
330
101
100
AcDbEntity
  8
AM_9
100
AcDbLine
 10
-0.5678749999999999
 20
-3.5433
 30
0.0
 11
-0.5678749999999999
 21
3.5433
 31
0.0
  0
LINE
  5
15D
330
101
100
AcDbEntity
  8
AM_9
100
AcDbLine
 10
0.0065459916472147
 20
3.5433
 30
0.0
 11
-0.5678749999999999
 21
3.5433
 31
0.0
  0
LINE
  5
15E
330
101
100
AcDbEntity
  8
AM_9
100
AcDbLine
 10
-0.5678749999999999
 20
-3.5433
 30
0.0
 11
0.0065459916472147
 21
-3.5433
 31
0.0
  0
LINE
  5
161
330
101
100
AcDbEntity
  8
AM_7
100
AcDbLine
 10
-2.15125
 20
-0.1153846153846154
 30
0.0
 11
-2.15125
 21
3.039583333333333
 31
0.0
  0
LWPOLYLINE
  5
162
330
101
100
AcDbEntity
  8
AM_4
100
AcDbPolyline
 90
        9
 70
     0
 43
0.0
 10
-1.971950953697959
 20
1.07483525018264
 10
-2.005460447890907
 20
1.090880910022249
 10
-2.057427766116869
 20
1.107926550461136
 10
-2.112113381715791
 20
1.117395590222105
 10
-2.167280226482792
 20
1.118988372558898
 10
-2.221990320311199
 20
1.112931684417978
 10
-2.274331954210204
 20
1.099378566437942
 10
-2.323253868682407
 20
1.078714923345489
 10
-2.331495537185941
 20
1.074314888687767
  0
LINE
  5
163
330
101
100
AcDbEntity
  8
AM_4
100
AcDbLine
 10
-1.59375
 20
2.25
 30
0.0
 11
-1.64625
 21
2.25
 31
0.0
  0
LINE
  5
164
330
101
100
AcDbEntity
  8
AM_4
100
AcDbLine
 10
-1.64625
 20
-2.25
 30
0.0
 11
-1.59375
 21
-2.25
 31
0.0
  0
ENDBLK
  5
104
330
101
100
AcDbEntity
  8
0
100
AcDbBlockEnd
  0
BLOCK
  5
167
330
165
100
AcDbEntity
  8
0
100
AcDbBlockBegin
  2
5_405015E_Inch_0_in_070716_2
 70
     2
 10
0.0
 20
0.0
 30
0.0
  3
5_405015E_Inch_0_in_070716_2
  1

  0
ATTDEF
  5
169
330
165
100
AcDbEntity
  8
AM_6
100
AcDbText
 10
3.925265952983763
 20
4.947671671481428
 30
0.0
 40
0.5
  1
405015E -Inch
100
AcDbAttributeDefinition
  3

  2
NN
 70
     8
280
     0
  0
ATTDEF
  5
16A
330
165
100
AcDbEntity
  8
AM_6
100
AcDbText
 10
3.925265952983763
 20
4.447671671481428
 30
0.0
 40
0.5
  1
Grease Fitting
100
AcDbAttributeDefinition
  3

  2
NT
 70
     8
280
     0
  0
ATTDEF
  5
16B
330
165
100
AcDbEntity
  8
AM_6
100
AcDbText
 10
3.925265952983763
 20
3.947671671481428
 30
0.0
 40
0.5
  1
405015E-Inch
100
AcDbAttributeDefinition
  3

  2
NB
 70
     8
280
     0
  0
ATTDEF
  5
16C
330
165
100
AcDbEntity
  8
AM_6
100
AcDbText
 10
3.925265952983763
 20
3.447671671481428
 30
0.0
 40
0.5
  1
$MN.-Inch
100
AcDbAttributeDefinition
  3

  2
NBSYN
 70
     8
280
     0
  0
ATTDEF
  5
16D
330
165
100
AcDbEntity
  8
AM_6
100
AcDbText
 10
3.925265952983763
 20
2.947671671481428
 30
0.0
 40
0.5
  1
405015E
100
AcDbAttributeDefinition
  3

  2
LINA
 70
     8
280
     0
  0
ATTDEF
  5
16E
330
165
100
AcDbEntity
  8
AM_6
100
AcDbText
 10
3.925265952983763
 20
2.447671671481428
 30
0.0
 40
0.5
  1
405015E
100
AcDbAttributeDefinition
  3

  2
MN
 70
     8
280
     0
  0
ATTDEF
  5
16F
330
165
100
AcDbEntity
  8
AM_6
100
AcDbText
 10
3.925265952983763
 20
1.947671671481428
 30
0.0
 40
0.5
  1
1/8 x 27PTF
100
AcDbAttributeDefinition
  3

  2
T
 70
     8
280
     0
  0
ATTDEF
  5
170
330
165
100
AcDbEntity
  8
AM_6
100
AcDbText
 10
3.925265952983763
 20
1.447671671481428
 30
0.0
 40
0.5
  1
baldor
100
AcDbAttributeDefinition
  3

  2
COMPANY
 70
     8
280
     0
  0
LINE
  5
171
330
165
100
AcDbEntity
  8
AM_9
100
AcDbLine
 10
-1.236636919488506
 20
4.398537999493342
 30
0.0
 11
-1.074734047016237
 21
4.678962000506657
 31
0.0
  0
LINE
  5
172
330
165
100
AcDbEntity
  8
AM_9
100
AcDbLine
 10
-1.074734047016237
 20
4.678962000506657
 30
0.0
 11
-1.088172579787016
 21
4.729115287586382
 31
0.0
  0
LINE
  5
173
330
165
100
AcDbEntity
  8
AM_9
100
AcDbLine
 10
-1.286790206568231
 20
4.385099466722564
 30
0.0
 11
-1.236636919488506
 21
4.398537999493342
 31
0.0
  0
LINE
  5
174
330
165
100
AcDbEntity
  8
AM_9
100
AcDbLine
 10
-1.286790206568231
 20
4.385099466722564
 30
0.0
 11
-1.088172579787016
 21
4.729115287586382
 31
0.0
  0
LINE
  5
175
330
165
100
AcDbEntity
  8
AM_9
100
AcDbLine
 10
-1.088172579787016
 20
4.729115287586382
 30
0.0
 11
-1.256794277955742
 21
4.833624430481711
 31
0.0
  0
LINE
  5
176
330
165
100
AcDbEntity
  8
AM_9
100
AcDbLine
 10
-1.461608628327688
 20
4.478875569518288
 30
0.0
 11
-1.286790206568231
 21
4.385099466722564
 31
0.0
  0
LINE
  5
177
330
165
100
AcDbEntity
  8
AM_5
100
AcDbLine
 10
-1.412852619125339
 20
4.493063630127977
 30
0.0
 11
-1.236636919488507
 21
4.398537999493342
 31
0.0
  0
LINE
  5
178
330
165
100
AcDbEntity
  8
AM_5
100
AcDbLine
 10
-1.453417147715405
 20
4.493063630127977
 30
0.0
 11
-1.412852619125339
 21
4.493063630127977
 31
0.0
  0
LINE
  5
179
330
165
100
AcDbEntity
  8
AM_5
100
AcDbLine
 10
-1.226919813823387
 20
4.81510869570477
 30
0.0
 11
-1.430636299574944
 21
4.462261392043692
 31
0.0
  0
LINE
  5
17A
330
165
100
AcDbEntity
  8
AM_5
100
AcDbLine
 10
-1.244703494272992
 20
4.784306457620485
 30
0.0
 11
-1.074734047016237
 21
4.678962000506657
 31
0.0
  0
LINE
  5
17B
330
165
100
AcDbEntity
  8
AM_5
100
AcDbLine
 10
-1.264985758568024
 20
4.819436369872022
 30
0.0
 11
-1.244703494272992
 21
4.784306457620485
 31
0.0
  0
LINE
  5
17C
330
165
100
AcDbEntity
  8
AM_7
100
AcDbLine
 10
-1.737654554595514
 20
4.87475
 30
0.0
 11
-1.12797267033127
 21
4.522749999999999
 31
0.0
  0
LINE
  5
17D
330
165
100
AcDbEntity
  8
AM_4
100
AcDbLine
 10
-1.510217423031058
 20
4.864682667397366
 30
0.0
 11
-1.536198185144591
 21
4.879682667397366
 31
0.0
  0
LINE
  5
17E
330
165
100
AcDbEntity
  8
AM_4
100
AcDbLine
 10
-1.641198185144591
 20
4.697817332602634
 30
0.0
 11
-1.615217423031058
 21
4.682817332602633
 31
0.0
  0
LINE
  5
17F
330
165
100
AcDbEntity
  8
AM_4
100
AcDbLine
 10
-1.615217423031058
 20
4.682817332602633
 30
0.0
 11
-1.510217423031058
 21
4.864682667397366
 31
0.0
  0
LINE
  5
180
330
165
100
AcDbEntity
  8
AM_4
100
AcDbLine
 10
-1.615217423031058
 20
4.682817332602633
 30
0.0
 11
-1.594200852527443
 21
4.654725343752893
 31
0.0
  0
LINE
  5
181
330
165
100
AcDbEntity
  8
AM_4
100
AcDbLine
 10
-1.475380761792546
 20
4.860527777865679
 30
0.0
 11
-1.510217423031058
 21
4.864682667397366
 31
0.0
  0
LINE
  5
182
330
165
100
AcDbEntity
  8
AM_4
100
AcDbLine
 10
-1.641198185144591
 20
4.697817332602634
 30
0.0
 11
-1.536198185144591
 21
4.879682667397366
 31
0.0
  0
LINE
  5
183
330
165
100
AcDbEntity
  8
AM_4
100
AcDbLine
 10
-1.536198185144591
 20
4.879682667397366
 30
0.0
 11
-1.573159709371657
 21
4.935663429510899
 31
0.0
  0
LINE
  5
184
330
165
100
AcDbEntity
  8
AM_4
100
AcDbLine
 10
-1.708159709371657
 20
4.701836570489101
 30
0.0
 11
-1.641198185144591
 21
4.697817332602634
 31
0.0
  0
LINE
  5
185
330
165
100
AcDbEntity
  8
AM_4
100
AcDbLine
 10
-1.761280692641006
 20
4.769828328518572
 30
0.0
 11
-1.658602790707819
 21
4.947671671481428
 31
0.0
  0
LINE
  5
186
330
165
100
AcDbEntity
  8
AM_4
100
AcDbLine
 10
-1.708159709371657
 20
4.701836570489101
 30
0.0
 11
-1.573159709371657
 21
4.935663429510899
 31
0.0
  0
LINE
  5
187
330
165
100
AcDbEntity
  8
AM_4
100
AcDbLine
 10
-1.761280692641006
 20
4.769828328518572
 30
0.0
 11
-1.708159709371657
 21
4.701836570489101
 31
0.0
  0
LINE
  5
188
330
165
100
AcDbEntity
  8
AM_4
100
AcDbLine
 10
-1.573159709371657
 20
4.935663429510899
 30
0.0
 11
-1.658602790707819
 21
4.947671671481428
 31
0.0
  0
LINE
  5
189
330
165
100
AcDbEntity
  8
AM_4
100
AcDbLine
 10
-1.594200852527443
 20
4.654725343752893
 30
0.0
 11
-1.475380761792546
 21
4.860527777865679
 31
0.0
  0
LINE
  5
18A
330
165
100
AcDbEntity
  8
AM_4
100
AcDbLine
 10
-1.594200852527443
 20
4.654725343752893
 30
0.0
 11
-1.57391580756317
 21
4.580990226109452
 31
0.0
  0
LINE
  5
18B
330
165
100
AcDbEntity
  8
AM_4
100
AcDbLine
 10
-1.401381754280155
 20
4.87982797243143
 30
0.0
 11
-1.475380761792546
 21
4.860527777865679
 31
0.0
  0
LINE
  5
18C
330
165
100
AcDbEntity
  8
AM_4
100
AcDbLine
 10
-1.275807215255248
 20
4.860693057077846
 30
0.0
 11
-1.362409755633692
 21
4.910693057077846
 31
0.0
  0
LINE
  5
18D
330
165
100
AcDbEntity
  8
AM_4
100
AcDbLine
 10
-1.581159755633692
 20
4.531806942922153
 30
0.0
 11
-1.362409755633692
 21
4.910693057077846
 31
0.0
  0
LINE
  5
18E
330
165
100
AcDbEntity
  8
AM_4
100
AcDbLine
 10
-1.494557215255248
 20
4.481806942922153
 30
0.0
 11
-1.275807215255248
 21
4.860693057077846
 31
0.0
  0
LINE
  5
18F
330
165
100
AcDbEntity
  8
AM_4
100
AcDbLine
 10
-1.581159755633692
 20
4.531806942922153
 30
0.0
 11
-1.494557215255248
 21
4.481806942922153
 31
0.0
  0
LINE
  5
190
330
165
100
AcDbEntity
  8
AM_4
100
AcDbLine
 10
-1.256794277955742
 20
4.833624430481711
 30
0.0
 11
-1.282306266643713
 21
4.849436369872023
 31
0.0
  0
LINE
  5
191
330
165
100
AcDbEntity
  8
AM_4
100
AcDbLine
 10
-1.488058163866783
 20
4.493063630127977
 30
0.0
 11
-1.461608628327688
 21
4.478875569518288
 31
0.0
  0
LINE
  5
192
330
165
100
AcDbEntity
  8
AM_4
100
AcDbLine
 10
-1.57391580756317
 20
4.580990226109452
 30
0.0
 11
-1.401381754280155
 21
4.87982797243143
 31
0.0
  0
LINE
  5
193
330
165
100
AcDbEntity
  8
AM_4
100
AcDbLine
 10
-1.57391580756317
 20
4.580990226109452
 30
0.0
 11
-1.578659755633692
 21
4.536137069941076
 31
0.0
  0
LINE
  5
194
330
165
100
AcDbEntity
  8
AM_4
100
AcDbLine
 10
-1.364909755633692
 20
4.906362930058923
 30
0.0
 11
-1.401381754280155
 21
4.87982797243143
 31
0.0
  0
LWPOLYLINE
  5
195
330
165
100
AcDbEntity
  8
AM_4
100
AcDbPolyline
 90
        3
 70
     0
 43
0.0
 10
-1.417097255633692
 20
4.815971528538922
 10
-1.387680777072922
 20
4.862135602415867
 10
-1.354556983945076
 20
4.906159257229538
  0
LWPOLYLINE
  5
196
330
165
100
AcDbEntity
  8
AM_4
100
AcDbPolyline
 90
        3
 70
     0
 43
0.0
 10
-1.463931983945076
 20
4.716716200151692
 10
-1.442472910552175
 20
4.767190555045535
 10
-1.417097255633692
 20
4.815971528538922
  0
LWPOLYLINE
  5
197
330
165
100
AcDbEntity
  8
AM_4
100
AcDbPolyline
 90
        3
 70
     0
 43
0.0
 10
-1.283659986943864
 20
4.865226856926153
 10
-1.305119060336765
 20
4.814752502032309
 10
-1.330494715255248
 20
4.765971528538922
  0
LINE
  5
198
330
165
100
AcDbEntity
  8
AM_4
100
AcDbLine
 10
-1.463931983945076
 20
4.716716200151692
 30
0.0
 11
-1.393034986943864
 21
4.675783799848307
 31
0.0
  0
LWPOLYLINE
  5
199
330
165
100
AcDbEntity
  8
AM_4
100
AcDbPolyline
 90
        3
 70
     0
 43
0.0
 10
-1.526472255633692
 20
4.626528471461077
 10
-1.497055777072922
 20
4.672692545338021
 10
-1.463931983945076
 20
4.716716200151692
  0
LWPOLYLINE
  5
19A
330
165
100
AcDbEntity
  8
AM_4
100
AcDbPolyline
 90
        3
 70
     0
 43
0.0
 10
-1.573306983945076
 20
4.527273143073846
 10
-1.551847910552175
 20
4.577747497967689
 10
-1.526472255633692
 20
4.626528471461077
  0
LWPOLYLINE
  5
19B
330
165
100
AcDbEntity
  8
AM_4
100
AcDbPolyline
 90
        3
 70
     0
 43
0.0
 10
-1.439869715255248
 20
4.576528471461076
 10
-1.469286193816017
 20
4.530364397584132
 10
-1.502409986943864
 20
4.48634074277046
  0
LWPOLYLINE
  5
19C
330
165
100
AcDbEntity
  8
AM_4
100
AcDbPolyline
 90
        3
 70
     0
 43
0.0
 10
-1.330494715255248
 20
4.765971528538922
 10
-1.359911193816017
 20
4.719807454661979
 10
-1.393034986943864
 20
4.675783799848307
  0
LWPOLYLINE
  5
19D
330
165
100
AcDbEntity
  8
AM_4
100
AcDbPolyline
 90
        3
 70
     0
 43
0.0
 10
-1.393034986943864
 20
4.675783799848307
 10
-1.414494060336765
 20
4.625309444954464
 10
-1.439869715255248
 20
4.576528471461076
  0
ENDBLK
  5
168
330
165
100
AcDbEntity
  8
0
100
AcDbBlockEnd
  0
BLOCK
  5
1A0
330
19E
100
AcDbEntity
  8
0
100
AcDbBlockBegin
  2
6_070716H_0_in_070716_2
 70
     2
 10
0.0
 20
0.0
 30
0.0
  3
6_070716H_0_in_070716_2
  1

  0
ATTDEF
  5
1A2
330
19E
100
AcDbEntity
  8
AM_6
100
AcDbText
 10
7.090460526315789
 20
5.4375
 30
0.0
 40
0.5
  1
FC-S2 -(Labyrinth Seal)-Housing
100
AcDbAttributeDefinition
  3

  2
NN
 70
     8
280
     0
  0
ATTDEF
  5
1A3
330
19E
100
AcDbEntity
  8
AM_6
100
AcDbText
 10
7.090460526315789
 20
4.9375
 30
0.0
 40
0.5
  1
S-2000 Piloted Flange Bearing -Inch
100
AcDbAttributeDefinition
  3

  2
NT
 70
     8
280
     0
  0
ATTDEF
  5
1A4
330
19E
100
AcDbEntity
  8
AM_6
100
AcDbText
 10
7.090460526315789
 20
4.4375
 30
0.0
 40
0.5
  1
070716H
100
AcDbAttributeDefinition
  3

  2
NB
 70
     8
280
     0
  0
ATTDEF
  5
1A5
330
19E
100
AcDbEntity
  8
AM_6
100
AcDbText
 10
7.090460526315789
 20
3.9375
 30
0.0
 40
0.5
  1
$PN.H
100
AcDbAttributeDefinition
  3

  2
NBSYN
 70
     8
280
     0
  0
ATTDEF
  5
1A6
330
19E
100
AcDbEntity
  8
AM_6
100
AcDbText
 10
7.090460526315789
 20
3.4375
 30
0.0
 40
0.5
  1
070716
100
AcDbAttributeDefinition
  3

  2
LINA
 70
     8
280
     0
  0
ATTDEF
  5
1A7
330
19E
100
AcDbEntity
  8
AM_6
100
AcDbText
 10
7.090460526315789
 20
2.9375
 30
0.0
 40
0.5
  1
3-15/16
100
AcDbAttributeDefinition
  3

  2
SS
 70
     8
280
     0
  0
ATTDEF
  5
1A8
330
19E
100
AcDbEntity
  8
AM_6
100
AcDbText
 10
7.090460526315789
 20
2.4375
 30
0.0
 40
0.5
  1
070716
100
AcDbAttributeDefinition
  3

  2
PN
 70
     8
280
     0
  0
ATTDEF
  5
1A9
330
19E
100
AcDbEntity
  8
AM_6
100
AcDbText
 10
7.090460526315789
 20
1.9375
 30
0.0
 40
0.5
  1
FC-S2-315L
100
AcDbAttributeDefinition
  3

  2
DESCRIPTION
 70
     8
280
     0
  0
ATTDEF
  5
1AA
330
19E
100
AcDbEntity
  8
AM_6
100
AcDbText
 10
7.090460526315789
 20
1.4375
 30
0.0
 40
0.5
  1
Non-Expansion Type
100
AcDbAttributeDefinition
  3

  2
EF
 70
     8
280
     0
  0
ATTDEF
  5
1AB
330
19E
100
AcDbEntity
  8
AM_6
100
AcDbText
 10
7.090460526315789
 20
0.9375
 30
0.0
 40
0.5
  1
4-15/32
100
AcDbAttributeDefinition
  3

  2
A
 70
     8
280
     0
  0
ATTDEF
  5
1AC
330
19E
100
AcDbEntity
  8
AM_6
100
AcDbText
 10
7.090460526315789
 20
0.4375
 30
0.0
 40
0.5
  1
10-7/8
100
AcDbAttributeDefinition
  3

  2
B
 70
     8
280
     0
  0
ATTDEF
  5
1AD
330
19E
100
AcDbEntity
  8
AM_6
100
AcDbText
 10
7.090460526315789
 20
-0.0625
 30
0.0
 40
0.5
  1
3-1/2
100
AcDbAttributeDefinition
  3

  2
C
 70
     8
280
     0
  0
ATTDEF
  5
1AE
330
19E
100
AcDbEntity
  8
AM_6
100
AcDbText
 10
7.090460526315789
 20
-0.5625
 30
0.0
 40
0.5
  1
9-3/8
100
AcDbAttributeDefinition
  3

  2
DD
 70
     8
280
     0
  0
ATTDEF
  5
1AF
330
19E
100
AcDbEntity
  8
AM_6
100
AcDbText
 10
7.090460526315789
 20
-1.0625
 30
0.0
 40
0.5
  1
1-15/32
100
AcDbAttributeDefinition
  3

  2
E
 70
     8
280
     0
  0
ATTDEF
  5
1B0
330
19E
100
AcDbEntity
  8
AM_6
100
AcDbText
 10
7.090460526315789
 20
-1.5625
 30
0.0
 40
0.5
  1
3/4
100
AcDbAttributeDefinition
  3

  2
F
 70
     8
280
     0
  0
ATTDEF
  5
1B1
330
19E
100
AcDbEntity
  8
AM_6
100
AcDbText
 10
7.090460526315789
 20
-2.0625
 30
0.0
 40
0.5
  1
2-21/32
100
AcDbAttributeDefinition
  3

  2
G
 70
     8
280
     0
  0
ATTDEF
  5
1B2
330
19E
100
AcDbEntity
  8
AM_6
100
AcDbText
 10
7.090460526315789
 20
-2.5625
 30
0.0
 40
0.5
  1
1-1/8
100
AcDbAttributeDefinition
  3

  2
H
 70
     8
280
     0
  0
ATTDEF
  5
1B3
330
19E
100
AcDbEntity
  8
AM_6
100
AcDbText
 10
7.090460526315789
 20
-3.0625
 30
0.0
 40
0.5
  1
8.125
100
AcDbAttributeDefinition
  3

  2
K
 70
     8
280
     0
  0
ATTDEF
  5
1B4
330
19E
100
AcDbEntity
  8
AM_6
100
AcDbText
 10
7.090460526315789
 20
-3.5625
 30
0.0
 40
0.5
  1
6
100
AcDbAttributeDefinition
  3

  2
L
 70
     8
280
     0
  0
ATTDEF
  5
1B5
330
19E
100
AcDbEntity
  8
AM_6
100
AcDbText
 10
7.090460526315789
 20
-4.0625
 30
0.0
 40
0.5
  1
3/4-10
100
AcDbAttributeDefinition
  3

  2
M
 70
     8
280
     0
  0
ATTDEF
  5
1B6
330
19E
100
AcDbEntity
  8
AM_6
100
AcDbText
 10
7.090460526315789
 20
-4.5625
 30
0.0
 40
0.5
  1
0.7500
100
AcDbAttributeDefinition
  3

  2
MNDM
 70
     8
280
     0
  0
ATTDEF
  5
1B7
330
19E
100
AcDbEntity
  8
AM_6
100
AcDbText
 10
7.090460526315789
 20
-5.0625
 30
0.0
 40
0.5
  1
0.6417
100
AcDbAttributeDefinition
  3

  2
MKDM
 70
     8
280
     0
  0
ATTDEF
  5
1B8
330
19E
100
AcDbEntity
  8
AM_6
100
AcDbText
 10
7.090460526315789
 20
-5.5625
 30
0.0
 40
0.5
  1
4-9/16
100
AcDbAttributeDefinition
  3

  2
N
 70
     8
280
     0
  0
ATTDEF
  5
1B9
330
19E
100
AcDbEntity
  8
AM_6
100
AcDbText
 10
7.090460526315789
 20
-6.0625
 30
0.0
 40
0.5
  1
4.562500
100
AcDbAttributeDefinition
  3

  2
N1
 70
     8
280
     0
  0
ATTDEF
  5
1BA
330
19E
100
AcDbEntity
  8
AM_6
100
AcDbText
 10
7.090460526315789
 20
-6.5625
 30
0.0
 40
0.5
  1
1-13/16
100
AcDbAttributeDefinition
  3

  2
P
 70
     8
280
     0
  0
ATTDEF
  5
1BB
330
19E
100
AcDbEntity
  8
AM_6
100
AcDbText
 10
7.090460526315789
 20
-7.0625
 30
0.0
 40
0.5
  1
1-29/32
100
AcDbAttributeDefinition
  3

  2
Q
 70
     8
280
     0
  0
ATTDEF
  5
1BC
330
19E
100
AcDbEntity
  8
AM_6
100
AcDbText
 10
7.090460526315789
 20
-7.5625
 30
0.0
 40
0.5
  1
1.906250
100
AcDbAttributeDefinition
  3

  2
Q1
 70
     8
280
     0
  0
ATTDEF
  5
1BD
330
19E
100
AcDbEntity
  8
AM_6
100
AcDbText
 10
7.090460526315789
 20
-8.0625
 30
0.0
 40
0.5
  1
5/16
100
AcDbAttributeDefinition
  3

  2
X
 70
     8
280
     0
  0
ATTDEF
  5
1BE
330
19E
100
AcDbEntity
  8
AM_6
100
AcDbText
 10
7.090460526315789
 20
-8.5625
 30
0.0
 40
0.5
  1
0.025
100
AcDbAttributeDefinition
  3

  2
Y
 70
     8
280
     0
  0
ATTDEF
  5
1BF
330
19E
100
AcDbEntity
  8
AM_6
100
AcDbText
 10
7.090460526315789
 20
-9.0625
 30
0.0
 40
0.5
  1
4-1/2
100
AcDbAttributeDefinition
  3

  2
Z
 70
     8
280
     0
  0
ATTDEF
  5
1C0
330
19E
100
AcDbEntity
  8
AM_6
100
AcDbText
 10
7.090460526315789
 20
-9.5625
 30
0.0
 40
0.5
  1
baldor
100
AcDbAttributeDefinition
  3

  2
COMPANY
 70
     8
280
     0
  0
LINE
  5
1C1
330
19E
100
AcDbEntity
  8
AM_9
100
AcDbLine
 10
0.0
 20
-5.210000000000001
 30
0.0
 11
-1.0125
 21
-5.210000000000001
 31
0.0
  0
LINE
  5
1C2
330
19E
100
AcDbEntity
  8
AM_9
100
AcDbLine
 10
-1.0125
 20
-3.68717017730612
 30
0.0
 11
-1.125
 21
-3.68717017730612
 31
0.0
  0
LINE
  5
1C3
330
19E
100
AcDbEntity
  8
AM_9
100
AcDbLine
 10
-1.0125
 20
-3.630655191146431
 30
0.0
 11
-1.125
 21
-3.630655191146431
 31
0.0
  0
LINE
  5
1C4
330
19E
100
AcDbEntity
  8
AM_9
100
AcDbLine
 10
-1.0125
 20
3.68717017730612
 30
0.0
 11
-1.125
 21
3.68717017730612
 31
0.0
  0
LINE
  5
1C5
330
19E
100
AcDbEntity
  8
AM_9
100
AcDbLine
 10
-1.125
 20
3.63065519114643
 30
0.0
 11
-1.0125
 21
3.63065519114643
 31
0.0
  0
LINE
  5
1C6
330
19E
100
AcDbEntity
  8
AM_9
100
AcDbLine
 10
-1.0125
 20
4.031613355717535
 30
0.0
 11
-1.125
 21
4.031613355717535
 31
0.0
  0
LINE
  5
1C7
330
19E
100
AcDbEntity
  8
AM_9
100
AcDbLine
 10
-1.0125
 20
3.661501248921685
 30
0.0
 11
-1.125
 21
3.661501248921685
 31
0.0
  0
LINE
  5
1C8
330
19E
100
AcDbEntity
  8
AM_9
100
AcDbLine
 10
-1.0125
 20
-3.661501248921686
 30
0.0
 11
-1.125
 21
-3.661501248921686
 31
0.0
  0
LINE
  5
1C9
330
19E
100
AcDbEntity
  8
AM_9
100
AcDbLine
 10
-1.125
 20
-4.0625
 30
0.0
 11
-1.0125
 21
-4.0625
 31
0.0
  0
LINE
  5
1CA
330
19E
100
AcDbEntity
  8
AM_9
100
AcDbLine
 10
-1.0125
 20
-3.630655191146431
 30
0.0
 11
-1.0125
 21
-4.436207311294213
 31
0.0
  0
LINE
  5
1CB
330
19E
100
AcDbEntity
  8
AM_9
100
AcDbLine
 10
-1.0125
 20
4.436207311294212
 30
0.0
 11
-1.0125
 21
3.63065519114643
 31
0.0
  0
LINE
  5
1CC
330
19E
100
AcDbEntity
  8
AM_9
100
AcDbLine
 10
-1.102960526315789
 20
-3.5433
 30
0.0
 11
1.90625
 21
-3.5433
 31
0.0
  0
LINE
  5
1CD
330
19E
100
AcDbEntity
  8
AM_9
100
AcDbLine
 10
1.90625
 20
3.5433
 30
0.0
 11
-1.102960526315789
 21
3.5433
 31
0.0
  0
LINE
  5
1CE
330
19E
100
AcDbEntity
  8
AM_9
100
AcDbLine
 10
0.0000000000000003
 20
-2.939563036811941
 30
0.0
 11
-1.125
 21
-2.939563036811941
 31
0.0
  0
LINE
  5
1CF
330
19E
100
AcDbEntity
  8
AM_9
100
AcDbLine
 10
-1.125
 20
-3.689563036811942
 30
0.0
 11
0.0000000000000003
 21
-3.689563036811942
 31
0.0
  0
LINE
  5
1D0
330
19E
100
AcDbEntity
  8
AM_9
100
AcDbLine
 10
0.0000000000000003
 20
3.689563036811942
 30
0.0
 11
-1.125
 21
3.689563036811942
 31
0.0
  0
LINE
  5
1D1
330
19E
100
AcDbEntity
  8
AM_9
100
AcDbLine
 10
-1.125
 20
2.939563036811941
 30
0.0
 11
0.0000000000000003
 21
2.939563036811941
 31
0.0
  0
LINE
  5
1D2
330
19E
100
AcDbEntity
  8
AM_9
100
AcDbLine
 10
-1.102960526315789
 20
3.5433
 30
0.0
 11
-1.59375
 21
3.721932759712228
 31
0.0
  0
LINE
  5
1D3
330
19E
100
AcDbEntity
  8
AM_9
100
AcDbLine
 10
-1.59375
 20
-3.721932759712228
 30
0.0
 11
-1.102960526315789
 21
-3.5433
 31
0.0
  0
LINE
  5
1D4
330
19E
100
AcDbEntity
  8
AM_9
100
AcDbLine
 10
-1.102960526315789
 20
3.5433
 30
0.0
 11
-1.102960526315789
 21
-3.5433
 31
0.0
  0
LINE
  5
1D5
330
19E
100
AcDbEntity
  8
AM_9
100
AcDbLine
 10
-0.0541499999999997
 20
0.3208499999999999
 30
0.0
 11
-0.9583499999999999
 21
0.3208499999999999
 31
0.0
  0
LINE
  5
1D6
330
19E
100
AcDbEntity
  8
AM_9
100
AcDbLine
 10
-0.9583499999999999
 20
-0.3208499999999999
 30
0.0
 11
-0.0541499999999997
 21
-0.3208499999999999
 31
0.0
  0
LINE
  5
1D7
330
19E
100
AcDbEntity
  8
AM_9
100
AcDbLine
 10
-0.9583499999999999
 20
-0.3208499999999999
 30
0.0
 11
-0.9583499999999999
 21
0.3208499999999999
 31
0.0
  0
LINE
  5
1D8
330
19E
100
AcDbEntity
  8
AM_9
100
AcDbLine
 10
-0.9583499999999999
 20
0.3208499999999999
 30
0.0
 11
-1.0125
 21
0.3749999999999997
 31
0.0
  0
LINE
  5
1D9
330
19E
100
AcDbEntity
  8
AM_9
100
AcDbLine
 10
-1.0125
 20
-0.3749999999999997
 30
0.0
 11
-0.9583499999999999
 21
-0.3208499999999999
 31
0.0
  0
LINE
  5
1DA
330
19E
100
AcDbEntity
  8
AM_9
100
AcDbLine
 10
-0.0541499999999997
 20
-0.3208499999999999
 30
0.0
 11
-0.0541499999999997
 21
0.3208499999999999
 31
0.0
  0
LINE
  5
1DB
330
19E
100
AcDbEntity
  8
AM_9
100
AcDbLine
 10
-0.0541499999999997
 20
-0.3208499999999999
 30
0.0
 11
0.0000000000000003
 21
-0.3749999999999997
 31
0.0
  0
LINE
  5
1DC
330
19E
100
AcDbEntity
  8
AM_9
100
AcDbLine
 10
0.0000000000000003
 20
0.3749999999999997
 30
0.0
 11
-0.0541499999999997
 21
0.3208499999999999
 31
0.0
  0
LINE
  5
1DD
330
19E
100
AcDbEntity
  8
AM_5
100
AcDbLine
 10
0.0000000000000003
 20
-0.3749999999999997
 30
0.0
 11
-1.0125
 21
-0.3749999999999997
 31
0.0
  0
LINE
  5
1DE
330
19E
100
AcDbEntity
  8
AM_5
100
AcDbLine
 10
0.0000000000000003
 20
0.3750000000000002
 30
0.0
 11
-1.0125
 21
0.3750000000000002
 31
0.0
  0
LINE
  5
1DF
330
19E
100
AcDbEntity
  8
AM_7
100
AcDbLine
 10
-1.18125
 20
3.314563036811941
 30
0.0
 11
0.0562499999999998
 21
3.314563036811941
 31
0.0
  0
LINE
  5
1E0
330
19E
100
AcDbEntity
  8
AM_7
100
AcDbLine
 10
-1.18125
 20
-3.314563036811941
 30
0.0
 11
0.0562499999999998
 21
-3.314563036811941
 31
0.0
  0
LINE
  5
1E1
330
19E
100
AcDbEntity
  8
AM_7
100
AcDbLine
 10
-2.88046875
 20
0.0
 30
0.0
 11
2.090460526315789
 21
0.0
 31
0.0
  0
LINE
  5
1E2
330
19E
100
AcDbEntity
  8
AM_4
100
AcDbLine
 10
-1.124652906283429
 20
5.0625
 30
0.0
 11
-1.59375
 21
4.25
 31
0.0
  0
LINE
  5
1E3
330
19E
100
AcDbEntity
  8
AM_4
100
AcDbLine
 10
-1.0125
 20
5.0625
 30
0.0
 11
-1.124652906283429
 21
5.0625
 31
0.0
  0
LINE
  5
1E4
330
19E
100
AcDbEntity
  8
AM_4
100
AcDbLine
 10
-1.125
 20
4.031613355717535
 30
0.0
 11
-1.59375
 21
4.031613355717535
 31
0.0
  0
LINE
  5
1E5
330
19E
100
AcDbEntity
  8
AM_4
100
AcDbLine
 10
-1.59375
 20
-4.0625
 30
0.0
 11
-1.125
 21
-4.0625
 31
0.0
  0
LINE
  5
1E6
330
19E
100
AcDbEntity
  8
AM_4
100
AcDbLine
 10
-1.59375
 20
-4.0625
 30
0.0
 11
-1.59375
 21
4.25
 31
0.0
  0
LINE
  5
1E7
330
19E
100
AcDbEntity
  8
AM_4
100
AcDbLine
 10
-1.59375
 20
3.213801740859651
 30
0.0
 11
-1.125
 21
3.213801740859651
 31
0.0
  0
LINE
  5
1E8
330
19E
100
AcDbEntity
  8
AM_4
100
AcDbLine
 10
-1.59375
 20
-3.213801740859648
 30
0.0
 11
-1.125
 21
-3.213801740859648
 31
0.0
  0
LINE
  5
1E9
330
19E
100
AcDbEntity
  8
AM_4
100
AcDbLine
 10
1.90625
 20
-3.869047619047619
 30
0.0
 11
1.90625
 21
3.869047619047619
 31
0.0
  0
LINE
  5
1EA
330
19E
100
AcDbEntity
  8
AM_4
100
AcDbLine
 10
1.46875
 20
-3.869047619047619
 30
0.0
 11
1.90625
 21
-3.869047619047619
 31
0.0
  0
LINE
  5
1EB
330
19E
100
AcDbEntity
  8
AM_4
100
AcDbLine
 10
1.90625
 20
3.869047619047619
 30
0.0
 11
1.46875
 21
3.869047619047619
 31
0.0
  0
LINE
  5
1EC
330
19E
100
AcDbEntity
  8
AM_4
100
AcDbLine
 10
-1.59375
 20
-2.485032116582699
 30
0.0
 11
-1.125
 21
-2.485032116582699
 31
0.0
  0
LINE
  5
1ED
330
19E
100
AcDbEntity
  8
AM_4
100
AcDbLine
 10
-1.0125
 20
-1.759918990790469
 30
0.0
 11
-1.125
 21
-1.759918990790469
 31
0.0
  0
LINE
  5
1EE
330
19E
100
AcDbEntity
  8
AM_4
100
AcDbLine
 10
-1.0125
 20
1.759918990790466
 30
0.0
 11
-1.125
 21
1.759918990790466
 31
0.0
  0
LINE
  5
1EF
330
19E
100
AcDbEntity
  8
AM_4
100
AcDbLine
 10
-1.59375
 20
2.4850321165827
 30
0.0
 11
-1.125
 21
2.4850321165827
 31
0.0
  0
LINE
  5
1F0
330
19E
100
AcDbEntity
  8
AM_4
100
AcDbLine
 10
1.46875
 20
-4.0625
 30
0.0
 11
1.46875
 21
4.0625
 31
0.0
  0
LINE
  5
1F1
330
19E
100
AcDbEntity
  8
AM_4
100
AcDbLine
 10
0.0
 20
-4.0625
 30
0.0
 11
1.46875
 21
-4.0625
 31
0.0
  0
LINE
  5
1F2
330
19E
100
AcDbEntity
  8
AM_4
100
AcDbLine
 10
1.46875
 20
4.0625
 30
0.0
 11
0.0
 21
4.0625
 31
0.0
  0
LINE
  5
1F3
330
19E
100
AcDbEntity
  8
AM_4
100
AcDbLine
 10
-1.0125
 20
-2.074540011057131
 30
0.0
 11
-1.125
 21
-2.074540011057131
 31
0.0
  0
LINE
  5
1F4
330
19E
100
AcDbEntity
  8
AM_4
100
AcDbLine
 10
-1.0125
 20
2.074540011057129
 30
0.0
 11
-1.125
 21
2.074540011057129
 31
0.0
  0
LINE
  5
1F5
330
19E
100
AcDbEntity
  8
AM_4
100
AcDbLine
 10
0.0
 20
-5.429810004537205
 30
0.0
 11
0.0
 21
5.4375
 31
0.0
  0
LINE
  5
1F6
330
19E
100
AcDbEntity
  8
AM_4
100
AcDbLine
 10
-1.125
 20
-4.436207311294213
 30
0.0
 11
-1.125
 21
-1.759918990790469
 31
0.0
  0
LINE
  5
1F7
330
19E
100
AcDbEntity
  8
AM_4
100
AcDbLine
 10
-1.125
 20
-4.436207311294213
 30
0.0
 11
-1.0125
 21
-4.436207311294213
 31
0.0
  0
LINE
  5
1F8
330
19E
100
AcDbEntity
  8
AM_4
100
AcDbLine
 10
-1.0125
 20
-4.436207311294213
 30
0.0
 11
-1.0125
 21
-5.429810004537205
 31
0.0
  0
LINE
  5
1F9
330
19E
100
AcDbEntity
  8
AM_4
100
AcDbLine
 10
0.0
 20
-5.429810004537205
 30
0.0
 11
-1.0125
 21
-5.429810004537205
 31
0.0
  0
LINE
  5
1FA
330
19E
100
AcDbEntity
  8
AM_4
100
AcDbLine
 10
-1.0125
 20
4.436207311294212
 30
0.0
 11
-1.125
 21
4.436207311294211
 31
0.0
  0
LINE
  5
1FB
330
19E
100
AcDbEntity
  8
AM_4
100
AcDbLine
 10
-1.125
 20
1.759918990790466
 30
0.0
 11
-1.125
 21
4.436207311294211
 31
0.0
  0
LINE
  5
1FC
330
19E
100
AcDbEntity
  8
AM_4
100
AcDbLine
 10
-1.125
 20
3.144275900938049
 30
0.0
 11
-1.0125
 21
3.144275900938049
 31
0.0
  0
LINE
  5
1FD
330
19E
100
AcDbEntity
  8
AM_4
100
AcDbLine
 10
-1.0125
 20
3.144275900938049
 30
0.0
 11
-1.0125
 21
-3.144275900938051
 31
0.0
  0
LINE
  5
1FE
330
19E
100
AcDbEntity
  8
AM_4
100
AcDbLine
 10
-1.0125
 20
-3.144275900938051
 30
0.0
 11
-1.125
 21
-3.14427590093805
 31
0.0
  0
LINE
  5
1FF
330
19E
100
AcDbEntity
  8
AM_4
100
AcDbLine
 10
0.0
 20
5.4375
 30
0.0
 11
-1.0125
 21
5.4375
 31
0.0
  0
LINE
  5
200
330
19E
100
AcDbEntity
  8
AM_4
100
AcDbLine
 10
-1.0125
 20
5.4375
 30
0.0
 11
-1.0125
 21
4.436207311294212
 31
0.0
  0
ENDBLK
  5
1A1
330
19E
100
AcDbEntity
  8
0
100
AcDbBlockEnd
  0
ENDSEC
  0
SECTION
  2
ENTITIES
  0
INSERT
  5
6F
330
1F
100
AcDbEntity
  8
0
100
AcDbBlockReference
  2
1_070716_2
 10
0.0
 20
0.0
 30
0.0
  0
POINT
  5
202
330
1F
100
AcDbEntity
  8
ConnectionPoints
100
AcDbPoint
 10
-2.65625
 20
0.0
 30
0.0000000000000002
  0
POINT
  5
203
330
1F
100
AcDbEntity
  8
ConnectionPoints
100
AcDbPoint
 10
-2.65625
 20
0.0
 30
0.0000000000000002
  0
POINT
  5
204
330
1F
100
AcDbEntity
  8
ConnectionPoints
100
AcDbPoint
 10
3.0205
 20
0.0
 30
-0.0000000000000002
  0
POINT
  5
205
330
1F
100
AcDbEntity
  8
ConnectionPoints
100
AcDbPoint
 10
-2.65625
 20
0.0
 30
0.0000000000000002
  0
POINT
  5
206
330
1F
100
AcDbEntity
  8
ConnectionPoints
100
AcDbPoint
 10
-1.385182215255248
 20
4.67125
 30
0.0000000000000001
  0
POINT
  5
207
330
1F
100
AcDbEntity
  8
ConnectionPoints
100
AcDbPoint
 10
1.859375
 20
0.0
 30
-0.0000000000000001
  0
POINT
  5
208
330
1F
100
AcDbEntity
  8
ConnectionPoints
100
AcDbPoint
 10
-1.439308802991775
 20
4.140000000000001
 30
0.0000000000000001
  0
POINT
  5
209
330
1F
100
AcDbEntity
  8
ConnectionPoints
100
AcDbPoint
 10
-1.385182215255248
 20
4.67125
 30
0.0000000000000001
  0
POINT
  5
20A
330
1F
100
AcDbEntity
  8
ConnectionPoints
100
AcDbPoint
 10
-2.34375
 20
0.0
 30
0.0000000000000001
  0
POINT
  5
20B
330
1F
100
AcDbEntity
  8
ConnectionPoints
100
AcDbPoint
 10
-2.65625
 20
0.0
 30
0.0000000000000002
  0
ENDSEC
  0
SECTION
  2
OBJECTS
  0
DICTIONARY
  5
C
330
0
100
AcDbDictionary
281
     1
  3
ACAD_DETAILVIEWSTYLE
350
213
  3
ACAD_GROUP
350
D
  3
ACAD_LAYOUT
350
1A
  3
ACAD_MATERIAL
350
43
  3
ACAD_MLEADERSTYLE
350
6B
  3
ACAD_MLINESTYLE
350
17
  3
ACAD_PLOTSETTINGS
350
19
  3
ACAD_PLOTSTYLENAME
350
E
  3
ACAD_SCALELIST
350
47
  3
ACAD_SECTIONVIEWSTYLE
350
214
  3
ACAD_TABLESTYLE
350
69
  3
ACAD_VISUALSTYLE
350
2A
  3
ACDB_RECOMPOSE_DATA
350
210
  3
AcDbVariableDictionary
350
20C
  0
SUN
  5
6D
330
29
100
AcDbSun
 90
        1
290
     0
 63
     7
421
 16777215
 40
1.0
291
     1
 91
  2455826
 92
 54000000
292
     0
 70
     2
 71
   256
280
     1
  0
DICTIONARY
  5
213
102
{ACAD_REACTORS
330
C
102
}
330
C
100
AcDbDictionary
281
     1
  0
DICTIONARY
  5
D
102
{ACAD_REACTORS
330
C
102
}
330
C
100
AcDbDictionary
281
     1
  0
DICTIONARY
  5
1A
102
{ACAD_REACTORS
330
C
102
}
330
C
100
AcDbDictionary
281
     1
  3
Layout1
350
1E
  3
Layout2
350
26
  3
Model
350
22
  0
DICTIONARY
  5
43
102
{ACAD_REACTORS
330
C
102
}
330
C
100
AcDbDictionary
281
     1
  3
ByBlock
350
45
  3
ByLayer
350
44
  3
Global
350
46
  0
DICTIONARY
  5
6B
102
{ACAD_REACTORS
330
C
102
}
330
C
100
AcDbDictionary
281
     1
  3
Standard
350
6C
  0
DICTIONARY
  5
17
102
{ACAD_REACTORS
330
C
102
}
330
C
100
AcDbDictionary
281
     1
  3
Standard
350
18
  0
DICTIONARY
  5
19
102
{ACAD_REACTORS
330
C
102
}
330
C
100
AcDbDictionary
281
     1
  0
ACDBDICTIONARYWDFLT
  5
E
102
{ACAD_REACTORS
330
C
102
}
330
C
100
AcDbDictionary
281
     1
  3
Normal
350
F
100
AcDbDictionaryWithDefault
340
F
  0
DICTIONARY
  5
47
102
{ACAD_REACTORS
330
C
102
}
330
C
100
AcDbDictionary
281
     1
  3
A0
350
48
  3
A1
350
49
  3
A2
350
4A
  3
A3
350
4B
  3
A4
350
4C
  3
A5
350
4D
  3
A6
350
4E
  3
A7
350
4F
  3
A8
350
50
  3
A9
350
51
  3
B0
350
52
  3
B1
350
53
  3
B2
350
54
  3
B3
350
55
  3
B4
350
56
  3
B5
350
57
  3
B6
350
58
  3
B7
350
59
  3
B8
350
5A
  3
B9
350
5B
  3
C0
350
5C
  3
C1
350
5D
  3
C2
350
5E
  3
C3
350
5F
  3
C4
350
60
  3
C5
350
61
  3
C6
350
62
  3
C7
350
63
  3
C8
350
64
  3
C9
350
65
  3
D0
350
66
  3
D1
350
67
  3
D2
350
68
  0
DICTIONARY
  5
214
102
{ACAD_REACTORS
330
C
102
}
330
C
100
AcDbDictionary
281
     1
  0
DICTIONARY
  5
69
102
{ACAD_REACTORS
330
C
102
}
330
C
100
AcDbDictionary
281
     1
  3
Standard
350
6A
  0
DICTIONARY
  5
2A
102
{ACAD_REACTORS
330
C
102
}
330
C
100
AcDbDictionary
281
     1
  3
2dWireframe
350
2F
  3
Basic
350
32
  3
Brighten
350
36
  3
ColorChange
350
3A
  3
Conceptual
350
34
  3
Dim
350
35
  3
EdgeColorOff
350
3D
  3
Facepattern
350
39
  3
Flat
350
2B
  3
FlatWithEdges
350
2C
  3
Gouraud
350
2D
  3
GouraudWithEdges
350
2E
  3
Hidden
350
31
  3
JitterOff
350
3B
  3
Linepattern
350
38
  3
OverhangOff
350
3C
  3
Realistic
350
33
  3
Shaded
350
42
  3
Shaded with edges
350
41
  3
Shades of Gray
350
3E
  3
Sketchy
350
3F
  3
Thicken
350
37
  3
Wireframe
350
30
  3
X-Ray
350
40
  0
XRECORD
  5
210
102
{ACAD_REACTORS
330
C
102
}
330
C
100
AcDbXrecord
280
     1
 90
        1
330
6A
  0
DICTIONARY
  5
20C
102
{ACAD_REACTORS
330
C
102
}
330
C
100
AcDbDictionary
281
     1
  3
CANNOSCALE
350
20D
  3
CMLEADERSTYLE
350
212
  3
CTABLESTYLE
350
211
  0
LAYOUT
  5
1E
102
{ACAD_REACTORS
330
1A
102
}
330
1A
100
AcDbPlotSettings
  1

  2
none_device
  4

  6

 40
0.0
 41
0.0
 42
0.0
 43
0.0
 44
0.0
 45
0.0
 46
0.0
 47
0.0
 48
0.0
 49
0.0
140
0.0
141
0.0
142
1.0
143
1.0
 70
   688
 72
     0
 73
     0
 74
     5
  7

 75
    16
 76
     0
 77
     2
 78
   300
147
1.0
148
0.0
149
0.0
100
AcDbLayout
  1
Layout1
 70
     1
 71
     1
 10
0.0
 20
0.0
 11
12.0
 21
9.0
 12
0.0
 22
0.0
 32
0.0
 14
1.000000000000000E+20
 24
1.000000000000000E+20
 34
1.000000000000000E+20
 15
-1.000000000000000E+20
 25
-1.000000000000000E+20
 35
-1.000000000000000E+20
146
0.0
 13
0.0
 23
0.0
 33
0.0
 16
1.0
 26
0.0
 36
0.0
 17
0.0
 27
1.0
 37
0.0
 76
     0
330
1B
  0
LAYOUT
  5
26
102
{ACAD_REACTORS
330
1A
102
}
330
1A
100
AcDbPlotSettings
  1

  2
none_device
  4

  6

 40
0.0
 41
0.0
 42
0.0
 43
0.0
 44
0.0
 45
0.0
 46
0.0
 47
0.0
 48
0.0
 49
0.0
140
0.0
141
0.0
142
1.0
143
1.0
 70
   688
 72
     0
 73
     0
 74
     5
  7

 75
    16
 76
     0
 77
     2
 78
   300
147
1.0
148
0.0
149
0.0
100
AcDbLayout
  1
Layout2
 70
     1
 71
     2
 10
0.0
 20
0.0
 11
0.0
 21
0.0
 12
0.0
 22
0.0
 32
0.0
 14
0.0
 24
0.0
 34
0.0
 15
0.0
 25
0.0
 35
0.0
146
0.0
 13
0.0
 23
0.0
 33
0.0
 16
1.0
 26
0.0
 36
0.0
 17
0.0
 27
1.0
 37
0.0
 76
     0
330
23
  0
LAYOUT
  5
22
102
{ACAD_REACTORS
330
1A
102
}
330
1A
100
AcDbPlotSettings
  1

  2
none_device
  4
Letter_(8.50_x_11.00_Inches)
  6

 40
6.35
 41
6.35
 42
6.35000508
 43
6.35000508
 44
215.9
 45
279.4
 46
0.0
 47
0.0
 48
0.0
 49
0.0
140
0.0
141
0.0
142
1.0
143
1.0
 70
  1712
 72
     0
 73
     0
 74
     0
  7

 75
     0
 76
     0
 77
     2
 78
   300
147
1.0
148
0.0
149
0.0
100
AcDbLayout
  1
Model
 70
     1
 71
     0
 10
0.0
 20
0.0
 11
12.0
 21
9.0
 12
0.0
 22
0.0
 32
0.0
 14
1.000000000000000E+20
 24
1.000000000000000E+20
 34
1.000000000000000E+20
 15
-1.000000000000000E+20
 25
-1.000000000000000E+20
 35
-1.000000000000000E+20
146
0.0
 13
0.0
 23
0.0
 33
0.0
 16
1.0
 26
0.0
 36
0.0
 17
0.0
 27
1.0
 37
0.0
 76
     0
330
1F
331
29
  0
MATERIAL
  5
45
102
{ACAD_REACTORS
330
43
102
}
330
43
100
AcDbMaterial
  1
ByBlock
 72
     1
 94
      127
  0
MATERIAL
  5
44
102
{ACAD_REACTORS
330
43
102
}
330
43
100
AcDbMaterial
  1
ByLayer
 72
     1
 94
      127
  0
MATERIAL
  5
46
102
{ACAD_REACTORS
330
43
102
}
330
43
100
AcDbMaterial
  1
Global
 72
     1
 94
      127
  0
MLEADERSTYLE
  5
6C
102
{ACAD_REACTORS
330
6B
102
}
330
6B
100
AcDbMLeaderStyle
179
     2
170
     2
171
     1
172
     0
 90
        2
 40
0.0
 41
0.0
173
     1
 91
-1056964608
340
14
 92
       -2
290
     1
 42
0.09
291
     1
 43
0.36
  3
Standard
341
0
 44
0.18
300

342
11
174
     1
178
     6
175
     1
176
     0
 93
-1056964608
 45
0.18
292
     0
297
     0
 46
0.18
343
0
 94
-1056964608
 47
1.0
 49
1.0
140
1.0
293
     1
141
0.0
294
     1
177
     0
142
1.0
295
     0
296
     0
143
0.125
271
     0
272
     9
273
     9
298
     0
  0
MLINESTYLE
  5
18
102
{ACAD_REACTORS
330
17
102
}
330
17
100
AcDbMlineStyle
  2
Standard
 70
     0
  3

 62
   256
 51
90.0
 52
90.0
 71
     2
 49
0.5
 62
   256
  6
BYLAYER
 49
-0.5
 62
   256
  6
BYLAYER
  0
ACDBPLACEHOLDER
  5
F
102
{ACAD_REACTORS
330
E
102
}
330
E
  0
SCALE
  5
48
102
{ACAD_REACTORS
330
47
102
}
330
47
100
AcDbScale
 70
     0
300
1:1
140
1.0
141
1.0
290
     1
  0
SCALE
  5
49
102
{ACAD_REACTORS
330
47
102
}
330
47
100
AcDbScale
 70
     0
300
1:2
140
1.0
141
2.0
290
     0
  0
SCALE
  5
4A
102
{ACAD_REACTORS
330
47
102
}
330
47
100
AcDbScale
 70
     0
300
1:4
140
1.0
141
4.0
290
     0
  0
SCALE
  5
4B
102
{ACAD_REACTORS
330
47
102
}
330
47
100
AcDbScale
 70
     0
300
1:5
140
1.0
141
5.0
290
     0
  0
SCALE
  5
4C
102
{ACAD_REACTORS
330
47
102
}
330
47
100
AcDbScale
 70
     0
300
1:8
140
1.0
141
8.0
290
     0
  0
SCALE
  5
4D
102
{ACAD_REACTORS
330
47
102
}
330
47
100
AcDbScale
 70
     0
300
1:10
140
1.0
141
10.0
290
     0
  0
SCALE
  5
4E
102
{ACAD_REACTORS
330
47
102
}
330
47
100
AcDbScale
 70
     0
300
1:16
140
1.0
141
16.0
290
     0
  0
SCALE
  5
4F
102
{ACAD_REACTORS
330
47
102
}
330
47
100
AcDbScale
 70
     0
300
1:20
140
1.0
141
20.0
290
     0
  0
SCALE
  5
50
102
{ACAD_REACTORS
330
47
102
}
330
47
100
AcDbScale
 70
     0
300
1:30
140
1.0
141
30.0
290
     0
  0
SCALE
  5
51
102
{ACAD_REACTORS
330
47
102
}
330
47
100
AcDbScale
 70
     0
300
1:40
140
1.0
141
40.0
290
     0
  0
SCALE
  5
52
102
{ACAD_REACTORS
330
47
102
}
330
47
100
AcDbScale
 70
     0
300
1:50
140
1.0
141
50.0
290
     0
  0
SCALE
  5
53
102
{ACAD_REACTORS
330
47
102
}
330
47
100
AcDbScale
 70
     0
300
1:100
140
1.0
141
100.0
290
     0
  0
SCALE
  5
54
102
{ACAD_REACTORS
330
47
102
}
330
47
100
AcDbScale
 70
     0
300
2:1
140
2.0
141
1.0
290
     0
  0
SCALE
  5
55
102
{ACAD_REACTORS
330
47
102
}
330
47
100
AcDbScale
 70
     0
300
4:1
140
4.0
141
1.0
290
     0
  0
SCALE
  5
56
102
{ACAD_REACTORS
330
47
102
}
330
47
100
AcDbScale
 70
     0
300
8:1
140
8.0
141
1.0
290
     0
  0
SCALE
  5
57
102
{ACAD_REACTORS
330
47
102
}
330
47
100
AcDbScale
 70
     0
300
10:1
140
10.0
141
1.0
290
     0
  0
SCALE
  5
58
102
{ACAD_REACTORS
330
47
102
}
330
47
100
AcDbScale
 70
     0
300
100:1
140
100.0
141
1.0
290
     0
  0
SCALE
  5
59
102
{ACAD_REACTORS
330
47
102
}
330
47
100
AcDbScale
 70
     0
300
1/128" = 1'-0"
140
0.0078125
141
12.0
290
     0
  0
SCALE
  5
5A
102
{ACAD_REACTORS
330
47
102
}
330
47
100
AcDbScale
 70
     0
300
1/64" = 1'-0"
140
0.015625
141
12.0
290
     0
  0
SCALE
  5
5B
102
{ACAD_REACTORS
330
47
102
}
330
47
100
AcDbScale
 70
     0
300
1/32" = 1'-0"
140
0.03125
141
12.0
290
     0
  0
SCALE
  5
5C
102
{ACAD_REACTORS
330
47
102
}
330
47
100
AcDbScale
 70
     0
300
1/16" = 1'-0"
140
0.0625
141
12.0
290
     0
  0
SCALE
  5
5D
102
{ACAD_REACTORS
330
47
102
}
330
47
100
AcDbScale
 70
     0
300
3/32" = 1'-0"
140
0.09375
141
12.0
290
     0
  0
SCALE
  5
5E
102
{ACAD_REACTORS
330
47
102
}
330
47
100
AcDbScale
 70
     0
300
1/8" = 1'-0"
140
0.125
141
12.0
290
     0
  0
SCALE
  5
5F
102
{ACAD_REACTORS
330
47
102
}
330
47
100
AcDbScale
 70
     0
300
3/16" = 1'-0"
140
0.1875
141
12.0
290
     0
  0
SCALE
  5
60
102
{ACAD_REACTORS
330
47
102
}
330
47
100
AcDbScale
 70
     0
300
1/4" = 1'-0"
140
0.25
141
12.0
290
     0
  0
SCALE
  5
61
102
{ACAD_REACTORS
330
47
102
}
330
47
100
AcDbScale
 70
     0
300
3/8" = 1'-0"
140
0.375
141
12.0
290
     0
  0
SCALE
  5
62
102
{ACAD_REACTORS
330
47
102
}
330
47
100
AcDbScale
 70
     0
300
1/2" = 1'-0"
140
0.5
141
12.0
290
     0
  0
SCALE
  5
63
102
{ACAD_REACTORS
330
47
102
}
330
47
100
AcDbScale
 70
     0
300
3/4" = 1'-0"
140
0.75
141
12.0
290
     0
  0
SCALE
  5
64
102
{ACAD_REACTORS
330
47
102
}
330
47
100
AcDbScale
 70
     0
300
1" = 1'-0"
140
1.0
141
12.0
290
     0
  0
SCALE
  5
65
102
{ACAD_REACTORS
330
47
102
}
330
47
100
AcDbScale
 70
     0
300
1-1/2" = 1'-0"
140
1.5
141
12.0
290
     0
  0
SCALE
  5
66
102
{ACAD_REACTORS
330
47
102
}
330
47
100
AcDbScale
 70
     0
300
3" = 1'-0"
140
3.0
141
12.0
290
     0
  0
SCALE
  5
67
102
{ACAD_REACTORS
330
47
102
}
330
47
100
AcDbScale
 70
     0
300
6" = 1'-0"
140
6.0
141
12.0
290
     0
  0
SCALE
  5
68
102
{ACAD_REACTORS
330
47
102
}
330
47
100
AcDbScale
 70
     0
300
1'-0" = 1'-0"
140
12.0
141
12.0
290
     0
  0
TABLESTYLE
  5
6A
102
{ACAD_REACTORS
330
69
102
}
102
{ACAD_XDICTIONARY
360
20E
102
}
330
69
100
AcDbTableStyle
  3
Standard
 70
     0
 71
     0
 40
0.06
 41
0.06
280
     0
281
     0
  7
Standard
140
0.18
170
     2
 62
     0
 63
   257
283
     0
 90
        4
 91
        0
  1

274
    -2
284
     1
 64
     0
275
    -2
285
     1
 65
     0
276
    -2
286
     1
 66
     0
277
    -2
287
     1
 67
     0
278
    -2
288
     1
 68
     0
279
    -2
289
     1
 69
     0
  7
Standard
140
0.25
170
     5
 62
     0
 63
   257
283
     0
 90
        4
 91
        0
  1

274
    -2
284
     1
 64
     0
275
    -2
285
     1
 65
     0
276
    -2
286
     1
 66
     0
277
    -2
287
     1
 67
     0
278
    -2
288
     1
 68
     0
279
    -2
289
     1
 69
     0
  7
Standard
140
0.18
170
     5
 62
     0
 63
   257
283
     0
 90
        4
 91
        0
  1

274
    -2
284
     1
 64
     0
275
    -2
285
     1
 65
     0
276
    -2
286
     1
 66
     0
277
    -2
287
     1
 67
     0
278
    -2
288
     1
 68
     0
279
    -2
289
     1
 69
     0
  0
VISUALSTYLE
  5
2F
102
{ACAD_REACTORS
330
2A
102
}
330
2A
100
AcDbVisualStyle
  2
2dWireframe
 70
     4
177
     3
291
     0
 70
    58
 90
        0
176
     1
 90
        2
176
     1
 90
        0
176
     1
 90
        0
176
     1
 40
0.6
176
     1
 40
30.0
176
     1
 62
     7
420
 16777215
176
     1
 90
        1
176
     1
 90
        4
176
     1
 62
     7
176
     1
 62
   257
176
     1
 90
        1
176
     1
 90
        1
176
     1
 40
1.0
176
     1
 90
        0
176
     1
 62
   257
176
     1
 40
1.0
176
     1
 90
        1
176
     1
 90
        6
176
     1
 90
        2
176
     1
 62
     7
176
     1
 90
        5
176
     1
 90
        0
176
     1
 90
        0
176
     1
290
     0
176
     1
 90
        1
176
     1
 40
0.0
176
     1
 90
        0
176
     1
290
     1
176
     1
290
     1
176
     1
290
     0
176
     1
290
     0
176
     1
290
     0
176
     1
290
     0
176
     1
290
     0
176
     1
290
     0
176
     1
290
     0
176
     1
 90
       50
176
     1
 40
0.0
176
     1
 40
1.0
176
     1
 90
        0
176
     1
 62
    18
420
        0
176
     1
 90
       50
176
     1
 90
        3
176
     1
 62
     5
420
      255
176
     1
290
     0
176
     1
 90
       50
176
     1
 90
       50
176
     1
 90
       50
176
     1
290
     0
176
     1
 90
       50
176
     1
 62
   256
176
     0
 40
1.0
176
     0
 90
        2
176
     1
  1
strokes_ogs.tif
176
     1
290
     0
176
     1
 40
1.0
176
     1
 40
1.0
176
     1
  0
VISUALSTYLE
  5
32
102
{ACAD_REACTORS
330
2A
102
}
330
2A
100
AcDbVisualStyle
  2
Basic
 70
     7
177
     3
291
     1
 70
    58
 90
        1
176
     1
 90
        0
176
     1
 90
        1
176
     1
 90
        0
176
     1
 40
0.6
176
     1
 40
30.0
176
     1
 62
     7
420
 16777215
176
     1
 90
        0
176
     1
 90
        4
176
     1
 62
     7
176
     1
 62
   257
176
     1
 90
        1
176
     1
 90
        1
176
     1
 40
1.0
176
     1
 90
        8
176
     1
 62
     7
176
     1
 40
1.0
176
     1
 90
        1
176
     1
 90
        6
176
     1
 90
        2
176
     1
 62
     7
176
     1
 90
        5
176
     1
 90
        0
176
     1
 90
        0
176
     1
290
     0
176
     1
 90
        1
176
     1
 40
0.0
176
     1
 90
        0
176
     1
290
     0
176
     1
290
     1
176
     1
290
     1
176
     1
290
     0
176
     1
290
     0
176
     1
290
     0
176
     1
290
     0
176
     1
290
     0
176
     1
290
     0
176
     1
 90
       50
176
     1
 40
0.0
176
     1
 40
1.0
176
     1
 90
        0
176
     1
 62
    18
420
        0
176
     1
 90
       50
176
     1
 90
        3
176
     1
 62
     5
420
      255
176
     1
290
     0
176
     1
 90
       50
176
     1
 90
       50
176
     1
 90
       50
176
     1
290
     0
176
     1
 90
       50
176
     1
 62
   256
176
     0
 40
1.0
176
     0
 90
        2
176
     1
  1
strokes_ogs.tif
176
     1
290
     0
176
     1
 40
1.0
176
     1
 40
1.0
176
     1
  0
VISUALSTYLE
  5
36
102
{ACAD_REACTORS
330
2A
102
}
330
2A
100
AcDbVisualStyle
  2
Brighten
 70
    12
177
     3
291
     1
 70
    58
 90
        2
176
     1
 90
        2
176
     1
 90
        0
176
     1
 90
        0
176
     1
 40
0.6
176
     1
 40
30.0
176
     1
 62
     7
420
 16777215
176
     1
 90
        1
176
     1
 90
        4
176
     1
 62
     7
176
     1
 62
   257
176
     1
 90
        1
176
     1
 90
        1
176
     1
 40
1.0
176
     1
 90
        8
176
     1
 62
     7
176
     1
 40
1.0
176
     1
 90
        1
176
     1
 90
        6
176
     1
 90
        2
176
     1
 62
     7
176
     1
 90
        5
176
     1
 90
        0
176
     1
 90
        0
176
     1
290
     0
176
     1
 90
        1
176
     1
 40
50.0
176
     1
 90
        0
176
     1
290
     0
176
     1
290
     1
176
     1
290
     1
176
     1
290
     0
176
     1
290
     0
176
     1
290
     0
176
     1
290
     0
176
     1
290
     0
176
     1
290
     0
176
     1
 90
       50
176
     1
 40
0.0
176
     1
 40
1.0
176
     1
 90
        0
176
     1
 62
    18
420
        0
176
     1
 90
       50
176
     1
 90
        3
176
     1
 62
     5
420
      255
176
     1
290
     0
176
     1
 90
       50
176
     1
 90
       50
176
     1
 90
       50
176
     1
290
     0
176
     1
 90
       50
176
     1
 62
   256
176
     0
 40
1.0
176
     0
 90
        2
176
     1
  1
strokes_ogs.tif
176
     1
290
     0
176
     1
 40
1.0
176
     1
 40
1.0
176
     1
  0
VISUALSTYLE
  5
3A
102
{ACAD_REACTORS
330
2A
102
}
330
2A
100
AcDbVisualStyle
  2
ColorChange
 70
    16
177
     3
291
     1
 70
    58
 90
        2
176
     1
 90
        2
176
     1
 90
        3
176
     1
 90
        0
176
     1
 40
0.6
176
     1
 40
30.0
176
     1
 62
     8
420
  8421504
176
     1
 90
        1
176
     1
 90
        4
176
     1
 62
     7
176
     1
 62
   257
176
     1
 90
        1
176
     1
 90
        1
176
     1
 40
1.0
176
     1
 90
        8
176
     1
 62
     8
420
  8421504
176
     1
 40
1.0
176
     1
 90
        1
176
     1
 90
        6
176
     1
 90
        2
176
     1
 62
     7
176
     1
 90
        5
176
     1
 90
        0
176
     1
 90
        0
176
     1
290
     0
176
     1
 90
        1
176
     1
 40
0.0
176
     1
 90
        0
176
     1
290
     0
176
     1
290
     1
176
     1
290
     1
176
     1
290
     0
176
     1
290
     0
176
     1
290
     0
176
     1
290
     0
176
     1
290
     0
176
     1
290
     0
176
     1
 90
       50
176
     1
 40
0.0
176
     1
 40
1.0
176
     1
 90
        0
176
     1
 62
    18
420
        0
176
     1
 90
       50
176
     1
 90
        3
176
     1
 62
     5
420
      255
176
     1
290
     0
176
     1
 90
       50
176
     1
 90
       50
176
     1
 90
       50
176
     1
290
     0
176
     1
 90
       50
176
     1
 62
   256
176
     0
 40
1.0
176
     0
 90
        2
176
     1
  1
strokes_ogs.tif
176
     1
290
     0
176
     1
 40
1.0
176
     1
 40
1.0
176
     1
  0
VISUALSTYLE
  5
34
102
{ACAD_REACTORS
330
2A
102
}
330
2A
100
AcDbVisualStyle
  2
Conceptual
 70
     9
177
     3
291
     0
 70
    58
 90
        3
176
     1
 90
        2
176
     1
 90
        0
176
     1
 90
        0
176
     1
 40
0.6
176
     1
 40
30.0
176
     1
 62
     7
420
 16777215
176
     1
 90
        2
176
     1
 90
        2
176
     1
 62
     7
176
     1
 62
   257
176
     1
 90
        1
176
     1
 90
        1
176
     1
 40
179.0
176
     1
 90
        8
176
     1
 62
     7
176
     1
 40
1.0
176
     1
 90
        1
176
     1
 90
        6
176
     1
 90
        2
176
     1
 62
     7
176
     1
 90
        3
176
     1
 90
        0
176
     1
 90
        0
176
     1
290
     0
176
     1
 90
        1
176
     1
 40
0.0
176
     1
 90
        0
176
     1
290
     0
176
     1
290
     1
176
     1
290
     1
176
     1
290
     0
176
     1
290
     0
176
     1
290
     0
176
     1
290
     0
176
     1
290
     0
176
     1
290
     0
176
     1
 90
       50
176
     1
 40
0.0
176
     1
 40
1.0
176
     1
 90
        0
176
     1
 62
    18
420
        0
176
     1
 90
       50
176
     1
 90
        3
176
     1
 62
     5
420
      255
176
     1
290
     0
176
     1
 90
       50
176
     1
 90
       50
176
     1
 90
       50
176
     1
290
     0
176
     1
 90
       50
176
     1
 62
   256
176
     0
 40
1.0
176
     0
 90
        2
176
     1
  1
strokes_ogs.tif
176
     1
290
     0
176
     1
 40
1.0
176
     1
 40
1.0
176
     1
  0
VISUALSTYLE
  5
35
102
{ACAD_REACTORS
330
2A
102
}
330
2A
100
AcDbVisualStyle
  2
Dim
 70
    11
177
     3
291
     1
 70
    58
 90
        2
176
     1
 90
        2
176
     1
 90
        0
176
     1
 90
        0
176
     1
 40
0.6
176
     1
 40
30.0
176
     1
 62
     7
420
 16777215
176
     1
 90
        1
176
     1
 90
        4
176
     1
 62
     7
176
     1
 62
   257
176
     1
 90
        1
176
     1
 90
        1
176
     1
 40
1.0
176
     1
 90
        8
176
     1
 62
     7
176
     1
 40
1.0
176
     1
 90
        1
176
     1
 90
        6
176
     1
 90
        2
176
     1
 62
     7
176
     1
 90
        5
176
     1
 90
        0
176
     1
 90
        0
176
     1
290
     0
176
     1
 90
        1
176
     1
 40
-50.0
176
     1
 90
        0
176
     1
290
     0
176
     1
290
     1
176
     1
290
     1
176
     1
290
     0
176
     1
290
     0
176
     1
290
     0
176
     1
290
     0
176
     1
290
     0
176
     1
290
     0
176
     1
 90
       50
176
     1
 40
0.0
176
     1
 40
1.0
176
     1
 90
        0
176
     1
 62
    18
420
        0
176
     1
 90
       50
176
     1
 90
        3
176
     1
 62
     5
420
      255
176
     1
290
     0
176
     1
 90
       50
176
     1
 90
       50
176
     1
 90
       50
176
     1
290
     0
176
     1
 90
       50
176
     1
 62
   256
176
     0
 40
1.0
176
     0
 90
        2
176
     1
  1
strokes_ogs.tif
176
     1
290
     0
176
     1
 40
1.0
176
     1
 40
1.0
176
     1
  0
VISUALSTYLE
  5
3D
102
{ACAD_REACTORS
330
2A
102
}
330
2A
100
AcDbVisualStyle
  2
EdgeColorOff
 70
    22
177
     3
291
     1
 70
    58
 90
        2
176
     0
 90
        2
176
     0
 90
        0
176
     0
 90
        0
176
     0
 40
0.6
176
     0
 40
30.0
176
     0
 62
     7
420
 16777215
176
     0
 90
        1
176
     0
 90
        4
176
     0
 62
     7
176
     0
 62
   257
176
     0
 90
        1
176
     0
 90
        1
176
     0
 40
1.0
176
     0
 90
        8
176
     2
 62
     7
176
     0
 40
1.0
176
     0
 90
        1
176
     0
 90
        6
176
     0
 90
        2
176
     0
 62
     7
176
     0
 90
        5
176
     0
 90
        0
176
     0
 90
        0
176
     0
290
     0
176
     0
 90
        1
176
     0
 40
0.0
176
     0
 90
        0
176
     0
290
     0
176
     0
290
     1
176
     0
290
     1
176
     0
290
     0
176
     0
290
     0
176
     0
290
     0
176
     0
290
     0
176
     0
290
     0
176
     0
290
     0
176
     0
 90
       50
176
     0
 40
0.0
176
     0
 40
1.0
176
     0
 90
        0
176
     0
 62
    18
420
        0
176
     0
 90
       50
176
     0
 90
        3
176
     0
 62
     5
420
      255
176
     0
290
     0
176
     0
 90
       50
176
     0
 90
       50
176
     0
 90
       50
176
     0
290
     0
176
     0
 90
       50
176
     0
 62
   256
176
     0
 40
1.0
176
     0
 90
        2
176
     0
  1
strokes_ogs.tif
176
     0
290
     0
176
     0
 40
1.0
176
     0
 40
1.0
176
     0
  0
VISUALSTYLE
  5
39
102
{ACAD_REACTORS
330
2A
102
}
330
2A
100
AcDbVisualStyle
  2
Facepattern
 70
    15
177
     3
291
     1
 70
    58
 90
        2
176
     1
 90
        2
176
     1
 90
        0
176
     1
 90
        0
176
     1
 40
0.6
176
     1
 40
30.0
176
     1
 62
     7
420
 16777215
176
     1
 90
        1
176
     1
 90
        4
176
     1
 62
     7
176
     1
 62
   257
176
     1
 90
        1
176
     1
 90
        1
176
     1
 40
1.0
176
     1
 90
        8
176
     1
 62
     7
176
     1
 40
1.0
176
     1
 90
        1
176
     1
 90
        6
176
     1
 90
        2
176
     1
 62
     7
176
     1
 90
        5
176
     1
 90
        0
176
     1
 90
        0
176
     1
290
     0
176
     1
 90
        1
176
     1
 40
0.0
176
     1
 90
        0
176
     1
290
     0
176
     1
290
     1
176
     1
290
     1
176
     1
290
     0
176
     1
290
     0
176
     1
290
     0
176
     1
290
     0
176
     1
290
     0
176
     1
290
     0
176
     1
 90
       50
176
     1
 40
0.0
176
     1
 40
1.0
176
     1
 90
        0
176
     1
 62
    18
420
        0
176
     1
 90
       50
176
     1
 90
        3
176
     1
 62
     5
420
      255
176
     1
290
     0
176
     1
 90
       50
176
     1
 90
       50
176
     1
 90
       50
176
     1
290
     0
176
     1
 90
       50
176
     1
 62
   256
176
     0
 40
1.0
176
     0
 90
        2
176
     1
  1
strokes_ogs.tif
176
     1
290
     0
176
     1
 40
1.0
176
     1
 40
1.0
176
     1
  0
VISUALSTYLE
  5
2B
102
{ACAD_REACTORS
330
2A
102
}
330
2A
100
AcDbVisualStyle
  2
Flat
 70
     0
177
     3
291
     1
 70
    58
 90
        2
176
     1
 90
        1
176
     1
 90
        1
176
     1
 90
        2
176
     1
 40
0.6
176
     1
 40
30.0
176
     1
 62
     7
420
 16777215
176
     1
 90
        0
176
     1
 90
        0
176
     1
 62
     7
176
     1
 62
   257
176
     1
 90
        1
176
     1
 90
        1
176
     1
 40
1.0
176
     1
 90
        8
176
     1
 62
     7
176
     1
 40
1.0
176
     1
 90
        1
176
     1
 90
        6
176
     1
 90
        2
176
     1
 62
     7
176
     1
 90
        5
176
     1
 90
        0
176
     1
 90
        0
176
     1
290
     0
176
     1
 90
       13
176
     1
 40
0.0
176
     1
 90
        0
176
     1
290
     0
176
     1
290
     1
176
     1
290
     1
176
     1
290
     0
176
     1
290
     0
176
     1
290
     0
176
     1
290
     0
176
     1
290
     0
176
     1
290
     0
176
     1
 90
       50
176
     1
 40
0.0
176
     1
 40
1.0
176
     1
 90
        0
176
     1
 62
    18
420
        0
176
     1
 90
       50
176
     1
 90
        3
176
     1
 62
     5
420
      255
176
     1
290
     0
176
     1
 90
       50
176
     1
 90
       50
176
     1
 90
       50
176
     1
290
     0
176
     1
 90
       50
176
     1
 62
   256
176
     0
 40
1.0
176
     0
 90
        2
176
     1
  1
strokes_ogs.tif
176
     1
290
     0
176
     1
 40
1.0
176
     1
 40
1.0
176
     1
  0
VISUALSTYLE
  5
2C
102
{ACAD_REACTORS
330
2A
102
}
330
2A
100
AcDbVisualStyle
  2
FlatWithEdges
 70
     1
177
     3
291
     1
 70
    58
 90
        2
176
     1
 90
        1
176
     1
 90
        1
176
     1
 90
        2
176
     1
 40
0.6
176
     1
 40
30.0
176
     1
 62
     7
420
 16777215
176
     1
 90
        1
176
     1
 90
        0
176
     1
 62
     7
176
     1
 62
   257
176
     1
 90
        1
176
     1
 90
        1
176
     1
 40
1.0
176
     1
 90
        0
176
     1
 62
   257
176
     1
 40
1.0
176
     1
 90
        1
176
     1
 90
        6
176
     1
 90
        2
176
     1
 62
     7
176
     1
 90
        5
176
     1
 90
        0
176
     1
 90
        0
176
     1
290
     0
176
     1
 90
       13
176
     1
 40
0.0
176
     1
 90
        0
176
     1
290
     0
176
     1
290
     1
176
     1
290
     1
176
     1
290
     0
176
     1
290
     0
176
     1
290
     0
176
     1
290
     0
176
     1
290
     0
176
     1
290
     0
176
     1
 90
       50
176
     1
 40
0.0
176
     1
 40
1.0
176
     1
 90
        0
176
     1
 62
    18
420
        0
176
     1
 90
       50
176
     1
 90
        3
176
     1
 62
     5
420
      255
176
     1
290
     0
176
     1
 90
       50
176
     1
 90
       50
176
     1
 90
       50
176
     1
290
     0
176
     1
 90
       50
176
     1
 62
   256
176
     0
 40
1.0
176
     0
 90
        2
176
     1
  1
strokes_ogs.tif
176
     1
290
     0
176
     1
 40
1.0
176
     1
 40
1.0
176
     1
  0
VISUALSTYLE
  5
2D
102
{ACAD_REACTORS
330
2A
102
}
330
2A
100
AcDbVisualStyle
  2
Gouraud
 70
     2
177
     3
291
     1
 70
    58
 90
        2
176
     1
 90
        2
176
     1
 90
        1
176
     1
 90
        2
176
     1
 40
0.6
176
     1
 40
30.0
176
     1
 62
     7
420
 16777215
176
     1
 90
        0
176
     1
 90
        0
176
     1
 62
     7
176
     1
 62
   257
176
     1
 90
        1
176
     1
 90
        1
176
     1
 40
1.0
176
     1
 90
        0
176
     1
 62
     7
176
     1
 40
1.0
176
     1
 90
        1
176
     1
 90
        6
176
     1
 90
        2
176
     1
 62
     7
176
     1
 90
        5
176
     1
 90
        0
176
     1
 90
        0
176
     1
290
     0
176
     1
 90
       13
176
     1
 40
0.0
176
     1
 90
        0
176
     1
290
     0
176
     1
290
     1
176
     1
290
     1
176
     1
290
     0
176
     1
290
     0
176
     1
290
     0
176
     1
290
     0
176
     1
290
     0
176
     1
290
     0
176
     1
 90
       50
176
     1
 40
0.0
176
     1
 40
1.0
176
     1
 90
        0
176
     1
 62
    18
420
        0
176
     1
 90
       50
176
     1
 90
        3
176
     1
 62
     5
420
      255
176
     1
290
     0
176
     1
 90
       50
176
     1
 90
       50
176
     1
 90
       50
176
     1
290
     0
176
     1
 90
       50
176
     1
 62
   256
176
     0
 40
1.0
176
     0
 90
        2
176
     1
  1
strokes_ogs.tif
176
     1
290
     0
176
     1
 40
1.0
176
     1
 40
1.0
176
     1
  0
VISUALSTYLE
  5
2E
102
{ACAD_REACTORS
330
2A
102
}
330
2A
100
AcDbVisualStyle
  2
GouraudWithEdges
 70
     3
177
     3
291
     1
 70
    58
 90
        2
176
     1
 90
        2
176
     1
 90
        1
176
     1
 90
        2
176
     1
 40
0.6
176
     1
 40
30.0
176
     1
 62
     7
420
 16777215
176
     1
 90
        1
176
     1
 90
        0
176
     1
 62
     7
176
     1
 62
   257
176
     1
 90
        1
176
     1
 90
        1
176
     1
 40
1.0
176
     1
 90
        0
176
     1
 62
   257
176
     1
 40
1.0
176
     1
 90
        1
176
     1
 90
        6
176
     1
 90
        2
176
     1
 62
     7
176
     1
 90
        5
176
     1
 90
        0
176
     1
 90
        0
176
     1
290
     0
176
     1
 90
       13
176
     1
 40
0.0
176
     1
 90
        0
176
     1
290
     0
176
     1
290
     1
176
     1
290
     1
176
     1
290
     0
176
     1
290
     0
176
     1
290
     0
176
     1
290
     0
176
     1
290
     0
176
     1
290
     0
176
     1
 90
       50
176
     1
 40
0.0
176
     1
 40
1.0
176
     1
 90
        0
176
     1
 62
    18
420
        0
176
     1
 90
       50
176
     1
 90
        3
176
     1
 62
     5
420
      255
176
     1
290
     0
176
     1
 90
       50
176
     1
 90
       50
176
     1
 90
       50
176
     1
290
     0
176
     1
 90
       50
176
     1
 62
   256
176
     0
 40
1.0
176
     0
 90
        2
176
     1
  1
strokes_ogs.tif
176
     1
290
     0
176
     1
 40
1.0
176
     1
 40
1.0
176
     1
  0
VISUALSTYLE
  5
31
102
{ACAD_REACTORS
330
2A
102
}
330
2A
100
AcDbVisualStyle
  2
Hidden
 70
     6
177
     3
291
     0
 70
    58
 90
        1
176
     1
 90
        2
176
     1
 90
        2
176
     1
 90
        0
176
     1
 40
0.6
176
     1
 40
30.0
176
     1
 62
     7
420
 16777215
176
     1
 90
        2
176
     1
 90
        2
176
     1
 62
     7
176
     1
 62
   257
176
     1
 90
        2
176
     1
 90
        1
176
     1
 40
40.0
176
     1
 90
        0
176
     1
 62
   257
176
     1
 40
1.0
176
     1
 90
        1
176
     1
 90
        6
176
     1
 90
        2
176
     1
 62
     7
176
     1
 90
        3
176
     1
 90
        0
176
     1
 90
        0
176
     1
290
     0
176
     1
 90
        1
176
     1
 40
0.0
176
     1
 90
        0
176
     1
290
     0
176
     1
290
     1
176
     1
290
     1
176
     1
290
     0
176
     1
290
     0
176
     1
290
     0
176
     1
290
     0
176
     1
290
     0
176
     1
290
     0
176
     1
 90
       50
176
     1
 40
0.0
176
     1
 40
1.0
176
     1
 90
        0
176
     1
 62
    18
420
        0
176
     1
 90
       50
176
     1
 90
        3
176
     1
 62
     5
420
      255
176
     1
290
     0
176
     1
 90
       50
176
     1
 90
       50
176
     1
 90
       50
176
     1
290
     0
176
     1
 90
       50
176
     1
 62
   256
176
     0
 40
1.0
176
     0
 90
        2
176
     1
  1
strokes_ogs.tif
176
     1
290
     0
176
     1
 40
1.0
176
     1
 40
1.0
176
     1
  0
VISUALSTYLE
  5
3B
102
{ACAD_REACTORS
330
2A
102
}
330
2A
100
AcDbVisualStyle
  2
JitterOff
 70
    20
177
     3
291
     1
 70
    58
 90
        2
176
     0
 90
        2
176
     0
 90
        0
176
     0
 90
        0
176
     0
 40
0.6
176
     0
 40
30.0
176
     0
 62
     7
420
 16777215
176
     0
 90
        1
176
     0
 90
        4
176
     0
 62
     7
176
     0
 62
   257
176
     0
 90
        1
176
     0
 90
        1
176
     0
 40
1.0
176
     0
 90
       10
176
     2
 62
     7
176
     0
 40
1.0
176
     0
 90
        1
176
     0
 90
        6
176
     0
 90
        2
176
     0
 62
     7
176
     0
 90
        5
176
     0
 90
        0
176
     0
 90
        0
176
     0
290
     0
176
     0
 90
        1
176
     0
 40
0.0
176
     0
 90
        0
176
     0
290
     0
176
     0
290
     1
176
     0
290
     1
176
     0
290
     0
176
     0
290
     0
176
     0
290
     0
176
     0
290
     0
176
     0
290
     0
176
     0
290
     0
176
     0
 90
       50
176
     0
 40
0.0
176
     0
 40
1.0
176
     0
 90
        0
176
     0
 62
    18
420
        0
176
     0
 90
       50
176
     0
 90
        3
176
     0
 62
     5
420
      255
176
     0
290
     0
176
     0
 90
       50
176
     0
 90
       50
176
     0
 90
       50
176
     0
290
     0
176
     0
 90
       50
176
     0
 62
   256
176
     0
 40
1.0
176
     0
 90
        2
176
     0
  1
strokes_ogs.tif
176
     0
290
     0
176
     0
 40
1.0
176
     0
 40
1.0
176
     0
  0
VISUALSTYLE
  5
38
102
{ACAD_REACTORS
330
2A
102
}
330
2A
100
AcDbVisualStyle
  2
Linepattern
 70
    14
177
     3
291
     1
 70
    58
 90
        2
176
     1
 90
        2
176
     1
 90
        0
176
     1
 90
        0
176
     1
 40
0.6
176
     1
 40
30.0
176
     1
 62
     7
420
 16777215
176
     1
 90
        1
176
     1
 90
        4
176
     1
 62
     7
176
     1
 62
   257
176
     1
 90
        7
176
     1
 90
        7
176
     1
 40
1.0
176
     1
 90
        8
176
     1
 62
     7
176
     1
 40
1.0
176
     1
 90
        1
176
     1
 90
        6
176
     1
 90
        2
176
     1
 62
     7
176
     1
 90
        5
176
     1
 90
        0
176
     1
 90
        0
176
     1
290
     0
176
     1
 90
        1
176
     1
 40
0.0
176
     1
 90
        0
176
     1
290
     0
176
     1
290
     1
176
     1
290
     1
176
     1
290
     0
176
     1
290
     0
176
     1
290
     0
176
     1
290
     0
176
     1
290
     0
176
     1
290
     0
176
     1
 90
       50
176
     1
 40
0.0
176
     1
 40
1.0
176
     1
 90
        0
176
     1
 62
    18
420
        0
176
     1
 90
       50
176
     1
 90
        3
176
     1
 62
     5
420
      255
176
     1
290
     0
176
     1
 90
       50
176
     1
 90
       50
176
     1
 90
       50
176
     1
290
     0
176
     1
 90
       50
176
     1
 62
   256
176
     0
 40
1.0
176
     0
 90
        2
176
     1
  1
strokes_ogs.tif
176
     1
290
     0
176
     1
 40
1.0
176
     1
 40
1.0
176
     1
  0
VISUALSTYLE
  5
3C
102
{ACAD_REACTORS
330
2A
102
}
330
2A
100
AcDbVisualStyle
  2
OverhangOff
 70
    21
177
     3
291
     1
 70
    58
 90
        2
176
     0
 90
        2
176
     0
 90
        0
176
     0
 90
        0
176
     0
 40
0.6
176
     0
 40
30.0
176
     0
 62
     7
420
 16777215
176
     0
 90
        1
176
     0
 90
        4
176
     0
 62
     7
176
     0
 62
   257
176
     0
 90
        1
176
     0
 90
        1
176
     0
 40
1.0
176
     0
 90
        9
176
     2
 62
     7
176
     0
 40
1.0
176
     0
 90
        1
176
     0
 90
        6
176
     0
 90
        2
176
     0
 62
     7
176
     0
 90
        5
176
     0
 90
        0
176
     0
 90
        0
176
     0
290
     0
176
     0
 90
        1
176
     0
 40
0.0
176
     0
 90
        0
176
     0
290
     0
176
     0
290
     1
176
     0
290
     1
176
     0
290
     0
176
     0
290
     0
176
     0
290
     0
176
     0
290
     0
176
     0
290
     0
176
     0
290
     0
176
     0
 90
       50
176
     0
 40
0.0
176
     0
 40
1.0
176
     0
 90
        0
176
     0
 62
    18
420
        0
176
     0
 90
       50
176
     0
 90
        3
176
     0
 62
     5
420
      255
176
     0
290
     0
176
     0
 90
       50
176
     0
 90
       50
176
     0
 90
       50
176
     0
290
     0
176
     0
 90
       50
176
     0
 62
   256
176
     0
 40
1.0
176
     0
 90
        2
176
     0
  1
strokes_ogs.tif
176
     0
290
     0
176
     0
 40
1.0
176
     0
 40
1.0
176
     0
  0
VISUALSTYLE
  5
33
102
{ACAD_REACTORS
330
2A
102
}
330
2A
100
AcDbVisualStyle
  2
Realistic
 70
     8
177
     3
291
     0
 70
    58
 90
        2
176
     1
 90
        3
176
     1
 90
        0
176
     1
 90
        2
176
     1
 40
0.6
176
     1
 40
30.0
176
     1
 62
     7
420
 16777215
176
     1
 90
        0
176
     1
 90
        0
176
     1
 62
     7
176
     1
 62
   257
176
     1
 90
        1
176
     1
 90
        1
176
     1
 40
1.0
176
     1
 90
        8
176
     1
 62
   257
176
     1
 40
1.0
176
     1
 90
        1
176
     1
 90
        6
176
     1
 90
        2
176
     1
 62
     7
176
     1
 90
        3
176
     1
 90
        0
176
     1
 90
        0
176
     1
290
     0
176
     1
 90
       13
176
     1
 40
0.0
176
     1
 90
        0
176
     1
290
     0
176
     1
290
     1
176
     1
290
     1
176
     1
290
     0
176
     1
290
     0
176
     1
290
     0
176
     1
290
     0
176
     1
290
     0
176
     1
290
     0
176
     1
 90
       50
176
     1
 40
0.0
176
     1
 40
1.0
176
     1
 90
        0
176
     1
 62
    18
420
        0
176
     1
 90
       50
176
     1
 90
        3
176
     1
 62
     5
420
      255
176
     1
290
     0
176
     1
 90
       50
176
     1
 90
       50
176
     1
 90
       50
176
     1
290
     0
176
     1
 90
       50
176
     1
 62
   256
176
     0
 40
1.0
176
     0
 90
        2
176
     1
  1
strokes_ogs.tif
176
     1
290
     0
176
     1
 40
1.0
176
     1
 40
1.0
176
     1
  0
VISUALSTYLE
  5
42
102
{ACAD_REACTORS
330
2A
102
}
330
2A
100
AcDbVisualStyle
  2
Shaded
 70
    27
177
     3
291
     0
 70
    58
 90
        2
176
     1
 90
        2
176
     1
 90
        1
176
     1
 90
        2
176
     1
 40
0.6
176
     1
 40
30.0
176
     1
 62
     7
420
 16777215
176
     1
 90
        0
176
     1
 90
        4
176
     1
 62
     7
176
     1
 62
   257
176
     1
 90
        1
176
     1
 90
        1
176
     1
 40
1.0
176
     1
 90
        8
176
     1
 62
   257
176
     1
 40
1.0
176
     1
 90
        1
176
     1
 90
        6
176
     1
 90
        2
176
     1
 62
     8
420
  7895160
176
     1
 90
        3
176
     1
 90
        0
176
     1
 90
        0
176
     1
290
     0
176
     1
 90
        5
176
     1
 40
0.0
176
     1
 90
        0
176
     1
290
     0
176
     1
290
     1
176
     1
290
     1
176
     1
290
     0
176
     1
290
     0
176
     1
290
     0
176
     1
290
     0
176
     1
290
     0
176
     1
290
     0
176
     1
 90
       50
176
     1
 40
0.0
176
     1
 40
1.0
176
     1
 90
        0
176
     1
 62
    18
420
        0
176
     1
 90
       50
176
     1
 90
        3
176
     1
 62
     5
420
      255
176
     1
290
     0
176
     1
 90
       50
176
     1
 90
       50
176
     1
 90
       50
176
     1
290
     0
176
     1
 90
       50
176
     1
 62
   256
176
     0
 40
1.0
176
     0
 90
        2
176
     1
  1
strokes_ogs.tif
176
     1
290
     0
176
     1
 40
1.0
176
     1
 40
1.0
176
     1
  0
VISUALSTYLE
  5
41
102
{ACAD_REACTORS
330
2A
102
}
330
2A
100
AcDbVisualStyle
  2
Shaded with edges
 70
    26
177
     3
291
     0
 70
    58
 90
        2
176
     1
 90
        2
176
     1
 90
        1
176
     1
 90
        2
176
     1
 40
0.6
176
     1
 40
30.0
176
     1
 62
     7
420
 16777215
176
     1
 90
        1
176
     1
 90
       10
176
     1
 62
     7
176
     1
 62
   257
176
     1
 90
        2
176
     1
 90
        1
176
     1
 40
1.0
176
     1
 90
        8
176
     1
 62
   257
176
     1
 40
1.0
176
     1
 90
        1
176
     1
 90
        6
176
     1
 90
        2
176
     1
 62
     7
176
     1
 90
        3
176
     1
 90
        0
176
     1
 90
        0
176
     1
290
     0
176
     1
 90
        5
176
     1
 40
0.0
176
     1
 90
        0
176
     1
290
     0
176
     1
290
     1
176
     1
290
     1
176
     1
290
     0
176
     1
290
     0
176
     1
290
     0
176
     1
290
     0
176
     1
290
     0
176
     1
290
     0
176
     1
 90
       50
176
     1
 40
0.0
176
     1
 40
1.0
176
     1
 90
        0
176
     1
 62
    18
420
        0
176
     1
 90
       50
176
     1
 90
        3
176
     1
 62
     5
420
      255
176
     1
290
     0
176
     1
 90
       50
176
     1
 90
       50
176
     1
 90
       50
176
     1
290
     0
176
     1
 90
       50
176
     1
 62
   256
176
     0
 40
1.0
176
     0
 90
        2
176
     1
  1
strokes_ogs.tif
176
     1
290
     0
176
     1
 40
1.0
176
     1
 40
1.0
176
     1
  0
VISUALSTYLE
  5
3E
102
{ACAD_REACTORS
330
2A
102
}
330
2A
100
AcDbVisualStyle
  2
Shades of Gray
 70
    23
177
     3
291
     0
 70
    58
 90
        2
176
     1
 90
        2
176
     1
 90
        3
176
     1
 90
        0
176
     1
 40
0.6
176
     1
 40
30.0
176
     1
 62
     7
420
 16777215
176
     1
 90
        2
176
     1
 90
        2
176
     1
 62
     7
176
     1
 62
     7
176
     1
 90
        1
176
     1
 90
        1
176
     1
 40
40.0
176
     1
 90
        8
176
     1
 62
     7
176
     1
 40
1.0
176
     1
 90
        1
176
     1
 90
        6
176
     1
 90
        2
176
     1
 62
     7
176
     1
 90
        3
176
     1
 90
        0
176
     1
 90
        0
176
     1
290
     0
176
     1
 90
        1
176
     1
 40
0.0
176
     1
 90
        0
176
     1
290
     0
176
     1
290
     1
176
     1
290
     1
176
     1
290
     0
176
     1
290
     0
176
     1
290
     0
176
     1
290
     0
176
     1
290
     0
176
     1
290
     0
176
     1
 90
       50
176
     1
 40
0.0
176
     1
 40
1.0
176
     1
 90
        0
176
     1
 62
    18
420
        0
176
     1
 90
       50
176
     1
 90
        3
176
     1
 62
     5
420
      255
176
     1
290
     0
176
     1
 90
       50
176
     1
 90
       50
176
     1
 90
       50
176
     1
290
     0
176
     1
 90
       50
176
     1
 62
   256
176
     0
 40
1.0
176
     0
 90
        2
176
     1
  1
strokes_ogs.tif
176
     1
290
     0
176
     1
 40
1.0
176
     1
 40
1.0
176
     1
  0
VISUALSTYLE
  5
3F
102
{ACAD_REACTORS
330
2A
102
}
330
2A
100
AcDbVisualStyle
  2
Sketchy
 70
    24
177
     3
291
     0
 70
    58
 90
        1
176
     1
 90
        2
176
     1
 90
        2
176
     1
 90
        0
176
     1
 40
0.6
176
     1
 40
30.0
176
     1
 62
     7
420
 16777215
176
     1
 90
        2
176
     1
 90
        2
176
     1
 62
     7
176
     1
 62
     7
176
     1
 90
        1
176
     1
 90
        1
176
     1
 40
40.0
176
     1
 90
       11
176
     1
 62
     7
176
     1
 40
1.0
176
     1
 90
        1
176
     1
 90
        6
176
     1
 90
        2
176
     1
 62
     7
176
     1
 90
        6
176
     1
 90
        0
176
     1
 90
        0
176
     1
290
     0
176
     1
 90
        1
176
     1
 40
0.0
176
     1
 90
        0
176
     1
290
     0
176
     1
290
     1
176
     1
290
     1
176
     1
290
     0
176
     1
290
     0
176
     1
290
     0
176
     1
290
     0
176
     1
290
     0
176
     1
290
     0
176
     1
 90
       50
176
     1
 40
0.0
176
     1
 40
1.0
176
     1
 90
        0
176
     1
 62
    18
420
        0
176
     1
 90
       50
176
     1
 90
        3
176
     1
 62
     5
420
      255
176
     1
290
     0
176
     1
 90
       50
176
     1
 90
       50
176
     1
 90
       50
176
     1
290
     0
176
     1
 90
       50
176
     1
 62
   256
176
     0
 40
1.0
176
     0
 90
        2
176
     1
  1
strokes_ogs.tif
176
     1
290
     0
176
     1
 40
1.0
176
     1
 40
1.0
176
     1
  0
VISUALSTYLE
  5
37
102
{ACAD_REACTORS
330
2A
102
}
330
2A
100
AcDbVisualStyle
  2
Thicken
 70
    13
177
     3
291
     1
 70
    58
 90
        2
176
     1
 90
        2
176
     1
 90
        0
176
     1
 90
        0
176
     1
 40
0.6
176
     1
 40
30.0
176
     1
 62
     7
420
 16777215
176
     1
 90
        1
176
     1
 90
        4
176
     1
 62
     7
176
     1
 62
   257
176
     1
 90
        1
176
     1
 90
        1
176
     1
 40
1.0
176
     1
 90
       12
176
     1
 62
     7
176
     1
 40
1.0
176
     1
 90
        1
176
     1
 90
        6
176
     1
 90
        2
176
     1
 62
     7
176
     1
 90
        5
176
     1
 90
        0
176
     1
 90
        0
176
     1
290
     0
176
     1
 90
        1
176
     1
 40
0.0
176
     1
 90
        0
176
     1
290
     0
176
     1
290
     1
176
     1
290
     1
176
     1
290
     0
176
     1
290
     0
176
     1
290
     0
176
     1
290
     0
176
     1
290
     0
176
     1
290
     0
176
     1
 90
       50
176
     1
 40
0.0
176
     1
 40
1.0
176
     1
 90
        0
176
     1
 62
    18
420
        0
176
     1
 90
       50
176
     1
 90
        3
176
     1
 62
     5
420
      255
176
     1
290
     0
176
     1
 90
       50
176
     1
 90
       50
176
     1
 90
       50
176
     1
290
     0
176
     1
 90
       50
176
     1
 62
   256
176
     0
 40
1.0
176
     0
 90
        2
176
     1
  1
strokes_ogs.tif
176
     1
290
     0
176
     1
 40
1.0
176
     1
 40
1.0
176
     1
  0
VISUALSTYLE
  5
30
102
{ACAD_REACTORS
330
2A
102
}
330
2A
100
AcDbVisualStyle
  2
Wireframe
 70
     5
177
     3
291
     0
 70
    58
 90
        0
176
     1
 90
        2
176
     1
 90
        0
176
     1
 90
        0
176
     1
 40
0.6
176
     1
 40
30.0
176
     1
 62
     7
420
 16777215
176
     1
 90
        1
176
     1
 90
        4
176
     1
 62
     7
176
     1
 62
   257
176
     1
 90
        1
176
     1
 90
        1
176
     1
 40
1.0
176
     1
 90
        0
176
     1
 62
   257
176
     1
 40
1.0
176
     1
 90
        1
176
     1
 90
        6
176
     1
 90
        2
176
     1
 62
     7
176
     1
 90
        3
176
     1
 90
        0
176
     1
 90
        0
176
     1
290
     0
176
     1
 90
        1
176
     1
 40
0.0
176
     1
 90
        0
176
     1
290
     0
176
     1
290
     1
176
     1
290
     1
176
     1
290
     0
176
     1
290
     0
176
     1
290
     0
176
     1
290
     0
176
     1
290
     0
176
     1
290
     0
176
     1
 90
       50
176
     1
 40
0.0
176
     1
 40
1.0
176
     1
 90
        0
176
     1
 62
    18
420
        0
176
     1
 90
       50
176
     1
 90
        3
176
     1
 62
     5
420
      255
176
     1
290
     0
176
     1
 90
       50
176
     1
 90
       50
176
     1
 90
       50
176
     1
290
     0
176
     1
 90
       50
176
     1
 62
   256
176
     0
 40
1.0
176
     0
 90
        2
176
     1
  1
strokes_ogs.tif
176
     1
290
     0
176
     1
 40
1.0
176
     1
 40
1.0
176
     1
  0
VISUALSTYLE
  5
40
102
{ACAD_REACTORS
330
2A
102
}
330
2A
100
AcDbVisualStyle
  2
X-Ray
 70
    25
177
     3
291
     0
 70
    58
 90
        2
176
     1
 90
        2
176
     1
 90
        1
176
     1
 90
        1
176
     1
 40
0.5
176
     1
 40
30.0
176
     1
 62
     7
420
 16777215
176
     1
 90
        1
176
     1
 90
        0
176
     1
 62
     7
176
     1
 62
   257
176
     1
 90
        1
176
     1
 90
        1
176
     1
 40
1.0
176
     1
 90
        8
176
     1
 62
     7
176
     1
 40
1.0
176
     1
 90
        1
176
     1
 90
        6
176
     1
 90
        2
176
     1
 62
     7
176
     1
 90
        3
176
     1
 90
        0
176
     1
 90
        0
176
     1
290
     0
176
     1
 90
       13
176
     1
 40
0.0
176
     1
 90
        0
176
     1
290
     0
176
     1
290
     1
176
     1
290
     1
176
     1
290
     0
176
     1
290
     0
176
     1
290
     0
176
     1
290
     0
176
     1
290
     0
176
     1
290
     0
176
     1
 90
       50
176
     1
 40
0.0
176
     1
 40
1.0
176
     1
 90
        0
176
     1
 62
    18
420
        0
176
     1
 90
       50
176
     1
 90
        3
176
     1
 62
     5
420
      255
176
     1
290
     0
176
     1
 90
       50
176
     1
 90
       50
176
     1
 90
       50
176
     1
290
     0
176
     1
 90
       50
176
     1
 62
   256
176
     0
 40
1.0
176
     0
 90
        2
176
     1
  1
strokes_ogs.tif
176
     1
290
     0
176
     1
 40
1.0
176
     1
 40
1.0
176
     1
  0
DICTIONARYVAR
  5
20D
102
{ACAD_REACTORS
330
20C
102
}
330
20C
100
DictionaryVariables
280
     0
  1
1:1
  0
DICTIONARYVAR
  5
212
102
{ACAD_REACTORS
330
20C
102
}
330
20C
100
DictionaryVariables
280
     0
  1
Standard
  0
DICTIONARYVAR
  5
211
102
{ACAD_REACTORS
330
20C
102
}
330
20C
100
DictionaryVariables
280
     0
  1
Standard
  0
DICTIONARY
  5
20E
330
6A
100
AcDbDictionary
280
     1
281
     1
  3
ACAD_ROUNDTRIP_2008_TABLESTYLE_CELLSTYLEMAP
360
20F
  0
CELLSTYLEMAP
  5
20F
102
{ACAD_REACTORS
330
20E
102
}
330
20E
100
AcDbCellStyleMap
 90
        3
300
CELLSTYLE
  1
TABLEFORMAT_BEGIN
 90
        5
170
     1
 91
        0
 92
    32768
 62
   257
 93
        1
300
CONTENTFORMAT
  1
CONTENTFORMAT_BEGIN
 90
        0
 91
        0
 92
        4
 93
        0
300

 40
0.0
140
1.0
 94
        5
 62
     0
340
11
144
0.25
309
CONTENTFORMAT_END
171
     1
301
MARGIN
  1
CELLMARGIN_BEGIN
 40
0.06
 40
0.06
 40
0.06
 40
0.06
 40
0.06
 40
0.06
309
CELLMARGIN_END
 94
        6
 95
        1
302
GRIDFORMAT
  1
GRIDFORMAT_BEGIN
 90
        0
 91
        1
 62
     0
 92
       -2
340
14
 93
        0
 40
0.045
309
GRIDFORMAT_END
 95
        2
302
GRIDFORMAT
  1
GRIDFORMAT_BEGIN
 90
        0
 91
        1
 62
     0
 92
       -2
340
14
 93
        0
 40
0.045
309
GRIDFORMAT_END
 95
        4
302
GRIDFORMAT
  1
GRIDFORMAT_BEGIN
 90
        0
 91
        1
 62
     0
 92
       -2
340
14
 93
        0
 40
0.045
309
GRIDFORMAT_END
 95
        8
302
GRIDFORMAT
  1
GRIDFORMAT_BEGIN
 90
        0
 91
        1
 62
     0
 92
       -2
340
14
 93
        0
 40
0.045
309
GRIDFORMAT_END
 95
       16
302
GRIDFORMAT
  1
GRIDFORMAT_BEGIN
 90
        0
 91
        1
 62
     0
 92
       -2
340
14
 93
        0
 40
0.045
309
GRIDFORMAT_END
 95
       32
302
GRIDFORMAT
  1
GRIDFORMAT_BEGIN
 90
        0
 91
        1
 62
     0
 92
       -2
340
14
 93
        0
 40
0.045
309
GRIDFORMAT_END
309
TABLEFORMAT_END
  1
CELLSTYLE_BEGIN
 90
        1
 91
        1
300
_TITLE
309
CELLSTYLE_END
300
CELLSTYLE
  1
TABLEFORMAT_BEGIN
 90
        5
170
     1
 91
        0
 92
        0
 62
   257
 93
        1
300
CONTENTFORMAT
  1
CONTENTFORMAT_BEGIN
 90
        0
 91
        0
 92
        4
 93
        0
300

 40
0.0
140
1.0
 94
        5
 62
     0
340
11
144
0.18
309
CONTENTFORMAT_END
171
     1
301
MARGIN
  1
CELLMARGIN_BEGIN
 40
0.06
 40
0.06
 40
0.06
 40
0.06
 40
0.06
 40
0.06
309
CELLMARGIN_END
 94
        6
 95
        1
302
GRIDFORMAT
  1
GRIDFORMAT_BEGIN
 90
        0
 91
        1
 62
     0
 92
       -2
340
14
 93
        0
 40
0.045
309
GRIDFORMAT_END
 95
        2
302
GRIDFORMAT
  1
GRIDFORMAT_BEGIN
 90
        0
 91
        1
 62
     0
 92
       -2
340
14
 93
        0
 40
0.045
309
GRIDFORMAT_END
 95
        4
302
GRIDFORMAT
  1
GRIDFORMAT_BEGIN
 90
        0
 91
        1
 62
     0
 92
       -2
340
14
 93
        0
 40
0.045
309
GRIDFORMAT_END
 95
        8
302
GRIDFORMAT
  1
GRIDFORMAT_BEGIN
 90
        0
 91
        1
 62
     0
 92
       -2
340
14
 93
        0
 40
0.045
309
GRIDFORMAT_END
 95
       16
302
GRIDFORMAT
  1
GRIDFORMAT_BEGIN
 90
        0
 91
        1
 62
     0
 92
       -2
340
14
 93
        0
 40
0.045
309
GRIDFORMAT_END
 95
       32
302
GRIDFORMAT
  1
GRIDFORMAT_BEGIN
 90
        0
 91
        1
 62
     0
 92
       -2
340
14
 93
        0
 40
0.045
309
GRIDFORMAT_END
309
TABLEFORMAT_END
  1
CELLSTYLE_BEGIN
 90
        2
 91
        1
300
_HEADER
309
CELLSTYLE_END
300
CELLSTYLE
  1
TABLEFORMAT_BEGIN
 90
        5
170
     1
 91
        0
 92
        0
 62
   257
 93
        1
300
CONTENTFORMAT
  1
CONTENTFORMAT_BEGIN
 90
        0
 91
        0
 92
        4
 93
        0
300

 40
0.0
140
1.0
 94
        2
 62
     0
340
11
144
0.18
309
CONTENTFORMAT_END
171
     1
301
MARGIN
  1
CELLMARGIN_BEGIN
 40
0.06
 40
0.06
 40
0.06
 40
0.06
 40
0.06
 40
0.06
309
CELLMARGIN_END
 94
        6
 95
        1
302
GRIDFORMAT
  1
GRIDFORMAT_BEGIN
 90
        0
 91
        1
 62
     0
 92
       -2
340
14
 93
        0
 40
0.045
309
GRIDFORMAT_END
 95
        2
302
GRIDFORMAT
  1
GRIDFORMAT_BEGIN
 90
        0
 91
        1
 62
     0
 92
       -2
340
14
 93
        0
 40
0.045
309
GRIDFORMAT_END
 95
        4
302
GRIDFORMAT
  1
GRIDFORMAT_BEGIN
 90
        0
 91
        1
 62
     0
 92
       -2
340
14
 93
        0
 40
0.045
309
GRIDFORMAT_END
 95
        8
302
GRIDFORMAT
  1
GRIDFORMAT_BEGIN
 90
        0
 91
        1
 62
     0
 92
       -2
340
14
 93
        0
 40
0.045
309
GRIDFORMAT_END
 95
       16
302
GRIDFORMAT
  1
GRIDFORMAT_BEGIN
 90
        0
 91
        1
 62
     0
 92
       -2
340
14
 93
        0
 40
0.045
309
GRIDFORMAT_END
 95
       32
302
GRIDFORMAT
  1
GRIDFORMAT_BEGIN
 90
        0
 91
        1
 62
     0
 92
       -2
340
14
 93
        0
 40
0.045
309
GRIDFORMAT_END
309
TABLEFORMAT_END
  1
CELLSTYLE_BEGIN
 90
        3
 91
        2
300
_DATA
309
CELLSTYLE_END
  0
ENDSEC
  0
EOF