0
SECTION
  2
HEADER
  9
$ACADVER
  1
AC1027
  9
$ACADMAINTVER
 70
     8
  9
$DWGCODEPAGE
  3
ANSI_1252
  9
$REQUIREDVERSIONS
160
                 0
  9
$COMMENTS
  1
File was created by Cadenas
  9
$CUSTOMPROPERTYTAG
  1
NN
  9
$CUSTOMPROPERTY
  1
S-2000 Piloted Flange Labyrinth Seal
  9
$CUSTOMPROPERTYTAG
  1
NT
  9
$CUSTOMPROPERTY
  1
S-2000 Piloted Flange Bearing -Inch
  9
$CUSTOMPROPERTYTAG
  1
NB
  9
$CUSTOMPROPERTY
  1
070714
  9
$CUSTOMPROPERTYTAG
  1
NBSYN
  9
$CUSTOMPROPERTY
  1
$PN.
  9
$CUSTOMPROPERTYTAG
  1
LINA
  9
$CUSTOMPROPERTY
  1
070714
  9
$CUSTOMPROPERTYTAG
  1
SS
  9
$CUSTOMPROPERTY
  1
3-7/16
  9
$CUSTOMPROPERTYTAG
  1
PN
  9
$CUSTOMPROPERTY
  1
070714
  9
$CUSTOMPROPERTYTAG
  1
DESCRIPTION
  9
$CUSTOMPROPERTY
  1
FC-S2-307L
  9
$CUSTOMPROPERTYTAG
  1
EF
  9
$CUSTOMPROPERTY
  1
Non-Expansion Type
  9
$CUSTOMPROPERTYTAG
  1
ST
  9
$CUSTOMPROPERTY
  1
Labyrinth Seal
  9
$CUSTOMPROPERTYTAG
  1
A
  9
$CUSTOMPROPERTY
  1
4
  9
$CUSTOMPROPERTYTAG
  1
B
  9
$CUSTOMPROPERTY
  1
10-1/4
  9
$CUSTOMPROPERTYTAG
  1
C
  9
$CUSTOMPROPERTY
  1
3
  9
$CUSTOMPROPERTYTAG
  1
D
  9
$CUSTOMPROPERTY
  1
6-3/32
  9
$CUSTOMPROPERTYTAG
  1
DD
  9
$CUSTOMPROPERTY
  1
8-5/8
  9
$CUSTOMPROPERTYTAG
  1
E
  9
$CUSTOMPROPERTY
  1
1-17/64
  9
$CUSTOMPROPERTYTAG
  1
F
  9
$CUSTOMPROPERTY
  1
3/4
  9
$CUSTOMPROPERTYTAG
  1
G
  9
$CUSTOMPROPERTY
  1
2-23/64
  9
$CUSTOMPROPERTYTAG
  1
H
  9
$CUSTOMPROPERTY
  1
15/16
  9
$CUSTOMPROPERTYTAG
  1
K
  9
$CUSTOMPROPERTY
  1
7.375
  9
$CUSTOMPROPERTYTAG
  1
L
  9
$CUSTOMPROPERTY
  1
5-1/2
  9
$CUSTOMPROPERTYTAG
  1
M
  9
$CUSTOMPROPERTY
  1
3/4-10
  9
$CUSTOMPROPERTYTAG
  1
N
  9
$CUSTOMPROPERTY
  1
3-7/8
  9
$CUSTOMPROPERTYTAG
  1
P
  9
$CUSTOMPROPERTY
  1
1-41/64
  9
$CUSTOMPROPERTYTAG
  1
Q
  9
$CUSTOMPROPERTY
  1
1-33/64
  9
$CUSTOMPROPERTYTAG
  1
X
  9
$CUSTOMPROPERTY
  1
1/4
  9
$CUSTOMPROPERTYTAG
  1
Y
  9
$CUSTOMPROPERTY
  1
0.025
  9
$CUSTOMPROPERTYTAG
  1
Z
  9
$CUSTOMPROPERTY
  1
4-3/64
  9
$CUSTOMPROPERTYTAG
  1
COMPANY
  9
$CUSTOMPROPERTY
  1
baldor
  9
$INSBASE
 10
0.0
 20
0.0
 30
0.0
  9
$EXTMIN
 10
1.000000000000000E+20
 20
1.000000000000000E+20
 30
1.000000000000000E+20
  9
$EXTMAX
 10
-1.000000000000000E+20
 20
-1.000000000000000E+20
 30
-1.000000000000000E+20
  9
$LIMMIN
 10
0.0
 20
0.0
  9
$LIMMAX
 10
12.0
 20
9.0
  9
$ORTHOMODE
 70
     0
  9
$REGENMODE
 70
     1
  9
$FILLMODE
 70
     1
  9
$QTEXTMODE
 70
     0
  9
$MIRRTEXT
 70
     1
  9
$LTSCALE
 40
1.0
  9
$ATTMODE
 70
     1
  9
$TEXTSIZE
 40
0.2
  9
$TRACEWID
 40
0.05
  9
$TEXTSTYLE
  7
Standard
  9
$CLAYER
  8
0
  9
$CELTYPE
  6
ByLayer
  9
$CECOLOR
 62
   256
  9
$CELTSCALE
 40
1.0
  9
$DISPSILH
 70
     0
  9
$DIMSCALE
 40
1.0
  9
$DIMASZ
 40
0.18
  9
$DIMEXO
 40
0.0625
  9
$DIMDLI
 40
0.38
  9
$DIMRND
 40
0.0
  9
$DIMDLE
 40
0.0
  9
$DIMEXE
 40
0.18
  9
$DIMTP
 40
0.0
  9
$DIMTM
 40
0.0
  9
$DIMTXT
 40
0.18
  9
$DIMCEN
 40
0.09
  9
$DIMTSZ
 40
0.0
  9
$DIMTOL
 70
     0
  9
$DIMLIM
 70
     0
  9
$DIMTIH
 70
     1
  9
$DIMTOH
 70
     1
  9
$DIMSE1
 70
     0
  9
$DIMSE2
 70
     0
  9
$DIMTAD
 70
     0
  9
$DIMZIN
 70
     0
  9
$DIMBLK
  1

  9
$DIMASO
 70
     1
  9
$DIMSHO
 70
     1
  9
$DIMPOST
  1

  9
$DIMAPOST
  1

  9
$DIMALT
 70
     0
  9
$DIMALTD
 70
     2
  9
$DIMALTF
 40
25.4
  9
$DIMLFAC
 40
1.0
  9
$DIMTOFL
 70
     0
  9
$DIMTVP
 40
0.0
  9
$DIMTIX
 70
     0
  9
$DIMSOXD
 70
     0
  9
$DIMSAH
 70
     0
  9
$DIMBLK1
  1

  9
$DIMBLK2
  1

  9
$DIMSTYLE
  2
Standard
  9
$DIMCLRD
 70
     0
  9
$DIMCLRE
 70
     0
  9
$DIMCLRT
 70
     0
  9
$DIMTFAC
 40
1.0
  9
$DIMGAP
 40
0.09
  9
$DIMJUST
 70
     0
  9
$DIMSD1
 70
     0
  9
$DIMSD2
 70
     0
  9
$DIMTOLJ
 70
     1
  9
$DIMTZIN
 70
     0
  9
$DIMALTZ
 70
     0
  9
$DIMALTTZ
 70
     0
  9
$DIMUPT
 70
     0
  9
$DIMDEC
 70
     4
  9
$DIMTDEC
 70
     4
  9
$DIMALTU
 70
     2
  9
$DIMALTTD
 70
     2
  9
$DIMTXSTY
  7
Standard
  9
$DIMAUNIT
 70
     0
  9
$DIMADEC
 70
     0
  9
$DIMALTRND
 40
0.0
  9
$DIMAZIN
 70
     0
  9
$DIMDSEP
 70
    46
  9
$DIMATFIT
 70
     3
  9
$DIMFRAC
 70
     0
  9
$DIMLDRBLK
  1

  9
$DIMLUNIT
 70
     2
  9
$DIMLWD
 70
    -2
  9
$DIMLWE
 70
    -2
  9
$DIMTMOVE
 70
     0
  9
$DIMFXL
 40
1.0
  9
$DIMFXLON
 70
     0
  9
$DIMJOGANG
 40
0.7853981633974483
  9
$DIMTFILL
 70
     0
  9
$DIMTFILLCLR
 70
     0
  9
$DIMARCSYM
 70
     0
  9
$DIMLTYPE
  6

  9
$DIMLTEX1
  6

  9
$DIMLTEX2
  6

  9
$DIMTXTDIRECTION
 70
     0
  9
$LUNITS
 70
     2
  9
$LUPREC
 70
     4
  9
$SKETCHINC
 40
0.1
  9
$FILLETRAD
 40
0.5
  9
$AUNITS
 70
     0
  9
$AUPREC
 70
     0
  9
$MENU
  1
.
  9
$ELEVATION
 40
0.0
  9
$PELEVATION
 40
0.0
  9
$THICKNESS
 40
0.0
  9
$LIMCHECK
 70
     0
  9
$CHAMFERA
 40
0.0
  9
$CHAMFERB
 40
0.0
  9
$CHAMFERC
 40
0.0
  9
$CHAMFERD
 40
0.0
  9
$SKPOLY
 70
     0
  9
$TDCREATE
 40
2458168.972331887
  9
$TDUCREATE
 40
2458168.93066522
  9
$TDUPDATE
 40
2458168.972332072
  9
$TDUUPDATE
 40
2458168.930665405
  9
$TDINDWG
 40
0.0000000116
  9
$TDUSRTIMER
 40
0.0000000116
  9
$USRTIMER
 70
     1
  9
$ANGBASE
 50
0.0
  9
$ANGDIR
 70
     0
  9
$PDMODE
 70
     0
  9
$PDSIZE
 40
0.0
  9
$PLINEWID
 40
0.0
  9
$SPLFRAME
 70
     0
  9
$SPLINETYPE
 70
     6
  9
$SPLINESEGS
 70
     8
  9
$HANDSEED
  5
213
  9
$SURFTAB1
 70
     6
  9
$SURFTAB2
 70
     6
  9
$SURFTYPE
 70
     6
  9
$SURFU
 70
     6
  9
$SURFV
 70
     6
  9
$UCSBASE
  2

  9
$UCSNAME
  2

  9
$UCSORG
 10
0.0
 20
0.0
 30
0.0
  9
$UCSXDIR
 10
1.0
 20
0.0
 30
0.0
  9
$UCSYDIR
 10
0.0
 20
1.0
 30
0.0
  9
$UCSORTHOREF
  2

  9
$UCSORTHOVIEW
 70
     0
  9
$UCSORGTOP
 10
0.0
 20
0.0
 30
0.0
  9
$UCSORGBOTTOM
 10
0.0
 20
0.0
 30
0.0
  9
$UCSORGLEFT
 10
0.0
 20
0.0
 30
0.0
  9
$UCSORGRIGHT
 10
0.0
 20
0.0
 30
0.0
  9
$UCSORGFRONT
 10
0.0
 20
0.0
 30
0.0
  9
$UCSORGBACK
 10
0.0
 20
0.0
 30
0.0
  9
$PUCSBASE
  2

  9
$PUCSNAME
  2

  9
$PUCSORG
 10
0.0
 20
0.0
 30
0.0
  9
$PUCSXDIR
 10
1.0
 20
0.0
 30
0.0
  9
$PUCSYDIR
 10
0.0
 20
1.0
 30
0.0
  9
$PUCSORTHOREF
  2

  9
$PUCSORTHOVIEW
 70
     0
  9
$PUCSORGTOP
 10
0.0
 20
0.0
 30
0.0
  9
$PUCSORGBOTTOM
 10
0.0
 20
0.0
 30
0.0
  9
$PUCSORGLEFT
 10
0.0
 20
0.0
 30
0.0
  9
$PUCSORGRIGHT
 10
0.0
 20
0.0
 30
0.0
  9
$PUCSORGFRONT
 10
0.0
 20
0.0
 30
0.0
  9
$PUCSORGBACK
 10
0.0
 20
0.0
 30
0.0
  9
$USERI1
 70
     0
  9
$USERI2
 70
     0
  9
$USERI3
 70
     0
  9
$USERI4
 70
     0
  9
$USERI5
 70
     0
  9
$USERR1
 40
0.0
  9
$USERR2
 40
0.0
  9
$USERR3
 40
0.0
  9
$USERR4
 40
0.0
  9
$USERR5
 40
0.0
  9
$WORLDVIEW
 70
     1
  9
$SHADEDGE
 70
     3
  9
$SHADEDIF
 70
    70
  9
$TILEMODE
 70
     1
  9
$MAXACTVP
 70
    64
  9
$PINSBASE
 10
0.0
 20
0.0
 30
0.0
  9
$PLIMCHECK
 70
     0
  9
$PEXTMIN
 10
1.000000000000000E+20
 20
1.000000000000000E+20
 30
1.000000000000000E+20
  9
$PEXTMAX
 10
-1.000000000000000E+20
 20
-1.000000000000000E+20
 30
-1.000000000000000E+20
  9
$PLIMMIN
 10
0.0
 20
0.0
  9
$PLIMMAX
 10
12.0
 20
9.0
  9
$UNITMODE
 70
     0
  9
$VISRETAIN
 70
     1
  9
$PLINEGEN
 70
     0
  9
$PSLTSCALE
 70
     1
  9
$TREEDEPTH
 70
  3020
  9
$CMLSTYLE
  2
Standard
  9
$CMLJUST
 70
     0
  9
$CMLSCALE
 40
1.0
  9
$PROXYGRAPHICS
 70
     1
  9
$MEASUREMENT
 70
     0
  9
$CELWEIGHT
370
    -1
  9
$ENDCAPS
280
     0
  9
$JOINSTYLE
280
     0
  9
$LWDISPLAY
290
     0
  9
$INSUNITS
 70
     1
  9
$HYPERLINKBASE
  1

  9
$STYLESHEET
  1

  9
$XEDIT
290
     1
  9
$CEPSNTYPE
380
     0
  9
$PSTYLEMODE
290
     1
  9
$FINGERPRINTGUID
  2
{947A6167-A288-4FF6-AA23-8A61842A13C1}
  9
$VERSIONGUID
  2
{FAEB1C32-E019-11D5-929B-00C0DF256EC4}
  9
$EXTNAMES
290
     1
  9
$PSVPSCALE
 40
0.0
  9
$OLESTARTUP
290
     0
  9
$SORTENTS
280
   127
  9
$INDEXCTL
280
     0
  9
$HIDETEXT
280
     1
  9
$XCLIPFRAME
280
     2
  9
$HALOGAP
280
     0
  9
$OBSCOLOR
 70
   257
  9
$OBSLTYPE
280
     0
  9
$INTERSECTIONDISPLAY
280
     0
  9
$INTERSECTIONCOLOR
 70
   257
  9
$DIMASSOC
280
     2
  9
$PROJECTNAME
  1

  9
$CAMERADISPLAY
290
     0
  9
$LENSLENGTH
 40
50.0
  9
$CAMERAHEIGHT
 40
0.0
  9
$STEPSPERSEC
 40
2.0
  9
$STEPSIZE
 40
6.0
  9
$3DDWFPREC
 40
2.0
  9
$PSOLWIDTH
 40
0.25
  9
$PSOLHEIGHT
 40
4.0
  9
$LOFTANG1
 40
1.570796326794897
  9
$LOFTANG2
 40
1.570796326794897
  9
$LOFTMAG1
 40
0.0
  9
$LOFTMAG2
 40
0.0
  9
$LOFTPARAM
 70
     7
  9
$LOFTNORMALS
280
     1
  9
$LATITUDE
 40
37.795
  9
$LONGITUDE
 40
-122.394
  9
$NORTHDIRECTION
 40
0.0
  9
$TIMEZONE
 70
 -8000
  9
$LIGHTGLYPHDISPLAY
280
     1
  9
$TILEMODELIGHTSYNCH
280
     1
  9
$CMATERIAL
347
44
  9
$SOLIDHIST
280
     0
  9
$SHOWHIST
280
     1
  9
$DWFFRAME
280
     2
  9
$DGNFRAME
280
     2
  9
$REALWORLDSCALE
290
     1
  9
$INTERFERECOLOR
 62
   256
  9
$CSHADOW
280
     0
  9
$SHADOWPLANELOCATION
 40
0.0
  0
ENDSEC
  0
SECTION
  2
CLASSES
  0
CLASS
  1
ACDBDICTIONARYWDFLT
  2
AcDbDictionaryWithDefault
  3
ObjectDBX Classes
 90
        0
 91
        4
280
     0
281
     0
  0
CLASS
  1
VISUALSTYLE
  2
AcDbVisualStyle
  3
ObjectDBX Classes
 90
     4095
 91
        4
280
     0
281
     0
  0
CLASS
  1
MATERIAL
  2
AcDbMaterial
  3
ObjectDBX Classes
 90
     1153
 91
        4
280
     0
281
     0
  0
CLASS
  1
SCALE
  2
AcDbScale
  3
ObjectDBX Classes
 90
     1153
 91
        4
280
     0
281
     0
  0
CLASS
  1
TABLESTYLE
  2
AcDbTableStyle
  3
ObjectDBX Classes
 90
     4095
 91
        4
280
     0
281
     0
  0
CLASS
  1
MLEADERSTYLE
  2
AcDbMLeaderStyle
  3
ACDB_MLEADERSTYLE_CLASS
 90
     4095
 91
        4
280
     0
281
     0
  0
CLASS
  1
SUN
  2
AcDbSun
  3
SCENEOE
 90
     1153
 91
        4
280
     0
281
     0
  0
CLASS
  1
DICTIONARYVAR
  2
AcDbDictionaryVar
  3
ObjectDBX Classes
 90
        0
 91
        4
280
     0
281
     0
  0
CLASS
  1
CELLSTYLEMAP
  2
AcDbCellStyleMap
  3
ObjectDBX Classes
 90
     1152
 91
        4
280
     0
281
     0
  0
ENDSEC
  0
SECTION
  2
TABLES
  0
TABLE
  2
VPORT
  5
8
330
0
100
AcDbSymbolTable
 70
     1
  0
VPORT
  5
29
330
8
100
AcDbSymbolTableRecord
100
AcDbViewportTableRecord
  2
*Active
 70
     0
 10
0.0
 20
0.0
 11
1.0
 21
1.0
 12
0.0576249999999998
 22
0.0041076968335467
 13
0.0
 23
0.0
 14
0.5
 24
0.5
 15
0.5
 25
0.5
 16
0.0
 26
0.0
 36
1.0
 17
0.0
 27
0.0
 37
0.0
 40
10.44662029845957
 41
0.5110437488368585
 42
50.0
 43
0.0
 44
0.0
 50
0.0
 51
0.0
 71
     0
 72
   100
 73
     1
 74
     3
 75
     0
 76
     0
 77
     0
 78
     0
281
     0
 65
     1
110
0.0
120
0.0
130
0.0
111
1.0
121
0.0
131
0.0
112
0.0
122
1.0
132
0.0
 79
     0
146
0.0
348
2F
 60
     3
 61
     5
292
     1
282
     1
141
0.0
142
0.0
 63
   250
361
6D
  0
ENDTAB
  0
TABLE
  2
LTYPE
  5
5
330
0
100
AcDbSymbolTable
 70
     3
  0
LTYPE
  5
14
330
5
100
AcDbSymbolTableRecord
100
AcDbLinetypeTableRecord
  2
ByBlock
 70
     0
  3

 72
    65
 73
     0
 40
0.0
  0
LTYPE
  5
15
330
5
100
AcDbSymbolTableRecord
100
AcDbLinetypeTableRecord
  2
ByLayer
 70
     0
  3

 72
    65
 73
     0
 40
0.0
  0
LTYPE
  5
16
330
5
100
AcDbSymbolTableRecord
100
AcDbLinetypeTableRecord
  2
Continuous
 70
     0
  3
Solid line
 72
    65
 73
     0
 40
0.0
  0
LTYPE
  5
A7
330
5
100
AcDbSymbolTableRecord
100
AcDbLinetypeTableRecord
  2
Dashed
 70
     0
  3

 72
    65
 73
     2
 40
2.0
 49
1.0
 74
     0
 49
-1.0
 74
     0
  0
LTYPE
  5
15D
330
5
100
AcDbSymbolTableRecord
100
AcDbLinetypeTableRecord
  2
Center
 70
     0
  3

 72
    65
 73
     4
 40
1.5
 49
0.45
 74
     0
 49
-0.5
 74
     0
 49
0.05
 74
     0
 49
-0.5
 74
     0
  0
ENDTAB
  0
TABLE
  2
LAYER
  5
2
330
0
100
AcDbSymbolTable
 70
     7
  0
LAYER
  5
10
330
2
100
AcDbSymbolTableRecord
100
AcDbLayerTableRecord
  2
0
 70
     0
 62
     7
  6
Continuous
370
    -3
390
F
347
46
348
0
  0
LAYER
  5
72
330
2
100
AcDbSymbolTableRecord
100
AcDbLayerTableRecord
  2
AM_6
 70
     0
 62
    -2
  6
Continuous
370
    35
390
F
347
46
348
0
  0
LAYER
  5
A8
330
2
100
AcDbSymbolTableRecord
100
AcDbLayerTableRecord
  2
AM_9
 70
     0
 62
     6
  6
Dashed
370
    25
390
F
347
46
348
0
  0
LAYER
  5
E4
330
2
100
AcDbSymbolTableRecord
100
AcDbLayerTableRecord
  2
AM_5
 70
     0
 62
     3
  6
Continuous
370
    25
390
F
347
46
348
0
  0
LAYER
  5
E9
330
2
100
AcDbSymbolTableRecord
100
AcDbLayerTableRecord
  2
AM_4
 70
     0
 62
     7
  6
Continuous
370
    50
390
F
347
46
348
0
  0
LAYER
  5
15E
330
2
100
AcDbSymbolTableRecord
100
AcDbLayerTableRecord
  2
AM_7
 70
     0
 62
     7
  6
Center
370
    25
390
F
347
46
348
0
  0
LAYER
  5
1FF
330
2
100
AcDbSymbolTableRecord
100
AcDbLayerTableRecord
  2
ConnectionPoints
 70
     0
 62
     7
  6
Continuous
370
    50
390
F
347
46
348
0
  0
ENDTAB
  0
TABLE
  2
STYLE
  5
3
330
0
100
AcDbSymbolTable
 70
     1
  0
STYLE
  5
11
330
3
100
AcDbSymbolTableRecord
100
AcDbTextStyleTableRecord
  2
Standard
 70
     0
 40
0.0
 41
1.0
 50
0.0
 71
     0
 42
0.2
  3
txt
  4

  0
ENDTAB
  0
TABLE
  2
VIEW
  5
6
330
0
100
AcDbSymbolTable
 70
     0
  0
ENDTAB
  0
TABLE
  2
UCS
  5
7
330
0
100
AcDbSymbolTable
 70
     0
  0
ENDTAB
  0
TABLE
  2
APPID
  5
9
330
0
100
AcDbSymbolTable
 70
     1
  0
APPID
  5
12
330
9
100
AcDbSymbolTableRecord
100
AcDbRegAppTableRecord
  2
ACAD
 70
     0
  0
ENDTAB
  0
TABLE
  2
DIMSTYLE
  5
A
330
0
100
AcDbSymbolTable
 70
     1
100
AcDbDimStyleTable
  0
DIMSTYLE
105
27
330
A
100
AcDbSymbolTableRecord
100
AcDbDimStyleTableRecord
  2
Standard
 70
     0
178
     0
340
11
  0
ENDTAB
  0
TABLE
  2
BLOCK_RECORD
  5
1
330
0
100
AcDbSymbolTable
 70
     7
  0
BLOCK_RECORD
  5
1F
330
1
100
AcDbSymbolTableRecord
100
AcDbBlockTableRecord
  2
*Model_Space
340
22
 70
     0
280
     1
281
     0
  0
BLOCK_RECORD
  5
1B
330
1
100
AcDbSymbolTableRecord
100
AcDbBlockTableRecord
  2
*Paper_Space
340
1E
 70
     0
280
     1
281
     0
  0
BLOCK_RECORD
  5
23
330
1
100
AcDbSymbolTableRecord
100
AcDbBlockTableRecord
  2
*Paper_Space0
340
26
 70
     0
280
     1
281
     0
  0
BLOCK_RECORD
  5
6E
330
1
100
AcDbSymbolTableRecord
100
AcDbBlockTableRecord
  2
1_070714_2
340
0
102
{BLKREFS
331
6F
102
}
 70
     0
280
     1
281
     0
  0
BLOCK_RECORD
  5
90
330
1
100
AcDbSymbolTableRecord
100
AcDbBlockTableRecord
  2
2_3_7_16_Disc_0_in_070714_2
340
0
102
{BLKREFS
331
91
102
}
 70
     0
280
     1
281
     0
  0
BLOCK_RECORD
  5
B4
330
1
100
AcDbSymbolTableRecord
100
AcDbBlockTableRecord
  2
3_3_7_16CS2i_0_in_070714_2
340
0
102
{BLKREFS
331
B5
102
}
 70
     0
280
     1
281
     0
  0
BLOCK_RECORD
  5
104
330
1
100
AcDbSymbolTableRecord
100
AcDbBlockTableRecord
  2
4_070028i_0_in_070714_2
340
0
102
{BLKREFS
331
105
102
}
 70
     0
280
     1
281
     0
  0
BLOCK_RECORD
  5
164
330
1
100
AcDbSymbolTableRecord
100
AcDbBlockTableRecord
  2
5_405015E_Inch_0_in_070714_2
340
0
102
{BLKREFS
331
165
102
}
 70
     0
280
     1
281
     0
  0
BLOCK_RECORD
  5
19D
330
1
100
AcDbSymbolTableRecord
100
AcDbBlockTableRecord
  2
6_070714H_0_in_070714_2
340
0
102
{BLKREFS
331
19E
102
}
 70
     0
280
     1
281
     0
  0
ENDTAB
  0
ENDSEC
  0
SECTION
  2
BLOCKS
  0
BLOCK
  5
20
330
1F
100
AcDbEntity
  8
0
100
AcDbBlockBegin
  2
*Model_Space
 70
     0
 10
0.0
 20
0.0
 30
0.0
  3
*Model_Space
  1

  0
ENDBLK
  5
21
330
1F
100
AcDbEntity
  8
0
100
AcDbBlockEnd
  0
BLOCK
  5
1C
330
1B
100
AcDbEntity
 67
     1
  8
0
100
AcDbBlockBegin
  2
*Paper_Space
 70
     0
 10
0.0
 20
0.0
 30
0.0
  3
*Paper_Space
  1

  0
ENDBLK
  5
1D
330
1B
100
AcDbEntity
 67
     1
  8
0
100
AcDbBlockEnd
  0
BLOCK
  5
24
330
23
100
AcDbEntity
  8
0
100
AcDbBlockBegin
  2
*Paper_Space0
 70
     0
 10
0.0
 20
0.0
 30
0.0
  3
*Paper_Space0
  1

  0
ENDBLK
  5
25
330
23
100
AcDbEntity
  8
0
100
AcDbBlockEnd
  0
BLOCK
  5
70
330
6E
100
AcDbEntity
  8
0
100
AcDbBlockBegin
  2
1_070714_2
 70
     2
 10
0.0
 20
0.0
 30
0.0
  3
1_070714_2
  1

  0
ATTDEF
  5
73
330
6E
100
AcDbEntity
  8
AM_6
100
AcDbText
 10
6.840625
 20
5.125000000000001
 30
0.0
 40
0.5
  1
S-2000 Piloted Flange Labyrinth Seal
100
AcDbAttributeDefinition
  3

  2
NN
 70
     8
280
     0
  0
ATTDEF
  5
74
330
6E
100
AcDbEntity
  8
AM_6
100
AcDbText
 10
6.840625
 20
4.625000000000001
 30
0.0
 40
0.5
  1
S-2000 Piloted Flange Bearing -Inch
100
AcDbAttributeDefinition
  3

  2
NT
 70
     8
280
     0
  0
ATTDEF
  5
75
330
6E
100
AcDbEntity
  8
AM_6
100
AcDbText
 10
6.840625
 20
4.125000000000001
 30
0.0
 40
0.5
  1
070714
100
AcDbAttributeDefinition
  3

  2
NB
 70
     8
280
     0
  0
ATTDEF
  5
76
330
6E
100
AcDbEntity
  8
AM_6
100
AcDbText
 10
6.840625
 20
3.625000000000001
 30
0.0
 40
0.5
  1
$PN.
100
AcDbAttributeDefinition
  3

  2
NBSYN
 70
     8
280
     0
  0
ATTDEF
  5
77
330
6E
100
AcDbEntity
  8
AM_6
100
AcDbText
 10
6.840625
 20
3.125000000000001
 30
0.0
 40
0.5
  1
070714
100
AcDbAttributeDefinition
  3

  2
LINA
 70
     8
280
     0
  0
ATTDEF
  5
78
330
6E
100
AcDbEntity
  8
AM_6
100
AcDbText
 10
6.840625
 20
2.625000000000001
 30
0.0
 40
0.5
  1
3-7/16
100
AcDbAttributeDefinition
  3

  2
SS
 70
     8
280
     0
  0
ATTDEF
  5
79
330
6E
100
AcDbEntity
  8
AM_6
100
AcDbText
 10
6.840625
 20
2.125000000000001
 30
0.0
 40
0.5
  1
070714
100
AcDbAttributeDefinition
  3

  2
PN
 70
     8
280
     0
  0
ATTDEF
  5
7A
330
6E
100
AcDbEntity
  8
AM_6
100
AcDbText
 10
6.840625
 20
1.625000000000001
 30
0.0
 40
0.5
  1
FC-S2-307L
100
AcDbAttributeDefinition
  3

  2
DESCRIPTION
 70
     8
280
     0
  0
ATTDEF
  5
7B
330
6E
100
AcDbEntity
  8
AM_6
100
AcDbText
 10
6.840625
 20
1.125000000000001
 30
0.0
 40
0.5
  1
Non-Expansion Type
100
AcDbAttributeDefinition
  3

  2
EF
 70
     8
280
     0
  0
ATTDEF
  5
7C
330
6E
100
AcDbEntity
  8
AM_6
100
AcDbText
 10
6.840625
 20
0.6250000000000009
 30
0.0
 40
0.5
  1
Labyrinth Seal
100
AcDbAttributeDefinition
  3

  2
ST
 70
     8
280
     0
  0
ATTDEF
  5
7D
330
6E
100
AcDbEntity
  8
AM_6
100
AcDbText
 10
6.840625
 20
0.1250000000000009
 30
0.0
 40
0.5
  1
4
100
AcDbAttributeDefinition
  3

  2
A
 70
     8
280
     0
  0
ATTDEF
  5
7E
330
6E
100
AcDbEntity
  8
AM_6
100
AcDbText
 10
6.840625
 20
-0.3749999999999991
 30
0.0
 40
0.5
  1
10-1/4
100
AcDbAttributeDefinition
  3

  2
B
 70
     8
280
     0
  0
ATTDEF
  5
7F
330
6E
100
AcDbEntity
  8
AM_6
100
AcDbText
 10
6.840625
 20
-0.8749999999999991
 30
0.0
 40
0.5
  1
3
100
AcDbAttributeDefinition
  3

  2
C
 70
     8
280
     0
  0
ATTDEF
  5
80
330
6E
100
AcDbEntity
  8
AM_6
100
AcDbText
 10
6.840625
 20
-1.374999999999999
 30
0.0
 40
0.5
  1
6-3/32
100
AcDbAttributeDefinition
  3

  2
D
 70
     8
280
     0
  0
ATTDEF
  5
81
330
6E
100
AcDbEntity
  8
AM_6
100
AcDbText
 10
6.840625
 20
-1.874999999999999
 30
0.0
 40
0.5
  1
8-5/8
100
AcDbAttributeDefinition
  3

  2
DD
 70
     8
280
     0
  0
ATTDEF
  5
82
330
6E
100
AcDbEntity
  8
AM_6
100
AcDbText
 10
6.840625
 20
-2.374999999999999
 30
0.0
 40
0.5
  1
1-17/64
100
AcDbAttributeDefinition
  3

  2
E
 70
     8
280
     0
  0
ATTDEF
  5
83
330
6E
100
AcDbEntity
  8
AM_6
100
AcDbText
 10
6.840625
 20
-2.874999999999999
 30
0.0
 40
0.5
  1
3/4
100
AcDbAttributeDefinition
  3

  2
F
 70
     8
280
     0
  0
ATTDEF
  5
84
330
6E
100
AcDbEntity
  8
AM_6
100
AcDbText
 10
6.840625
 20
-3.374999999999999
 30
0.0
 40
0.5
  1
2-23/64
100
AcDbAttributeDefinition
  3

  2
G
 70
     8
280
     0
  0
ATTDEF
  5
85
330
6E
100
AcDbEntity
  8
AM_6
100
AcDbText
 10
6.840625
 20
-3.874999999999999
 30
0.0
 40
0.5
  1
15/16
100
AcDbAttributeDefinition
  3

  2
H
 70
     8
280
     0
  0
ATTDEF
  5
86
330
6E
100
AcDbEntity
  8
AM_6
100
AcDbText
 10
6.840625
 20
-4.374999999999999
 30
0.0
 40
0.5
  1
7.375
100
AcDbAttributeDefinition
  3

  2
K
 70
     8
280
     0
  0
ATTDEF
  5
87
330
6E
100
AcDbEntity
  8
AM_6
100
AcDbText
 10
6.840625
 20
-4.874999999999999
 30
0.0
 40
0.5
  1
5-1/2
100
AcDbAttributeDefinition
  3

  2
L
 70
     8
280
     0
  0
ATTDEF
  5
88
330
6E
100
AcDbEntity
  8
AM_6
100
AcDbText
 10
6.840625
 20
-5.374999999999999
 30
0.0
 40
0.5
  1
3/4-10
100
AcDbAttributeDefinition
  3

  2
M
 70
     8
280
     0
  0
ATTDEF
  5
89
330
6E
100
AcDbEntity
  8
AM_6
100
AcDbText
 10
6.840625
 20
-5.874999999999999
 30
0.0
 40
0.5
  1
3-7/8
100
AcDbAttributeDefinition
  3

  2
N
 70
     8
280
     0
  0
ATTDEF
  5
8A
330
6E
100
AcDbEntity
  8
AM_6
100
AcDbText
 10
6.840625
 20
-6.374999999999999
 30
0.0
 40
0.5
  1
1-41/64
100
AcDbAttributeDefinition
  3

  2
P
 70
     8
280
     0
  0
ATTDEF
  5
8B
330
6E
100
AcDbEntity
  8
AM_6
100
AcDbText
 10
6.840625
 20
-6.874999999999999
 30
0.0
 40
0.5
  1
1-33/64
100
AcDbAttributeDefinition
  3

  2
Q
 70
     8
280
     0
  0
ATTDEF
  5
8C
330
6E
100
AcDbEntity
  8
AM_6
100
AcDbText
 10
6.840625
 20
-7.374999999999999
 30
0.0
 40
0.5
  1
1/4
100
AcDbAttributeDefinition
  3

  2
X
 70
     8
280
     0
  0
ATTDEF
  5
8D
330
6E
100
AcDbEntity
  8
AM_6
100
AcDbText
 10
6.840625
 20
-7.874999999999999
 30
0.0
 40
0.5
  1
0.025
100
AcDbAttributeDefinition
  3

  2
Y
 70
     8
280
     0
  0
ATTDEF
  5
8E
330
6E
100
AcDbEntity
  8
AM_6
100
AcDbText
 10
6.840625
 20
-8.375
 30
0.0
 40
0.5
  1
4-3/64
100
AcDbAttributeDefinition
  3

  2
Z
 70
     8
280
     0
  0
ATTDEF
  5
8F
330
6E
100
AcDbEntity
  8
AM_6
100
AcDbText
 10
6.840625
 20
-8.875
 30
0.0
 40
0.5
  1
baldor
100
AcDbAttributeDefinition
  3

  2
COMPANY
 70
     8
280
     0
  0
INSERT
  5
91
330
6E
100
AcDbEntity
  8
0
100
AcDbBlockReference
  2
2_3_7_16_Disc_0_in_070714_2
 10
0.0
 20
0.0
 30
0.0
  0
INSERT
  5
B5
330
6E
100
AcDbEntity
  8
0
100
AcDbBlockReference
  2
3_3_7_16CS2i_0_in_070714_2
 10
0.0
 20
0.0
 30
0.0
  0
INSERT
  5
105
330
6E
100
AcDbEntity
  8
0
100
AcDbBlockReference
  2
4_070028i_0_in_070714_2
 10
0.0
 20
0.0
 30
0.0
  0
INSERT
  5
165
330
6E
100
AcDbEntity
  8
0
100
AcDbBlockReference
  2
5_405015E_Inch_0_in_070714_2
 10
0.0
 20
0.0
 30
0.0
  0
INSERT
  5
19E
330
6E
100
AcDbEntity
  8
0
100
AcDbBlockReference
  2
6_070714H_0_in_070714_2
 10
0.0
 20
0.0
 30
0.0
  0
ENDBLK
  5
71
330
6E
100
AcDbEntity
  8
0
100
AcDbBlockEnd
  0
BLOCK
  5
92
330
90
100
AcDbEntity
  8
0
100
AcDbBlockBegin
  2
2_3_7_16_Disc_0_in_070714_2
 70
     2
 10
0.0
 20
0.0
 30
0.0
  3
2_3_7_16_Disc_0_in_070714_2
  1

  0
ATTDEF
  5
94
330
90
100
AcDbEntity
  8
AM_6
100
AcDbText
 10
6.46875
 20
3.1496
 30
0.0
 40
0.5
  1
S-2000 -Disc -Inch
100
AcDbAttributeDefinition
  3

  2
NN
 70
     8
280
     0
  0
ATTDEF
  5
95
330
90
100
AcDbEntity
  8
AM_6
100
AcDbText
 10
6.46875
 20
2.6496
 30
0.0
 40
0.5
  1
S-2000 Bearings
100
AcDbAttributeDefinition
  3

  2
NT
 70
     8
280
     0
  0
ATTDEF
  5
96
330
90
100
AcDbEntity
  8
AM_6
100
AcDbText
 10
6.46875
 20
2.1496
 30
0.0
 40
0.5
  1
3-7/16-Disc
100
AcDbAttributeDefinition
  3

  2
NB
 70
     8
280
     0
  0
ATTDEF
  5
97
330
90
100
AcDbEntity
  8
AM_6
100
AcDbText
 10
6.46875
 20
1.6496
 30
0.0
 40
0.5
  1
$SS.-Disc
100
AcDbAttributeDefinition
  3

  2
NBSYN
 70
     8
280
     0
  0
ATTDEF
  5
98
330
90
100
AcDbEntity
  8
AM_6
100
AcDbText
 10
6.46875
 20
1.1496
 30
0.0
 40
0.5
  1
3-7/16-Disc
100
AcDbAttributeDefinition
  3

  2
LINA
 70
     8
280
     0
  0
ATTDEF
  5
99
330
90
100
AcDbEntity
  8
AM_6
100
AcDbText
 10
6.46875
 20
0.6495999999999995
 30
0.0
 40
0.5
  1
3-7/16
100
AcDbAttributeDefinition
  3

  2
SS
 70
     8
280
     0
  0
ATTDEF
  5
9A
330
90
100
AcDbEntity
  8
AM_6
100
AcDbText
 10
6.46875
 20
0.1495999999999995
 30
0.0
 40
0.5
  1
4.24
100
AcDbAttributeDefinition
  3

  2
CC
 70
     8
280
     0
  0
ATTDEF
  5
9B
330
90
100
AcDbEntity
  8
AM_6
100
AcDbText
 10
6.46875
 20
-0.3504000000000005
 30
0.0
 40
0.5
  1
0.54
100
AcDbAttributeDefinition
  3

  2
CSD
 70
     8
280
     0
  0
ATTDEF
  5
9C
330
90
100
AcDbEntity
  8
AM_6
100
AcDbText
 10
6.46875
 20
-0.8504000000000005
 30
0.0
 40
0.5
  1
3.437500
100
AcDbAttributeDefinition
  3

  2
SS1
 70
     8
280
     0
  0
ATTDEF
  5
9D
330
90
100
AcDbEntity
  8
AM_6
100
AcDbText
 10
6.46875
 20
-1.3504
 30
0.0
 40
0.5
  1
6.2992
100
AcDbAttributeDefinition
  3

  2
A
 70
     8
280
     0
  0
ATTDEF
  5
9E
330
90
100
AcDbEntity
  8
AM_6
100
AcDbText
 10
6.46875
 20
-1.8504
 30
0.0
 40
0.5
  1
1-5/8
100
AcDbAttributeDefinition
  3

  2
B
 70
     8
280
     0
  0
ATTDEF
  5
9F
330
90
100
AcDbEntity
  8
AM_6
100
AcDbText
 10
6.46875
 20
-2.3504
 30
0.0
 40
0.5
  1
1.625000
100
AcDbAttributeDefinition
  3

  2
B1
 70
     8
280
     0
  0
ATTDEF
  5
A0
330
90
100
AcDbEntity
  8
AM_6
100
AcDbText
 10
6.46875
 20
-2.8504
 30
0.0
 40
0.5
  1
4
100
AcDbAttributeDefinition
  3

  2
C
 70
     8
280
     0
  0
ATTDEF
  5
A1
330
90
100
AcDbEntity
  8
AM_6
100
AcDbText
 10
6.46875
 20
-3.3504
 30
0.0
 40
0.5
  1
4.000000
100
AcDbAttributeDefinition
  3

  2
C1
 70
     8
280
     0
  0
ATTDEF
  5
A2
330
90
100
AcDbEntity
  8
AM_6
100
AcDbText
 10
6.46875
 20
-3.8504
 30
0.0
 40
0.5
  1
1.483
100
AcDbAttributeDefinition
  3

  2
D
 70
     8
280
     0
  0
ATTDEF
  5
A3
330
90
100
AcDbEntity
  8
AM_6
100
AcDbText
 10
6.46875
 20
-4.3504
 30
0.0
 40
0.5
  1
5-1/2
100
AcDbAttributeDefinition
  3

  2
E
 70
     8
280
     0
  0
ATTDEF
  5
A4
330
90
100
AcDbEntity
  8
AM_6
100
AcDbText
 10
6.46875
 20
-4.8504
 30
0.0
 40
0.5
  1
5.500000
100
AcDbAttributeDefinition
  3

  2
E1
 70
     8
280
     0
  0
ATTDEF
  5
A5
330
90
100
AcDbEntity
  8
AM_6
100
AcDbText
 10
6.46875
 20
-5.3504
 30
0.0
 40
0.5
  1
0.442
100
AcDbAttributeDefinition
  3

  2
F
 70
     8
280
     0
  0
ATTDEF
  5
A6
330
90
100
AcDbEntity
  8
AM_6
100
AcDbText
 10
6.46875
 20
-5.8504
 30
0.0
 40
0.5
  1
baldor
100
AcDbAttributeDefinition
  3

  2
COMPANY
 70
     8
280
     0
  0
LINE
  5
A9
330
90
100
AcDbEntity
  8
AM_9
100
AcDbLine
 10
1.375
 20
-2.12
 30
0.0
 11
1.46875
 21
-2.12
 31
0.0
  0
LINE
  5
AA
330
90
100
AcDbEntity
  8
AM_9
100
AcDbLine
 10
1.46875
 20
2.12
 30
0.0
 11
1.375
 21
2.12
 31
0.0
  0
LINE
  5
AB
330
90
100
AcDbEntity
  8
AM_9
100
AcDbLine
 10
1.06875
 20
-3.05585
 30
0.0
 11
1.375
 21
-3.05585
 31
0.0
  0
LINE
  5
AC
330
90
100
AcDbEntity
  8
AM_9
100
AcDbLine
 10
1.375
 20
3.05585
 30
0.0
 11
1.06875
 21
3.05585
 31
0.0
  0
LINE
  5
AD
330
90
100
AcDbEntity
  8
AM_9
100
AcDbLine
 10
1.06875
 20
-3.1496
 30
0.0
 11
1.375000000000001
 21
-3.1496
 31
0.0
  0
LINE
  5
AE
330
90
100
AcDbEntity
  8
AM_9
100
AcDbLine
 10
1.375000000000001
 20
3.1496
 30
0.0
 11
1.06875
 21
3.1496
 31
0.0
  0
LINE
  5
AF
330
90
100
AcDbEntity
  8
AM_9
100
AcDbLine
 10
1.06875
 20
3.1496
 30
0.0
 11
1.06875
 21
-3.1496
 31
0.0
  0
LINE
  5
B0
330
90
100
AcDbEntity
  8
AM_9
100
AcDbLine
 10
1.46875
 20
3.05585
 30
0.0
 11
1.46875
 21
-3.05585
 31
0.0
  0
ARC
  5
B1
330
90
100
AcDbEntity
  8
AM_9
100
AcDbCircle
 10
1.375000000000002
 20
-3.055850000000001
 30
0.0
 40
0.0937499999999982
100
AcDbArc
 50
270.0
 51
0.0
  0
ARC
  5
B2
330
90
100
AcDbEntity
  8
AM_9
100
AcDbCircle
 10
1.375000000000002
 20
3.055850000000001
 30
0.0
 40
0.0937499999999982
100
AcDbArc
 50
0.0
 51
90.0
  0
LINE
  5
B3
330
90
100
AcDbEntity
  8
AM_9
100
AcDbLine
 10
1.375000000000001
 20
3.1496
 30
0.0
 11
1.375000000000001
 21
-3.1496
 31
0.0
  0
ENDBLK
  5
93
330
90
100
AcDbEntity
  8
0
100
AcDbBlockEnd
  0
BLOCK
  5
B6
330
B4
100
AcDbEntity
  8
0
100
AcDbBlockBegin
  2
3_3_7_16CS2i_0_in_070714_2
 70
     2
 10
0.0
 20
0.0
 30
0.0
  3
3_3_7_16CS2i_0_in_070714_2
  1

  0
ATTDEF
  5
B8
330
B4
100
AcDbEntity
  8
AM_6
100
AcDbText
 10
3.524625
 20
2.75
 30
0.0
 40
0.5
  1
S-2000 Collar -Inch
100
AcDbAttributeDefinition
  3

  2
NN
 70
     8
280
     0
  0
ATTDEF
  5
B9
330
B4
100
AcDbEntity
  8
AM_6
100
AcDbText
 10
3.524625
 20
2.25
 30
0.0
 40
0.5
  1
S-2000 Bearings
100
AcDbAttributeDefinition
  3

  2
NT
 70
     8
280
     0
  0
ATTDEF
  5
BA
330
B4
100
AcDbEntity
  8
AM_6
100
AcDbText
 10
3.524625
 20
1.75
 30
0.0
 40
0.5
  1
3-7/16CS2i
100
AcDbAttributeDefinition
  3

  2
NB
 70
     8
280
     0
  0
ATTDEF
  5
BB
330
B4
100
AcDbEntity
  8
AM_6
100
AcDbText
 10
3.524625
 20
1.25
 30
0.0
 40
0.5
  1
$BORE.CS2i
100
AcDbAttributeDefinition
  3

  2
NBSYN
 70
     8
280
     0
  0
ATTDEF
  5
BC
330
B4
100
AcDbEntity
  8
AM_6
100
AcDbText
 10
3.524625
 20
0.75
 30
0.0
 40
0.5
  1
3-7/16CS2i
100
AcDbAttributeDefinition
  3

  2
LINA
 70
     8
280
     0
  0
ATTDEF
  5
BD
330
B4
100
AcDbEntity
  8
AM_6
100
AcDbText
 10
3.524625
 20
0.25
 30
0.0
 40
0.5
  1
3-7/16
100
AcDbAttributeDefinition
  3

  2
BORE
 70
     8
280
     0
  0
ATTDEF
  5
BE
330
B4
100
AcDbEntity
  8
AM_6
100
AcDbText
 10
3.524625
 20
-0.25
 30
0.0
 40
0.5
  1
3.437500
100
AcDbAttributeDefinition
  3

  2
BORE1
 70
     8
280
     0
  0
ATTDEF
  5
BF
330
B4
100
AcDbEntity
  8
AM_6
100
AcDbText
 10
3.524625
 20
-0.75
 30
0.0
 40
0.5
  1
5-1/2
100
AcDbAttributeDefinition
  3

  2
L1
 70
     8
280
     0
  0
ATTDEF
  5
C0
330
B4
100
AcDbEntity
  8
AM_6
100
AcDbText
 10
3.524625
 20
-1.25
 30
0.0
 40
0.5
  1
5.50000
100
AcDbAttributeDefinition
  3

  2
L
 70
     8
280
     0
  0
ATTDEF
  5
C1
330
B4
100
AcDbEntity
  8
AM_6
100
AcDbText
 10
3.524625
 20
-1.75
 30
0.0
 40
0.5
  1
5.50000
100
AcDbAttributeDefinition
  3

  2
L2
 70
     8
280
     0
  0
ATTDEF
  5
C2
330
B4
100
AcDbEntity
  8
AM_6
100
AcDbText
 10
3.524625
 20
-2.25
 30
0.0
 40
0.5
  1
5.00
100
AcDbAttributeDefinition
  3

  2
A
 70
     8
280
     0
  0
ATTDEF
  5
C3
330
B4
100
AcDbEntity
  8
AM_6
100
AcDbText
 10
3.524625
 20
-2.75
 30
0.0
 40
0.5
  1
2.25
100
AcDbAttributeDefinition
  3

  2
B
 70
     8
280
     0
  0
ATTDEF
  5
C4
330
B4
100
AcDbEntity
  8
AM_6
100
AcDbText
 10
3.524625
 20
-3.25
 30
0.0
 40
0.5
  1
4.24
100
AcDbAttributeDefinition
  3

  2
C
 70
     8
280
     0
  0
ATTDEF
  5
C5
330
B4
100
AcDbEntity
  8
AM_6
100
AcDbText
 10
3.524625
 20
-3.75
 30
0.0
 40
0.5
  1
5.84
100
AcDbAttributeDefinition
  3

  2
D
 70
     8
280
     0
  0
ATTDEF
  5
C6
330
B4
100
AcDbEntity
  8
AM_6
100
AcDbText
 10
3.524625
 20
-4.25
 30
0.0
 40
0.5
  1
0.54
100
AcDbAttributeDefinition
  3

  2
E
 70
     8
280
     0
  0
ATTDEF
  5
C7
330
B4
100
AcDbEntity
  8
AM_6
100
AcDbText
 10
3.524625
 20
-4.75
 30
0.0
 40
0.5
  1
0.442
100
AcDbAttributeDefinition
  3

  2
F
 70
     8
280
     0
  0
ATTDEF
  5
C8
330
B4
100
AcDbEntity
  8
AM_6
100
AcDbText
 10
3.524625
 20
-5.25
 30
0.0
 40
0.5
  1
1/2-13
100
AcDbAttributeDefinition
  3

  2
CS
 70
     8
280
     0
  0
ATTDEF
  5
C9
330
B4
100
AcDbEntity
  8
AM_6
100
AcDbText
 10
3.524625
 20
-5.75
 30
0.0
 40
0.5
  1
0.5000
100
AcDbAttributeDefinition
  3

  2
NDM
 70
     8
280
     0
  0
ATTDEF
  5
CA
330
B4
100
AcDbEntity
  8
AM_6
100
AcDbText
 10
3.524625
 20
-6.25
 30
0.0
 40
0.5
  1
0.4170
100
AcDbAttributeDefinition
  3

  2
KDM
 70
     8
280
     0
  0
ATTDEF
  5
CB
330
B4
100
AcDbEntity
  8
AM_6
100
AcDbText
 10
3.524625
 20
-6.75
 30
0.0
 40
0.5
  1
2
100
AcDbAttributeDefinition
  3

  2
DD
 70
     8
280
     0
  0
ATTDEF
  5
CC
330
B4
100
AcDbEntity
  8
AM_6
100
AcDbText
 10
3.524625
 20
-7.25
 30
0.0
 40
0.5
  1
baldor
100
AcDbAttributeDefinition
  3

  2
COMPANY
 70
     8
280
     0
  0
LINE
  5
CD
330
B4
100
AcDbEntity
  8
AM_9
100
AcDbLine
 10
-1.709025
 20
2.128316666666673
 30
0.0
 11
-1.709025
 21
2.708349999999999
 31
0.0
  0
LINE
  5
CE
330
B4
100
AcDbEntity
  8
AM_9
100
AcDbLine
 10
-2.125725
 20
2.708349999999999
 30
0.0
 11
-2.125725
 21
2.128316666666673
 31
0.0
  0
LINE
  5
CF
330
B4
100
AcDbEntity
  8
AM_9
100
AcDbLine
 10
-2.125725
 20
2.128316666666673
 30
0.0
 11
-1.709025
 21
2.128316666666673
 31
0.0
  0
LINE
  5
D0
330
B4
100
AcDbEntity
  8
AM_9
100
AcDbLine
 10
-2.125725
 20
2.128316666666673
 30
0.0
 11
-2.133701655122925
 21
2.120340011543747
 31
0.0
  0
LINE
  5
D1
330
B4
100
AcDbEntity
  8
AM_9
100
AcDbLine
 10
-1.700997808238077
 20
2.120289474904748
 30
0.0
 11
-1.709025
 21
2.128316666666673
 31
0.0
  0
LINE
  5
D2
330
B4
100
AcDbEntity
  8
AM_9
100
AcDbLine
 10
-2.125725
 20
2.708349999999999
 30
0.0
 11
-1.709025
 21
2.708349999999999
 31
0.0
  0
LINE
  5
D3
330
B4
100
AcDbEntity
  8
AM_9
100
AcDbLine
 10
-1.709025
 20
2.708349999999999
 30
0.0
 11
-1.691925484400176
 21
2.725449515599824
 31
0.0
  0
LINE
  5
D4
330
B4
100
AcDbEntity
  8
AM_9
100
AcDbLine
 10
-2.167154740518853
 20
2.749779740518854
 30
0.0
 11
-2.125725
 21
2.708349999999999
 31
0.0
  0
LWPOLYLINE
  5
D5
330
B4
100
AcDbEntity
  8
AM_9
100
AcDbPolyline
 90
       34
 70
     0
 43
0.0
 10
-1.705463301032041
 20
0.93890700614573
 10
-1.70774664379955
 20
0.9480167304883548
 10
-1.720739645034806
 20
0.9820358871958423
 10
-1.740005222958651
 20
1.013322024561619
 10
-1.764704963640259
 20
1.040470903864968
 10
-1.79442984563242
 20
1.063256112503843
 10
-1.826868259689727
 20
1.080173263803241
 10
-1.862255521281622
 20
1.091808745021458
 10
-1.897325344360223
 20
1.097450383710989
 10
-1.933003263858184
 20
1.097806206079553
 10
-1.966887587883565
 20
1.093065402581921
 10
-1.999397607819823
 20
1.083575345219367
 10
-2.02989205315346
 20
1.069446891839834
 10
-2.05739586955672
 20
1.051221507161747
 10
-2.082273641905721
 20
1.028260155683471
 10
-2.102694014011173
 20
1.001973630145816
 10
-2.118909341330018
 20
0.9713080817300318
 10
-2.129386660168024
 20
0.9384603132853377
 10
-2.133899871196483
 20
0.9028705789295699
 10
-2.131900336237969
 20
0.8667826360174665
 10
-2.123167464651594
 20
0.8306666761628037
 10
-2.107956458022961
 20
0.7961441815955898
 10
-2.08673609334951
 20
0.7646092471893633
 10
-2.059983322870072
 20
0.7368045473401823
 10
-2.029505238998793
 20
0.714583459955738
 10
-1.995336439144592
 20
0.6977227203400433
 10
-1.960601657961343
 20
0.6875147685228941
 10
-1.924517861238747
 20
0.6832069106349862
 10
-1.889956780542765
 20
0.6848709731065843
 10
-1.856176935484983
 20
0.6919918567810888
 10
-1.824369881265919
 20
0.7042439095664885
 10
-1.795052427931414
 20
0.7211192011086255
 10
-1.77438075409125
 20
0.7371485090821505
 10
-1.755902269720321
 20
0.7553325821002977
  0
LWPOLYLINE
  5
D6
330
B4
100
AcDbEntity
  8
AM_9
100
AcDbPolyline
 90
        5
 70
     0
 43
0.0
 10
-1.755902269720321
 20
0.7553325821002977
 10
-1.736531530532239
 20
0.7801819617212913
 10
-1.721110721553152
 20
0.807191989725588
 10
-1.708356308949325
 20
0.8410753231475865
 10
-1.705393623843987
 20
0.8528592057308233
  0
LINE
  5
D7
330
B4
100
AcDbEntity
  8
AM_9
100
AcDbLine
 10
-2.359375
 20
-2.12
 30
0.0
 11
-1.475375
 21
-2.12
 31
0.0
  0
LINE
  5
D8
330
B4
100
AcDbEntity
  8
AM_9
100
AcDbLine
 10
-1.475375
 20
2.12
 30
0.0
 11
-1.701362010698908
 21
2.12
 31
0.0
  0
LINE
  5
D9
330
B4
100
AcDbEntity
  8
AM_9
100
AcDbLine
 10
-2.133274334973036
 20
2.12
 30
0.0
 11
-2.359375
 21
2.12
 31
0.0
  0
LWPOLYLINE
  5
DA
330
B4
100
AcDbEntity
  8
AM_9
100
AcDbPolyline
 90
       21
 70
     0
 43
0.0
 10
-2.134041666666601
 20
2.119999999999992
 10
-2.133557956173149
 20
2.119944996509076
 10
-2.127581316388953
 20
2.119275271596194
 10
-2.115236595767474
 20
2.117950007450867
 10
-2.096085338956812
 20
2.116049490654317
 10
-2.072138064002314
 20
2.113940558988845
 10
-2.042226475392249
 20
2.111726765405039
 10
-2.010511256702722
 20
2.109892892457725
 10
-1.974648549354083
 20
2.108459575893357
 10
-1.940147149730405
 20
2.107724895794852
 10
-1.903859095318381
 20
2.10763550093538
 10
-1.870368293924177
 20
2.108174829241165
 10
-1.837265231451794
 20
2.10929348643794
 10
-1.807011014858388
 20
2.110823294463101
 10
-1.778956632183131
 20
2.112672808573442
 10
-1.754147845840059
 20
2.114651870692609
 10
-1.733191305205835
 20
2.11657330240036
 10
-1.716828515472045
 20
2.118231574436285
 10
-1.705841031346456
 20
2.119422462789338
 10
-1.700941681920972
 20
2.119973450609591
 10
-1.700708333333559
 20
2.119999999999973
  0
ELLIPSE
  5
DB
330
B4
100
AcDbEntity
  8
AM_9
100
AcDbEllipse
 10
-1.917375
 20
0.8994654901004269
 30
0.0
 11
0.2083500000000005
 21
0.0
 31
0.0
210
0.0
220
0.0
230
1.0
 40
0.9063077870366527
 41
2.435210810815681
 42
3.141592653589793
  0
LINE
  5
DC
330
B4
100
AcDbEntity
  8
AM_9
100
AcDbLine
 10
-1.709025
 20
0.8994654901004289
 30
0.0
 11
-1.709025
 21
1.144598169185423
 31
0.0
  0
LINE
  5
DD
330
B4
100
AcDbEntity
  8
AM_9
100
AcDbLine
 10
-2.125725
 20
1.144598169185423
 30
0.0
 11
-2.125725
 21
0.8994654901004289
 31
0.0
  0
ELLIPSE
  5
DE
330
B4
100
AcDbEntity
  8
AM_9
100
AcDbEllipse
 10
-1.917375
 20
0.899465490100429
 30
0.0
 11
0.20835
 21
0.0
 31
0.0
210
0.0
220
0.0
230
1.0
 40
0.9063077870366498
 41
3.141592653589793
 42
6.283185307179586
  0
ELLIPSE
  5
DF
330
B4
100
AcDbEntity
  8
AM_9
100
AcDbEllipse
 10
-1.917375
 20
0.8994654901004275
 30
0.0
 11
0.20835
 21
0.0
 31
0.0
210
0.0
220
0.0
230
1.0
 40
0.9063077870366525
 41
0.0
 42
0.7063818427741094
  0
LINE
  5
E0
330
B4
100
AcDbEntity
  8
AM_9
100
AcDbLine
 10
-1.484375
 20
-2.619047619047619
 30
0.0
 11
-1.475375
 21
-2.619047619047619
 31
0.0
  0
LINE
  5
E1
330
B4
100
AcDbEntity
  8
AM_9
100
AcDbLine
 10
-1.475375
 20
2.619047619047619
 30
0.0
 11
-1.484375
 21
2.619047619047619
 31
0.0
  0
LINE
  5
E2
330
B4
100
AcDbEntity
  8
AM_9
100
AcDbLine
 10
-1.475375
 20
2.619047619047619
 30
0.0
 11
-1.475375
 21
-2.619047619047619
 31
0.0
  0
LINE
  5
E3
330
B4
100
AcDbEntity
  8
AM_9
100
AcDbLine
 10
-1.706099713177353
 20
1.044941912550958
 30
0.0
 11
-1.706099713177353
 21
1.276939649633282
 31
0.0
  0
LINE
  5
E5
330
B4
100
AcDbEntity
  8
AM_5
100
AcDbLine
 10
-2.167375
 20
2.75
 30
0.0
 11
-2.167375
 21
2.12
 31
0.0
  0
LINE
  5
E6
330
B4
100
AcDbEntity
  8
AM_5
100
AcDbLine
 10
-2.042375
 20
2.086666666666667
 30
0.0
 11
-2.167375
 21
2.086666666666667
 31
0.0
  0
LINE
  5
E7
330
B4
100
AcDbEntity
  8
AM_5
100
AcDbLine
 10
-1.667375
 20
2.682926829268293
 30
0.0
 11
-1.667375
 21
2.12
 31
0.0
  0
LINE
  5
E8
330
B4
100
AcDbEntity
  8
AM_5
100
AcDbLine
 10
-1.792375
 20
2.086666666666667
 30
0.0
 11
-1.667375
 21
2.086666666666667
 31
0.0
  0
ELLIPSE
  5
EA
330
B4
100
AcDbEntity
  8
AM_4
100
AcDbEllipse
 10
-1.917375000000001
 20
0.8994654901004318
 30
0.0
 11
0.2083499999999969
 21
0.0
 31
0.0
210
0.0
220
0.0
230
1.0
 40
0.906307787036649
 41
0.7063818427740909
 42
2.435210810815695
  0
ELLIPSE
  5
EB
330
B4
100
AcDbEntity
  8
AM_4
100
AcDbEllipse
 10
-1.917375
 20
1.144598169185423
 30
0.0
 11
0.20835
 21
0.0
 31
0.0
210
0.0
220
0.0
230
1.0
 40
0.9063077870366492
 41
1.570796326794897
 42
6.283185307179586
  0
ELLIPSE
  5
EC
330
B4
100
AcDbEntity
  8
AM_4
100
AcDbEllipse
 10
-1.917374999999999
 20
1.144598169185424
 30
0.0
 11
0.2083499999999991
 21
0.0
 31
0.0
210
0.0
220
0.0
230
1.0
 40
0.906307787036651
 41
0.0
 42
1.570796326794897
  0
LINE
  5
ED
330
B4
100
AcDbEntity
  8
AM_4
100
AcDbLine
 10
-1.520162456445993
 20
-2.619047619047619
 30
0.0
 11
-1.484375
 21
-2.619047619047619
 31
0.0
  0
LINE
  5
EE
330
B4
100
AcDbEntity
  8
AM_4
100
AcDbLine
 10
-1.484375
 20
2.619047619047619
 30
0.0
 11
-1.520162456445993
 21
2.619047619047619
 31
0.0
  0
LINE
  5
EF
330
B4
100
AcDbEntity
  8
AM_4
100
AcDbLine
 10
-1.520162456445993
 20
2.619047619047619
 30
0.0
 11
-1.584041666666667
 21
2.682926829268293
 31
0.0
  0
LINE
  5
F0
330
B4
100
AcDbEntity
  8
AM_4
100
AcDbLine
 10
-1.584041666666667
 20
-2.682926829268293
 30
0.0
 11
-1.520162456445993
 21
-2.619047619047619
 31
0.0
  0
LINE
  5
F1
330
B4
100
AcDbEntity
  8
AM_4
100
AcDbLine
 10
-1.520162456445993
 20
2.619047619047619
 30
0.0
 11
-1.520162456445993
 21
-2.619047619047619
 31
0.0
  0
LINE
  5
F2
330
B4
100
AcDbEntity
  8
AM_4
100
AcDbLine
 10
-1.667375
 20
-2.682926829268293
 30
0.0
 11
-1.584041666666667
 21
-2.682926829268293
 31
0.0
  0
LINE
  5
F3
330
B4
100
AcDbEntity
  8
AM_4
100
AcDbLine
 10
-1.584041666666667
 20
2.682926829268293
 30
0.0
 11
-1.667375
 21
2.682926829268293
 31
0.0
  0
LINE
  5
F4
330
B4
100
AcDbEntity
  8
AM_4
100
AcDbLine
 10
-1.584041666666667
 20
2.682926829268293
 30
0.0
 11
-1.584041666666667
 21
-2.682926829268293
 31
0.0
  0
LWPOLYLINE
  5
F5
330
B4
100
AcDbEntity
  8
AM_4
100
AcDbPolyline
 90
        7
 70
     0
 43
0.0
 10
-1.706099713177353
 20
1.276939649633282
 10
-1.696048660914218
 20
1.21669624427342
 10
-1.693132878404105
 20
1.186147369724189
 10
-1.691947560223108
 20
1.156381140400866
 10
-1.694384433751826
 20
1.10540408740976
 10
-1.702648649081679
 20
1.058019559575621
 10
-1.706099713177352
 20
1.044941912550958
  0
LINE
  5
F6
330
B4
100
AcDbEntity
  8
AM_4
100
AcDbLine
 10
-1.667375
 20
2.682926829268293
 30
0.0
 11
-1.691925484400176
 21
2.725449515599824
 31
0.0
  0
LINE
  5
F7
330
B4
100
AcDbEntity
  8
AM_4
100
AcDbLine
 10
-1.706099713177353
 20
-2.75
 30
0.0
 11
-1.667375
 21
-2.682926829268293
 31
0.0
  0
LINE
  5
F8
330
B4
100
AcDbEntity
  8
AM_4
100
AcDbLine
 10
-1.691925484400185
 20
2.72544951559984
 30
0.0
 11
-1.706099713177353
 21
2.747019914166474
 31
0.0
  0
LINE
  5
F9
330
B4
100
AcDbEntity
  8
AM_4
100
AcDbLine
 10
-1.667375
 20
2.682926829268293
 30
0.0
 11
-1.667375
 21
-2.682926829268293
 31
0.0
  0
LINE
  5
FA
330
B4
100
AcDbEntity
  8
AM_4
100
AcDbLine
 10
-2.359375
 20
2.602666666666666
 30
0.0
 11
-2.359375
 21
-2.602666666666666
 31
0.0
  0
ARC
  5
FB
330
B4
100
AcDbEntity
  8
AM_4
100
AcDbCircle
 10
-2.212041666666666
 20
-2.602666666666666
 30
0.0
 40
0.1473333333333344
100
AcDbArc
 50
179.9999991462263
 51
270.0
  0
ARC
  5
FC
330
B4
100
AcDbEntity
  8
AM_4
100
AcDbCircle
 10
-2.212041666666666
 20
2.602666666666666
 30
0.0
 40
0.1473333333333344
100
AcDbArc
 50
90.0
 51
179.9999991462263
  0
LWPOLYLINE
  5
FD
330
B4
100
AcDbEntity
  8
AM_4
100
AcDbPolyline
 90
       33
 70
     0
 43
0.0
 10
-1.706099713177352
 20
1.044941912550958
 10
-1.719786962661572
 20
1.027602907798391
 10
-1.744825114642783
 20
1.002868510794355
 10
-1.773505835287552
 20
0.981744895143946
 10
-1.809661086837825
 20
0.962737575028906
 10
-1.848624007059648
 20
0.9493979373121324
 10
-1.89077153093247
 20
0.9419864504039788
 10
-1.933644122406342
 20
0.9411590280280068
 10
-1.976810470264919
 20
0.9471886324942883
 10
-2.018290159390213
 20
0.9599006656108766
 10
-2.056714231748956
 20
0.9789778095160157
 10
-2.091077435605901
 20
1.003839867048518
 10
-2.119527489959865
 20
1.033052977212303
 10
-2.142073409992957
 20
1.066242797302369
 10
-2.157270173868934
 20
1.100886140421256
 10
-2.165716657773877
 20
1.137196827187692
 10
-2.167059794299849
 20
1.172610722742452
 10
-2.161817123040672
 20
1.207495869573692
 10
-2.150282338701842
 20
1.240406484271447
 10
-2.132911707642082
 20
1.271001328437533
 10
-2.109696797502619
 20
1.29901505700733
 10
-2.081706146375685
 20
1.323249432380169
 10
-2.048339721624977
 20
1.34386659659699
 10
-2.011620543701406
 20
1.35947491530948
 10
-1.970925508483123
 20
1.370023650098408
 10
-1.928792706938266
 20
1.374668131757098
 10
-1.885336115066253
 20
1.37314563612111
 10
-1.842778232035851
 20
1.365375485807047
 10
-1.802216599987947
 20
1.35136379081831
 10
-1.764988926317129
 20
1.331485579040766
 10
-1.732870961986845
 20
1.306589872688161
 10
-1.706158425195949
 20
1.277018449182871
 10
-1.706099713177353
 20
1.276939649633282
  0
LINE
  5
FE
330
B4
100
AcDbEntity
  8
AM_4
100
AcDbLine
 10
-1.706099713177353
 20
2.747019914166474
 30
0.0
 11
-1.706099713177353
 21
1.276939649633282
 31
0.0
  0
LWPOLYLINE
  5
FF
330
B4
100
AcDbEntity
  8
AM_4
100
AcDbPolyline
 90
       18
 70
     0
 43
0.0
 10
-1.706099713177353
 20
2.747019914166474
 10
-1.706521436767927
 20
2.746990184524879
 10
-1.730597364772762
 20
2.745390565207143
 10
-1.760048289478171
 20
2.743695366171365
 10
-1.793921539952653
 20
2.742102670193587
 10
-1.831934799806417
 20
2.740771616950282
 10
-1.872616278780395
 20
2.739883106677369
 10
-1.915650474108166
 20
2.739547410119858
 10
-1.958460975827345
 20
2.739830201299746
 10
-2.001320890889933
 20
2.740729169332462
 10
-2.040636135590433
 20
2.742094720107782
 10
-2.077479348550008
 20
2.743842930569446
 10
-2.107935782021025
 20
2.745629200645077
 10
-2.133639044386284
 20
2.747376061130656
 10
-2.151514304565435
 20
2.748719655896724
 10
-2.163133643827456
 20
2.749649510888446
 10
-2.167311325303501
 20
2.749994694441653
 10
-2.16737499999993
 20
2.749999999999994
  0
LINE
  5
100
330
B4
100
AcDbEntity
  8
AM_4
100
AcDbLine
 10
-1.706099713177352
 20
1.044941912550958
 30
0.0
 11
-1.706099713177353
 21
-2.75
 31
0.0
  0
LINE
  5
101
330
B4
100
AcDbEntity
  8
AM_4
100
AcDbLine
 10
-2.212041666666666
 20
-2.75
 30
0.0
 11
-1.706099713177353
 21
-2.75
 31
0.0
  0
LINE
  5
102
330
B4
100
AcDbEntity
  8
AM_4
100
AcDbLine
 10
-2.166967546471253
 20
2.75
 30
0.0
 11
-2.212041666666666
 21
2.75
 31
0.0
  0
LINE
  5
103
330
B4
100
AcDbEntity
  8
AM_4
100
AcDbLine
 10
-2.212041666666666
 20
2.75
 30
0.0
 11
-2.212041666666666
 21
-2.75
 31
0.0
  0
ENDBLK
  5
B7
330
B4
100
AcDbEntity
  8
0
100
AcDbBlockEnd
  0
BLOCK
  5
106
330
104
100
AcDbEntity
  8
0
100
AcDbBlockBegin
  2
4_070028i_0_in_070714_2
 70
     2
 10
0.0
 20
0.0
 30
0.0
  3
4_070028i_0_in_070714_2
  1

  0
ATTDEF
  5
108
330
104
100
AcDbEntity
  8
AM_6
100
AcDbText
 10
6.840625
 20
3.1496
 30
0.0
 40
0.5
  1
S-2000 Insert -Inch
100
AcDbAttributeDefinition
  3

  2
NN
 70
     8
280
     0
  0
ATTDEF
  5
109
330
104
100
AcDbEntity
  8
AM_6
100
AcDbText
 10
6.840625
 20
2.6496
 30
0.0
 40
0.5
  1
S-2000 Bearings
100
AcDbAttributeDefinition
  3

  2
NT
 70
     8
280
     0
  0
ATTDEF
  5
10A
330
104
100
AcDbEntity
  8
AM_6
100
AcDbText
 10
6.840625
 20
2.1496
 30
0.0
 40
0.5
  1
070028i
100
AcDbAttributeDefinition
  3

  2
NB
 70
     8
280
     0
  0
ATTDEF
  5
10B
330
104
100
AcDbEntity
  8
AM_6
100
AcDbText
 10
6.840625
 20
1.6496
 30
0.0
 40
0.5
  1
$PN.i
100
AcDbAttributeDefinition
  3

  2
NBSYN
 70
     8
280
     0
  0
ATTDEF
  5
10C
330
104
100
AcDbEntity
  8
AM_6
100
AcDbText
 10
6.840625
 20
1.1496
 30
0.0
 40
0.5
  1
070028i
100
AcDbAttributeDefinition
  3

  2
LINA
 70
     8
280
     0
  0
ATTDEF
  5
10D
330
104
100
AcDbEntity
  8
AM_6
100
AcDbText
 10
6.840625
 20
0.6495999999999995
 30
0.0
 40
0.5
  1
3-7/16
100
AcDbAttributeDefinition
  3

  2
SS
 70
     8
280
     0
  0
ATTDEF
  5
10E
330
104
100
AcDbEntity
  8
AM_6
100
AcDbText
 10
6.840625
 20
0.1495999999999995
 30
0.0
 40
0.5
  1
4.24
100
AcDbAttributeDefinition
  3

  2
CC
 70
     8
280
     0
  0
ATTDEF
  5
10F
330
104
100
AcDbEntity
  8
AM_6
100
AcDbText
 10
6.840625
 20
-0.3504000000000005
 30
0.0
 40
0.5
  1
3.437500
100
AcDbAttributeDefinition
  3

  2
SS1
 70
     8
280
     0
  0
ATTDEF
  5
110
330
104
100
AcDbEntity
  8
AM_6
100
AcDbText
 10
6.840625
 20
-0.8504000000000005
 30
0.0
 40
0.5
  1
070028
100
AcDbAttributeDefinition
  3

  2
PN
 70
     8
280
     0
  0
ATTDEF
  5
111
330
104
100
AcDbEntity
  8
AM_6
100
AcDbText
 10
6.840625
 20
-1.3504
 30
0.0
 40
0.5
  1
INS-S2-307L
100
AcDbAttributeDefinition
  3

  2
DESCRIPTION
 70
     8
280
     0
  0
ATTDEF
  5
112
330
104
100
AcDbEntity
  8
AM_6
100
AcDbText
 10
6.840625
 20
-1.8504
 30
0.0
 40
0.5
  1
Labyrinth Seal
100
AcDbAttributeDefinition
  3

  2
ST
 70
     8
280
     0
  0
ATTDEF
  5
113
330
104
100
AcDbEntity
  8
AM_6
100
AcDbText
 10
6.840625
 20
-2.3504
 30
0.0
 40
0.5
  1
2
100
AcDbAttributeDefinition
  3

  2
ST1
 70
     8
280
     0
  0
ATTDEF
  5
114
330
104
100
AcDbEntity
  8
AM_6
100
AcDbText
 10
6.840625
 20
-2.8504
 30
0.0
 40
0.5
  1
6.2992
100
AcDbAttributeDefinition
  3

  2
A
 70
     8
280
     0
  0
ATTDEF
  5
115
330
104
100
AcDbEntity
  8
AM_6
100
AcDbText
 10
6.840625
 20
-3.3504
 30
0.0
 40
0.5
  1
1-5/8
100
AcDbAttributeDefinition
  3

  2
B
 70
     8
280
     0
  0
ATTDEF
  5
116
330
104
100
AcDbEntity
  8
AM_6
100
AcDbText
 10
6.840625
 20
-3.8504
 30
0.0
 40
0.5
  1
4
100
AcDbAttributeDefinition
  3

  2
C
 70
     8
280
     0
  0
ATTDEF
  5
117
330
104
100
AcDbEntity
  8
AM_6
100
AcDbText
 10
6.840625
 20
-4.3504
 30
0.0
 40
0.5
  1
1.483
100
AcDbAttributeDefinition
  3

  2
D
 70
     8
280
     0
  0
ATTDEF
  5
118
330
104
100
AcDbEntity
  8
AM_6
100
AcDbText
 10
6.840625
 20
-4.8504
 30
0.0
 40
0.5
  1
5-1/2
100
AcDbAttributeDefinition
  3

  2
E
 70
     8
280
     0
  0
ATTDEF
  5
119
330
104
100
AcDbEntity
  8
AM_6
100
AcDbText
 10
6.840625
 20
-5.3504
 30
0.0
 40
0.5
  1
0.34375
100
AcDbAttributeDefinition
  3

  2
F
 70
     8
280
     0
  0
ATTDEF
  5
11A
330
104
100
AcDbEntity
  8
AM_6
100
AcDbText
 10
6.840625
 20
-5.8504
 30
0.0
 40
0.5
  1
2
100
AcDbAttributeDefinition
  3

  2
DD
 70
     8
280
     0
  0
ATTDEF
  5
11B
330
104
100
AcDbEntity
  8
AM_6
100
AcDbText
 10
6.840625
 20
-6.3504
 30
0.0
 40
0.5
  1
baldor
100
AcDbAttributeDefinition
  3

  2
COMPANY
 70
     8
280
     0
  0
LINE
  5
11C
330
104
100
AcDbEntity
  8
AM_9
100
AcDbLine
 10
-2.187375
 20
2.119887205068237
 30
0.0
 11
-2.187375
 21
1.71875
 31
0.0
  0
LINE
  5
11D
330
104
100
AcDbEntity
  8
AM_9
100
AcDbLine
 10
-1.647375
 20
1.71875
 30
0.0
 11
-1.647375
 21
2.119994481033454
 31
0.0
  0
LINE
  5
11E
330
104
100
AcDbEntity
  8
AM_9
100
AcDbLine
 10
-2.187375
 20
0.8959507148902829
 30
0.0
 11
-2.187375
 21
0.7263628634379331
 31
0.0
  0
LINE
  5
11F
330
104
100
AcDbEntity
  8
AM_9
100
AcDbLine
 10
-1.647375
 20
0.7263156090741771
 30
0.0
 11
-1.647375
 21
0.8959507148902829
 31
0.0
  0
LWPOLYLINE
  5
120
330
104
100
AcDbEntity
  8
AM_9
100
AcDbPolyline
 90
        5
 70
     0
 43
0.0
 10
-2.17030979030518
 20
0.8108932318376569
 10
-2.171344299786925
 20
0.8084042038318122
 10
-2.183104167803696
 20
0.7692985897530739
 10
-2.18736500591361
 20
0.7284799005569292
 10
-2.187374999637359
 20
0.7263878200106415
  0
LWPOLYLINE
  5
121
330
104
100
AcDbEntity
  8
AM_9
100
AcDbPolyline
 90
        8
 70
     0
 43
0.0
 10
-1.954599081034623
 20
0.9598954182362499
 10
-1.975760712335089
 20
0.9566941169705465
 10
-2.018635800169434
 20
0.9454511188436127
 10
-2.058692665753095
 20
0.9283469548437282
 10
-2.095073055755114
 20
0.9054828135743924
 10
-2.126500260238623
 20
0.8775618075952639
 10
-2.152245321104039
 20
0.8448395911931642
 10
-2.17030979030518
 20
0.8108932318376569
  0
LWPOLYLINE
  5
122
330
104
100
AcDbEntity
  8
AM_9
100
AcDbPolyline
 90
        8
 70
     0
 43
0.0
 10
-1.664018034951716
 20
0.809888015833677
 10
-1.673478624181008
 20
0.8296937129765707
 10
-1.696156046500949
 20
0.8636767111771961
 10
-1.724933322826185
 20
0.89359211336246
 10
-1.759494370227869
 20
0.9189326588461402
 10
-1.798534349383278
 20
0.9388373786676762
 10
-1.841063120505064
 20
0.9527836230215389
 10
-1.882008306802955
 20
0.9601070017720237
  0
LWPOLYLINE
  5
123
330
104
100
AcDbEntity
  8
AM_9
100
AcDbPolyline
 90
        4
 70
     0
 43
0.0
 10
-1.647375000932964
 20
0.7263547947639083
 10
-1.64901004481094
 20
0.7531561732517942
 10
-1.657677998529208
 20
0.7925678397556787
 10
-1.664018034951716
 20
0.809888015833677
  0
LWPOLYLINE
  5
124
330
104
100
AcDbEntity
  8
AM_9
100
AcDbPolyline
 90
       11
 70
     0
 43
0.0
 10
-2.187374999637359
 20
0.7263878200106415
 10
-2.183964314616156
 20
0.6875324203435885
 10
-2.173198895034544
 20
0.647209925725698
 10
-2.155306332668399
 20
0.6087489250081003
 10
-2.130887139798466
 20
0.5732283550908106
 10
-2.100193810320536
 20
0.5414650004320332
 10
-2.064370831584019
 20
0.5147828216631569
 10
-2.024093791316354
 20
0.4940258325750631
 10
-1.980743542386313
 20
0.4799881715661061
 10
-1.94928721461102
 20
0.4745026755434244
 10
-1.917375
 20
0.4726534675249085
  0
LWPOLYLINE
  5
125
330
104
100
AcDbEntity
  8
AM_9
100
AcDbPolyline
 90
        7
 70
     0
 43
0.0
 10
-1.728477474975363
 20
1.067077314698075
 10
-1.707035164087472
 20
1.046513394252286
 10
-1.681580749338024
 20
1.01338337986988
 10
-1.662790506013688
 20
0.9766451995084803
 10
-1.651331312213227
 20
0.9373262719416712
 10
-1.647375533557965
 20
0.8964371641452153
 10
-1.647375000025108
 20
0.8959540521073357
  0
LWPOLYLINE
  5
126
330
104
100
AcDbEntity
  8
AM_9
100
AcDbPolyline
 90
       11
 70
     0
 43
0.0
 10
-2.106832193068012
 20
1.066600405255607
 10
-2.074256860238628
 20
1.090253266955972
 10
-2.035122335731764
 20
1.110254682574585
 10
-1.992567600984267
 20
1.124221452913873
 10
-1.947859654766668
 20
1.13188653693128
 10
-1.902583129285627
 20
1.132990279782632
 10
-1.85772600277207
 20
1.127669084950707
 10
-1.814729077188939
 20
1.116019269941661
 10
-1.774601163107391
 20
1.098392999280692
 10
-1.738312595018887
 20
1.0749877530829
 10
-1.728477474975363
 20
1.067077314698075
  0
LWPOLYLINE
  5
127
330
104
100
AcDbEntity
  8
AM_9
100
AcDbPolyline
 90
        7
 70
     0
 43
0.0
 10
-2.187374998947692
 20
0.8959291103520814
 10
-2.185679267439844
 20
0.9232419234793589
 10
-2.176871683309979
 20
0.9628954837163608
 10
-2.160873960689548
 20
1.000318114378463
 10
-2.137976450434246
 20
1.034581188340918
 10
-2.108949295305774
 20
1.064770412110507
 10
-2.106832193068012
 20
1.066600405255607
  0
LWPOLYLINE
  5
128
330
104
100
AcDbEntity
  8
AM_9
100
AcDbPolyline
 90
       11
 70
     0
 43
0.0
 10
-1.647375000025108
 20
0.8959540521073357
 10
-1.651096604390507
 20
0.8554106603145312
 10
-1.662222562523247
 20
0.815144453949638
 10
-1.680521476811262
 20
0.7768511634655715
 10
-1.705379024015003
 20
0.7416199883106783
 10
-1.736416916526436
 20
0.7103619953335842
 10
-1.772543206321805
 20
0.6842418298831974
 10
-1.812968915196048
 20
0.6641112482016288
 10
-1.856379913387995
 20
0.6506513485957608
 10
-1.886676068865182
 20
0.6456391696406742
 10
-1.917375
 20
0.6439516627973393
  0
LWPOLYLINE
  5
129
330
104
100
AcDbEntity
  8
AM_9
100
AcDbPolyline
 90
       11
 70
     0
 43
0.0
 10
-1.917375
 20
0.4726534675249085
 10
-1.872364471823675
 20
0.4763585318873768
 10
-1.828630307521107
 20
0.4872289469943502
 10
-1.787451167993319
 20
0.504974377998617
 10
-1.749899914870443
 20
0.5288990692266473
 10
-1.716819296272952
 20
0.558549934533149
 10
-1.689359575255688
 20
0.5927484528817236
 10
-1.668279312243977
 20
0.6306943251777638
 10
-1.654262921678715
 20
0.6710037283790492
 10
-1.647859402172486
 20
0.7121223402383732
 10
-1.647375000932964
 20
0.7263547947639083
  0
LWPOLYLINE
  5
12A
330
104
100
AcDbEntity
  8
AM_9
100
AcDbPolyline
 90
       11
 70
     0
 43
0.0
 10
-1.917375
 20
1.697410251677538
 10
-1.873002653760553
 20
1.697990125887307
 10
-1.828630307521107
 20
1.699728561548336
 10
-1.787996247818061
 20
1.702333816857362
 10
-1.749899914870443
 20
1.705652211512989
 10
-1.717231741346013
 20
1.709169063166262
 10
-1.689359575255688
 20
1.712656590335998
 10
-1.668511627625451
 20
1.715556627048386
 10
-1.654262921678715
 20
1.717681439690883
 10
-1.647870622643141
 20
1.718672211887569
 10
-1.647375000000557
 20
1.718749999999912
  0
LINE
  5
12B
330
104
100
AcDbEntity
  8
AM_9
100
AcDbLine
 10
1.640625
 20
1.71875
 30
0.0
 11
-1.647375
 21
1.71875
 31
0.0
  0
LINE
  5
12C
330
104
100
AcDbEntity
  8
AM_9
100
AcDbLine
 10
-2.187375
 20
1.71875
 30
0.0
 11
-2.359375
 21
1.71875
 31
0.0
  0
LINE
  5
12D
330
104
100
AcDbEntity
  8
AM_9
100
AcDbLine
 10
-2.359375
 20
-1.71875
 30
0.0
 11
1.640625
 21
-1.71875
 31
0.0
  0
LINE
  5
12E
330
104
100
AcDbEntity
  8
AM_9
100
AcDbLine
 10
-2.172797982627193
 20
1.716520452122308
 30
0.0
 11
-2.187374999999801
 21
1.718749999999969
 31
0.0
  0
LINE
  5
12F
330
104
100
AcDbEntity
  8
AM_9
100
AcDbLine
 10
-1.901439615507041
 20
1.697485051179809
 30
0.0
 11
-1.925435744315632
 21
1.697429391196854
 31
0.0
  0
LWPOLYLINE
  5
130
330
104
100
AcDbEntity
  8
AM_9
100
AcDbPolyline
 90
       11
 70
     0
 43
0.0
 10
-2.187374999999801
 20
1.718749999999969
 10
-2.184092490989609
 20
1.718237405744559
 10
-2.173198895034543
 20
1.716580154775956
 10
-2.155626227543537
 20
1.714049360411188
 10
-2.130887139798466
 20
1.710786075563312
 10
-2.100684054547871
 20
1.707279640826082
 10
-2.064370831584019
 20
1.703763286669565
 10
-2.024716771338167
 20
1.700800934375924
 10
-1.980743542386313
 20
1.698592692396905
 10
-1.949516840214174
 20
1.69771454031364
 10
-1.917375
 20
1.697410251677538
  0
LWPOLYLINE
  5
131
330
104
100
AcDbEntity
  8
AM_9
100
AcDbPolyline
 90
       11
 70
     0
 43
0.0
 10
-1.917375
 20
0.6439516627973393
 10
-1.962493390831228
 20
0.6476249139438293
 10
-2.006335019928625
 20
0.6584103219105827
 10
-2.047621770506824
 20
0.6760384091664733
 10
-2.085259865365252
 20
0.6998362474154121
 10
-2.118307264453069
 20
0.7292862314649692
 10
-2.145711942289505
 20
0.7632879888944594
 10
-2.16667943801334
 20
0.8009870482314683
 10
-2.180591715408073
 20
0.841083711243266
 10
-2.186920046610922
 20
0.8821667555722522
 10
-2.187374998947692
 20
0.8959291103520814
  0
LWPOLYLINE
  5
132
330
104
100
AcDbEntity
  8
AM_9
100
AcDbPolyline
 90
       11
 70
     0
 43
0.0
 10
-1.917375
 20
2.102736312522329
 10
-1.961855009964312
 20
2.103206711497095
 10
-2.006335019928625
 20
2.104617277593649
 10
-2.047072313257162
 20
2.106732397117898
 10
-2.085259865365252
 20
2.109427725241779
 10
-2.117894208734502
 20
2.112275539097944
 10
-2.145711942289505
 20
2.11509757675955
 10
-2.166450117753342
 20
2.117436755675088
 10
-2.180591715408073
 20
2.119146771526271
 10
-2.186909958110078
 20
2.119940823146581
 10
-2.187374999999727
 20
2.119999999999965
  0
LINE
  5
133
330
104
100
AcDbEntity
  8
AM_9
100
AcDbLine
 10
-1.131625
 20
2.12
 30
0.0
 11
-1.647418895991558
 21
2.12
 31
0.0
  0
LINE
  5
134
330
104
100
AcDbEntity
  8
AM_9
100
AcDbLine
 10
-2.186486669167515
 20
2.12
 30
0.0
 11
-2.359375
 21
2.12
 31
0.0
  0
LINE
  5
135
330
104
100
AcDbEntity
  8
AM_9
100
AcDbLine
 10
-2.359375
 20
-2.12
 30
0.0
 11
-1.131625
 21
-2.12
 31
0.0
  0
LINE
  5
136
330
104
100
AcDbEntity
  8
AM_9
100
AcDbLine
 10
-1.662334919541456
 20
2.118146699980977
 30
0.0
 11
-1.647375000000006
 21
2.119999999999999
 31
0.0
  0
LINE
  5
137
330
104
100
AcDbEntity
  8
AM_9
100
AcDbLine
 10
-1.932745258871108
 20
2.102792487350512
 30
0.0
 11
-1.908238552345543
 21
2.102756161487999
 31
0.0
  0
LWPOLYLINE
  5
138
330
104
100
AcDbEntity
  8
AM_9
100
AcDbPolyline
 90
       11
 70
     0
 43
0.0
 10
-1.647375000000006
 20
2.119999999999999
 10
-1.650963667800407
 20
2.119545941451697
 10
-1.662222562523247
 20
2.11816023150996
 10
-1.680193089184131
 20
2.116070712149825
 10
-1.705379024015003
 20
2.113395915069827
 10
-1.735919781667061
 20
2.110551111975319
 10
-1.772543206321805
 20
2.107718256423293
 10
-1.81234806724373
 20
2.105357607772179
 10
-1.856379913387995
 20
2.103620783456658
 10
-1.886473333021195
 20
2.10296336464097
 10
-1.917375
 20
2.102736312522329
  0
LINE
  5
139
330
104
100
AcDbEntity
  8
AM_9
100
AcDbLine
 10
1.515625000000001
 20
2.120000000000001
 30
0.0
 11
1.446875
 21
2.120000000000001
 31
0.0
  0
LINE
  5
13A
330
104
100
AcDbEntity
  8
AM_9
100
AcDbLine
 10
1.446875
 20
-2.120000000000001
 30
0.0
 11
1.515625000000001
 21
-2.120000000000001
 31
0.0
  0
LINE
  5
13B
330
104
100
AcDbEntity
  8
AM_9
100
AcDbLine
 10
1.446875
 20
-2.357180000000001
 30
0.0
 11
1.446875
 21
2.357180000000001
 31
0.0
  0
ARC
  5
13C
330
104
100
AcDbEntity
  8
AM_9
100
AcDbCircle
 10
1.284375
 20
2.35718
 30
0.0
 40
0.1625000000000003
100
AcDbArc
 50
0.0
 51
90.0
  0
ARC
  5
13D
330
104
100
AcDbEntity
  8
AM_9
100
AcDbCircle
 10
1.284374999999999
 20
-2.357179999999999
 30
0.0
 40
0.1625000000000014
100
AcDbArc
 50
270.0
 51
0.0000008537736463
  0
LINE
  5
13E
330
104
100
AcDbEntity
  8
AM_9
100
AcDbLine
 10
1.284375
 20
-2.51968
 30
0.0
 11
1.284375
 21
2.51968
 31
0.0
  0
LINE
  5
13F
330
104
100
AcDbEntity
  8
AM_9
100
AcDbLine
 10
1.284375
 20
2.51968
 30
0.0
 11
0.9701250000000001
 21
2.51968
 31
0.0
  0
LINE
  5
140
330
104
100
AcDbEntity
  8
AM_9
100
AcDbLine
 10
0.9701250000000001
 20
-2.51968
 30
0.0
 11
1.284375
 21
-2.51968
 31
0.0
  0
LINE
  5
141
330
104
100
AcDbEntity
  8
AM_9
100
AcDbLine
 10
-1.131625
 20
-2.35718
 30
0.0
 11
-1.131625
 21
2.35718
 31
0.0
  0
ARC
  5
142
330
104
100
AcDbEntity
  8
AM_9
100
AcDbCircle
 10
-0.9691250000000015
 20
2.357180000000002
 30
0.0
 40
0.1624999999999979
100
AcDbArc
 50
90.0
 51
180.0
  0
ARC
  5
143
330
104
100
AcDbEntity
  8
AM_9
100
AcDbCircle
 10
-0.9691250000000012
 20
-2.357180000000001
 30
0.0
 40
0.1624999999999986
100
AcDbArc
 50
180.0
 51
270.0
  0
LINE
  5
144
330
104
100
AcDbEntity
  8
AM_9
100
AcDbLine
 10
-0.9691250000000002
 20
-2.51968
 30
0.0
 11
-0.9691250000000002
 21
2.51968
 31
0.0
  0
LINE
  5
145
330
104
100
AcDbEntity
  8
AM_9
100
AcDbLine
 10
-0.6548750000000002
 20
2.51968
 30
0.0
 11
-0.9691250000000002
 21
2.51968
 31
0.0
  0
LINE
  5
146
330
104
100
AcDbEntity
  8
AM_9
100
AcDbLine
 10
-0.9691250000000002
 20
-2.51968
 30
0.0
 11
-0.6548750000000002
 21
-2.51968
 31
0.0
  0
LINE
  5
147
330
104
100
AcDbEntity
  8
AM_9
100
AcDbLine
 10
0.2388750000000099
 20
3.023616
 30
0.0
 11
0.0763749999999899
 21
3.023616
 31
0.0
  0
LINE
  5
148
330
104
100
AcDbEntity
  8
AM_9
100
AcDbLine
 10
0.0763749999999899
 20
-3.023616
 30
0.0
 11
0.2388750000000099
 21
-3.023616
 31
0.0
  0
LINE
  5
149
330
104
100
AcDbEntity
  8
AM_9
100
AcDbLine
 10
-0.6548750000000002
 20
-2.9871
 30
0.0
 11
-0.6548750000000002
 21
2.9871
 31
0.0
  0
ARC
  5
14A
330
104
100
AcDbEntity
  8
AM_9
100
AcDbCircle
 10
-0.4923749999999989
 20
2.987099999999998
 30
0.0
 40
0.1625000000000014
100
AcDbArc
 50
90.0
 51
180.0
  0
ARC
  5
14B
330
104
100
AcDbEntity
  8
AM_9
100
AcDbCircle
 10
-0.4923749999999989
 20
-2.987099999999998
 30
0.0
 40
0.1625000000000013
100
AcDbArc
 50
180.0
 51
270.0
  0
LINE
  5
14C
330
104
100
AcDbEntity
  8
AM_9
100
AcDbLine
 10
0.2388750000000099
 20
-3.023616
 30
0.0
 11
0.2388750000000099
 21
3.023616
 31
0.0
  0
LINE
  5
14D
330
104
100
AcDbEntity
  8
AM_9
100
AcDbLine
 10
0.2388750000000099
 20
-3.023616
 30
0.0
 11
0.3116118963135958
 21
-3.1496
 31
0.0
  0
LINE
  5
14E
330
104
100
AcDbEntity
  8
AM_9
100
AcDbLine
 10
0.3116118963135958
 20
3.1496
 30
0.0
 11
0.2388750000000099
 21
3.023616
 31
0.0
  0
LINE
  5
14F
330
104
100
AcDbEntity
  8
AM_9
100
AcDbLine
 10
0.9701250000000001
 20
-2.9871
 30
0.0
 11
0.9701250000000001
 21
2.9871
 31
0.0
  0
ARC
  5
150
330
104
100
AcDbEntity
  8
AM_9
100
AcDbCircle
 10
0.8076250000000008
 20
2.9871
 30
0.0
 40
0.1624999999999993
100
AcDbArc
 50
0.0
 51
90.0
  0
ARC
  5
151
330
104
100
AcDbEntity
  8
AM_9
100
AcDbCircle
 10
0.8076250000000008
 20
-2.9871
 30
0.0
 40
0.1624999999999996
100
AcDbArc
 50
270.0
 51
0.0
  0
LINE
  5
152
330
104
100
AcDbEntity
  8
AM_9
100
AcDbLine
 10
0.0763749999999899
 20
-3.023616
 30
0.0
 11
0.0763749999999899
 21
3.023616
 31
0.0
  0
LINE
  5
153
330
104
100
AcDbEntity
  8
AM_9
100
AcDbLine
 10
0.0763749999999899
 20
3.023616
 30
0.0
 11
0.0036381036864041
 21
3.1496
 31
0.0
  0
LINE
  5
154
330
104
100
AcDbEntity
  8
AM_9
100
AcDbLine
 10
0.0036381036864041
 20
-3.1496
 30
0.0
 11
0.0763749999999899
 21
-3.023616
 31
0.0
  0
LINE
  5
155
330
104
100
AcDbEntity
  8
AM_9
100
AcDbLine
 10
0.8076249999999998
 20
-3.1496
 30
0.0
 11
0.8076249999999998
 21
3.1496
 31
0.0
  0
LINE
  5
156
330
104
100
AcDbEntity
  8
AM_9
100
AcDbLine
 10
0.3116118963135958
 20
-3.1496
 30
0.0
 11
0.3116118963135958
 21
3.1496
 31
0.0
  0
LINE
  5
157
330
104
100
AcDbEntity
  8
AM_9
100
AcDbLine
 10
0.8076249999999998
 20
3.1496
 30
0.0
 11
0.3116118963135958
 21
3.1496
 31
0.0
  0
LINE
  5
158
330
104
100
AcDbEntity
  8
AM_9
100
AcDbLine
 10
0.3116118963135958
 20
-3.1496
 30
0.0
 11
0.8076249999999998
 21
-3.1496
 31
0.0
  0
LINE
  5
159
330
104
100
AcDbEntity
  8
AM_9
100
AcDbLine
 10
0.0036381036864041
 20
-3.1496
 30
0.0
 11
0.0036381036864041
 21
3.1496
 31
0.0
  0
LINE
  5
15A
330
104
100
AcDbEntity
  8
AM_9
100
AcDbLine
 10
-0.492375
 20
-3.1496
 30
0.0
 11
-0.492375
 21
3.1496
 31
0.0
  0
LINE
  5
15B
330
104
100
AcDbEntity
  8
AM_9
100
AcDbLine
 10
0.0036381036864041
 20
3.1496
 30
0.0
 11
-0.492375
 21
3.1496
 31
0.0
  0
LINE
  5
15C
330
104
100
AcDbEntity
  8
AM_9
100
AcDbLine
 10
-0.492375
 20
-3.1496
 30
0.0
 11
0.0036381036864041
 21
-3.1496
 31
0.0
  0
LINE
  5
15F
330
104
100
AcDbEntity
  8
AM_7
100
AcDbLine
 10
1.840625
 20
0.0
 30
0.0
 11
-2.559375
 21
0.0
 31
0.0
  0
LINE
  5
160
330
104
100
AcDbEntity
  8
AM_7
100
AcDbLine
 10
-1.917375
 20
-0.1087179487179487
 30
0.0
 11
-1.917375
 21
2.783166666666667
 31
0.0
  0
LINE
  5
161
330
104
100
AcDbEntity
  8
AM_4
100
AcDbLine
 10
1.640625
 20
-2.120000000000001
 30
0.0
 11
1.640625
 21
2.120000000000001
 31
0.0
  0
LINE
  5
162
330
104
100
AcDbEntity
  8
AM_4
100
AcDbLine
 10
1.640625
 20
2.120000000000001
 30
0.0
 11
1.515625000000001
 21
2.120000000000001
 31
0.0
  0
LINE
  5
163
330
104
100
AcDbEntity
  8
AM_4
100
AcDbLine
 10
1.515625000000001
 20
-2.120000000000001
 30
0.0
 11
1.640625
 21
-2.120000000000001
 31
0.0
  0
ENDBLK
  5
107
330
104
100
AcDbEntity
  8
0
100
AcDbBlockEnd
  0
BLOCK
  5
166
330
164
100
AcDbEntity
  8
0
100
AcDbBlockBegin
  2
5_405015E_Inch_0_in_070714_2
 70
     2
 10
0.0
 20
0.0
 30
0.0
  3
5_405015E_Inch_0_in_070714_2
  1

  0
ATTDEF
  5
168
330
164
100
AcDbEntity
  8
AM_6
100
AcDbText
 10
4.034640952983763
 20
4.572671671481428
 30
0.0
 40
0.5
  1
405015E -Inch
100
AcDbAttributeDefinition
  3

  2
NN
 70
     8
280
     0
  0
ATTDEF
  5
169
330
164
100
AcDbEntity
  8
AM_6
100
AcDbText
 10
4.034640952983763
 20
4.072671671481428
 30
0.0
 40
0.5
  1
Grease Fitting
100
AcDbAttributeDefinition
  3

  2
NT
 70
     8
280
     0
  0
ATTDEF
  5
16A
330
164
100
AcDbEntity
  8
AM_6
100
AcDbText
 10
4.034640952983763
 20
3.572671671481428
 30
0.0
 40
0.5
  1
405015E-Inch
100
AcDbAttributeDefinition
  3

  2
NB
 70
     8
280
     0
  0
ATTDEF
  5
16B
330
164
100
AcDbEntity
  8
AM_6
100
AcDbText
 10
4.034640952983763
 20
3.072671671481428
 30
0.0
 40
0.5
  1
$MN.-Inch
100
AcDbAttributeDefinition
  3

  2
NBSYN
 70
     8
280
     0
  0
ATTDEF
  5
16C
330
164
100
AcDbEntity
  8
AM_6
100
AcDbText
 10
4.034640952983763
 20
2.572671671481428
 30
0.0
 40
0.5
  1
405015E
100
AcDbAttributeDefinition
  3

  2
LINA
 70
     8
280
     0
  0
ATTDEF
  5
16D
330
164
100
AcDbEntity
  8
AM_6
100
AcDbText
 10
4.034640952983763
 20
2.072671671481428
 30
0.0
 40
0.5
  1
405015E
100
AcDbAttributeDefinition
  3

  2
MN
 70
     8
280
     0
  0
ATTDEF
  5
16E
330
164
100
AcDbEntity
  8
AM_6
100
AcDbText
 10
4.034640952983763
 20
1.572671671481428
 30
0.0
 40
0.5
  1
1/8 x 27PTF
100
AcDbAttributeDefinition
  3

  2
T
 70
     8
280
     0
  0
ATTDEF
  5
16F
330
164
100
AcDbEntity
  8
AM_6
100
AcDbText
 10
4.034640952983763
 20
1.072671671481428
 30
0.0
 40
0.5
  1
baldor
100
AcDbAttributeDefinition
  3

  2
COMPANY
 70
     8
280
     0
  0
LINE
  5
170
330
164
100
AcDbEntity
  8
AM_9
100
AcDbLine
 10
-1.127261919488506
 20
4.023537999493343
 30
0.0
 11
-0.9653590470162371
 21
4.303962000506658
 31
0.0
  0
LINE
  5
171
330
164
100
AcDbEntity
  8
AM_9
100
AcDbLine
 10
-0.9653590470162371
 20
4.303962000506658
 30
0.0
 11
-0.9787975797870156
 21
4.354115287586382
 31
0.0
  0
LINE
  5
172
330
164
100
AcDbEntity
  8
AM_9
100
AcDbLine
 10
-1.177415206568231
 20
4.010099466722565
 30
0.0
 11
-1.127261919488506
 21
4.023537999493343
 31
0.0
  0
LINE
  5
173
330
164
100
AcDbEntity
  8
AM_9
100
AcDbLine
 10
-1.177415206568231
 20
4.010099466722565
 30
0.0
 11
-0.9787975797870156
 21
4.354115287586382
 31
0.0
  0
LINE
  5
174
330
164
100
AcDbEntity
  8
AM_9
100
AcDbLine
 10
-0.9787975797870156
 20
4.354115287586382
 30
0.0
 11
-1.147419277955742
 21
4.458624430481712
 31
0.0
  0
LINE
  5
175
330
164
100
AcDbEntity
  8
AM_9
100
AcDbLine
 10
-1.352233628327687
 20
4.103875569518289
 30
0.0
 11
-1.177415206568231
 21
4.010099466722565
 31
0.0
  0
LINE
  5
176
330
164
100
AcDbEntity
  8
AM_5
100
AcDbLine
 10
-1.303477619125339
 20
4.118063630127978
 30
0.0
 11
-1.127261919488506
 21
4.023537999493343
 31
0.0
  0
LINE
  5
177
330
164
100
AcDbEntity
  8
AM_5
100
AcDbLine
 10
-1.344042147715405
 20
4.118063630127978
 30
0.0
 11
-1.303477619125339
 21
4.118063630127978
 31
0.0
  0
LINE
  5
178
330
164
100
AcDbEntity
  8
AM_5
100
AcDbLine
 10
-1.117544813823387
 20
4.440108695704771
 30
0.0
 11
-1.321261299574944
 21
4.087261392043692
 31
0.0
  0
LINE
  5
179
330
164
100
AcDbEntity
  8
AM_5
100
AcDbLine
 10
-1.135328494272991
 20
4.409306457620486
 30
0.0
 11
-0.9653590470162372
 21
4.303962000506658
 31
0.0
  0
LINE
  5
17A
330
164
100
AcDbEntity
  8
AM_5
100
AcDbLine
 10
-1.155610758568024
 20
4.444436369872023
 30
0.0
 11
-1.135328494272992
 21
4.409306457620486
 31
0.0
  0
LINE
  5
17B
330
164
100
AcDbEntity
  8
AM_7
100
AcDbLine
 10
-1.628279554595514
 20
4.499750000000001
 30
0.0
 11
-1.01859767033127
 21
4.14775
 31
0.0
  0
LINE
  5
17C
330
164
100
AcDbEntity
  8
AM_4
100
AcDbLine
 10
-1.400842423031058
 20
4.489682667397367
 30
0.0
 11
-1.426823185144591
 21
4.504682667397367
 31
0.0
  0
LINE
  5
17D
330
164
100
AcDbEntity
  8
AM_4
100
AcDbLine
 10
-1.531823185144591
 20
4.322817332602635
 30
0.0
 11
-1.505842423031058
 21
4.307817332602634
 31
0.0
  0
LINE
  5
17E
330
164
100
AcDbEntity
  8
AM_4
100
AcDbLine
 10
-1.505842423031058
 20
4.307817332602634
 30
0.0
 11
-1.400842423031058
 21
4.489682667397367
 31
0.0
  0
LINE
  5
17F
330
164
100
AcDbEntity
  8
AM_4
100
AcDbLine
 10
-1.505842423031058
 20
4.307817332602634
 30
0.0
 11
-1.484825852527443
 21
4.279725343752893
 31
0.0
  0
LINE
  5
180
330
164
100
AcDbEntity
  8
AM_4
100
AcDbLine
 10
-1.366005761792546
 20
4.48552777786568
 30
0.0
 11
-1.400842423031058
 21
4.489682667397367
 31
0.0
  0
LINE
  5
181
330
164
100
AcDbEntity
  8
AM_4
100
AcDbLine
 10
-1.531823185144591
 20
4.322817332602635
 30
0.0
 11
-1.426823185144591
 21
4.504682667397367
 31
0.0
  0
LINE
  5
182
330
164
100
AcDbEntity
  8
AM_4
100
AcDbLine
 10
-1.426823185144591
 20
4.504682667397367
 30
0.0
 11
-1.463784709371657
 21
4.5606634295109
 31
0.0
  0
LINE
  5
183
330
164
100
AcDbEntity
  8
AM_4
100
AcDbLine
 10
-1.598784709371657
 20
4.326836570489101
 30
0.0
 11
-1.531823185144591
 21
4.322817332602635
 31
0.0
  0
LINE
  5
184
330
164
100
AcDbEntity
  8
AM_4
100
AcDbLine
 10
-1.651905692641006
 20
4.394828328518573
 30
0.0
 11
-1.549227790707819
 21
4.572671671481428
 31
0.0
  0
LINE
  5
185
330
164
100
AcDbEntity
  8
AM_4
100
AcDbLine
 10
-1.598784709371657
 20
4.326836570489101
 30
0.0
 11
-1.463784709371657
 21
4.5606634295109
 31
0.0
  0
LINE
  5
186
330
164
100
AcDbEntity
  8
AM_4
100
AcDbLine
 10
-1.651905692641006
 20
4.394828328518573
 30
0.0
 11
-1.598784709371657
 21
4.326836570489101
 31
0.0
  0
LINE
  5
187
330
164
100
AcDbEntity
  8
AM_4
100
AcDbLine
 10
-1.463784709371657
 20
4.5606634295109
 30
0.0
 11
-1.549227790707819
 21
4.572671671481428
 31
0.0
  0
LINE
  5
188
330
164
100
AcDbEntity
  8
AM_4
100
AcDbLine
 10
-1.484825852527443
 20
4.279725343752893
 30
0.0
 11
-1.366005761792546
 21
4.48552777786568
 31
0.0
  0
LINE
  5
189
330
164
100
AcDbEntity
  8
AM_4
100
AcDbLine
 10
-1.484825852527443
 20
4.279725343752893
 30
0.0
 11
-1.46454080756317
 21
4.205990226109452
 31
0.0
  0
LINE
  5
18A
330
164
100
AcDbEntity
  8
AM_4
100
AcDbLine
 10
-1.292006754280155
 20
4.504827972431431
 30
0.0
 11
-1.366005761792546
 21
4.48552777786568
 31
0.0
  0
LINE
  5
18B
330
164
100
AcDbEntity
  8
AM_4
100
AcDbLine
 10
-1.166432215255248
 20
4.485693057077847
 30
0.0
 11
-1.253034755633692
 21
4.535693057077847
 31
0.0
  0
LINE
  5
18C
330
164
100
AcDbEntity
  8
AM_4
100
AcDbLine
 10
-1.471784755633692
 20
4.156806942922154
 30
0.0
 11
-1.253034755633692
 21
4.535693057077847
 31
0.0
  0
LINE
  5
18D
330
164
100
AcDbEntity
  8
AM_4
100
AcDbLine
 10
-1.385182215255248
 20
4.106806942922154
 30
0.0
 11
-1.166432215255248
 21
4.485693057077847
 31
0.0
  0
LINE
  5
18E
330
164
100
AcDbEntity
  8
AM_4
100
AcDbLine
 10
-1.471784755633692
 20
4.156806942922154
 30
0.0
 11
-1.385182215255248
 21
4.106806942922154
 31
0.0
  0
LINE
  5
18F
330
164
100
AcDbEntity
  8
AM_4
100
AcDbLine
 10
-1.147419277955742
 20
4.458624430481712
 30
0.0
 11
-1.172931266643713
 21
4.474436369872024
 31
0.0
  0
LINE
  5
190
330
164
100
AcDbEntity
  8
AM_4
100
AcDbLine
 10
-1.378683163866783
 20
4.118063630127978
 30
0.0
 11
-1.352233628327687
 21
4.103875569518289
 31
0.0
  0
LINE
  5
191
330
164
100
AcDbEntity
  8
AM_4
100
AcDbLine
 10
-1.46454080756317
 20
4.205990226109452
 30
0.0
 11
-1.292006754280155
 21
4.504827972431431
 31
0.0
  0
LINE
  5
192
330
164
100
AcDbEntity
  8
AM_4
100
AcDbLine
 10
-1.46454080756317
 20
4.205990226109452
 30
0.0
 11
-1.469284755633692
 21
4.161137069941077
 31
0.0
  0
LINE
  5
193
330
164
100
AcDbEntity
  8
AM_4
100
AcDbLine
 10
-1.255534755633692
 20
4.531362930058924
 30
0.0
 11
-1.292006754280155
 21
4.504827972431431
 31
0.0
  0
LWPOLYLINE
  5
194
330
164
100
AcDbEntity
  8
AM_4
100
AcDbPolyline
 90
        3
 70
     0
 43
0.0
 10
-1.307722255633692
 20
4.440971528538923
 10
-1.278305777072922
 20
4.487135602415868
 10
-1.245181983945076
 20
4.531159257229539
  0
LWPOLYLINE
  5
195
330
164
100
AcDbEntity
  8
AM_4
100
AcDbPolyline
 90
        3
 70
     0
 43
0.0
 10
-1.354556983945076
 20
4.341716200151693
 10
-1.333097910552175
 20
4.392190555045536
 10
-1.307722255633692
 20
4.440971528538923
  0
LWPOLYLINE
  5
196
330
164
100
AcDbEntity
  8
AM_4
100
AcDbPolyline
 90
        3
 70
     0
 43
0.0
 10
-1.174284986943864
 20
4.490226856926154
 10
-1.195744060336765
 20
4.43975250203231
 10
-1.221119715255248
 20
4.390971528538923
  0
LINE
  5
197
330
164
100
AcDbEntity
  8
AM_4
100
AcDbLine
 10
-1.354556983945076
 20
4.341716200151693
 30
0.0
 11
-1.283659986943864
 21
4.300783799848308
 31
0.0
  0
LWPOLYLINE
  5
198
330
164
100
AcDbEntity
  8
AM_4
100
AcDbPolyline
 90
        3
 70
     0
 43
0.0
 10
-1.417097255633692
 20
4.251528471461078
 10
-1.387680777072922
 20
4.297692545338021
 10
-1.354556983945076
 20
4.341716200151693
  0
LWPOLYLINE
  5
199
330
164
100
AcDbEntity
  8
AM_4
100
AcDbPolyline
 90
        3
 70
     0
 43
0.0
 10
-1.463931983945076
 20
4.152273143073847
 10
-1.442472910552175
 20
4.20274749796769
 10
-1.417097255633692
 20
4.251528471461078
  0
LWPOLYLINE
  5
19A
330
164
100
AcDbEntity
  8
AM_4
100
AcDbPolyline
 90
        3
 70
     0
 43
0.0
 10
-1.330494715255248
 20
4.201528471461077
 10
-1.359911193816017
 20
4.155364397584133
 10
-1.393034986943864
 20
4.111340742770461
  0
LWPOLYLINE
  5
19B
330
164
100
AcDbEntity
  8
AM_4
100
AcDbPolyline
 90
        3
 70
     0
 43
0.0
 10
-1.221119715255248
 20
4.390971528538923
 10
-1.250536193816017
 20
4.344807454661979
 10
-1.283659986943864
 20
4.300783799848308
  0
LWPOLYLINE
  5
19C
330
164
100
AcDbEntity
  8
AM_4
100
AcDbPolyline
 90
        3
 70
     0
 43
0.0
 10
-1.283659986943864
 20
4.300783799848308
 10
-1.305119060336765
 20
4.250309444954465
 10
-1.330494715255248
 20
4.201528471461077
  0
ENDBLK
  5
167
330
164
100
AcDbEntity
  8
0
100
AcDbBlockEnd
  0
BLOCK
  5
19F
330
19D
100
AcDbEntity
  8
0
100
AcDbBlockBegin
  2
6_070714H_0_in_070714_2
 70
     2
 10
0.0
 20
0.0
 30
0.0
  3
6_070714H_0_in_070714_2
  1

  0
ATTDEF
  5
1A1
330
19D
100
AcDbEntity
  8
AM_6
100
AcDbText
 10
6.515625
 20
5.125000000000001
 30
0.0
 40
0.5
  1
FC-S2 -(Labyrinth Seal)-Housing
100
AcDbAttributeDefinition
  3

  2
NN
 70
     8
280
     0
  0
ATTDEF
  5
1A2
330
19D
100
AcDbEntity
  8
AM_6
100
AcDbText
 10
6.515625
 20
4.625000000000001
 30
0.0
 40
0.5
  1
S-2000 Piloted Flange Bearing -Inch
100
AcDbAttributeDefinition
  3

  2
NT
 70
     8
280
     0
  0
ATTDEF
  5
1A3
330
19D
100
AcDbEntity
  8
AM_6
100
AcDbText
 10
6.515625
 20
4.125000000000001
 30
0.0
 40
0.5
  1
070714H
100
AcDbAttributeDefinition
  3

  2
NB
 70
     8
280
     0
  0
ATTDEF
  5
1A4
330
19D
100
AcDbEntity
  8
AM_6
100
AcDbText
 10
6.515625
 20
3.625000000000001
 30
0.0
 40
0.5
  1
$PN.H
100
AcDbAttributeDefinition
  3

  2
NBSYN
 70
     8
280
     0
  0
ATTDEF
  5
1A5
330
19D
100
AcDbEntity
  8
AM_6
100
AcDbText
 10
6.515625
 20
3.125000000000001
 30
0.0
 40
0.5
  1
070714
100
AcDbAttributeDefinition
  3

  2
LINA
 70
     8
280
     0
  0
ATTDEF
  5
1A6
330
19D
100
AcDbEntity
  8
AM_6
100
AcDbText
 10
6.515625
 20
2.625000000000001
 30
0.0
 40
0.5
  1
3-7/16
100
AcDbAttributeDefinition
  3

  2
SS
 70
     8
280
     0
  0
ATTDEF
  5
1A7
330
19D
100
AcDbEntity
  8
AM_6
100
AcDbText
 10
6.515625
 20
2.125000000000001
 30
0.0
 40
0.5
  1
070714
100
AcDbAttributeDefinition
  3

  2
PN
 70
     8
280
     0
  0
ATTDEF
  5
1A8
330
19D
100
AcDbEntity
  8
AM_6
100
AcDbText
 10
6.515625
 20
1.625000000000001
 30
0.0
 40
0.5
  1
FC-S2-307L
100
AcDbAttributeDefinition
  3

  2
DESCRIPTION
 70
     8
280
     0
  0
ATTDEF
  5
1A9
330
19D
100
AcDbEntity
  8
AM_6
100
AcDbText
 10
6.515625
 20
1.125000000000001
 30
0.0
 40
0.5
  1
Non-Expansion Type
100
AcDbAttributeDefinition
  3

  2
EF
 70
     8
280
     0
  0
ATTDEF
  5
1AA
330
19D
100
AcDbEntity
  8
AM_6
100
AcDbText
 10
6.515625
 20
0.6250000000000009
 30
0.0
 40
0.5
  1
4
100
AcDbAttributeDefinition
  3

  2
A
 70
     8
280
     0
  0
ATTDEF
  5
1AB
330
19D
100
AcDbEntity
  8
AM_6
100
AcDbText
 10
6.515625
 20
0.1250000000000009
 30
0.0
 40
0.5
  1
10-1/4
100
AcDbAttributeDefinition
  3

  2
B
 70
     8
280
     0
  0
ATTDEF
  5
1AC
330
19D
100
AcDbEntity
  8
AM_6
100
AcDbText
 10
6.515625
 20
-0.3749999999999991
 30
0.0
 40
0.5
  1
3
100
AcDbAttributeDefinition
  3

  2
C
 70
     8
280
     0
  0
ATTDEF
  5
1AD
330
19D
100
AcDbEntity
  8
AM_6
100
AcDbText
 10
6.515625
 20
-0.8749999999999991
 30
0.0
 40
0.5
  1
8-5/8
100
AcDbAttributeDefinition
  3

  2
DD
 70
     8
280
     0
  0
ATTDEF
  5
1AE
330
19D
100
AcDbEntity
  8
AM_6
100
AcDbText
 10
6.515625
 20
-1.374999999999999
 30
0.0
 40
0.5
  1
1-17/64
100
AcDbAttributeDefinition
  3

  2
E
 70
     8
280
     0
  0
ATTDEF
  5
1AF
330
19D
100
AcDbEntity
  8
AM_6
100
AcDbText
 10
6.515625
 20
-1.874999999999999
 30
0.0
 40
0.5
  1
3/4
100
AcDbAttributeDefinition
  3

  2
F
 70
     8
280
     0
  0
ATTDEF
  5
1B0
330
19D
100
AcDbEntity
  8
AM_6
100
AcDbText
 10
6.515625
 20
-2.374999999999999
 30
0.0
 40
0.5
  1
2-23/64
100
AcDbAttributeDefinition
  3

  2
G
 70
     8
280
     0
  0
ATTDEF
  5
1B1
330
19D
100
AcDbEntity
  8
AM_6
100
AcDbText
 10
6.515625
 20
-2.874999999999999
 30
0.0
 40
0.5
  1
15/16
100
AcDbAttributeDefinition
  3

  2
H
 70
     8
280
     0
  0
ATTDEF
  5
1B2
330
19D
100
AcDbEntity
  8
AM_6
100
AcDbText
 10
6.515625
 20
-3.374999999999999
 30
0.0
 40
0.5
  1
7.375
100
AcDbAttributeDefinition
  3

  2
K
 70
     8
280
     0
  0
ATTDEF
  5
1B3
330
19D
100
AcDbEntity
  8
AM_6
100
AcDbText
 10
6.515625
 20
-3.874999999999999
 30
0.0
 40
0.5
  1
5-1/2
100
AcDbAttributeDefinition
  3

  2
L
 70
     8
280
     0
  0
ATTDEF
  5
1B4
330
19D
100
AcDbEntity
  8
AM_6
100
AcDbText
 10
6.515625
 20
-4.374999999999999
 30
0.0
 40
0.5
  1
3/4-10
100
AcDbAttributeDefinition
  3

  2
M
 70
     8
280
     0
  0
ATTDEF
  5
1B5
330
19D
100
AcDbEntity
  8
AM_6
100
AcDbText
 10
6.515625
 20
-4.874999999999999
 30
0.0
 40
0.5
  1
0.7500
100
AcDbAttributeDefinition
  3

  2
MNDM
 70
     8
280
     0
  0
ATTDEF
  5
1B6
330
19D
100
AcDbEntity
  8
AM_6
100
AcDbText
 10
6.515625
 20
-5.374999999999999
 30
0.0
 40
0.5
  1
0.6417
100
AcDbAttributeDefinition
  3

  2
MKDM
 70
     8
280
     0
  0
ATTDEF
  5
1B7
330
19D
100
AcDbEntity
  8
AM_6
100
AcDbText
 10
6.515625
 20
-5.874999999999999
 30
0.0
 40
0.5
  1
3-7/8
100
AcDbAttributeDefinition
  3

  2
N
 70
     8
280
     0
  0
ATTDEF
  5
1B8
330
19D
100
AcDbEntity
  8
AM_6
100
AcDbText
 10
6.515625
 20
-6.374999999999999
 30
0.0
 40
0.5
  1
3.875000
100
AcDbAttributeDefinition
  3

  2
N1
 70
     8
280
     0
  0
ATTDEF
  5
1B9
330
19D
100
AcDbEntity
  8
AM_6
100
AcDbText
 10
6.515625
 20
-6.874999999999999
 30
0.0
 40
0.5
  1
1-41/64
100
AcDbAttributeDefinition
  3

  2
P
 70
     8
280
     0
  0
ATTDEF
  5
1BA
330
19D
100
AcDbEntity
  8
AM_6
100
AcDbText
 10
6.515625
 20
-7.374999999999999
 30
0.0
 40
0.5
  1
1-33/64
100
AcDbAttributeDefinition
  3

  2
Q
 70
     8
280
     0
  0
ATTDEF
  5
1BB
330
19D
100
AcDbEntity
  8
AM_6
100
AcDbText
 10
6.515625
 20
-7.874999999999999
 30
0.0
 40
0.5
  1
1.515625
100
AcDbAttributeDefinition
  3

  2
Q1
 70
     8
280
     0
  0
ATTDEF
  5
1BC
330
19D
100
AcDbEntity
  8
AM_6
100
AcDbText
 10
6.515625
 20
-8.375
 30
0.0
 40
0.5
  1
1/4
100
AcDbAttributeDefinition
  3

  2
X
 70
     8
280
     0
  0
ATTDEF
  5
1BD
330
19D
100
AcDbEntity
  8
AM_6
100
AcDbText
 10
6.515625
 20
-8.875
 30
0.0
 40
0.5
  1
0.025
100
AcDbAttributeDefinition
  3

  2
Y
 70
     8
280
     0
  0
ATTDEF
  5
1BE
330
19D
100
AcDbEntity
  8
AM_6
100
AcDbText
 10
6.515625
 20
-9.375
 30
0.0
 40
0.5
  1
4-3/64
100
AcDbAttributeDefinition
  3

  2
Z
 70
     8
280
     0
  0
ATTDEF
  5
1BF
330
19D
100
AcDbEntity
  8
AM_6
100
AcDbText
 10
6.515625
 20
-9.875
 30
0.0
 40
0.5
  1
baldor
100
AcDbAttributeDefinition
  3

  2
COMPANY
 70
     8
280
     0
  0
LINE
  5
1C0
330
19D
100
AcDbEntity
  8
AM_9
100
AcDbLine
 10
0.0
 20
-4.893333333333342
 30
0.0
 11
-0.84375
 21
-4.893333333333342
 31
0.0
  0
LINE
  5
1C1
330
19D
100
AcDbEntity
  8
AM_9
100
AcDbLine
 10
-0.84375
 20
-3.386283453271377
 30
0.0
 11
-0.9375
 21
-3.386283453271377
 31
0.0
  0
LINE
  5
1C2
330
19D
100
AcDbEntity
  8
AM_9
100
AcDbLine
 10
-0.84375
 20
-3.341071464343625
 30
0.0
 11
-0.9375
 21
-3.341071464343625
 31
0.0
  0
LINE
  5
1C3
330
19D
100
AcDbEntity
  8
AM_9
100
AcDbLine
 10
-0.84375
 20
3.386283453271376
 30
0.0
 11
-0.9375
 21
3.386283453271376
 31
0.0
  0
LINE
  5
1C4
330
19D
100
AcDbEntity
  8
AM_9
100
AcDbLine
 10
-0.9375
 20
3.341071464343623
 30
0.0
 11
-0.84375
 21
3.341071464343623
 31
0.0
  0
LINE
  5
1C5
330
19D
100
AcDbEntity
  8
AM_9
100
AcDbLine
 10
-0.84375
 20
-3.363066926924982
 30
0.0
 11
-0.9375
 21
-3.363066926924982
 31
0.0
  0
LINE
  5
1C6
330
19D
100
AcDbEntity
  8
AM_9
100
AcDbLine
 10
-0.9374999999999998
 20
-3.6875
 30
0.0
 11
-0.84375
 21
-3.6875
 31
0.0
  0
LINE
  5
1C7
330
19D
100
AcDbEntity
  8
AM_9
100
AcDbLine
 10
-0.84375
 20
3.65344443641887
 30
0.0
 11
-0.9374999999999998
 21
3.653444436418871
 31
0.0
  0
LINE
  5
1C8
330
19D
100
AcDbEntity
  8
AM_9
100
AcDbLine
 10
-0.84375
 20
3.363066926924982
 30
0.0
 11
-0.9375
 21
3.363066926924982
 31
0.0
  0
LINE
  5
1C9
330
19D
100
AcDbEntity
  8
AM_9
100
AcDbLine
 10
-0.84375
 20
-3.341071464343625
 30
0.0
 11
-0.8437499999999997
 21
-4.205757950664551
 31
0.0
  0
LINE
  5
1CA
330
19D
100
AcDbEntity
  8
AM_9
100
AcDbLine
 10
-0.8437499999999997
 20
4.20575795066455
 30
0.0
 11
-0.84375
 21
3.341071464343623
 31
0.0
  0
LINE
  5
1CB
330
19D
100
AcDbEntity
  8
AM_9
100
AcDbLine
 10
-1.079769736842105
 20
-3.1496
 30
0.0
 11
1.515625
 21
-3.1496
 31
0.0
  0
LINE
  5
1CC
330
19D
100
AcDbEntity
  8
AM_9
100
AcDbLine
 10
1.515625
 20
3.1496
 30
0.0
 11
-1.079769736842105
 21
3.1496
 31
0.0
  0
LINE
  5
1CD
330
19D
100
AcDbEntity
  8
AM_9
100
AcDbLine
 10
-1.079769736842105
 20
3.1496
 30
0.0
 11
-1.484375
 21
3.296864272416917
 31
0.0
  0
LINE
  5
1CE
330
19D
100
AcDbEntity
  8
AM_9
100
AcDbLine
 10
-1.484375
 20
-3.296864272416917
 30
0.0
 11
-1.079769736842105
 21
-3.1496
 31
0.0
  0
LINE
  5
1CF
330
19D
100
AcDbEntity
  8
AM_9
100
AcDbLine
 10
-1.079769736842105
 20
3.1496
 30
0.0
 11
-1.079769736842105
 21
-3.1496
 31
0.0
  0
LINE
  5
1D0
330
19D
100
AcDbEntity
  8
AM_9
100
AcDbLine
 10
0.0000000000000003
 20
3.424397993866986
 30
0.0
 11
-0.9374999999999998
 21
3.424397993866986
 31
0.0
  0
LINE
  5
1D1
330
19D
100
AcDbEntity
  8
AM_9
100
AcDbLine
 10
-0.9374999999999998
 20
2.674397993866987
 30
0.0
 11
0.0000000000000003
 21
2.674397993866987
 31
0.0
  0
LINE
  5
1D2
330
19D
100
AcDbEntity
  8
AM_9
100
AcDbLine
 10
0.0000000000000003
 20
-2.674397993866987
 30
0.0
 11
-0.9374999999999998
 21
-2.674397993866987
 31
0.0
  0
LINE
  5
1D3
330
19D
100
AcDbEntity
  8
AM_9
100
AcDbLine
 10
-0.9374999999999998
 20
-3.424397993866986
 30
0.0
 11
0.0000000000000003
 21
-3.424397993866986
 31
0.0
  0
LINE
  5
1D4
330
19D
100
AcDbEntity
  8
AM_9
100
AcDbLine
 10
-0.0541499999999995
 20
0.3208499999999999
 30
0.0
 11
-0.7895999999999996
 21
0.3208499999999999
 31
0.0
  0
LINE
  5
1D5
330
19D
100
AcDbEntity
  8
AM_9
100
AcDbLine
 10
-0.7895999999999996
 20
-0.3208499999999999
 30
0.0
 11
-0.0541499999999995
 21
-0.3208499999999999
 31
0.0
  0
LINE
  5
1D6
330
19D
100
AcDbEntity
  8
AM_9
100
AcDbLine
 10
-0.7895999999999996
 20
-0.3208499999999999
 30
0.0
 11
-0.7895999999999996
 21
0.3208499999999999
 31
0.0
  0
LINE
  5
1D7
330
19D
100
AcDbEntity
  8
AM_9
100
AcDbLine
 10
-0.7895999999999996
 20
0.3208499999999999
 30
0.0
 11
-0.8437499999999997
 21
0.3750000000000002
 31
0.0
  0
LINE
  5
1D8
330
19D
100
AcDbEntity
  8
AM_9
100
AcDbLine
 10
-0.8437499999999997
 20
-0.3750000000000002
 30
0.0
 11
-0.7895999999999996
 21
-0.3208499999999999
 31
0.0
  0
LINE
  5
1D9
330
19D
100
AcDbEntity
  8
AM_9
100
AcDbLine
 10
-0.0541499999999995
 20
-0.3208499999999999
 30
0.0
 11
-0.0541499999999995
 21
0.3208499999999999
 31
0.0
  0
LINE
  5
1DA
330
19D
100
AcDbEntity
  8
AM_9
100
AcDbLine
 10
-0.0541499999999995
 20
-0.3208499999999999
 30
0.0
 11
0.0000000000000003
 21
-0.3750000000000002
 31
0.0
  0
LINE
  5
1DB
330
19D
100
AcDbEntity
  8
AM_9
100
AcDbLine
 10
0.0000000000000003
 20
0.3750000000000002
 30
0.0
 11
-0.0541499999999995
 21
0.3208499999999999
 31
0.0
  0
LINE
  5
1DC
330
19D
100
AcDbEntity
  8
AM_5
100
AcDbLine
 10
-0.0000000000000003
 20
-0.3750000000000002
 30
0.0
 11
-0.8437500000000002
 21
-0.3750000000000002
 31
0.0
  0
LINE
  5
1DD
330
19D
100
AcDbEntity
  8
AM_5
100
AcDbLine
 10
-0.0000000000000003
 20
0.3750000000000002
 30
0.0
 11
-0.8437500000000002
 21
0.3750000000000002
 31
0.0
  0
LINE
  5
1DE
330
19D
100
AcDbEntity
  8
AM_7
100
AcDbLine
 10
-0.9843750000000002
 20
3.049397993866986
 30
0.0
 11
0.0468749999999998
 21
3.049397993866986
 31
0.0
  0
LINE
  5
1DF
330
19D
100
AcDbEntity
  8
AM_7
100
AcDbLine
 10
-0.9843750000000002
 20
-3.049397993866986
 30
0.0
 11
0.0468749999999998
 21
-3.049397993866986
 31
0.0
  0
LINE
  5
1E0
330
19D
100
AcDbEntity
  8
AM_4
100
AcDbLine
 10
-1.015277906283429
 20
4.6875
 30
0.0
 11
-1.484375
 21
3.875
 31
0.0
  0
LINE
  5
1E1
330
19D
100
AcDbEntity
  8
AM_4
100
AcDbLine
 10
-0.8437499999999997
 20
4.6875
 30
0.0
 11
-1.015277906283429
 21
4.6875
 31
0.0
  0
LINE
  5
1E2
330
19D
100
AcDbEntity
  8
AM_4
100
AcDbLine
 10
-1.484375
 20
-3.6875
 30
0.0
 11
-0.9374999999999998
 21
-3.6875
 31
0.0
  0
LINE
  5
1E3
330
19D
100
AcDbEntity
  8
AM_4
100
AcDbLine
 10
-0.9374999999999998
 20
3.653444436418871
 30
0.0
 11
-1.484375
 21
3.653444436418871
 31
0.0
  0
LINE
  5
1E4
330
19D
100
AcDbEntity
  8
AM_4
100
AcDbLine
 10
-1.484375
 20
-2.999182535545818
 30
0.0
 11
-0.9375
 21
-2.999182535545818
 31
0.0
  0
LINE
  5
1E5
330
19D
100
AcDbEntity
  8
AM_4
100
AcDbLine
 10
-1.484375
 20
3.875
 30
0.0
 11
-1.484375
 21
-3.6875
 31
0.0
  0
LINE
  5
1E6
330
19D
100
AcDbEntity
  8
AM_4
100
AcDbLine
 10
-1.484375
 20
2.999182535545815
 30
0.0
 11
-0.9375
 21
2.999182535545815
 31
0.0
  0
LINE
  5
1E7
330
19D
100
AcDbEntity
  8
AM_4
100
AcDbLine
 10
1.515625
 20
-3.511904761904762
 30
0.0
 11
1.515625
 21
3.511904761904762
 31
0.0
  0
LINE
  5
1E8
330
19D
100
AcDbEntity
  8
AM_4
100
AcDbLine
 10
1.265625
 20
-3.511904761904762
 30
0.0
 11
1.515625
 21
-3.511904761904762
 31
0.0
  0
LINE
  5
1E9
330
19D
100
AcDbEntity
  8
AM_4
100
AcDbLine
 10
1.515625
 20
3.511904761904762
 30
0.0
 11
1.265625
 21
3.511904761904762
 31
0.0
  0
LINE
  5
1EA
330
19D
100
AcDbEntity
  8
AM_4
100
AcDbLine
 10
-1.484375
 20
-2.145357864897361
 30
0.0
 11
-0.9374999999999998
 21
-2.145357864897361
 31
0.0
  0
LINE
  5
1EB
330
19D
100
AcDbEntity
  8
AM_4
100
AcDbLine
 10
-0.8437499999999997
 20
-1.512427550338647
 30
0.0
 11
-0.9374999999999998
 21
-1.512427550338647
 31
0.0
  0
LINE
  5
1EC
330
19D
100
AcDbEntity
  8
AM_4
100
AcDbLine
 10
-0.8437499999999997
 20
1.512427550338645
 30
0.0
 11
-0.9374999999999998
 21
1.512427550338645
 31
0.0
  0
LINE
  5
1ED
330
19D
100
AcDbEntity
  8
AM_4
100
AcDbLine
 10
-1.484375
 20
2.145357864897361
 30
0.0
 11
-0.9374999999999998
 21
2.145357864897361
 31
0.0
  0
LINE
  5
1EE
330
19D
100
AcDbEntity
  8
AM_4
100
AcDbLine
 10
1.265625
 20
-3.6875
 30
0.0
 11
1.265625
 21
3.6875
 31
0.0
  0
LINE
  5
1EF
330
19D
100
AcDbEntity
  8
AM_4
100
AcDbLine
 10
0.0
 20
-3.6875
 30
0.0
 11
1.265625
 21
-3.6875
 31
0.0
  0
LINE
  5
1F0
330
19D
100
AcDbEntity
  8
AM_4
100
AcDbLine
 10
1.265625
 20
3.6875
 30
0.0
 11
0.0
 21
3.6875
 31
0.0
  0
LINE
  5
1F1
330
19D
100
AcDbEntity
  8
AM_4
100
AcDbLine
 10
-0.8437499999999997
 20
-1.758359120466317
 30
0.0
 11
-0.9374999999999998
 21
-1.758359120466317
 31
0.0
  0
LINE
  5
1F2
330
19D
100
AcDbEntity
  8
AM_4
100
AcDbLine
 10
-0.8437499999999997
 20
1.758359120466316
 30
0.0
 11
-0.9374999999999998
 21
1.758359120466316
 31
0.0
  0
LINE
  5
1F3
330
19D
100
AcDbEntity
  8
AM_4
100
AcDbLine
 10
0.0
 20
-5.116784606332907
 30
0.0
 11
0.0
 21
5.125000000000001
 31
0.0
  0
LINE
  5
1F4
330
19D
100
AcDbEntity
  8
AM_4
100
AcDbLine
 10
-0.9374999999999998
 20
-4.205757950664552
 30
0.0
 11
-0.9374999999999998
 21
-1.512427550338647
 31
0.0
  0
LINE
  5
1F5
330
19D
100
AcDbEntity
  8
AM_4
100
AcDbLine
 10
-0.9374999999999998
 20
-4.205757950664552
 30
0.0
 11
-0.8437499999999997
 21
-4.205757950664551
 31
0.0
  0
LINE
  5
1F6
330
19D
100
AcDbEntity
  8
AM_4
100
AcDbLine
 10
-0.8437499999999997
 20
-4.205757950664551
 30
0.0
 11
-0.84375
 21
-5.116784606332905
 31
0.0
  0
LINE
  5
1F7
330
19D
100
AcDbEntity
  8
AM_4
100
AcDbLine
 10
0.0
 20
-5.116784606332907
 30
0.0
 11
-0.84375
 21
-5.116784606332905
 31
0.0
  0
LINE
  5
1F8
330
19D
100
AcDbEntity
  8
AM_4
100
AcDbLine
 10
-0.8437499999999997
 20
4.20575795066455
 30
0.0
 11
-0.9374999999999998
 21
4.20575795066455
 31
0.0
  0
LINE
  5
1F9
330
19D
100
AcDbEntity
  8
AM_4
100
AcDbLine
 10
-0.9374999999999998
 20
1.512427550338645
 30
0.0
 11
-0.9374999999999998
 21
4.20575795066455
 31
0.0
  0
LINE
  5
1FA
330
19D
100
AcDbEntity
  8
AM_4
100
AcDbLine
 10
-0.9374999999999998
 20
2.928689990494374
 30
0.0
 11
-0.8437499999999997
 21
2.928689990494374
 31
0.0
  0
LINE
  5
1FB
330
19D
100
AcDbEntity
  8
AM_4
100
AcDbLine
 10
-0.8437499999999997
 20
2.928689990494374
 30
0.0
 11
-0.8437499999999997
 21
-2.928689990494376
 31
0.0
  0
LINE
  5
1FC
330
19D
100
AcDbEntity
  8
AM_4
100
AcDbLine
 10
-0.8437499999999997
 20
-2.928689990494376
 30
0.0
 11
-0.9374999999999998
 21
-2.928689990494375
 31
0.0
  0
LINE
  5
1FD
330
19D
100
AcDbEntity
  8
AM_4
100
AcDbLine
 10
0.0
 20
5.125000000000001
 30
0.0
 11
-0.84375
 21
5.125000000000001
 31
0.0
  0
LINE
  5
1FE
330
19D
100
AcDbEntity
  8
AM_4
100
AcDbLine
 10
-0.84375
 20
5.125000000000001
 30
0.0
 11
-0.8437499999999997
 21
4.20575795066455
 31
0.0
  0
ENDBLK
  5
1A0
330
19D
100
AcDbEntity
  8
0
100
AcDbBlockEnd
  0
ENDSEC
  0
SECTION
  2
ENTITIES
  0
INSERT
  5
6F
330
1F
100
AcDbEntity
  8
0
100
AcDbBlockReference
  2
1_070714_2
 10
0.0
 20
0.0
 30
0.0
  0
POINT
  5
200
330
1F
100
AcDbEntity
  8
ConnectionPoints
100
AcDbPoint
 10
-2.359375
 20
0.0
 30
0.0000000000000001
  0
POINT
  5
201
330
1F
100
AcDbEntity
  8
ConnectionPoints
100
AcDbPoint
 10
-2.359375
 20
0.0
 30
0.0000000000000001
  0
POINT
  5
202
330
1F
100
AcDbEntity
  8
ConnectionPoints
100
AcDbPoint
 10
2.674625
 20
0.0
 30
-0.0000000000000002
  0
POINT
  5
203
330
1F
100
AcDbEntity
  8
ConnectionPoints
100
AcDbPoint
 10
-2.359375
 20
0.0
 30
0.0000000000000001
  0
POINT
  5
204
330
1F
100
AcDbEntity
  8
ConnectionPoints
100
AcDbPoint
 10
-1.275807215255248
 20
4.296250000000001
 30
0.0000000000000001
  0
POINT
  5
205
330
1F
100
AcDbEntity
  8
ConnectionPoints
100
AcDbPoint
 10
1.46875
 20
0.0
 30
-0.0000000000000001
  0
POINT
  5
206
330
1F
100
AcDbEntity
  8
ConnectionPoints
100
AcDbPoint
 10
-1.329933802991775
 20
3.765
 30
0.0000000000000001
  0
POINT
  5
207
330
1F
100
AcDbEntity
  8
ConnectionPoints
100
AcDbPoint
 10
-1.275807215255248
 20
4.296250000000001
 30
0.0000000000000001
  0
POINT
  5
208
330
1F
100
AcDbEntity
  8
ConnectionPoints
100
AcDbPoint
 10
-2.109375
 20
0.0
 30
0.0000000000000001
  0
POINT
  5
209
330
1F
100
AcDbEntity
  8
ConnectionPoints
100
AcDbPoint
 10
-2.359375
 20
0.0
 30
0.0000000000000001
  0
ENDSEC
  0
SECTION
  2
OBJECTS
  0
DICTIONARY
  5
C
330
0
100
AcDbDictionary
281
     1
  3
ACAD_DETAILVIEWSTYLE
350
211
  3
ACAD_GROUP
350
D
  3
ACAD_LAYOUT
350
1A
  3
ACAD_MATERIAL
350
43
  3
ACAD_MLEADERSTYLE
350
6B
  3
ACAD_MLINESTYLE
350
17
  3
ACAD_PLOTSETTINGS
350
19
  3
ACAD_PLOTSTYLENAME
350
E
  3
ACAD_SCALELIST
350
47
  3
ACAD_SECTIONVIEWSTYLE
350
212
  3
ACAD_TABLESTYLE
350
69
  3
ACAD_VISUALSTYLE
350
2A
  3
ACDB_RECOMPOSE_DATA
350
20E
  3
AcDbVariableDictionary
350
20A
  0
SUN
  5
6D
330
29
100
AcDbSun
 90
        1
290
     0
 63
     7
421
 16777215
 40
1.0
291
     1
 91
  2455826
 92
 54000000
292
     0
 70
     2
 71
   256
280
     1
  0
DICTIONARY
  5
211
102
{ACAD_REACTORS
330
C
102
}
330
C
100
AcDbDictionary
281
     1
  0
DICTIONARY
  5
D
102
{ACAD_REACTORS
330
C
102
}
330
C
100
AcDbDictionary
281
     1
  0
DICTIONARY
  5
1A
102
{ACAD_REACTORS
330
C
102
}
330
C
100
AcDbDictionary
281
     1
  3
Layout1
350
1E
  3
Layout2
350
26
  3
Model
350
22
  0
DICTIONARY
  5
43
102
{ACAD_REACTORS
330
C
102
}
330
C
100
AcDbDictionary
281
     1
  3
ByBlock
350
45
  3
ByLayer
350
44
  3
Global
350
46
  0
DICTIONARY
  5
6B
102
{ACAD_REACTORS
330
C
102
}
330
C
100
AcDbDictionary
281
     1
  3
Standard
350
6C
  0
DICTIONARY
  5
17
102
{ACAD_REACTORS
330
C
102
}
330
C
100
AcDbDictionary
281
     1
  3
Standard
350
18
  0
DICTIONARY
  5
19
102
{ACAD_REACTORS
330
C
102
}
330
C
100
AcDbDictionary
281
     1
  0
ACDBDICTIONARYWDFLT
  5
E
102
{ACAD_REACTORS
330
C
102
}
330
C
100
AcDbDictionary
281
     1
  3
Normal
350
F
100
AcDbDictionaryWithDefault
340
F
  0
DICTIONARY
  5
47
102
{ACAD_REACTORS
330
C
102
}
330
C
100
AcDbDictionary
281
     1
  3
A0
350
48
  3
A1
350
49
  3
A2
350
4A
  3
A3
350
4B
  3
A4
350
4C
  3
A5
350
4D
  3
A6
350
4E
  3
A7
350
4F
  3
A8
350
50
  3
A9
350
51
  3
B0
350
52
  3
B1
350
53
  3
B2
350
54
  3
B3
350
55
  3
B4
350
56
  3
B5
350
57
  3
B6
350
58
  3
B7
350
59
  3
B8
350
5A
  3
B9
350
5B
  3
C0
350
5C
  3
C1
350
5D
  3
C2
350
5E
  3
C3
350
5F
  3
C4
350
60
  3
C5
350
61
  3
C6
350
62
  3
C7
350
63
  3
C8
350
64
  3
C9
350
65
  3
D0
350
66
  3
D1
350
67
  3
D2
350
68
  0
DICTIONARY
  5
212
102
{ACAD_REACTORS
330
C
102
}
330
C
100
AcDbDictionary
281
     1
  0
DICTIONARY
  5
69
102
{ACAD_REACTORS
330
C
102
}
330
C
100
AcDbDictionary
281
     1
  3
Standard
350
6A
  0
DICTIONARY
  5
2A
102
{ACAD_REACTORS
330
C
102
}
330
C
100
AcDbDictionary
281
     1
  3
2dWireframe
350
2F
  3
Basic
350
32
  3
Brighten
350
36
  3
ColorChange
350
3A
  3
Conceptual
350
34
  3
Dim
350
35
  3
EdgeColorOff
350
3D
  3
Facepattern
350
39
  3
Flat
350
2B
  3
FlatWithEdges
350
2C
  3
Gouraud
350
2D
  3
GouraudWithEdges
350
2E
  3
Hidden
350
31
  3
JitterOff
350
3B
  3
Linepattern
350
38
  3
OverhangOff
350
3C
  3
Realistic
350
33
  3
Shaded
350
42
  3
Shaded with edges
350
41
  3
Shades of Gray
350
3E
  3
Sketchy
350
3F
  3
Thicken
350
37
  3
Wireframe
350
30
  3
X-Ray
350
40
  0
XRECORD
  5
20E
102
{ACAD_REACTORS
330
C
102
}
330
C
100
AcDbXrecord
280
     1
 90
        1
330
6A
  0
DICTIONARY
  5
20A
102
{ACAD_REACTORS
330
C
102
}
330
C
100
AcDbDictionary
281
     1
  3
CANNOSCALE
350
20B
  3
CMLEADERSTYLE
350
210
  3
CTABLESTYLE
350
20F
  0
LAYOUT
  5
1E
102
{ACAD_REACTORS
330
1A
102
}
330
1A
100
AcDbPlotSettings
  1

  2
none_device
  4

  6

 40
0.0
 41
0.0
 42
0.0
 43
0.0
 44
0.0
 45
0.0
 46
0.0
 47
0.0
 48
0.0
 49
0.0
140
0.0
141
0.0
142
1.0
143
1.0
 70
   688
 72
     0
 73
     0
 74
     5
  7

 75
    16
 76
     0
 77
     2
 78
   300
147
1.0
148
0.0
149
0.0
100
AcDbLayout
  1
Layout1
 70
     1
 71
     1
 10
0.0
 20
0.0
 11
12.0
 21
9.0
 12
0.0
 22
0.0
 32
0.0
 14
1.000000000000000E+20
 24
1.000000000000000E+20
 34
1.000000000000000E+20
 15
-1.000000000000000E+20
 25
-1.000000000000000E+20
 35
-1.000000000000000E+20
146
0.0
 13
0.0
 23
0.0
 33
0.0
 16
1.0
 26
0.0
 36
0.0
 17
0.0
 27
1.0
 37
0.0
 76
     0
330
1B
  0
LAYOUT
  5
26
102
{ACAD_REACTORS
330
1A
102
}
330
1A
100
AcDbPlotSettings
  1

  2
none_device
  4

  6

 40
0.0
 41
0.0
 42
0.0
 43
0.0
 44
0.0
 45
0.0
 46
0.0
 47
0.0
 48
0.0
 49
0.0
140
0.0
141
0.0
142
1.0
143
1.0
 70
   688
 72
     0
 73
     0
 74
     5
  7

 75
    16
 76
     0
 77
     2
 78
   300
147
1.0
148
0.0
149
0.0
100
AcDbLayout
  1
Layout2
 70
     1
 71
     2
 10
0.0
 20
0.0
 11
0.0
 21
0.0
 12
0.0
 22
0.0
 32
0.0
 14
0.0
 24
0.0
 34
0.0
 15
0.0
 25
0.0
 35
0.0
146
0.0
 13
0.0
 23
0.0
 33
0.0
 16
1.0
 26
0.0
 36
0.0
 17
0.0
 27
1.0
 37
0.0
 76
     0
330
23
  0
LAYOUT
  5
22
102
{ACAD_REACTORS
330
1A
102
}
330
1A
100
AcDbPlotSettings
  1

  2
none_device
  4
Letter_(8.50_x_11.00_Inches)
  6

 40
6.35
 41
6.35
 42
6.35000508
 43
6.35000508
 44
215.9
 45
279.4
 46
0.0
 47
0.0
 48
0.0
 49
0.0
140
0.0
141
0.0
142
1.0
143
1.0
 70
  1712
 72
     0
 73
     0
 74
     0
  7

 75
     0
 76
     0
 77
     2
 78
   300
147
1.0
148
0.0
149
0.0
100
AcDbLayout
  1
Model
 70
     1
 71
     0
 10
0.0
 20
0.0
 11
12.0
 21
9.0
 12
0.0
 22
0.0
 32
0.0
 14
1.000000000000000E+20
 24
1.000000000000000E+20
 34
1.000000000000000E+20
 15
-1.000000000000000E+20
 25
-1.000000000000000E+20
 35
-1.000000000000000E+20
146
0.0
 13
0.0
 23
0.0
 33
0.0
 16
1.0
 26
0.0
 36
0.0
 17
0.0
 27
1.0
 37
0.0
 76
     0
330
1F
331
29
  0
MATERIAL
  5
45
102
{ACAD_REACTORS
330
43
102
}
330
43
100
AcDbMaterial
  1
ByBlock
 72
     1
 94
      127
  0
MATERIAL
  5
44
102
{ACAD_REACTORS
330
43
102
}
330
43
100
AcDbMaterial
  1
ByLayer
 72
     1
 94
      127
  0
MATERIAL
  5
46
102
{ACAD_REACTORS
330
43
102
}
330
43
100
AcDbMaterial
  1
Global
 72
     1
 94
      127
  0
MLEADERSTYLE
  5
6C
102
{ACAD_REACTORS
330
6B
102
}
330
6B
100
AcDbMLeaderStyle
179
     2
170
     2
171
     1
172
     0
 90
        2
 40
0.0
 41
0.0
173
     1
 91
-1056964608
340
14
 92
       -2
290
     1
 42
0.09
291
     1
 43
0.36
  3
Standard
341
0
 44
0.18
300

342
11
174
     1
178
     6
175
     1
176
     0
 93
-1056964608
 45
0.18
292
     0
297
     0
 46
0.18
343
0
 94
-1056964608
 47
1.0
 49
1.0
140
1.0
293
     1
141
0.0
294
     1
177
     0
142
1.0
295
     0
296
     0
143
0.125
271
     0
272
     9
273
     9
298
     0
  0
MLINESTYLE
  5
18
102
{ACAD_REACTORS
330
17
102
}
330
17
100
AcDbMlineStyle
  2
Standard
 70
     0
  3

 62
   256
 51
90.0
 52
90.0
 71
     2
 49
0.5
 62
   256
  6
BYLAYER
 49
-0.5
 62
   256
  6
BYLAYER
  0
ACDBPLACEHOLDER
  5
F
102
{ACAD_REACTORS
330
E
102
}
330
E
  0
SCALE
  5
48
102
{ACAD_REACTORS
330
47
102
}
330
47
100
AcDbScale
 70
     0
300
1:1
140
1.0
141
1.0
290
     1
  0
SCALE
  5
49
102
{ACAD_REACTORS
330
47
102
}
330
47
100
AcDbScale
 70
     0
300
1:2
140
1.0
141
2.0
290
     0
  0
SCALE
  5
4A
102
{ACAD_REACTORS
330
47
102
}
330
47
100
AcDbScale
 70
     0
300
1:4
140
1.0
141
4.0
290
     0
  0
SCALE
  5
4B
102
{ACAD_REACTORS
330
47
102
}
330
47
100
AcDbScale
 70
     0
300
1:5
140
1.0
141
5.0
290
     0
  0
SCALE
  5
4C
102
{ACAD_REACTORS
330
47
102
}
330
47
100
AcDbScale
 70
     0
300
1:8
140
1.0
141
8.0
290
     0
  0
SCALE
  5
4D
102
{ACAD_REACTORS
330
47
102
}
330
47
100
AcDbScale
 70
     0
300
1:10
140
1.0
141
10.0
290
     0
  0
SCALE
  5
4E
102
{ACAD_REACTORS
330
47
102
}
330
47
100
AcDbScale
 70
     0
300
1:16
140
1.0
141
16.0
290
     0
  0
SCALE
  5
4F
102
{ACAD_REACTORS
330
47
102
}
330
47
100
AcDbScale
 70
     0
300
1:20
140
1.0
141
20.0
290
     0
  0
SCALE
  5
50
102
{ACAD_REACTORS
330
47
102
}
330
47
100
AcDbScale
 70
     0
300
1:30
140
1.0
141
30.0
290
     0
  0
SCALE
  5
51
102
{ACAD_REACTORS
330
47
102
}
330
47
100
AcDbScale
 70
     0
300
1:40
140
1.0
141
40.0
290
     0
  0
SCALE
  5
52
102
{ACAD_REACTORS
330
47
102
}
330
47
100
AcDbScale
 70
     0
300
1:50
140
1.0
141
50.0
290
     0
  0
SCALE
  5
53
102
{ACAD_REACTORS
330
47
102
}
330
47
100
AcDbScale
 70
     0
300
1:100
140
1.0
141
100.0
290
     0
  0
SCALE
  5
54
102
{ACAD_REACTORS
330
47
102
}
330
47
100
AcDbScale
 70
     0
300
2:1
140
2.0
141
1.0
290
     0
  0
SCALE
  5
55
102
{ACAD_REACTORS
330
47
102
}
330
47
100
AcDbScale
 70
     0
300
4:1
140
4.0
141
1.0
290
     0
  0
SCALE
  5
56
102
{ACAD_REACTORS
330
47
102
}
330
47
100
AcDbScale
 70
     0
300
8:1
140
8.0
141
1.0
290
     0
  0
SCALE
  5
57
102
{ACAD_REACTORS
330
47
102
}
330
47
100
AcDbScale
 70
     0
300
10:1
140
10.0
141
1.0
290
     0
  0
SCALE
  5
58
102
{ACAD_REACTORS
330
47
102
}
330
47
100
AcDbScale
 70
     0
300
100:1
140
100.0
141
1.0
290
     0
  0
SCALE
  5
59
102
{ACAD_REACTORS
330
47
102
}
330
47
100
AcDbScale
 70
     0
300
1/128" = 1'-0"
140
0.0078125
141
12.0
290
     0
  0
SCALE
  5
5A
102
{ACAD_REACTORS
330
47
102
}
330
47
100
AcDbScale
 70
     0
300
1/64" = 1'-0"
140
0.015625
141
12.0
290
     0
  0
SCALE
  5
5B
102
{ACAD_REACTORS
330
47
102
}
330
47
100
AcDbScale
 70
     0
300
1/32" = 1'-0"
140
0.03125
141
12.0
290
     0
  0
SCALE
  5
5C
102
{ACAD_REACTORS
330
47
102
}
330
47
100
AcDbScale
 70
     0
300
1/16" = 1'-0"
140
0.0625
141
12.0
290
     0
  0
SCALE
  5
5D
102
{ACAD_REACTORS
330
47
102
}
330
47
100
AcDbScale
 70
     0
300
3/32" = 1'-0"
140
0.09375
141
12.0
290
     0
  0
SCALE
  5
5E
102
{ACAD_REACTORS
330
47
102
}
330
47
100
AcDbScale
 70
     0
300
1/8" = 1'-0"
140
0.125
141
12.0
290
     0
  0
SCALE
  5
5F
102
{ACAD_REACTORS
330
47
102
}
330
47
100
AcDbScale
 70
     0
300
3/16" = 1'-0"
140
0.1875
141
12.0
290
     0
  0
SCALE
  5
60
102
{ACAD_REACTORS
330
47
102
}
330
47
100
AcDbScale
 70
     0
300
1/4" = 1'-0"
140
0.25
141
12.0
290
     0
  0
SCALE
  5
61
102
{ACAD_REACTORS
330
47
102
}
330
47
100
AcDbScale
 70
     0
300
3/8" = 1'-0"
140
0.375
141
12.0
290
     0
  0
SCALE
  5
62
102
{ACAD_REACTORS
330
47
102
}
330
47
100
AcDbScale
 70
     0
300
1/2" = 1'-0"
140
0.5
141
12.0
290
     0
  0
SCALE
  5
63
102
{ACAD_REACTORS
330
47
102
}
330
47
100
AcDbScale
 70
     0
300
3/4" = 1'-0"
140
0.75
141
12.0
290
     0
  0
SCALE
  5
64
102
{ACAD_REACTORS
330
47
102
}
330
47
100
AcDbScale
 70
     0
300
1" = 1'-0"
140
1.0
141
12.0
290
     0
  0
SCALE
  5
65
102
{ACAD_REACTORS
330
47
102
}
330
47
100
AcDbScale
 70
     0
300
1-1/2" = 1'-0"
140
1.5
141
12.0
290
     0
  0
SCALE
  5
66
102
{ACAD_REACTORS
330
47
102
}
330
47
100
AcDbScale
 70
     0
300
3" = 1'-0"
140
3.0
141
12.0
290
     0
  0
SCALE
  5
67
102
{ACAD_REACTORS
330
47
102
}
330
47
100
AcDbScale
 70
     0
300
6" = 1'-0"
140
6.0
141
12.0
290
     0
  0
SCALE
  5
68
102
{ACAD_REACTORS
330
47
102
}
330
47
100
AcDbScale
 70
     0
300
1'-0" = 1'-0"
140
12.0
141
12.0
290
     0
  0
TABLESTYLE
  5
6A
102
{ACAD_REACTORS
330
69
102
}
102
{ACAD_XDICTIONARY
360
20C
102
}
330
69
100
AcDbTableStyle
  3
Standard
 70
     0
 71
     0
 40
0.06
 41
0.06
280
     0
281
     0
  7
Standard
140
0.18
170
     2
 62
     0
 63
   257
283
     0
 90
        4
 91
        0
  1

274
    -2
284
     1
 64
     0
275
    -2
285
     1
 65
     0
276
    -2
286
     1
 66
     0
277
    -2
287
     1
 67
     0
278
    -2
288
     1
 68
     0
279
    -2
289
     1
 69
     0
  7
Standard
140
0.25
170
     5
 62
     0
 63
   257
283
     0
 90
        4
 91
        0
  1

274
    -2
284
     1
 64
     0
275
    -2
285
     1
 65
     0
276
    -2
286
     1
 66
     0
277
    -2
287
     1
 67
     0
278
    -2
288
     1
 68
     0
279
    -2
289
     1
 69
     0
  7
Standard
140
0.18
170
     5
 62
     0
 63
   257
283
     0
 90
        4
 91
        0
  1

274
    -2
284
     1
 64
     0
275
    -2
285
     1
 65
     0
276
    -2
286
     1
 66
     0
277
    -2
287
     1
 67
     0
278
    -2
288
     1
 68
     0
279
    -2
289
     1
 69
     0
  0
VISUALSTYLE
  5
2F
102
{ACAD_REACTORS
330
2A
102
}
330
2A
100
AcDbVisualStyle
  2
2dWireframe
 70
     4
177
     3
291
     0
 70
    58
 90
        0
176
     1
 90
        2
176
     1
 90
        0
176
     1
 90
        0
176
     1
 40
0.6
176
     1
 40
30.0
176
     1
 62
     7
420
 16777215
176
     1
 90
        1
176
     1
 90
        4
176
     1
 62
     7
176
     1
 62
   257
176
     1
 90
        1
176
     1
 90
        1
176
     1
 40
1.0
176
     1
 90
        0
176
     1
 62
   257
176
     1
 40
1.0
176
     1
 90
        1
176
     1
 90
        6
176
     1
 90
        2
176
     1
 62
     7
176
     1
 90
        5
176
     1
 90
        0
176
     1
 90
        0
176
     1
290
     0
176
     1
 90
        1
176
     1
 40
0.0
176
     1
 90
        0
176
     1
290
     1
176
     1
290
     1
176
     1
290
     0
176
     1
290
     0
176
     1
290
     0
176
     1
290
     0
176
     1
290
     0
176
     1
290
     0
176
     1
290
     0
176
     1
 90
       50
176
     1
 40
0.0
176
     1
 40
1.0
176
     1
 90
        0
176
     1
 62
    18
420
        0
176
     1
 90
       50
176
     1
 90
        3
176
     1
 62
     5
420
      255
176
     1
290
     0
176
     1
 90
       50
176
     1
 90
       50
176
     1
 90
       50
176
     1
290
     0
176
     1
 90
       50
176
     1
 62
   256
176
     0
 40
1.0
176
     0
 90
        2
176
     1
  1
strokes_ogs.tif
176
     1
290
     0
176
     1
 40
1.0
176
     1
 40
1.0
176
     1
  0
VISUALSTYLE
  5
32
102
{ACAD_REACTORS
330
2A
102
}
330
2A
100
AcDbVisualStyle
  2
Basic
 70
     7
177
     3
291
     1
 70
    58
 90
        1
176
     1
 90
        0
176
     1
 90
        1
176
     1
 90
        0
176
     1
 40
0.6
176
     1
 40
30.0
176
     1
 62
     7
420
 16777215
176
     1
 90
        0
176
     1
 90
        4
176
     1
 62
     7
176
     1
 62
   257
176
     1
 90
        1
176
     1
 90
        1
176
     1
 40
1.0
176
     1
 90
        8
176
     1
 62
     7
176
     1
 40
1.0
176
     1
 90
        1
176
     1
 90
        6
176
     1
 90
        2
176
     1
 62
     7
176
     1
 90
        5
176
     1
 90
        0
176
     1
 90
        0
176
     1
290
     0
176
     1
 90
        1
176
     1
 40
0.0
176
     1
 90
        0
176
     1
290
     0
176
     1
290
     1
176
     1
290
     1
176
     1
290
     0
176
     1
290
     0
176
     1
290
     0
176
     1
290
     0
176
     1
290
     0
176
     1
290
     0
176
     1
 90
       50
176
     1
 40
0.0
176
     1
 40
1.0
176
     1
 90
        0
176
     1
 62
    18
420
        0
176
     1
 90
       50
176
     1
 90
        3
176
     1
 62
     5
420
      255
176
     1
290
     0
176
     1
 90
       50
176
     1
 90
       50
176
     1
 90
       50
176
     1
290
     0
176
     1
 90
       50
176
     1
 62
   256
176
     0
 40
1.0
176
     0
 90
        2
176
     1
  1
strokes_ogs.tif
176
     1
290
     0
176
     1
 40
1.0
176
     1
 40
1.0
176
     1
  0
VISUALSTYLE
  5
36
102
{ACAD_REACTORS
330
2A
102
}
330
2A
100
AcDbVisualStyle
  2
Brighten
 70
    12
177
     3
291
     1
 70
    58
 90
        2
176
     1
 90
        2
176
     1
 90
        0
176
     1
 90
        0
176
     1
 40
0.6
176
     1
 40
30.0
176
     1
 62
     7
420
 16777215
176
     1
 90
        1
176
     1
 90
        4
176
     1
 62
     7
176
     1
 62
   257
176
     1
 90
        1
176
     1
 90
        1
176
     1
 40
1.0
176
     1
 90
        8
176
     1
 62
     7
176
     1
 40
1.0
176
     1
 90
        1
176
     1
 90
        6
176
     1
 90
        2
176
     1
 62
     7
176
     1
 90
        5
176
     1
 90
        0
176
     1
 90
        0
176
     1
290
     0
176
     1
 90
        1
176
     1
 40
50.0
176
     1
 90
        0
176
     1
290
     0
176
     1
290
     1
176
     1
290
     1
176
     1
290
     0
176
     1
290
     0
176
     1
290
     0
176
     1
290
     0
176
     1
290
     0
176
     1
290
     0
176
     1
 90
       50
176
     1
 40
0.0
176
     1
 40
1.0
176
     1
 90
        0
176
     1
 62
    18
420
        0
176
     1
 90
       50
176
     1
 90
        3
176
     1
 62
     5
420
      255
176
     1
290
     0
176
     1
 90
       50
176
     1
 90
       50
176
     1
 90
       50
176
     1
290
     0
176
     1
 90
       50
176
     1
 62
   256
176
     0
 40
1.0
176
     0
 90
        2
176
     1
  1
strokes_ogs.tif
176
     1
290
     0
176
     1
 40
1.0
176
     1
 40
1.0
176
     1
  0
VISUALSTYLE
  5
3A
102
{ACAD_REACTORS
330
2A
102
}
330
2A
100
AcDbVisualStyle
  2
ColorChange
 70
    16
177
     3
291
     1
 70
    58
 90
        2
176
     1
 90
        2
176
     1
 90
        3
176
     1
 90
        0
176
     1
 40
0.6
176
     1
 40
30.0
176
     1
 62
     8
420
  8421504
176
     1
 90
        1
176
     1
 90
        4
176
     1
 62
     7
176
     1
 62
   257
176
     1
 90
        1
176
     1
 90
        1
176
     1
 40
1.0
176
     1
 90
        8
176
     1
 62
     8
420
  8421504
176
     1
 40
1.0
176
     1
 90
        1
176
     1
 90
        6
176
     1
 90
        2
176
     1
 62
     7
176
     1
 90
        5
176
     1
 90
        0
176
     1
 90
        0
176
     1
290
     0
176
     1
 90
        1
176
     1
 40
0.0
176
     1
 90
        0
176
     1
290
     0
176
     1
290
     1
176
     1
290
     1
176
     1
290
     0
176
     1
290
     0
176
     1
290
     0
176
     1
290
     0
176
     1
290
     0
176
     1
290
     0
176
     1
 90
       50
176
     1
 40
0.0
176
     1
 40
1.0
176
     1
 90
        0
176
     1
 62
    18
420
        0
176
     1
 90
       50
176
     1
 90
        3
176
     1
 62
     5
420
      255
176
     1
290
     0
176
     1
 90
       50
176
     1
 90
       50
176
     1
 90
       50
176
     1
290
     0
176
     1
 90
       50
176
     1
 62
   256
176
     0
 40
1.0
176
     0
 90
        2
176
     1
  1
strokes_ogs.tif
176
     1
290
     0
176
     1
 40
1.0
176
     1
 40
1.0
176
     1
  0
VISUALSTYLE
  5
34
102
{ACAD_REACTORS
330
2A
102
}
330
2A
100
AcDbVisualStyle
  2
Conceptual
 70
     9
177
     3
291
     0
 70
    58
 90
        3
176
     1
 90
        2
176
     1
 90
        0
176
     1
 90
        0
176
     1
 40
0.6
176
     1
 40
30.0
176
     1
 62
     7
420
 16777215
176
     1
 90
        2
176
     1
 90
        2
176
     1
 62
     7
176
     1
 62
   257
176
     1
 90
        1
176
     1
 90
        1
176
     1
 40
179.0
176
     1
 90
        8
176
     1
 62
     7
176
     1
 40
1.0
176
     1
 90
        1
176
     1
 90
        6
176
     1
 90
        2
176
     1
 62
     7
176
     1
 90
        3
176
     1
 90
        0
176
     1
 90
        0
176
     1
290
     0
176
     1
 90
        1
176
     1
 40
0.0
176
     1
 90
        0
176
     1
290
     0
176
     1
290
     1
176
     1
290
     1
176
     1
290
     0
176
     1
290
     0
176
     1
290
     0
176
     1
290
     0
176
     1
290
     0
176
     1
290
     0
176
     1
 90
       50
176
     1
 40
0.0
176
     1
 40
1.0
176
     1
 90
        0
176
     1
 62
    18
420
        0
176
     1
 90
       50
176
     1
 90
        3
176
     1
 62
     5
420
      255
176
     1
290
     0
176
     1
 90
       50
176
     1
 90
       50
176
     1
 90
       50
176
     1
290
     0
176
     1
 90
       50
176
     1
 62
   256
176
     0
 40
1.0
176
     0
 90
        2
176
     1
  1
strokes_ogs.tif
176
     1
290
     0
176
     1
 40
1.0
176
     1
 40
1.0
176
     1
  0
VISUALSTYLE
  5
35
102
{ACAD_REACTORS
330
2A
102
}
330
2A
100
AcDbVisualStyle
  2
Dim
 70
    11
177
     3
291
     1
 70
    58
 90
        2
176
     1
 90
        2
176
     1
 90
        0
176
     1
 90
        0
176
     1
 40
0.6
176
     1
 40
30.0
176
     1
 62
     7
420
 16777215
176
     1
 90
        1
176
     1
 90
        4
176
     1
 62
     7
176
     1
 62
   257
176
     1
 90
        1
176
     1
 90
        1
176
     1
 40
1.0
176
     1
 90
        8
176
     1
 62
     7
176
     1
 40
1.0
176
     1
 90
        1
176
     1
 90
        6
176
     1
 90
        2
176
     1
 62
     7
176
     1
 90
        5
176
     1
 90
        0
176
     1
 90
        0
176
     1
290
     0
176
     1
 90
        1
176
     1
 40
-50.0
176
     1
 90
        0
176
     1
290
     0
176
     1
290
     1
176
     1
290
     1
176
     1
290
     0
176
     1
290
     0
176
     1
290
     0
176
     1
290
     0
176
     1
290
     0
176
     1
290
     0
176
     1
 90
       50
176
     1
 40
0.0
176
     1
 40
1.0
176
     1
 90
        0
176
     1
 62
    18
420
        0
176
     1
 90
       50
176
     1
 90
        3
176
     1
 62
     5
420
      255
176
     1
290
     0
176
     1
 90
       50
176
     1
 90
       50
176
     1
 90
       50
176
     1
290
     0
176
     1
 90
       50
176
     1
 62
   256
176
     0
 40
1.0
176
     0
 90
        2
176
     1
  1
strokes_ogs.tif
176
     1
290
     0
176
     1
 40
1.0
176
     1
 40
1.0
176
     1
  0
VISUALSTYLE
  5
3D
102
{ACAD_REACTORS
330
2A
102
}
330
2A
100
AcDbVisualStyle
  2
EdgeColorOff
 70
    22
177
     3
291
     1
 70
    58
 90
        2
176
     0
 90
        2
176
     0
 90
        0
176
     0
 90
        0
176
     0
 40
0.6
176
     0
 40
30.0
176
     0
 62
     7
420
 16777215
176
     0
 90
        1
176
     0
 90
        4
176
     0
 62
     7
176
     0
 62
   257
176
     0
 90
        1
176
     0
 90
        1
176
     0
 40
1.0
176
     0
 90
        8
176
     2
 62
     7
176
     0
 40
1.0
176
     0
 90
        1
176
     0
 90
        6
176
     0
 90
        2
176
     0
 62
     7
176
     0
 90
        5
176
     0
 90
        0
176
     0
 90
        0
176
     0
290
     0
176
     0
 90
        1
176
     0
 40
0.0
176
     0
 90
        0
176
     0
290
     0
176
     0
290
     1
176
     0
290
     1
176
     0
290
     0
176
     0
290
     0
176
     0
290
     0
176
     0
290
     0
176
     0
290
     0
176
     0
290
     0
176
     0
 90
       50
176
     0
 40
0.0
176
     0
 40
1.0
176
     0
 90
        0
176
     0
 62
    18
420
        0
176
     0
 90
       50
176
     0
 90
        3
176
     0
 62
     5
420
      255
176
     0
290
     0
176
     0
 90
       50
176
     0
 90
       50
176
     0
 90
       50
176
     0
290
     0
176
     0
 90
       50
176
     0
 62
   256
176
     0
 40
1.0
176
     0
 90
        2
176
     0
  1
strokes_ogs.tif
176
     0
290
     0
176
     0
 40
1.0
176
     0
 40
1.0
176
     0
  0
VISUALSTYLE
  5
39
102
{ACAD_REACTORS
330
2A
102
}
330
2A
100
AcDbVisualStyle
  2
Facepattern
 70
    15
177
     3
291
     1
 70
    58
 90
        2
176
     1
 90
        2
176
     1
 90
        0
176
     1
 90
        0
176
     1
 40
0.6
176
     1
 40
30.0
176
     1
 62
     7
420
 16777215
176
     1
 90
        1
176
     1
 90
        4
176
     1
 62
     7
176
     1
 62
   257
176
     1
 90
        1
176
     1
 90
        1
176
     1
 40
1.0
176
     1
 90
        8
176
     1
 62
     7
176
     1
 40
1.0
176
     1
 90
        1
176
     1
 90
        6
176
     1
 90
        2
176
     1
 62
     7
176
     1
 90
        5
176
     1
 90
        0
176
     1
 90
        0
176
     1
290
     0
176
     1
 90
        1
176
     1
 40
0.0
176
     1
 90
        0
176
     1
290
     0
176
     1
290
     1
176
     1
290
     1
176
     1
290
     0
176
     1
290
     0
176
     1
290
     0
176
     1
290
     0
176
     1
290
     0
176
     1
290
     0
176
     1
 90
       50
176
     1
 40
0.0
176
     1
 40
1.0
176
     1
 90
        0
176
     1
 62
    18
420
        0
176
     1
 90
       50
176
     1
 90
        3
176
     1
 62
     5
420
      255
176
     1
290
     0
176
     1
 90
       50
176
     1
 90
       50
176
     1
 90
       50
176
     1
290
     0
176
     1
 90
       50
176
     1
 62
   256
176
     0
 40
1.0
176
     0
 90
        2
176
     1
  1
strokes_ogs.tif
176
     1
290
     0
176
     1
 40
1.0
176
     1
 40
1.0
176
     1
  0
VISUALSTYLE
  5
2B
102
{ACAD_REACTORS
330
2A
102
}
330
2A
100
AcDbVisualStyle
  2
Flat
 70
     0
177
     3
291
     1
 70
    58
 90
        2
176
     1
 90
        1
176
     1
 90
        1
176
     1
 90
        2
176
     1
 40
0.6
176
     1
 40
30.0
176
     1
 62
     7
420
 16777215
176
     1
 90
        0
176
     1
 90
        0
176
     1
 62
     7
176
     1
 62
   257
176
     1
 90
        1
176
     1
 90
        1
176
     1
 40
1.0
176
     1
 90
        8
176
     1
 62
     7
176
     1
 40
1.0
176
     1
 90
        1
176
     1
 90
        6
176
     1
 90
        2
176
     1
 62
     7
176
     1
 90
        5
176
     1
 90
        0
176
     1
 90
        0
176
     1
290
     0
176
     1
 90
       13
176
     1
 40
0.0
176
     1
 90
        0
176
     1
290
     0
176
     1
290
     1
176
     1
290
     1
176
     1
290
     0
176
     1
290
     0
176
     1
290
     0
176
     1
290
     0
176
     1
290
     0
176
     1
290
     0
176
     1
 90
       50
176
     1
 40
0.0
176
     1
 40
1.0
176
     1
 90
        0
176
     1
 62
    18
420
        0
176
     1
 90
       50
176
     1
 90
        3
176
     1
 62
     5
420
      255
176
     1
290
     0
176
     1
 90
       50
176
     1
 90
       50
176
     1
 90
       50
176
     1
290
     0
176
     1
 90
       50
176
     1
 62
   256
176
     0
 40
1.0
176
     0
 90
        2
176
     1
  1
strokes_ogs.tif
176
     1
290
     0
176
     1
 40
1.0
176
     1
 40
1.0
176
     1
  0
VISUALSTYLE
  5
2C
102
{ACAD_REACTORS
330
2A
102
}
330
2A
100
AcDbVisualStyle
  2
FlatWithEdges
 70
     1
177
     3
291
     1
 70
    58
 90
        2
176
     1
 90
        1
176
     1
 90
        1
176
     1
 90
        2
176
     1
 40
0.6
176
     1
 40
30.0
176
     1
 62
     7
420
 16777215
176
     1
 90
        1
176
     1
 90
        0
176
     1
 62
     7
176
     1
 62
   257
176
     1
 90
        1
176
     1
 90
        1
176
     1
 40
1.0
176
     1
 90
        0
176
     1
 62
   257
176
     1
 40
1.0
176
     1
 90
        1
176
     1
 90
        6
176
     1
 90
        2
176
     1
 62
     7
176
     1
 90
        5
176
     1
 90
        0
176
     1
 90
        0
176
     1
290
     0
176
     1
 90
       13
176
     1
 40
0.0
176
     1
 90
        0
176
     1
290
     0
176
     1
290
     1
176
     1
290
     1
176
     1
290
     0
176
     1
290
     0
176
     1
290
     0
176
     1
290
     0
176
     1
290
     0
176
     1
290
     0
176
     1
 90
       50
176
     1
 40
0.0
176
     1
 40
1.0
176
     1
 90
        0
176
     1
 62
    18
420
        0
176
     1
 90
       50
176
     1
 90
        3
176
     1
 62
     5
420
      255
176
     1
290
     0
176
     1
 90
       50
176
     1
 90
       50
176
     1
 90
       50
176
     1
290
     0
176
     1
 90
       50
176
     1
 62
   256
176
     0
 40
1.0
176
     0
 90
        2
176
     1
  1
strokes_ogs.tif
176
     1
290
     0
176
     1
 40
1.0
176
     1
 40
1.0
176
     1
  0
VISUALSTYLE
  5
2D
102
{ACAD_REACTORS
330
2A
102
}
330
2A
100
AcDbVisualStyle
  2
Gouraud
 70
     2
177
     3
291
     1
 70
    58
 90
        2
176
     1
 90
        2
176
     1
 90
        1
176
     1
 90
        2
176
     1
 40
0.6
176
     1
 40
30.0
176
     1
 62
     7
420
 16777215
176
     1
 90
        0
176
     1
 90
        0
176
     1
 62
     7
176
     1
 62
   257
176
     1
 90
        1
176
     1
 90
        1
176
     1
 40
1.0
176
     1
 90
        0
176
     1
 62
     7
176
     1
 40
1.0
176
     1
 90
        1
176
     1
 90
        6
176
     1
 90
        2
176
     1
 62
     7
176
     1
 90
        5
176
     1
 90
        0
176
     1
 90
        0
176
     1
290
     0
176
     1
 90
       13
176
     1
 40
0.0
176
     1
 90
        0
176
     1
290
     0
176
     1
290
     1
176
     1
290
     1
176
     1
290
     0
176
     1
290
     0
176
     1
290
     0
176
     1
290
     0
176
     1
290
     0
176
     1
290
     0
176
     1
 90
       50
176
     1
 40
0.0
176
     1
 40
1.0
176
     1
 90
        0
176
     1
 62
    18
420
        0
176
     1
 90
       50
176
     1
 90
        3
176
     1
 62
     5
420
      255
176
     1
290
     0
176
     1
 90
       50
176
     1
 90
       50
176
     1
 90
       50
176
     1
290
     0
176
     1
 90
       50
176
     1
 62
   256
176
     0
 40
1.0
176
     0
 90
        2
176
     1
  1
strokes_ogs.tif
176
     1
290
     0
176
     1
 40
1.0
176
     1
 40
1.0
176
     1
  0
VISUALSTYLE
  5
2E
102
{ACAD_REACTORS
330
2A
102
}
330
2A
100
AcDbVisualStyle
  2
GouraudWithEdges
 70
     3
177
     3
291
     1
 70
    58
 90
        2
176
     1
 90
        2
176
     1
 90
        1
176
     1
 90
        2
176
     1
 40
0.6
176
     1
 40
30.0
176
     1
 62
     7
420
 16777215
176
     1
 90
        1
176
     1
 90
        0
176
     1
 62
     7
176
     1
 62
   257
176
     1
 90
        1
176
     1
 90
        1
176
     1
 40
1.0
176
     1
 90
        0
176
     1
 62
   257
176
     1
 40
1.0
176
     1
 90
        1
176
     1
 90
        6
176
     1
 90
        2
176
     1
 62
     7
176
     1
 90
        5
176
     1
 90
        0
176
     1
 90
        0
176
     1
290
     0
176
     1
 90
       13
176
     1
 40
0.0
176
     1
 90
        0
176
     1
290
     0
176
     1
290
     1
176
     1
290
     1
176
     1
290
     0
176
     1
290
     0
176
     1
290
     0
176
     1
290
     0
176
     1
290
     0
176
     1
290
     0
176
     1
 90
       50
176
     1
 40
0.0
176
     1
 40
1.0
176
     1
 90
        0
176
     1
 62
    18
420
        0
176
     1
 90
       50
176
     1
 90
        3
176
     1
 62
     5
420
      255
176
     1
290
     0
176
     1
 90
       50
176
     1
 90
       50
176
     1
 90
       50
176
     1
290
     0
176
     1
 90
       50
176
     1
 62
   256
176
     0
 40
1.0
176
     0
 90
        2
176
     1
  1
strokes_ogs.tif
176
     1
290
     0
176
     1
 40
1.0
176
     1
 40
1.0
176
     1
  0
VISUALSTYLE
  5
31
102
{ACAD_REACTORS
330
2A
102
}
330
2A
100
AcDbVisualStyle
  2
Hidden
 70
     6
177
     3
291
     0
 70
    58
 90
        1
176
     1
 90
        2
176
     1
 90
        2
176
     1
 90
        0
176
     1
 40
0.6
176
     1
 40
30.0
176
     1
 62
     7
420
 16777215
176
     1
 90
        2
176
     1
 90
        2
176
     1
 62
     7
176
     1
 62
   257
176
     1
 90
        2
176
     1
 90
        1
176
     1
 40
40.0
176
     1
 90
        0
176
     1
 62
   257
176
     1
 40
1.0
176
     1
 90
        1
176
     1
 90
        6
176
     1
 90
        2
176
     1
 62
     7
176
     1
 90
        3
176
     1
 90
        0
176
     1
 90
        0
176
     1
290
     0
176
     1
 90
        1
176
     1
 40
0.0
176
     1
 90
        0
176
     1
290
     0
176
     1
290
     1
176
     1
290
     1
176
     1
290
     0
176
     1
290
     0
176
     1
290
     0
176
     1
290
     0
176
     1
290
     0
176
     1
290
     0
176
     1
 90
       50
176
     1
 40
0.0
176
     1
 40
1.0
176
     1
 90
        0
176
     1
 62
    18
420
        0
176
     1
 90
       50
176
     1
 90
        3
176
     1
 62
     5
420
      255
176
     1
290
     0
176
     1
 90
       50
176
     1
 90
       50
176
     1
 90
       50
176
     1
290
     0
176
     1
 90
       50
176
     1
 62
   256
176
     0
 40
1.0
176
     0
 90
        2
176
     1
  1
strokes_ogs.tif
176
     1
290
     0
176
     1
 40
1.0
176
     1
 40
1.0
176
     1
  0
VISUALSTYLE
  5
3B
102
{ACAD_REACTORS
330
2A
102
}
330
2A
100
AcDbVisualStyle
  2
JitterOff
 70
    20
177
     3
291
     1
 70
    58
 90
        2
176
     0
 90
        2
176
     0
 90
        0
176
     0
 90
        0
176
     0
 40
0.6
176
     0
 40
30.0
176
     0
 62
     7
420
 16777215
176
     0
 90
        1
176
     0
 90
        4
176
     0
 62
     7
176
     0
 62
   257
176
     0
 90
        1
176
     0
 90
        1
176
     0
 40
1.0
176
     0
 90
       10
176
     2
 62
     7
176
     0
 40
1.0
176
     0
 90
        1
176
     0
 90
        6
176
     0
 90
        2
176
     0
 62
     7
176
     0
 90
        5
176
     0
 90
        0
176
     0
 90
        0
176
     0
290
     0
176
     0
 90
        1
176
     0
 40
0.0
176
     0
 90
        0
176
     0
290
     0
176
     0
290
     1
176
     0
290
     1
176
     0
290
     0
176
     0
290
     0
176
     0
290
     0
176
     0
290
     0
176
     0
290
     0
176
     0
290
     0
176
     0
 90
       50
176
     0
 40
0.0
176
     0
 40
1.0
176
     0
 90
        0
176
     0
 62
    18
420
        0
176
     0
 90
       50
176
     0
 90
        3
176
     0
 62
     5
420
      255
176
     0
290
     0
176
     0
 90
       50
176
     0
 90
       50
176
     0
 90
       50
176
     0
290
     0
176
     0
 90
       50
176
     0
 62
   256
176
     0
 40
1.0
176
     0
 90
        2
176
     0
  1
strokes_ogs.tif
176
     0
290
     0
176
     0
 40
1.0
176
     0
 40
1.0
176
     0
  0
VISUALSTYLE
  5
38
102
{ACAD_REACTORS
330
2A
102
}
330
2A
100
AcDbVisualStyle
  2
Linepattern
 70
    14
177
     3
291
     1
 70
    58
 90
        2
176
     1
 90
        2
176
     1
 90
        0
176
     1
 90
        0
176
     1
 40
0.6
176
     1
 40
30.0
176
     1
 62
     7
420
 16777215
176
     1
 90
        1
176
     1
 90
        4
176
     1
 62
     7
176
     1
 62
   257
176
     1
 90
        7
176
     1
 90
        7
176
     1
 40
1.0
176
     1
 90
        8
176
     1
 62
     7
176
     1
 40
1.0
176
     1
 90
        1
176
     1
 90
        6
176
     1
 90
        2
176
     1
 62
     7
176
     1
 90
        5
176
     1
 90
        0
176
     1
 90
        0
176
     1
290
     0
176
     1
 90
        1
176
     1
 40
0.0
176
     1
 90
        0
176
     1
290
     0
176
     1
290
     1
176
     1
290
     1
176
     1
290
     0
176
     1
290
     0
176
     1
290
     0
176
     1
290
     0
176
     1
290
     0
176
     1
290
     0
176
     1
 90
       50
176
     1
 40
0.0
176
     1
 40
1.0
176
     1
 90
        0
176
     1
 62
    18
420
        0
176
     1
 90
       50
176
     1
 90
        3
176
     1
 62
     5
420
      255
176
     1
290
     0
176
     1
 90
       50
176
     1
 90
       50
176
     1
 90
       50
176
     1
290
     0
176
     1
 90
       50
176
     1
 62
   256
176
     0
 40
1.0
176
     0
 90
        2
176
     1
  1
strokes_ogs.tif
176
     1
290
     0
176
     1
 40
1.0
176
     1
 40
1.0
176
     1
  0
VISUALSTYLE
  5
3C
102
{ACAD_REACTORS
330
2A
102
}
330
2A
100
AcDbVisualStyle
  2
OverhangOff
 70
    21
177
     3
291
     1
 70
    58
 90
        2
176
     0
 90
        2
176
     0
 90
        0
176
     0
 90
        0
176
     0
 40
0.6
176
     0
 40
30.0
176
     0
 62
     7
420
 16777215
176
     0
 90
        1
176
     0
 90
        4
176
     0
 62
     7
176
     0
 62
   257
176
     0
 90
        1
176
     0
 90
        1
176
     0
 40
1.0
176
     0
 90
        9
176
     2
 62
     7
176
     0
 40
1.0
176
     0
 90
        1
176
     0
 90
        6
176
     0
 90
        2
176
     0
 62
     7
176
     0
 90
        5
176
     0
 90
        0
176
     0
 90
        0
176
     0
290
     0
176
     0
 90
        1
176
     0
 40
0.0
176
     0
 90
        0
176
     0
290
     0
176
     0
290
     1
176
     0
290
     1
176
     0
290
     0
176
     0
290
     0
176
     0
290
     0
176
     0
290
     0
176
     0
290
     0
176
     0
290
     0
176
     0
 90
       50
176
     0
 40
0.0
176
     0
 40
1.0
176
     0
 90
        0
176
     0
 62
    18
420
        0
176
     0
 90
       50
176
     0
 90
        3
176
     0
 62
     5
420
      255
176
     0
290
     0
176
     0
 90
       50
176
     0
 90
       50
176
     0
 90
       50
176
     0
290
     0
176
     0
 90
       50
176
     0
 62
   256
176
     0
 40
1.0
176
     0
 90
        2
176
     0
  1
strokes_ogs.tif
176
     0
290
     0
176
     0
 40
1.0
176
     0
 40
1.0
176
     0
  0
VISUALSTYLE
  5
33
102
{ACAD_REACTORS
330
2A
102
}
330
2A
100
AcDbVisualStyle
  2
Realistic
 70
     8
177
     3
291
     0
 70
    58
 90
        2
176
     1
 90
        3
176
     1
 90
        0
176
     1
 90
        2
176
     1
 40
0.6
176
     1
 40
30.0
176
     1
 62
     7
420
 16777215
176
     1
 90
        0
176
     1
 90
        0
176
     1
 62
     7
176
     1
 62
   257
176
     1
 90
        1
176
     1
 90
        1
176
     1
 40
1.0
176
     1
 90
        8
176
     1
 62
   257
176
     1
 40
1.0
176
     1
 90
        1
176
     1
 90
        6
176
     1
 90
        2
176
     1
 62
     7
176
     1
 90
        3
176
     1
 90
        0
176
     1
 90
        0
176
     1
290
     0
176
     1
 90
       13
176
     1
 40
0.0
176
     1
 90
        0
176
     1
290
     0
176
     1
290
     1
176
     1
290
     1
176
     1
290
     0
176
     1
290
     0
176
     1
290
     0
176
     1
290
     0
176
     1
290
     0
176
     1
290
     0
176
     1
 90
       50
176
     1
 40
0.0
176
     1
 40
1.0
176
     1
 90
        0
176
     1
 62
    18
420
        0
176
     1
 90
       50
176
     1
 90
        3
176
     1
 62
     5
420
      255
176
     1
290
     0
176
     1
 90
       50
176
     1
 90
       50
176
     1
 90
       50
176
     1
290
     0
176
     1
 90
       50
176
     1
 62
   256
176
     0
 40
1.0
176
     0
 90
        2
176
     1
  1
strokes_ogs.tif
176
     1
290
     0
176
     1
 40
1.0
176
     1
 40
1.0
176
     1
  0
VISUALSTYLE
  5
42
102
{ACAD_REACTORS
330
2A
102
}
330
2A
100
AcDbVisualStyle
  2
Shaded
 70
    27
177
     3
291
     0
 70
    58
 90
        2
176
     1
 90
        2
176
     1
 90
        1
176
     1
 90
        2
176
     1
 40
0.6
176
     1
 40
30.0
176
     1
 62
     7
420
 16777215
176
     1
 90
        0
176
     1
 90
        4
176
     1
 62
     7
176
     1
 62
   257
176
     1
 90
        1
176
     1
 90
        1
176
     1
 40
1.0
176
     1
 90
        8
176
     1
 62
   257
176
     1
 40
1.0
176
     1
 90
        1
176
     1
 90
        6
176
     1
 90
        2
176
     1
 62
     8
420
  7895160
176
     1
 90
        3
176
     1
 90
        0
176
     1
 90
        0
176
     1
290
     0
176
     1
 90
        5
176
     1
 40
0.0
176
     1
 90
        0
176
     1
290
     0
176
     1
290
     1
176
     1
290
     1
176
     1
290
     0
176
     1
290
     0
176
     1
290
     0
176
     1
290
     0
176
     1
290
     0
176
     1
290
     0
176
     1
 90
       50
176
     1
 40
0.0
176
     1
 40
1.0
176
     1
 90
        0
176
     1
 62
    18
420
        0
176
     1
 90
       50
176
     1
 90
        3
176
     1
 62
     5
420
      255
176
     1
290
     0
176
     1
 90
       50
176
     1
 90
       50
176
     1
 90
       50
176
     1
290
     0
176
     1
 90
       50
176
     1
 62
   256
176
     0
 40
1.0
176
     0
 90
        2
176
     1
  1
strokes_ogs.tif
176
     1
290
     0
176
     1
 40
1.0
176
     1
 40
1.0
176
     1
  0
VISUALSTYLE
  5
41
102
{ACAD_REACTORS
330
2A
102
}
330
2A
100
AcDbVisualStyle
  2
Shaded with edges
 70
    26
177
     3
291
     0
 70
    58
 90
        2
176
     1
 90
        2
176
     1
 90
        1
176
     1
 90
        2
176
     1
 40
0.6
176
     1
 40
30.0
176
     1
 62
     7
420
 16777215
176
     1
 90
        1
176
     1
 90
       10
176
     1
 62
     7
176
     1
 62
   257
176
     1
 90
        2
176
     1
 90
        1
176
     1
 40
1.0
176
     1
 90
        8
176
     1
 62
   257
176
     1
 40
1.0
176
     1
 90
        1
176
     1
 90
        6
176
     1
 90
        2
176
     1
 62
     7
176
     1
 90
        3
176
     1
 90
        0
176
     1
 90
        0
176
     1
290
     0
176
     1
 90
        5
176
     1
 40
0.0
176
     1
 90
        0
176
     1
290
     0
176
     1
290
     1
176
     1
290
     1
176
     1
290
     0
176
     1
290
     0
176
     1
290
     0
176
     1
290
     0
176
     1
290
     0
176
     1
290
     0
176
     1
 90
       50
176
     1
 40
0.0
176
     1
 40
1.0
176
     1
 90
        0
176
     1
 62
    18
420
        0
176
     1
 90
       50
176
     1
 90
        3
176
     1
 62
     5
420
      255
176
     1
290
     0
176
     1
 90
       50
176
     1
 90
       50
176
     1
 90
       50
176
     1
290
     0
176
     1
 90
       50
176
     1
 62
   256
176
     0
 40
1.0
176
     0
 90
        2
176
     1
  1
strokes_ogs.tif
176
     1
290
     0
176
     1
 40
1.0
176
     1
 40
1.0
176
     1
  0
VISUALSTYLE
  5
3E
102
{ACAD_REACTORS
330
2A
102
}
330
2A
100
AcDbVisualStyle
  2
Shades of Gray
 70
    23
177
     3
291
     0
 70
    58
 90
        2
176
     1
 90
        2
176
     1
 90
        3
176
     1
 90
        0
176
     1
 40
0.6
176
     1
 40
30.0
176
     1
 62
     7
420
 16777215
176
     1
 90
        2
176
     1
 90
        2
176
     1
 62
     7
176
     1
 62
     7
176
     1
 90
        1
176
     1
 90
        1
176
     1
 40
40.0
176
     1
 90
        8
176
     1
 62
     7
176
     1
 40
1.0
176
     1
 90
        1
176
     1
 90
        6
176
     1
 90
        2
176
     1
 62
     7
176
     1
 90
        3
176
     1
 90
        0
176
     1
 90
        0
176
     1
290
     0
176
     1
 90
        1
176
     1
 40
0.0
176
     1
 90
        0
176
     1
290
     0
176
     1
290
     1
176
     1
290
     1
176
     1
290
     0
176
     1
290
     0
176
     1
290
     0
176
     1
290
     0
176
     1
290
     0
176
     1
290
     0
176
     1
 90
       50
176
     1
 40
0.0
176
     1
 40
1.0
176
     1
 90
        0
176
     1
 62
    18
420
        0
176
     1
 90
       50
176
     1
 90
        3
176
     1
 62
     5
420
      255
176
     1
290
     0
176
     1
 90
       50
176
     1
 90
       50
176
     1
 90
       50
176
     1
290
     0
176
     1
 90
       50
176
     1
 62
   256
176
     0
 40
1.0
176
     0
 90
        2
176
     1
  1
strokes_ogs.tif
176
     1
290
     0
176
     1
 40
1.0
176
     1
 40
1.0
176
     1
  0
VISUALSTYLE
  5
3F
102
{ACAD_REACTORS
330
2A
102
}
330
2A
100
AcDbVisualStyle
  2
Sketchy
 70
    24
177
     3
291
     0
 70
    58
 90
        1
176
     1
 90
        2
176
     1
 90
        2
176
     1
 90
        0
176
     1
 40
0.6
176
     1
 40
30.0
176
     1
 62
     7
420
 16777215
176
     1
 90
        2
176
     1
 90
        2
176
     1
 62
     7
176
     1
 62
     7
176
     1
 90
        1
176
     1
 90
        1
176
     1
 40
40.0
176
     1
 90
       11
176
     1
 62
     7
176
     1
 40
1.0
176
     1
 90
        1
176
     1
 90
        6
176
     1
 90
        2
176
     1
 62
     7
176
     1
 90
        6
176
     1
 90
        0
176
     1
 90
        0
176
     1
290
     0
176
     1
 90
        1
176
     1
 40
0.0
176
     1
 90
        0
176
     1
290
     0
176
     1
290
     1
176
     1
290
     1
176
     1
290
     0
176
     1
290
     0
176
     1
290
     0
176
     1
290
     0
176
     1
290
     0
176
     1
290
     0
176
     1
 90
       50
176
     1
 40
0.0
176
     1
 40
1.0
176
     1
 90
        0
176
     1
 62
    18
420
        0
176
     1
 90
       50
176
     1
 90
        3
176
     1
 62
     5
420
      255
176
     1
290
     0
176
     1
 90
       50
176
     1
 90
       50
176
     1
 90
       50
176
     1
290
     0
176
     1
 90
       50
176
     1
 62
   256
176
     0
 40
1.0
176
     0
 90
        2
176
     1
  1
strokes_ogs.tif
176
     1
290
     0
176
     1
 40
1.0
176
     1
 40
1.0
176
     1
  0
VISUALSTYLE
  5
37
102
{ACAD_REACTORS
330
2A
102
}
330
2A
100
AcDbVisualStyle
  2
Thicken
 70
    13
177
     3
291
     1
 70
    58
 90
        2
176
     1
 90
        2
176
     1
 90
        0
176
     1
 90
        0
176
     1
 40
0.6
176
     1
 40
30.0
176
     1
 62
     7
420
 16777215
176
     1
 90
        1
176
     1
 90
        4
176
     1
 62
     7
176
     1
 62
   257
176
     1
 90
        1
176
     1
 90
        1
176
     1
 40
1.0
176
     1
 90
       12
176
     1
 62
     7
176
     1
 40
1.0
176
     1
 90
        1
176
     1
 90
        6
176
     1
 90
        2
176
     1
 62
     7
176
     1
 90
        5
176
     1
 90
        0
176
     1
 90
        0
176
     1
290
     0
176
     1
 90
        1
176
     1
 40
0.0
176
     1
 90
        0
176
     1
290
     0
176
     1
290
     1
176
     1
290
     1
176
     1
290
     0
176
     1
290
     0
176
     1
290
     0
176
     1
290
     0
176
     1
290
     0
176
     1
290
     0
176
     1
 90
       50
176
     1
 40
0.0
176
     1
 40
1.0
176
     1
 90
        0
176
     1
 62
    18
420
        0
176
     1
 90
       50
176
     1
 90
        3
176
     1
 62
     5
420
      255
176
     1
290
     0
176
     1
 90
       50
176
     1
 90
       50
176
     1
 90
       50
176
     1
290
     0
176
     1
 90
       50
176
     1
 62
   256
176
     0
 40
1.0
176
     0
 90
        2
176
     1
  1
strokes_ogs.tif
176
     1
290
     0
176
     1
 40
1.0
176
     1
 40
1.0
176
     1
  0
VISUALSTYLE
  5
30
102
{ACAD_REACTORS
330
2A
102
}
330
2A
100
AcDbVisualStyle
  2
Wireframe
 70
     5
177
     3
291
     0
 70
    58
 90
        0
176
     1
 90
        2
176
     1
 90
        0
176
     1
 90
        0
176
     1
 40
0.6
176
     1
 40
30.0
176
     1
 62
     7
420
 16777215
176
     1
 90
        1
176
     1
 90
        4
176
     1
 62
     7
176
     1
 62
   257
176
     1
 90
        1
176
     1
 90
        1
176
     1
 40
1.0
176
     1
 90
        0
176
     1
 62
   257
176
     1
 40
1.0
176
     1
 90
        1
176
     1
 90
        6
176
     1
 90
        2
176
     1
 62
     7
176
     1
 90
        3
176
     1
 90
        0
176
     1
 90
        0
176
     1
290
     0
176
     1
 90
        1
176
     1
 40
0.0
176
     1
 90
        0
176
     1
290
     0
176
     1
290
     1
176
     1
290
     1
176
     1
290
     0
176
     1
290
     0
176
     1
290
     0
176
     1
290
     0
176
     1
290
     0
176
     1
290
     0
176
     1
 90
       50
176
     1
 40
0.0
176
     1
 40
1.0
176
     1
 90
        0
176
     1
 62
    18
420
        0
176
     1
 90
       50
176
     1
 90
        3
176
     1
 62
     5
420
      255
176
     1
290
     0
176
     1
 90
       50
176
     1
 90
       50
176
     1
 90
       50
176
     1
290
     0
176
     1
 90
       50
176
     1
 62
   256
176
     0
 40
1.0
176
     0
 90
        2
176
     1
  1
strokes_ogs.tif
176
     1
290
     0
176
     1
 40
1.0
176
     1
 40
1.0
176
     1
  0
VISUALSTYLE
  5
40
102
{ACAD_REACTORS
330
2A
102
}
330
2A
100
AcDbVisualStyle
  2
X-Ray
 70
    25
177
     3
291
     0
 70
    58
 90
        2
176
     1
 90
        2
176
     1
 90
        1
176
     1
 90
        1
176
     1
 40
0.5
176
     1
 40
30.0
176
     1
 62
     7
420
 16777215
176
     1
 90
        1
176
     1
 90
        0
176
     1
 62
     7
176
     1
 62
   257
176
     1
 90
        1
176
     1
 90
        1
176
     1
 40
1.0
176
     1
 90
        8
176
     1
 62
     7
176
     1
 40
1.0
176
     1
 90
        1
176
     1
 90
        6
176
     1
 90
        2
176
     1
 62
     7
176
     1
 90
        3
176
     1
 90
        0
176
     1
 90
        0
176
     1
290
     0
176
     1
 90
       13
176
     1
 40
0.0
176
     1
 90
        0
176
     1
290
     0
176
     1
290
     1
176
     1
290
     1
176
     1
290
     0
176
     1
290
     0
176
     1
290
     0
176
     1
290
     0
176
     1
290
     0
176
     1
290
     0
176
     1
 90
       50
176
     1
 40
0.0
176
     1
 40
1.0
176
     1
 90
        0
176
     1
 62
    18
420
        0
176
     1
 90
       50
176
     1
 90
        3
176
     1
 62
     5
420
      255
176
     1
290
     0
176
     1
 90
       50
176
     1
 90
       50
176
     1
 90
       50
176
     1
290
     0
176
     1
 90
       50
176
     1
 62
   256
176
     0
 40
1.0
176
     0
 90
        2
176
     1
  1
strokes_ogs.tif
176
     1
290
     0
176
     1
 40
1.0
176
     1
 40
1.0
176
     1
  0
DICTIONARYVAR
  5
20B
102
{ACAD_REACTORS
330
20A
102
}
330
20A
100
DictionaryVariables
280
     0
  1
1:1
  0
DICTIONARYVAR
  5
210
102
{ACAD_REACTORS
330
20A
102
}
330
20A
100
DictionaryVariables
280
     0
  1
Standard
  0
DICTIONARYVAR
  5
20F
102
{ACAD_REACTORS
330
20A
102
}
330
20A
100
DictionaryVariables
280
     0
  1
Standard
  0
DICTIONARY
  5
20C
330
6A
100
AcDbDictionary
280
     1
281
     1
  3
ACAD_ROUNDTRIP_2008_TABLESTYLE_CELLSTYLEMAP
360
20D
  0
CELLSTYLEMAP
  5
20D
102
{ACAD_REACTORS
330
20C
102
}
330
20C
100
AcDbCellStyleMap
 90
        3
300
CELLSTYLE
  1
TABLEFORMAT_BEGIN
 90
        5
170
     1
 91
        0
 92
    32768
 62
   257
 93
        1
300
CONTENTFORMAT
  1
CONTENTFORMAT_BEGIN
 90
        0
 91
        0
 92
        4
 93
        0
300

 40
0.0
140
1.0
 94
        5
 62
     0
340
11
144
0.25
309
CONTENTFORMAT_END
171
     1
301
MARGIN
  1
CELLMARGIN_BEGIN
 40
0.06
 40
0.06
 40
0.06
 40
0.06
 40
0.06
 40
0.06
309
CELLMARGIN_END
 94
        6
 95
        1
302
GRIDFORMAT
  1
GRIDFORMAT_BEGIN
 90
        0
 91
        1
 62
     0
 92
       -2
340
14
 93
        0
 40
0.045
309
GRIDFORMAT_END
 95
        2
302
GRIDFORMAT
  1
GRIDFORMAT_BEGIN
 90
        0
 91
        1
 62
     0
 92
       -2
340
14
 93
        0
 40
0.045
309
GRIDFORMAT_END
 95
        4
302
GRIDFORMAT
  1
GRIDFORMAT_BEGIN
 90
        0
 91
        1
 62
     0
 92
       -2
340
14
 93
        0
 40
0.045
309
GRIDFORMAT_END
 95
        8
302
GRIDFORMAT
  1
GRIDFORMAT_BEGIN
 90
        0
 91
        1
 62
     0
 92
       -2
340
14
 93
        0
 40
0.045
309
GRIDFORMAT_END
 95
       16
302
GRIDFORMAT
  1
GRIDFORMAT_BEGIN
 90
        0
 91
        1
 62
     0
 92
       -2
340
14
 93
        0
 40
0.045
309
GRIDFORMAT_END
 95
       32
302
GRIDFORMAT
  1
GRIDFORMAT_BEGIN
 90
        0
 91
        1
 62
     0
 92
       -2
340
14
 93
        0
 40
0.045
309
GRIDFORMAT_END
309
TABLEFORMAT_END
  1
CELLSTYLE_BEGIN
 90
        1
 91
        1
300
_TITLE
309
CELLSTYLE_END
300
CELLSTYLE
  1
TABLEFORMAT_BEGIN
 90
        5
170
     1
 91
        0
 92
        0
 62
   257
 93
        1
300
CONTENTFORMAT
  1
CONTENTFORMAT_BEGIN
 90
        0
 91
        0
 92
        4
 93
        0
300

 40
0.0
140
1.0
 94
        5
 62
     0
340
11
144
0.18
309
CONTENTFORMAT_END
171
     1
301
MARGIN
  1
CELLMARGIN_BEGIN
 40
0.06
 40
0.06
 40
0.06
 40
0.06
 40
0.06
 40
0.06
309
CELLMARGIN_END
 94
        6
 95
        1
302
GRIDFORMAT
  1
GRIDFORMAT_BEGIN
 90
        0
 91
        1
 62
     0
 92
       -2
340
14
 93
        0
 40
0.045
309
GRIDFORMAT_END
 95
        2
302
GRIDFORMAT
  1
GRIDFORMAT_BEGIN
 90
        0
 91
        1
 62
     0
 92
       -2
340
14
 93
        0
 40
0.045
309
GRIDFORMAT_END
 95
        4
302
GRIDFORMAT
  1
GRIDFORMAT_BEGIN
 90
        0
 91
        1
 62
     0
 92
       -2
340
14
 93
        0
 40
0.045
309
GRIDFORMAT_END
 95
        8
302
GRIDFORMAT
  1
GRIDFORMAT_BEGIN
 90
        0
 91
        1
 62
     0
 92
       -2
340
14
 93
        0
 40
0.045
309
GRIDFORMAT_END
 95
       16
302
GRIDFORMAT
  1
GRIDFORMAT_BEGIN
 90
        0
 91
        1
 62
     0
 92
       -2
340
14
 93
        0
 40
0.045
309
GRIDFORMAT_END
 95
       32
302
GRIDFORMAT
  1
GRIDFORMAT_BEGIN
 90
        0
 91
        1
 62
     0
 92
       -2
340
14
 93
        0
 40
0.045
309
GRIDFORMAT_END
309
TABLEFORMAT_END
  1
CELLSTYLE_BEGIN
 90
        2
 91
        1
300
_HEADER
309
CELLSTYLE_END
300
CELLSTYLE
  1
TABLEFORMAT_BEGIN
 90
        5
170
     1
 91
        0
 92
        0
 62
   257
 93
        1
300
CONTENTFORMAT
  1
CONTENTFORMAT_BEGIN
 90
        0
 91
        0
 92
        4
 93
        0
300

 40
0.0
140
1.0
 94
        2
 62
     0
340
11
144
0.18
309
CONTENTFORMAT_END
171
     1
301
MARGIN
  1
CELLMARGIN_BEGIN
 40
0.06
 40
0.06
 40
0.06
 40
0.06
 40
0.06
 40
0.06
309
CELLMARGIN_END
 94
        6
 95
        1
302
GRIDFORMAT
  1
GRIDFORMAT_BEGIN
 90
        0
 91
        1
 62
     0
 92
       -2
340
14
 93
        0
 40
0.045
309
GRIDFORMAT_END
 95
        2
302
GRIDFORMAT
  1
GRIDFORMAT_BEGIN
 90
        0
 91
        1
 62
     0
 92
       -2
340
14
 93
        0
 40
0.045
309
GRIDFORMAT_END
 95
        4
302
GRIDFORMAT
  1
GRIDFORMAT_BEGIN
 90
        0
 91
        1
 62
     0
 92
       -2
340
14
 93
        0
 40
0.045
309
GRIDFORMAT_END
 95
        8
302
GRIDFORMAT
  1
GRIDFORMAT_BEGIN
 90
        0
 91
        1
 62
     0
 92
       -2
340
14
 93
        0
 40
0.045
309
GRIDFORMAT_END
 95
       16
302
GRIDFORMAT
  1
GRIDFORMAT_BEGIN
 90
        0
 91
        1
 62
     0
 92
       -2
340
14
 93
        0
 40
0.045
309
GRIDFORMAT_END
 95
       32
302
GRIDFORMAT
  1
GRIDFORMAT_BEGIN
 90
        0
 91
        1
 62
     0
 92
       -2
340
14
 93
        0
 40
0.045
309
GRIDFORMAT_END
309
TABLEFORMAT_END
  1
CELLSTYLE_BEGIN
 90
        3
 91
        2
300
_DATA
309
CELLSTYLE_END
  0
ENDSEC
  0
EOF