0
SECTION
  2
HEADER
  9
$ACADVER
  1
AC1027
  9
$ACADMAINTVER
 70
     8
  9
$DWGCODEPAGE
  3
ANSI_1252
  9
$REQUIREDVERSIONS
160
                 0
  9
$COMMENTS
  1
File was created by Cadenas
  9
$CUSTOMPROPERTYTAG
  1
NN
  9
$CUSTOMPROPERTY
  1
S-2000 Piloted Flange Labyrinth Seal
  9
$CUSTOMPROPERTYTAG
  1
NT
  9
$CUSTOMPROPERTY
  1
S-2000 Piloted Flange Bearing -Inch
  9
$CUSTOMPROPERTYTAG
  1
NB
  9
$CUSTOMPROPERTY
  1
070704
  9
$CUSTOMPROPERTYTAG
  1
NBSYN
  9
$CUSTOMPROPERTY
  1
$PN.
  9
$CUSTOMPROPERTYTAG
  1
LINA
  9
$CUSTOMPROPERTY
  1
070704
  9
$CUSTOMPROPERTYTAG
  1
SS
  9
$CUSTOMPROPERTY
  1
1-15/16
  9
$CUSTOMPROPERTYTAG
  1
PN
  9
$CUSTOMPROPERTY
  1
070704
  9
$CUSTOMPROPERTYTAG
  1
DESCRIPTION
  9
$CUSTOMPROPERTY
  1
FC-S2-115L
  9
$CUSTOMPROPERTYTAG
  1
EF
  9
$CUSTOMPROPERTY
  1
Non-Expansion Type
  9
$CUSTOMPROPERTYTAG
  1
ST
  9
$CUSTOMPROPERTY
  1
Labyrinth Seal
  9
$CUSTOMPROPERTYTAG
  1
A
  9
$CUSTOMPROPERTY
  1
2-27/32
  9
$CUSTOMPROPERTYTAG
  1
B
  9
$CUSTOMPROPERTY
  1
6-3/8
  9
$CUSTOMPROPERTYTAG
  1
C
  9
$CUSTOMPROPERTY
  1
2
  9
$CUSTOMPROPERTYTAG
  1
D
  9
$CUSTOMPROPERTY
  1
3-51/64
  9
$CUSTOMPROPERTYTAG
  1
DD
  9
$CUSTOMPROPERTY
  1
5-3/8
  9
$CUSTOMPROPERTYTAG
  1
E
  9
$CUSTOMPROPERTY
  1
7/8
  9
$CUSTOMPROPERTYTAG
  1
F
  9
$CUSTOMPROPERTY
  1
7/16
  9
$CUSTOMPROPERTYTAG
  1
G
  9
$CUSTOMPROPERTY
  1
1-19/32
  9
$CUSTOMPROPERTYTAG
  1
H
  9
$CUSTOMPROPERTY
  1
9/16
  9
$CUSTOMPROPERTYTAG
  1
K
  9
$CUSTOMPROPERTY
  1
4.500
  9
$CUSTOMPROPERTYTAG
  1
L
  9
$CUSTOMPROPERTY
  1
3-7/16
  9
$CUSTOMPROPERTYTAG
  1
M
  9
$CUSTOMPROPERTY
  1
7/16-14
  9
$CUSTOMPROPERTYTAG
  1
N
  9
$CUSTOMPROPERTY
  1
2-55/64
  9
$CUSTOMPROPERTYTAG
  1
P
  9
$CUSTOMPROPERTY
  1
1-1/4
  9
$CUSTOMPROPERTYTAG
  1
Q
  9
$CUSTOMPROPERTY
  1
1-17/64
  9
$CUSTOMPROPERTYTAG
  1
X
  9
$CUSTOMPROPERTY
  1
1/4
  9
$CUSTOMPROPERTYTAG
  1
Y
  9
$CUSTOMPROPERTY
  1
0.020
  9
$CUSTOMPROPERTYTAG
  1
Z
  9
$CUSTOMPROPERTY
  1
2-19/64
  9
$CUSTOMPROPERTYTAG
  1
COMPANY
  9
$CUSTOMPROPERTY
  1
baldor
  9
$INSBASE
 10
0.0
 20
0.0
 30
0.0
  9
$EXTMIN
 10
1.000000000000000E+20
 20
1.000000000000000E+20
 30
1.000000000000000E+20
  9
$EXTMAX
 10
-1.000000000000000E+20
 20
-1.000000000000000E+20
 30
-1.000000000000000E+20
  9
$LIMMIN
 10
0.0
 20
0.0
  9
$LIMMAX
 10
12.0
 20
9.0
  9
$ORTHOMODE
 70
     0
  9
$REGENMODE
 70
     1
  9
$FILLMODE
 70
     1
  9
$QTEXTMODE
 70
     0
  9
$MIRRTEXT
 70
     1
  9
$LTSCALE
 40
1.0
  9
$ATTMODE
 70
     1
  9
$TEXTSIZE
 40
0.2
  9
$TRACEWID
 40
0.05
  9
$TEXTSTYLE
  7
Standard
  9
$CLAYER
  8
0
  9
$CELTYPE
  6
ByLayer
  9
$CECOLOR
 62
   256
  9
$CELTSCALE
 40
1.0
  9
$DISPSILH
 70
     0
  9
$DIMSCALE
 40
1.0
  9
$DIMASZ
 40
0.18
  9
$DIMEXO
 40
0.0625
  9
$DIMDLI
 40
0.38
  9
$DIMRND
 40
0.0
  9
$DIMDLE
 40
0.0
  9
$DIMEXE
 40
0.18
  9
$DIMTP
 40
0.0
  9
$DIMTM
 40
0.0
  9
$DIMTXT
 40
0.18
  9
$DIMCEN
 40
0.09
  9
$DIMTSZ
 40
0.0
  9
$DIMTOL
 70
     0
  9
$DIMLIM
 70
     0
  9
$DIMTIH
 70
     1
  9
$DIMTOH
 70
     1
  9
$DIMSE1
 70
     0
  9
$DIMSE2
 70
     0
  9
$DIMTAD
 70
     0
  9
$DIMZIN
 70
     0
  9
$DIMBLK
  1

  9
$DIMASO
 70
     1
  9
$DIMSHO
 70
     1
  9
$DIMPOST
  1

  9
$DIMAPOST
  1

  9
$DIMALT
 70
     0
  9
$DIMALTD
 70
     2
  9
$DIMALTF
 40
25.4
  9
$DIMLFAC
 40
1.0
  9
$DIMTOFL
 70
     0
  9
$DIMTVP
 40
0.0
  9
$DIMTIX
 70
     0
  9
$DIMSOXD
 70
     0
  9
$DIMSAH
 70
     0
  9
$DIMBLK1
  1

  9
$DIMBLK2
  1

  9
$DIMSTYLE
  2
Standard
  9
$DIMCLRD
 70
     0
  9
$DIMCLRE
 70
     0
  9
$DIMCLRT
 70
     0
  9
$DIMTFAC
 40
1.0
  9
$DIMGAP
 40
0.09
  9
$DIMJUST
 70
     0
  9
$DIMSD1
 70
     0
  9
$DIMSD2
 70
     0
  9
$DIMTOLJ
 70
     1
  9
$DIMTZIN
 70
     0
  9
$DIMALTZ
 70
     0
  9
$DIMALTTZ
 70
     0
  9
$DIMUPT
 70
     0
  9
$DIMDEC
 70
     4
  9
$DIMTDEC
 70
     4
  9
$DIMALTU
 70
     2
  9
$DIMALTTD
 70
     2
  9
$DIMTXSTY
  7
Standard
  9
$DIMAUNIT
 70
     0
  9
$DIMADEC
 70
     0
  9
$DIMALTRND
 40
0.0
  9
$DIMAZIN
 70
     0
  9
$DIMDSEP
 70
    46
  9
$DIMATFIT
 70
     3
  9
$DIMFRAC
 70
     0
  9
$DIMLDRBLK
  1

  9
$DIMLUNIT
 70
     2
  9
$DIMLWD
 70
    -2
  9
$DIMLWE
 70
    -2
  9
$DIMTMOVE
 70
     0
  9
$DIMFXL
 40
1.0
  9
$DIMFXLON
 70
     0
  9
$DIMJOGANG
 40
0.7853981633974483
  9
$DIMTFILL
 70
     0
  9
$DIMTFILLCLR
 70
     0
  9
$DIMARCSYM
 70
     0
  9
$DIMLTYPE
  6

  9
$DIMLTEX1
  6

  9
$DIMLTEX2
  6

  9
$DIMTXTDIRECTION
 70
     0
  9
$LUNITS
 70
     2
  9
$LUPREC
 70
     4
  9
$SKETCHINC
 40
0.1
  9
$FILLETRAD
 40
0.5
  9
$AUNITS
 70
     0
  9
$AUPREC
 70
     0
  9
$MENU
  1
.
  9
$ELEVATION
 40
0.0
  9
$PELEVATION
 40
0.0
  9
$THICKNESS
 40
0.0
  9
$LIMCHECK
 70
     0
  9
$CHAMFERA
 40
0.0
  9
$CHAMFERB
 40
0.0
  9
$CHAMFERC
 40
0.0
  9
$CHAMFERD
 40
0.0
  9
$SKPOLY
 70
     0
  9
$TDCREATE
 40
2458168.972566342
  9
$TDUCREATE
 40
2458168.930899676
  9
$TDUPDATE
 40
2458168.972566342
  9
$TDUUPDATE
 40
2458168.930899676
  9
$TDINDWG
 40
0.0000000116
  9
$TDUSRTIMER
 40
0.0000000116
  9
$USRTIMER
 70
     1
  9
$ANGBASE
 50
0.0
  9
$ANGDIR
 70
     0
  9
$PDMODE
 70
     0
  9
$PDSIZE
 40
0.0
  9
$PLINEWID
 40
0.0
  9
$SPLFRAME
 70
     0
  9
$SPLINETYPE
 70
     6
  9
$SPLINESEGS
 70
     8
  9
$HANDSEED
  5
213
  9
$SURFTAB1
 70
     6
  9
$SURFTAB2
 70
     6
  9
$SURFTYPE
 70
     6
  9
$SURFU
 70
     6
  9
$SURFV
 70
     6
  9
$UCSBASE
  2

  9
$UCSNAME
  2

  9
$UCSORG
 10
0.0
 20
0.0
 30
0.0
  9
$UCSXDIR
 10
1.0
 20
0.0
 30
0.0
  9
$UCSYDIR
 10
0.0
 20
1.0
 30
0.0
  9
$UCSORTHOREF
  2

  9
$UCSORTHOVIEW
 70
     0
  9
$UCSORGTOP
 10
0.0
 20
0.0
 30
0.0
  9
$UCSORGBOTTOM
 10
0.0
 20
0.0
 30
0.0
  9
$UCSORGLEFT
 10
0.0
 20
0.0
 30
0.0
  9
$UCSORGRIGHT
 10
0.0
 20
0.0
 30
0.0
  9
$UCSORGFRONT
 10
0.0
 20
0.0
 30
0.0
  9
$UCSORGBACK
 10
0.0
 20
0.0
 30
0.0
  9
$PUCSBASE
  2

  9
$PUCSNAME
  2

  9
$PUCSORG
 10
0.0
 20
0.0
 30
0.0
  9
$PUCSXDIR
 10
1.0
 20
0.0
 30
0.0
  9
$PUCSYDIR
 10
0.0
 20
1.0
 30
0.0
  9
$PUCSORTHOREF
  2

  9
$PUCSORTHOVIEW
 70
     0
  9
$PUCSORGTOP
 10
0.0
 20
0.0
 30
0.0
  9
$PUCSORGBOTTOM
 10
0.0
 20
0.0
 30
0.0
  9
$PUCSORGLEFT
 10
0.0
 20
0.0
 30
0.0
  9
$PUCSORGRIGHT
 10
0.0
 20
0.0
 30
0.0
  9
$PUCSORGFRONT
 10
0.0
 20
0.0
 30
0.0
  9
$PUCSORGBACK
 10
0.0
 20
0.0
 30
0.0
  9
$USERI1
 70
     0
  9
$USERI2
 70
     0
  9
$USERI3
 70
     0
  9
$USERI4
 70
     0
  9
$USERI5
 70
     0
  9
$USERR1
 40
0.0
  9
$USERR2
 40
0.0
  9
$USERR3
 40
0.0
  9
$USERR4
 40
0.0
  9
$USERR5
 40
0.0
  9
$WORLDVIEW
 70
     1
  9
$SHADEDGE
 70
     3
  9
$SHADEDIF
 70
    70
  9
$TILEMODE
 70
     1
  9
$MAXACTVP
 70
    64
  9
$PINSBASE
 10
0.0
 20
0.0
 30
0.0
  9
$PLIMCHECK
 70
     0
  9
$PEXTMIN
 10
1.000000000000000E+20
 20
1.000000000000000E+20
 30
1.000000000000000E+20
  9
$PEXTMAX
 10
-1.000000000000000E+20
 20
-1.000000000000000E+20
 30
-1.000000000000000E+20
  9
$PLIMMIN
 10
0.0
 20
0.0
  9
$PLIMMAX
 10
12.0
 20
9.0
  9
$UNITMODE
 70
     0
  9
$VISRETAIN
 70
     1
  9
$PLINEGEN
 70
     0
  9
$PSLTSCALE
 70
     1
  9
$TREEDEPTH
 70
  3020
  9
$CMLSTYLE
  2
Standard
  9
$CMLJUST
 70
     0
  9
$CMLSCALE
 40
1.0
  9
$PROXYGRAPHICS
 70
     1
  9
$MEASUREMENT
 70
     0
  9
$CELWEIGHT
370
    -1
  9
$ENDCAPS
280
     0
  9
$JOINSTYLE
280
     0
  9
$LWDISPLAY
290
     0
  9
$INSUNITS
 70
     1
  9
$HYPERLINKBASE
  1

  9
$STYLESHEET
  1

  9
$XEDIT
290
     1
  9
$CEPSNTYPE
380
     0
  9
$PSTYLEMODE
290
     1
  9
$FINGERPRINTGUID
  2
{DD6C5BD1-A0BD-4A2A-8400-0488388B275F}
  9
$VERSIONGUID
  2
{FAEB1C32-E019-11D5-929B-00C0DF256EC4}
  9
$EXTNAMES
290
     1
  9
$PSVPSCALE
 40
0.0
  9
$OLESTARTUP
290
     0
  9
$SORTENTS
280
   127
  9
$INDEXCTL
280
     0
  9
$HIDETEXT
280
     1
  9
$XCLIPFRAME
280
     2
  9
$HALOGAP
280
     0
  9
$OBSCOLOR
 70
   257
  9
$OBSLTYPE
280
     0
  9
$INTERSECTIONDISPLAY
280
     0
  9
$INTERSECTIONCOLOR
 70
   257
  9
$DIMASSOC
280
     2
  9
$PROJECTNAME
  1

  9
$CAMERADISPLAY
290
     0
  9
$LENSLENGTH
 40
50.0
  9
$CAMERAHEIGHT
 40
0.0
  9
$STEPSPERSEC
 40
2.0
  9
$STEPSIZE
 40
6.0
  9
$3DDWFPREC
 40
2.0
  9
$PSOLWIDTH
 40
0.25
  9
$PSOLHEIGHT
 40
4.0
  9
$LOFTANG1
 40
1.570796326794897
  9
$LOFTANG2
 40
1.570796326794897
  9
$LOFTMAG1
 40
0.0
  9
$LOFTMAG2
 40
0.0
  9
$LOFTPARAM
 70
     7
  9
$LOFTNORMALS
280
     1
  9
$LATITUDE
 40
37.795
  9
$LONGITUDE
 40
-122.394
  9
$NORTHDIRECTION
 40
0.0
  9
$TIMEZONE
 70
 -8000
  9
$LIGHTGLYPHDISPLAY
280
     1
  9
$TILEMODELIGHTSYNCH
280
     1
  9
$CMATERIAL
347
44
  9
$SOLIDHIST
280
     0
  9
$SHOWHIST
280
     1
  9
$DWFFRAME
280
     2
  9
$DGNFRAME
280
     2
  9
$REALWORLDSCALE
290
     1
  9
$INTERFERECOLOR
 62
   256
  9
$CSHADOW
280
     0
  9
$SHADOWPLANELOCATION
 40
0.0
  0
ENDSEC
  0
SECTION
  2
CLASSES
  0
CLASS
  1
ACDBDICTIONARYWDFLT
  2
AcDbDictionaryWithDefault
  3
ObjectDBX Classes
 90
        0
 91
        4
280
     0
281
     0
  0
CLASS
  1
VISUALSTYLE
  2
AcDbVisualStyle
  3
ObjectDBX Classes
 90
     4095
 91
        4
280
     0
281
     0
  0
CLASS
  1
MATERIAL
  2
AcDbMaterial
  3
ObjectDBX Classes
 90
     1153
 91
        4
280
     0
281
     0
  0
CLASS
  1
SCALE
  2
AcDbScale
  3
ObjectDBX Classes
 90
     1153
 91
        4
280
     0
281
     0
  0
CLASS
  1
TABLESTYLE
  2
AcDbTableStyle
  3
ObjectDBX Classes
 90
     4095
 91
        4
280
     0
281
     0
  0
CLASS
  1
MLEADERSTYLE
  2
AcDbMLeaderStyle
  3
ACDB_MLEADERSTYLE_CLASS
 90
     4095
 91
        4
280
     0
281
     0
  0
CLASS
  1
SUN
  2
AcDbSun
  3
SCENEOE
 90
     1153
 91
        4
280
     0
281
     0
  0
CLASS
  1
DICTIONARYVAR
  2
AcDbDictionaryVar
  3
ObjectDBX Classes
 90
        0
 91
        4
280
     0
281
     0
  0
CLASS
  1
CELLSTYLEMAP
  2
AcDbCellStyleMap
  3
ObjectDBX Classes
 90
     1152
 91
        4
280
     0
281
     0
  0
ENDSEC
  0
SECTION
  2
TABLES
  0
TABLE
  2
VPORT
  5
8
330
0
100
AcDbSymbolTable
 70
     1
  0
VPORT
  5
29
330
8
100
AcDbSymbolTableRecord
100
AcDbViewportTableRecord
  2
*Active
 70
     0
 10
0.0
 20
0.0
 11
1.0
 21
1.0
 12
0.2019062500000004
 22
0.0022305534055729
 13
0.0
 23
0.0
 14
0.5
 24
0.5
 15
0.5
 25
0.5
 16
0.0
 26
0.0
 36
1.0
 17
0.0
 27
0.0
 37
0.0
 40
6.497949671052631
 41
0.6083767111356535
 42
50.0
 43
0.0
 44
0.0
 50
0.0
 51
0.0
 71
     0
 72
   100
 73
     1
 74
     3
 75
     0
 76
     0
 77
     0
 78
     0
281
     0
 65
     1
110
0.0
120
0.0
130
0.0
111
1.0
121
0.0
131
0.0
112
0.0
122
1.0
132
0.0
 79
     0
146
0.0
348
2F
 60
     3
 61
     5
292
     1
282
     1
141
0.0
142
0.0
 63
   250
361
6D
  0
ENDTAB
  0
TABLE
  2
LTYPE
  5
5
330
0
100
AcDbSymbolTable
 70
     3
  0
LTYPE
  5
14
330
5
100
AcDbSymbolTableRecord
100
AcDbLinetypeTableRecord
  2
ByBlock
 70
     0
  3

 72
    65
 73
     0
 40
0.0
  0
LTYPE
  5
15
330
5
100
AcDbSymbolTableRecord
100
AcDbLinetypeTableRecord
  2
ByLayer
 70
     0
  3

 72
    65
 73
     0
 40
0.0
  0
LTYPE
  5
16
330
5
100
AcDbSymbolTableRecord
100
AcDbLinetypeTableRecord
  2
Continuous
 70
     0
  3
Solid line
 72
    65
 73
     0
 40
0.0
  0
LTYPE
  5
A7
330
5
100
AcDbSymbolTableRecord
100
AcDbLinetypeTableRecord
  2
Dashed
 70
     0
  3

 72
    65
 73
     2
 40
2.0
 49
1.0
 74
     0
 49
-1.0
 74
     0
  0
LTYPE
  5
156
330
5
100
AcDbSymbolTableRecord
100
AcDbLinetypeTableRecord
  2
Center
 70
     0
  3

 72
    65
 73
     4
 40
1.5
 49
0.45
 74
     0
 49
-0.5
 74
     0
 49
0.05
 74
     0
 49
-0.5
 74
     0
  0
ENDTAB
  0
TABLE
  2
LAYER
  5
2
330
0
100
AcDbSymbolTable
 70
     7
  0
LAYER
  5
10
330
2
100
AcDbSymbolTableRecord
100
AcDbLayerTableRecord
  2
0
 70
     0
 62
     7
  6
Continuous
370
    -3
390
F
347
46
348
0
  0
LAYER
  5
72
330
2
100
AcDbSymbolTableRecord
100
AcDbLayerTableRecord
  2
AM_6
 70
     0
 62
    -2
  6
Continuous
370
    35
390
F
347
46
348
0
  0
LAYER
  5
A8
330
2
100
AcDbSymbolTableRecord
100
AcDbLayerTableRecord
  2
AM_9
 70
     0
 62
     6
  6
Dashed
370
    25
390
F
347
46
348
0
  0
LAYER
  5
DE
330
2
100
AcDbSymbolTableRecord
100
AcDbLayerTableRecord
  2
AM_5
 70
     0
 62
     3
  6
Continuous
370
    25
390
F
347
46
348
0
  0
LAYER
  5
E3
330
2
100
AcDbSymbolTableRecord
100
AcDbLayerTableRecord
  2
AM_4
 70
     0
 62
     7
  6
Continuous
370
    50
390
F
347
46
348
0
  0
LAYER
  5
157
330
2
100
AcDbSymbolTableRecord
100
AcDbLayerTableRecord
  2
AM_7
 70
     0
 62
     7
  6
Center
370
    25
390
F
347
46
348
0
  0
LAYER
  5
1FF
330
2
100
AcDbSymbolTableRecord
100
AcDbLayerTableRecord
  2
ConnectionPoints
 70
     0
 62
     7
  6
Continuous
370
    50
390
F
347
46
348
0
  0
ENDTAB
  0
TABLE
  2
STYLE
  5
3
330
0
100
AcDbSymbolTable
 70
     1
  0
STYLE
  5
11
330
3
100
AcDbSymbolTableRecord
100
AcDbTextStyleTableRecord
  2
Standard
 70
     0
 40
0.0
 41
1.0
 50
0.0
 71
     0
 42
0.2
  3
txt
  4

  0
ENDTAB
  0
TABLE
  2
VIEW
  5
6
330
0
100
AcDbSymbolTable
 70
     0
  0
ENDTAB
  0
TABLE
  2
UCS
  5
7
330
0
100
AcDbSymbolTable
 70
     0
  0
ENDTAB
  0
TABLE
  2
APPID
  5
9
330
0
100
AcDbSymbolTable
 70
     1
  0
APPID
  5
12
330
9
100
AcDbSymbolTableRecord
100
AcDbRegAppTableRecord
  2
ACAD
 70
     0
  0
ENDTAB
  0
TABLE
  2
DIMSTYLE
  5
A
330
0
100
AcDbSymbolTable
 70
     1
100
AcDbDimStyleTable
  0
DIMSTYLE
105
27
330
A
100
AcDbSymbolTableRecord
100
AcDbDimStyleTableRecord
  2
Standard
 70
     0
178
     0
340
11
  0
ENDTAB
  0
TABLE
  2
BLOCK_RECORD
  5
1
330
0
100
AcDbSymbolTable
 70
     7
  0
BLOCK_RECORD
  5
1F
330
1
100
AcDbSymbolTableRecord
100
AcDbBlockTableRecord
  2
*Model_Space
340
22
 70
     0
280
     1
281
     0
  0
BLOCK_RECORD
  5
1B
330
1
100
AcDbSymbolTableRecord
100
AcDbBlockTableRecord
  2
*Paper_Space
340
1E
 70
     0
280
     1
281
     0
  0
BLOCK_RECORD
  5
23
330
1
100
AcDbSymbolTableRecord
100
AcDbBlockTableRecord
  2
*Paper_Space0
340
26
 70
     0
280
     1
281
     0
  0
BLOCK_RECORD
  5
6E
330
1
100
AcDbSymbolTableRecord
100
AcDbBlockTableRecord
  2
1_070704_2
340
0
102
{BLKREFS
331
6F
102
}
 70
     0
280
     1
281
     0
  0
BLOCK_RECORD
  5
90
330
1
100
AcDbSymbolTableRecord
100
AcDbBlockTableRecord
  2
2_1_15_16_Disc_0_in_070704_2
340
0
102
{BLKREFS
331
91
102
}
 70
     0
280
     1
281
     0
  0
BLOCK_RECORD
  5
B4
330
1
100
AcDbSymbolTableRecord
100
AcDbBlockTableRecord
  2
3_1_15_16CS2i_0_in_070704_2
340
0
102
{BLKREFS
331
B5
102
}
 70
     0
280
     1
281
     0
  0
BLOCK_RECORD
  5
F8
330
1
100
AcDbSymbolTableRecord
100
AcDbBlockTableRecord
  2
4_070021i_0_in_070704_2
340
0
102
{BLKREFS
331
F9
102
}
 70
     0
280
     1
281
     0
  0
BLOCK_RECORD
  5
15D
330
1
100
AcDbSymbolTableRecord
100
AcDbBlockTableRecord
  2
5_405015E_Inch_0_in_070704_2
340
0
102
{BLKREFS
331
15E
102
}
 70
     0
280
     1
281
     0
  0
BLOCK_RECORD
  5
19C
330
1
100
AcDbSymbolTableRecord
100
AcDbBlockTableRecord
  2
6_070704H_0_in_070704_2
340
0
102
{BLKREFS
331
19D
102
}
 70
     0
280
     1
281
     0
  0
ENDTAB
  0
ENDSEC
  0
SECTION
  2
BLOCKS
  0
BLOCK
  5
20
330
1F
100
AcDbEntity
  8
0
100
AcDbBlockBegin
  2
*Model_Space
 70
     0
 10
0.0
 20
0.0
 30
0.0
  3
*Model_Space
  1

  0
ENDBLK
  5
21
330
1F
100
AcDbEntity
  8
0
100
AcDbBlockEnd
  0
BLOCK
  5
1C
330
1B
100
AcDbEntity
 67
     1
  8
0
100
AcDbBlockBegin
  2
*Paper_Space
 70
     0
 10
0.0
 20
0.0
 30
0.0
  3
*Paper_Space
  1

  0
ENDBLK
  5
1D
330
1B
100
AcDbEntity
 67
     1
  8
0
100
AcDbBlockEnd
  0
BLOCK
  5
24
330
23
100
AcDbEntity
  8
0
100
AcDbBlockBegin
  2
*Paper_Space0
 70
     0
 10
0.0
 20
0.0
 30
0.0
  3
*Paper_Space0
  1

  0
ENDBLK
  5
25
330
23
100
AcDbEntity
  8
0
100
AcDbBlockEnd
  0
BLOCK
  5
70
330
6E
100
AcDbEntity
  8
0
100
AcDbBlockBegin
  2
1_070704_2
 70
     2
 10
0.0
 20
0.0
 30
0.0
  3
1_070704_2
  1

  0
ATTDEF
  5
73
330
6E
100
AcDbEntity
  8
AM_6
100
AcDbText
 10
6.3921875
 20
3.1875
 30
0.0
 40
0.5
  1
S-2000 Piloted Flange Labyrinth Seal
100
AcDbAttributeDefinition
  3

  2
NN
 70
     8
280
     0
  0
ATTDEF
  5
74
330
6E
100
AcDbEntity
  8
AM_6
100
AcDbText
 10
6.3921875
 20
2.6875
 30
0.0
 40
0.5
  1
S-2000 Piloted Flange Bearing -Inch
100
AcDbAttributeDefinition
  3

  2
NT
 70
     8
280
     0
  0
ATTDEF
  5
75
330
6E
100
AcDbEntity
  8
AM_6
100
AcDbText
 10
6.3921875
 20
2.1875
 30
0.0
 40
0.5
  1
070704
100
AcDbAttributeDefinition
  3

  2
NB
 70
     8
280
     0
  0
ATTDEF
  5
76
330
6E
100
AcDbEntity
  8
AM_6
100
AcDbText
 10
6.3921875
 20
1.6875
 30
0.0
 40
0.5
  1
$PN.
100
AcDbAttributeDefinition
  3

  2
NBSYN
 70
     8
280
     0
  0
ATTDEF
  5
77
330
6E
100
AcDbEntity
  8
AM_6
100
AcDbText
 10
6.3921875
 20
1.1875
 30
0.0
 40
0.5
  1
070704
100
AcDbAttributeDefinition
  3

  2
LINA
 70
     8
280
     0
  0
ATTDEF
  5
78
330
6E
100
AcDbEntity
  8
AM_6
100
AcDbText
 10
6.3921875
 20
0.6875
 30
0.0
 40
0.5
  1
1-15/16
100
AcDbAttributeDefinition
  3

  2
SS
 70
     8
280
     0
  0
ATTDEF
  5
79
330
6E
100
AcDbEntity
  8
AM_6
100
AcDbText
 10
6.3921875
 20
0.1875
 30
0.0
 40
0.5
  1
070704
100
AcDbAttributeDefinition
  3

  2
PN
 70
     8
280
     0
  0
ATTDEF
  5
7A
330
6E
100
AcDbEntity
  8
AM_6
100
AcDbText
 10
6.3921875
 20
-0.3125
 30
0.0
 40
0.5
  1
FC-S2-115L
100
AcDbAttributeDefinition
  3

  2
DESCRIPTION
 70
     8
280
     0
  0
ATTDEF
  5
7B
330
6E
100
AcDbEntity
  8
AM_6
100
AcDbText
 10
6.3921875
 20
-0.8125
 30
0.0
 40
0.5
  1
Non-Expansion Type
100
AcDbAttributeDefinition
  3

  2
EF
 70
     8
280
     0
  0
ATTDEF
  5
7C
330
6E
100
AcDbEntity
  8
AM_6
100
AcDbText
 10
6.3921875
 20
-1.3125
 30
0.0
 40
0.5
  1
Labyrinth Seal
100
AcDbAttributeDefinition
  3

  2
ST
 70
     8
280
     0
  0
ATTDEF
  5
7D
330
6E
100
AcDbEntity
  8
AM_6
100
AcDbText
 10
6.3921875
 20
-1.8125
 30
0.0
 40
0.5
  1
2-27/32
100
AcDbAttributeDefinition
  3

  2
A
 70
     8
280
     0
  0
ATTDEF
  5
7E
330
6E
100
AcDbEntity
  8
AM_6
100
AcDbText
 10
6.3921875
 20
-2.3125
 30
0.0
 40
0.5
  1
6-3/8
100
AcDbAttributeDefinition
  3

  2
B
 70
     8
280
     0
  0
ATTDEF
  5
7F
330
6E
100
AcDbEntity
  8
AM_6
100
AcDbText
 10
6.3921875
 20
-2.8125
 30
0.0
 40
0.5
  1
2
100
AcDbAttributeDefinition
  3

  2
C
 70
     8
280
     0
  0
ATTDEF
  5
80
330
6E
100
AcDbEntity
  8
AM_6
100
AcDbText
 10
6.3921875
 20
-3.3125
 30
0.0
 40
0.5
  1
3-51/64
100
AcDbAttributeDefinition
  3

  2
D
 70
     8
280
     0
  0
ATTDEF
  5
81
330
6E
100
AcDbEntity
  8
AM_6
100
AcDbText
 10
6.3921875
 20
-3.8125
 30
0.0
 40
0.5
  1
5-3/8
100
AcDbAttributeDefinition
  3

  2
DD
 70
     8
280
     0
  0
ATTDEF
  5
82
330
6E
100
AcDbEntity
  8
AM_6
100
AcDbText
 10
6.3921875
 20
-4.3125
 30
0.0
 40
0.5
  1
7/8
100
AcDbAttributeDefinition
  3

  2
E
 70
     8
280
     0
  0
ATTDEF
  5
83
330
6E
100
AcDbEntity
  8
AM_6
100
AcDbText
 10
6.3921875
 20
-4.8125
 30
0.0
 40
0.5
  1
7/16
100
AcDbAttributeDefinition
  3

  2
F
 70
     8
280
     0
  0
ATTDEF
  5
84
330
6E
100
AcDbEntity
  8
AM_6
100
AcDbText
 10
6.3921875
 20
-5.3125
 30
0.0
 40
0.5
  1
1-19/32
100
AcDbAttributeDefinition
  3

  2
G
 70
     8
280
     0
  0
ATTDEF
  5
85
330
6E
100
AcDbEntity
  8
AM_6
100
AcDbText
 10
6.3921875
 20
-5.8125
 30
0.0
 40
0.5
  1
9/16
100
AcDbAttributeDefinition
  3

  2
H
 70
     8
280
     0
  0
ATTDEF
  5
86
330
6E
100
AcDbEntity
  8
AM_6
100
AcDbText
 10
6.3921875
 20
-6.3125
 30
0.0
 40
0.5
  1
4.500
100
AcDbAttributeDefinition
  3

  2
K
 70
     8
280
     0
  0
ATTDEF
  5
87
330
6E
100
AcDbEntity
  8
AM_6
100
AcDbText
 10
6.3921875
 20
-6.8125
 30
0.0
 40
0.5
  1
3-7/16
100
AcDbAttributeDefinition
  3

  2
L
 70
     8
280
     0
  0
ATTDEF
  5
88
330
6E
100
AcDbEntity
  8
AM_6
100
AcDbText
 10
6.3921875
 20
-7.3125
 30
0.0
 40
0.5
  1
7/16-14
100
AcDbAttributeDefinition
  3

  2
M
 70
     8
280
     0
  0
ATTDEF
  5
89
330
6E
100
AcDbEntity
  8
AM_6
100
AcDbText
 10
6.3921875
 20
-7.8125
 30
0.0
 40
0.5
  1
2-55/64
100
AcDbAttributeDefinition
  3

  2
N
 70
     8
280
     0
  0
ATTDEF
  5
8A
330
6E
100
AcDbEntity
  8
AM_6
100
AcDbText
 10
6.3921875
 20
-8.3125
 30
0.0
 40
0.5
  1
1-1/4
100
AcDbAttributeDefinition
  3

  2
P
 70
     8
280
     0
  0
ATTDEF
  5
8B
330
6E
100
AcDbEntity
  8
AM_6
100
AcDbText
 10
6.3921875
 20
-8.8125
 30
0.0
 40
0.5
  1
1-17/64
100
AcDbAttributeDefinition
  3

  2
Q
 70
     8
280
     0
  0
ATTDEF
  5
8C
330
6E
100
AcDbEntity
  8
AM_6
100
AcDbText
 10
6.3921875
 20
-9.3125
 30
0.0
 40
0.5
  1
1/4
100
AcDbAttributeDefinition
  3

  2
X
 70
     8
280
     0
  0
ATTDEF
  5
8D
330
6E
100
AcDbEntity
  8
AM_6
100
AcDbText
 10
6.3921875
 20
-9.8125
 30
0.0
 40
0.5
  1
0.020
100
AcDbAttributeDefinition
  3

  2
Y
 70
     8
280
     0
  0
ATTDEF
  5
8E
330
6E
100
AcDbEntity
  8
AM_6
100
AcDbText
 10
6.3921875
 20
-10.3125
 30
0.0
 40
0.5
  1
2-19/64
100
AcDbAttributeDefinition
  3

  2
Z
 70
     8
280
     0
  0
ATTDEF
  5
8F
330
6E
100
AcDbEntity
  8
AM_6
100
AcDbText
 10
6.3921875
 20
-10.8125
 30
0.0
 40
0.5
  1
baldor
100
AcDbAttributeDefinition
  3

  2
COMPANY
 70
     8
280
     0
  0
INSERT
  5
91
330
6E
100
AcDbEntity
  8
0
100
AcDbBlockReference
  2
2_1_15_16_Disc_0_in_070704_2
 10
0.0
 20
0.0
 30
0.0
  0
INSERT
  5
B5
330
6E
100
AcDbEntity
  8
0
100
AcDbBlockReference
  2
3_1_15_16CS2i_0_in_070704_2
 10
0.0
 20
0.0
 30
0.0
  0
INSERT
  5
F9
330
6E
100
AcDbEntity
  8
0
100
AcDbBlockReference
  2
4_070021i_0_in_070704_2
 10
0.0
 20
0.0
 30
0.0
  0
INSERT
  5
15E
330
6E
100
AcDbEntity
  8
0
100
AcDbBlockReference
  2
5_405015E_Inch_0_in_070704_2
 10
0.0
 20
0.0
 30
0.0
  0
INSERT
  5
19D
330
6E
100
AcDbEntity
  8
0
100
AcDbBlockReference
  2
6_070704H_0_in_070704_2
 10
0.0
 20
0.0
 30
0.0
  0
ENDBLK
  5
71
330
6E
100
AcDbEntity
  8
0
100
AcDbBlockEnd
  0
BLOCK
  5
92
330
90
100
AcDbEntity
  8
0
100
AcDbBlockBegin
  2
2_1_15_16_Disc_0_in_070704_2
 70
     2
 10
0.0
 20
0.0
 30
0.0
  3
2_1_15_16_Disc_0_in_070704_2
  1

  0
ATTDEF
  5
94
330
90
100
AcDbEntity
  8
AM_6
100
AcDbText
 10
6.21875
 20
1.77165
 30
0.0
 40
0.5
  1
S-2000 -Disc -Inch
100
AcDbAttributeDefinition
  3

  2
NN
 70
     8
280
     0
  0
ATTDEF
  5
95
330
90
100
AcDbEntity
  8
AM_6
100
AcDbText
 10
6.21875
 20
1.27165
 30
0.0
 40
0.5
  1
S-2000 Bearings
100
AcDbAttributeDefinition
  3

  2
NT
 70
     8
280
     0
  0
ATTDEF
  5
96
330
90
100
AcDbEntity
  8
AM_6
100
AcDbText
 10
6.21875
 20
0.77165
 30
0.0
 40
0.5
  1
1-15/16-Disc
100
AcDbAttributeDefinition
  3

  2
NB
 70
     8
280
     0
  0
ATTDEF
  5
97
330
90
100
AcDbEntity
  8
AM_6
100
AcDbText
 10
6.21875
 20
0.2716499999999999
 30
0.0
 40
0.5
  1
$SS.-Disc
100
AcDbAttributeDefinition
  3

  2
NBSYN
 70
     8
280
     0
  0
ATTDEF
  5
98
330
90
100
AcDbEntity
  8
AM_6
100
AcDbText
 10
6.21875
 20
-0.2283500000000001
 30
0.0
 40
0.5
  1
1-15/16-Disc
100
AcDbAttributeDefinition
  3

  2
LINA
 70
     8
280
     0
  0
ATTDEF
  5
99
330
90
100
AcDbEntity
  8
AM_6
100
AcDbText
 10
6.21875
 20
-0.72835
 30
0.0
 40
0.5
  1
1-15/16
100
AcDbAttributeDefinition
  3

  2
SS
 70
     8
280
     0
  0
ATTDEF
  5
9A
330
90
100
AcDbEntity
  8
AM_6
100
AcDbText
 10
6.21875
 20
-1.22835
 30
0.0
 40
0.5
  1
2.31
100
AcDbAttributeDefinition
  3

  2
CC
 70
     8
280
     0
  0
ATTDEF
  5
9B
330
90
100
AcDbEntity
  8
AM_6
100
AcDbText
 10
6.21875
 20
-1.72835
 30
0.0
 40
0.5
  1
0.41
100
AcDbAttributeDefinition
  3

  2
CSD
 70
     8
280
     0
  0
ATTDEF
  5
9C
330
90
100
AcDbEntity
  8
AM_6
100
AcDbText
 10
6.21875
 20
-2.22835
 30
0.0
 40
0.5
  1
1.937500
100
AcDbAttributeDefinition
  3

  2
SS1
 70
     8
280
     0
  0
ATTDEF
  5
9D
330
90
100
AcDbEntity
  8
AM_6
100
AcDbText
 10
6.21875
 20
-2.72835
 30
0.0
 40
0.5
  1
3.5433
100
AcDbAttributeDefinition
  3

  2
A
 70
     8
280
     0
  0
ATTDEF
  5
9E
330
90
100
AcDbEntity
  8
AM_6
100
AcDbText
 10
6.21875
 20
-3.22835
 30
0.0
 40
0.5
  1
61/64
100
AcDbAttributeDefinition
  3

  2
B
 70
     8
280
     0
  0
ATTDEF
  5
9F
330
90
100
AcDbEntity
  8
AM_6
100
AcDbText
 10
6.21875
 20
-3.72835
 30
0.0
 40
0.5
  1
0.953125
100
AcDbAttributeDefinition
  3

  2
B1
 70
     8
280
     0
  0
ATTDEF
  5
A0
330
90
100
AcDbEntity
  8
AM_6
100
AcDbText
 10
6.21875
 20
-4.22835
 30
0.0
 40
0.5
  1
2-27/32
100
AcDbAttributeDefinition
  3

  2
C
 70
     8
280
     0
  0
ATTDEF
  5
A1
330
90
100
AcDbEntity
  8
AM_6
100
AcDbText
 10
6.21875
 20
-4.72835
 30
0.0
 40
0.5
  1
2.843750
100
AcDbAttributeDefinition
  3

  2
C1
 70
     8
280
     0
  0
ATTDEF
  5
A2
330
90
100
AcDbEntity
  8
AM_6
100
AcDbText
 10
6.21875
 20
-5.22835
 30
0.0
 40
0.5
  1
0.977
100
AcDbAttributeDefinition
  3

  2
D
 70
     8
280
     0
  0
ATTDEF
  5
A3
330
90
100
AcDbEntity
  8
AM_6
100
AcDbText
 10
6.21875
 20
-5.72835
 30
0.0
 40
0.5
  1
3-11/32
100
AcDbAttributeDefinition
  3

  2
E
 70
     8
280
     0
  0
ATTDEF
  5
A4
330
90
100
AcDbEntity
  8
AM_6
100
AcDbText
 10
6.21875
 20
-6.22835
 30
0.0
 40
0.5
  1
3.343750
100
AcDbAttributeDefinition
  3

  2
E1
 70
     8
280
     0
  0
ATTDEF
  5
A5
330
90
100
AcDbEntity
  8
AM_6
100
AcDbText
 10
6.21875
 20
-6.72835
 30
0.0
 40
0.5
  1
0.317
100
AcDbAttributeDefinition
  3

  2
F
 70
     8
280
     0
  0
ATTDEF
  5
A6
330
90
100
AcDbEntity
  8
AM_6
100
AcDbText
 10
6.21875
 20
-7.22835
 30
0.0
 40
0.5
  1
baldor
100
AcDbAttributeDefinition
  3

  2
COMPANY
 70
     8
280
     0
  0
LINE
  5
A9
330
90
100
AcDbEntity
  8
AM_9
100
AcDbLine
 10
1.125
 20
-1.155
 30
0.0
 11
1.21875
 21
-1.155
 31
0.0
  0
LINE
  5
AA
330
90
100
AcDbEntity
  8
AM_9
100
AcDbLine
 10
1.21875
 20
1.155
 30
0.0
 11
1.125
 21
1.155
 31
0.0
  0
LINE
  5
AB
330
90
100
AcDbEntity
  8
AM_9
100
AcDbLine
 10
0.8187499999999999
 20
-1.6779
 30
0.0
 11
1.125
 21
-1.6779
 31
0.0
  0
LINE
  5
AC
330
90
100
AcDbEntity
  8
AM_9
100
AcDbLine
 10
1.125
 20
1.6779
 30
0.0
 11
0.8187499999999999
 21
1.6779
 31
0.0
  0
LINE
  5
AD
330
90
100
AcDbEntity
  8
AM_9
100
AcDbLine
 10
0.8187499999999999
 20
-1.77165
 30
0.0
 11
1.125
 21
-1.77165
 31
0.0
  0
LINE
  5
AE
330
90
100
AcDbEntity
  8
AM_9
100
AcDbLine
 10
1.125
 20
1.77165
 30
0.0
 11
0.8187499999999999
 21
1.77165
 31
0.0
  0
LINE
  5
AF
330
90
100
AcDbEntity
  8
AM_9
100
AcDbLine
 10
0.8187499999999999
 20
1.77165
 30
0.0
 11
0.8187499999999999
 21
-1.77165
 31
0.0
  0
LINE
  5
B0
330
90
100
AcDbEntity
  8
AM_9
100
AcDbLine
 10
1.21875
 20
1.6779
 30
0.0
 11
1.21875
 21
-1.6779
 31
0.0
  0
ARC
  5
B1
330
90
100
AcDbEntity
  8
AM_9
100
AcDbCircle
 10
1.125
 20
-1.6779
 30
0.0
 40
0.0937500000000004
100
AcDbArc
 50
270.0
 51
0.0
  0
ARC
  5
B2
330
90
100
AcDbEntity
  8
AM_9
100
AcDbCircle
 10
1.125
 20
1.6779
 30
0.0
 40
0.0937500000000002
100
AcDbArc
 50
0.0
 51
90.0
  0
LINE
  5
B3
330
90
100
AcDbEntity
  8
AM_9
100
AcDbLine
 10
1.125
 20
1.77165
 30
0.0
 11
1.125
 21
-1.77165
 31
0.0
  0
ENDBLK
  5
93
330
90
100
AcDbEntity
  8
0
100
AcDbBlockEnd
  0
BLOCK
  5
B6
330
B4
100
AcDbEntity
  8
0
100
AcDbBlockBegin
  2
3_1_15_16CS2i_0_in_070704_2
 70
     2
 10
0.0
 20
0.0
 30
0.0
  3
3_1_15_16CS2i_0_in_070704_2
  1

  0
ATTDEF
  5
B8
330
B4
100
AcDbEntity
  8
AM_6
100
AcDbText
 10
4.04025
 20
1.71875
 30
0.0
 40
0.5
  1
S-2000 Collar -Inch
100
AcDbAttributeDefinition
  3

  2
NN
 70
     8
280
     0
  0
ATTDEF
  5
B9
330
B4
100
AcDbEntity
  8
AM_6
100
AcDbText
 10
4.04025
 20
1.21875
 30
0.0
 40
0.5
  1
S-2000 Bearings
100
AcDbAttributeDefinition
  3

  2
NT
 70
     8
280
     0
  0
ATTDEF
  5
BA
330
B4
100
AcDbEntity
  8
AM_6
100
AcDbText
 10
4.04025
 20
0.7187500000000004
 30
0.0
 40
0.5
  1
1-15/16CS2i
100
AcDbAttributeDefinition
  3

  2
NB
 70
     8
280
     0
  0
ATTDEF
  5
BB
330
B4
100
AcDbEntity
  8
AM_6
100
AcDbText
 10
4.04025
 20
0.2187500000000004
 30
0.0
 40
0.5
  1
$BORE.CS2i
100
AcDbAttributeDefinition
  3

  2
NBSYN
 70
     8
280
     0
  0
ATTDEF
  5
BC
330
B4
100
AcDbEntity
  8
AM_6
100
AcDbText
 10
4.04025
 20
-0.2812499999999996
 30
0.0
 40
0.5
  1
1-15/16CS2i
100
AcDbAttributeDefinition
  3

  2
LINA
 70
     8
280
     0
  0
ATTDEF
  5
BD
330
B4
100
AcDbEntity
  8
AM_6
100
AcDbText
 10
4.04025
 20
-0.7812499999999996
 30
0.0
 40
0.5
  1
1-15/16
100
AcDbAttributeDefinition
  3

  2
BORE
 70
     8
280
     0
  0
ATTDEF
  5
BE
330
B4
100
AcDbEntity
  8
AM_6
100
AcDbText
 10
4.04025
 20
-1.28125
 30
0.0
 40
0.5
  1
1.937500
100
AcDbAttributeDefinition
  3

  2
BORE1
 70
     8
280
     0
  0
ATTDEF
  5
BF
330
B4
100
AcDbEntity
  8
AM_6
100
AcDbText
 10
4.04025
 20
-1.78125
 30
0.0
 40
0.5
  1
3-7/16
100
AcDbAttributeDefinition
  3

  2
L1
 70
     8
280
     0
  0
ATTDEF
  5
C0
330
B4
100
AcDbEntity
  8
AM_6
100
AcDbText
 10
4.04025
 20
-2.28125
 30
0.0
 40
0.5
  1
3.43750
100
AcDbAttributeDefinition
  3

  2
L
 70
     8
280
     0
  0
ATTDEF
  5
C1
330
B4
100
AcDbEntity
  8
AM_6
100
AcDbText
 10
4.04025
 20
-2.78125
 30
0.0
 40
0.5
  1
3.34375
100
AcDbAttributeDefinition
  3

  2
L2
 70
     8
280
     0
  0
ATTDEF
  5
C2
330
B4
100
AcDbEntity
  8
AM_6
100
AcDbText
 10
4.04025
 20
-3.28125
 30
0.0
 40
0.5
  1
3.50
100
AcDbAttributeDefinition
  3

  2
A
 70
     8
280
     0
  0
ATTDEF
  5
C3
330
B4
100
AcDbEntity
  8
AM_6
100
AcDbText
 10
4.04025
 20
-3.78125
 30
0.0
 40
0.5
  1
1.62
100
AcDbAttributeDefinition
  3

  2
B
 70
     8
280
     0
  0
ATTDEF
  5
C4
330
B4
100
AcDbEntity
  8
AM_6
100
AcDbText
 10
4.04025
 20
-4.28125
 30
0.0
 40
0.5
  1
2.31
100
AcDbAttributeDefinition
  3

  2
C
 70
     8
280
     0
  0
ATTDEF
  5
C5
330
B4
100
AcDbEntity
  8
AM_6
100
AcDbText
 10
4.04025
 20
-4.78125
 30
0.0
 40
0.5
  1
3.50
100
AcDbAttributeDefinition
  3

  2
D
 70
     8
280
     0
  0
ATTDEF
  5
C6
330
B4
100
AcDbEntity
  8
AM_6
100
AcDbText
 10
4.04025
 20
-5.28125
 30
0.0
 40
0.5
  1
0.41
100
AcDbAttributeDefinition
  3

  2
E
 70
     8
280
     0
  0
ATTDEF
  5
C7
330
B4
100
AcDbEntity
  8
AM_6
100
AcDbText
 10
4.04025
 20
-5.78125
 30
0.0
 40
0.5
  1
0.317
100
AcDbAttributeDefinition
  3

  2
F
 70
     8
280
     0
  0
ATTDEF
  5
C8
330
B4
100
AcDbEntity
  8
AM_6
100
AcDbText
 10
4.04025
 20
-6.28125
 30
0.0
 40
0.5
  1
3/8-16
100
AcDbAttributeDefinition
  3

  2
CS
 70
     8
280
     0
  0
ATTDEF
  5
C9
330
B4
100
AcDbEntity
  8
AM_6
100
AcDbText
 10
4.04025
 20
-6.78125
 30
0.0
 40
0.5
  1
0.3750
100
AcDbAttributeDefinition
  3

  2
NDM
 70
     8
280
     0
  0
ATTDEF
  5
CA
330
B4
100
AcDbEntity
  8
AM_6
100
AcDbText
 10
4.04025
 20
-7.28125
 30
0.0
 40
0.5
  1
0.3070
100
AcDbAttributeDefinition
  3

  2
KDM
 70
     8
280
     0
  0
ATTDEF
  5
CB
330
B4
100
AcDbEntity
  8
AM_6
100
AcDbText
 10
4.04025
 20
-7.78125
 30
0.0
 40
0.5
  1
1
100
AcDbAttributeDefinition
  3

  2
DD
 70
     8
280
     0
  0
ATTDEF
  5
CC
330
B4
100
AcDbEntity
  8
AM_6
100
AcDbText
 10
4.04025
 20
-8.28125
 30
0.0
 40
0.5
  1
baldor
100
AcDbAttributeDefinition
  3

  2
COMPANY
 70
     8
280
     0
  0
LINE
  5
CD
330
B4
100
AcDbEntity
  8
AM_9
100
AcDbLine
 10
-1.1231
 20
1.163849999999998
 30
0.0
 11
-1.1231
 21
1.6849
 31
0.0
  0
LINE
  5
CE
330
B4
100
AcDbEntity
  8
AM_9
100
AcDbLine
 10
-1.4304
 20
1.671829317052831
 30
0.0
 11
-1.4304
 21
1.163849999999998
 31
0.0
  0
LINE
  5
CF
330
B4
100
AcDbEntity
  8
AM_9
100
AcDbLine
 10
-1.4304
 20
1.163849999999998
 30
0.0
 11
-1.1231
 21
1.163849999999998
 31
0.0
  0
LINE
  5
D0
330
B4
100
AcDbEntity
  8
AM_9
100
AcDbLine
 10
-1.4304
 20
1.163849999999998
 30
0.0
 11
-1.4390838595905
 21
1.155166140409497
 31
0.0
  0
LINE
  5
D1
330
B4
100
AcDbEntity
  8
AM_9
100
AcDbLine
 10
-1.114518486589466
 20
1.155268486589464
 30
0.0
 11
-1.1231
 21
1.163849999999998
 31
0.0
  0
LINE
  5
D2
330
B4
100
AcDbEntity
  8
AM_9
100
AcDbLine
 10
-1.27675
 20
1.6849
 30
0.0
 11
-1.1231
 21
1.6849
 31
0.0
  0
LINE
  5
D3
330
B4
100
AcDbEntity
  8
AM_9
100
AcDbLine
 10
-1.1231
 20
1.6849
 30
0.0
 11
-1.08925
 21
1.71875
 31
0.0
  0
LWPOLYLINE
  5
D4
330
B4
100
AcDbEntity
  8
AM_9
100
AcDbPolyline
 90
       39
 70
     0
 43
0.0
 10
-1.157020700757612
 20
0.3779306153227044
 10
-1.142323278082185
 20
0.396982385124557
 10
-1.130558271443683
 20
0.4176293360648101
 10
-1.120551432537048
 20
0.4439182519710251
 10
-1.115181658753938
 20
0.4710708270096682
 10
-1.114672827735138
 20
0.4993266874148425
 10
-1.119256840884039
 20
0.5269257457283382
 10
-1.129014255474737
 20
0.5533184649773224
 10
-1.143666029846858
 20
0.5775465560041885
 10
-1.162578571350549
 20
0.5985069496908864
 10
-1.185490925088391
 20
0.6160441469379788
 10
-1.210259356111882
 20
0.6288048404677827
 10
-1.237365795223777
 20
0.6374696658014952
 10
-1.263421165229202
 20
0.6414014566813416
 10
-1.289897638067584
 20
0.6414329664232032
 10
-1.314447315440199
 20
0.6378349976865144
 10
-1.337962472618771
 20
0.630908090442375
 10
-1.36015029802289
 20
0.620674193172453
 10
-1.380187085965839
 20
0.6075673369347369
 10
-1.398814809653995
 20
0.5906952130942349
 10
-1.414195301954541
 20
0.5713661406842145
 10
-1.426830868890706
 20
0.548212272045049
 10
-1.435154421512373
 20
0.523295179199191
 10
-1.439042849706191
 20
0.4958213139565711
 10
-1.437926650013289
 20
0.4677970280308617
 10
-1.431608942332216
 20
0.4394979658413348
 10
-1.420254583658788
 20
0.4122797271984379
 10
-1.404182303738319
 20
0.3872468336572877
 10
-1.383722829888135
 20
0.3650564070238989
 10
-1.360428283758052
 20
0.3473968064820112
 10
-1.334161069580451
 20
0.3340073621827003
 10
-1.308086514347769
 20
0.3261834974355968
 10
-1.28097461584844
 20
0.3229852316942747
 10
-1.255771520915243
 20
0.324387128498041
 10
-1.23116924203597
 20
0.3298323777881113
 10
-1.208105322039371
 20
0.3390024523154564
 10
-1.186828384257335
 20
0.3514964254536935
 10
-1.171086269731258
 20
0.3638867207156672
 10
-1.157020700757612
 20
0.3779306153227044
  0
LINE
  5
D5
330
B4
100
AcDbEntity
  8
AM_9
100
AcDbLine
 10
-1.59375
 20
-1.155
 30
0.0
 11
-0.9597499999999998
 21
-1.155
 31
0.0
  0
LINE
  5
D6
330
B4
100
AcDbEntity
  8
AM_9
100
AcDbLine
 10
-0.9597499999999998
 20
1.155
 30
0.0
 11
-1.114891874627086
 21
1.155
 31
0.0
  0
LINE
  5
D7
330
B4
100
AcDbEntity
  8
AM_9
100
AcDbLine
 10
-1.438852342789092
 20
1.155
 30
0.0
 11
-1.59375
 21
1.155
 31
0.0
  0
LWPOLYLINE
  5
D8
330
B4
100
AcDbEntity
  8
AM_9
100
AcDbPolyline
 90
       21
 70
     0
 43
0.0
 10
-1.439249999999292
 20
1.154999999999884
 10
-1.439150986662971
 20
1.15498379342257
 10
-1.43550712012805
 20
1.154393873255462
 10
-1.426881994249787
 20
1.153048235227185
 10
-1.412948885410673
 20
1.151026350938733
 10
-1.395135052348584
 20
1.148717802829725
 10
-1.372521329989636
 20
1.146240524342773
 10
-1.348565148278001
 20
1.144177281125706
 10
-1.321173654001466
 20
1.142534733138016
 10
-1.295513695572541
 20
1.141696141547657
 10
-1.268391036554752
 20
1.1415500348332
 10
-1.243989733160895
 20
1.14206930960979
 10
-1.219828803751199
 20
1.143188797776558
 10
-1.19764754678549
 20
1.144743350316933
 10
-1.176992928870743
 20
1.146640022566709
 10
-1.158148942507808
 20
1.148743921308349
 10
-1.142037017588641
 20
1.150821876167579
 10
-1.12884525035304
 20
1.152712392277049
 10
-1.119608838042087
 20
1.154136323883433
 10
-1.114823151141624
 20
1.154906315782236
 10
-1.114250000000018
 20
1.154999999999997
  0
ELLIPSE
  5
D9
330
B4
100
AcDbEntity
  8
AM_9
100
AcDbEllipse
 10
-1.27675
 20
0.4918642639269116
 30
0.0
 11
0.1536499999999998
 21
0.0
 31
0.0
210
0.0
220
0.0
230
1.0
 40
0.9063077870366518
 41
2.268591130699812
 42
3.141592653589793
  0
LINE
  5
DA
330
B4
100
AcDbEntity
  8
AM_9
100
AcDbLine
 10
-1.1231
 20
0.4918642639269121
 30
0.0
 11
-1.1231
 21
0.7120695092069046
 31
0.0
  0
LINE
  5
DB
330
B4
100
AcDbEntity
  8
AM_9
100
AcDbLine
 10
-1.4304
 20
0.7065456216338938
 30
0.0
 11
-1.4304
 21
0.4918642639269121
 31
0.0
  0
ELLIPSE
  5
DC
330
B4
100
AcDbEntity
  8
AM_9
100
AcDbEllipse
 10
-1.27675
 20
0.4918642639269121
 30
0.0
 11
0.1536500000000001
 21
0.0
 31
0.0
210
0.0
220
0.0
230
1.0
 40
0.9063077870366502
 41
3.141592653589793
 42
7.195070406291681
  0
LINE
  5
DD
330
B4
100
AcDbEntity
  8
AM_9
100
AcDbLine
 10
-1.27675
 20
0.5728153177287234
 30
0.0
 11
-1.27675
 21
0.8428289026684154
 31
0.0
  0
LINE
  5
DF
330
B4
100
AcDbEntity
  8
AM_5
100
AcDbLine
 10
-1.46425
 20
1.671875
 30
0.0
 11
-1.46425
 21
1.155
 31
0.0
  0
LINE
  5
E0
330
B4
100
AcDbEntity
  8
AM_5
100
AcDbLine
 10
-1.3705
 20
1.13
 30
0.0
 11
-1.46425
 21
1.13
 31
0.0
  0
LINE
  5
E1
330
B4
100
AcDbEntity
  8
AM_5
100
AcDbLine
 10
-1.08925
 20
1.71875
 30
0.0
 11
-1.08925
 21
1.155
 31
0.0
  0
LINE
  5
E2
330
B4
100
AcDbEntity
  8
AM_5
100
AcDbLine
 10
-1.183
 20
1.13
 30
0.0
 11
-1.08925
 21
1.13
 31
0.0
  0
ELLIPSE
  5
E4
330
B4
100
AcDbEntity
  8
AM_4
100
AcDbEllipse
 10
-1.276749999999999
 20
0.4918642639269114
 30
0.0
 11
0.153650000000001
 21
0.0
 31
0.0
210
0.0
220
0.0
230
1.0
 40
0.9063077870366489
 41
1.570796326794897
 42
2.268591130699814
  0
LWPOLYLINE
  5
E5
330
B4
100
AcDbEntity
  8
AM_4
100
AcDbPolyline
 90
       11
 70
     0
 43
0.0
 10
-1.43039999933858
 20
0.7065519853387418
 10
-1.4294025561079
 20
0.7223677525029673
 10
-1.424316316752001
 20
0.7450798938133635
 10
-1.415107698273059
 20
0.7665635542834761
 10
-1.401961551078411
 20
0.7862473905750144
 10
-1.38531201614388
 20
0.8036135625653672
 10
-1.365502309063228
 20
0.8182307055177177
 10
-1.343184647229059
 20
0.829699244922787
 10
-1.3189534367755
 20
0.8376852193488313
 10
-1.29352282237596
 20
0.8420324150572488
 10
-1.27675
 20
0.8428289026684153
  0
ELLIPSE
  5
E6
330
B4
100
AcDbEntity
  8
AM_4
100
AcDbEllipse
 10
-1.27675
 20
0.7120695092069047
 30
0.0
 11
0.1536500000000001
 21
0.0
 31
0.0
210
0.0
220
0.0
230
1.0
 40
0.9063077870366484
 41
0.0
 42
1.570796326794897
  0
ELLIPSE
  5
E7
330
B4
100
AcDbEntity
  8
AM_4
100
AcDbEllipse
 10
-1.27675
 20
0.4918642639269117
 30
0.0
 11
0.1536500000000005
 21
0.0
 31
0.0
210
0.0
220
0.0
230
1.0
 40
0.9063077870366504
 41
0.9118850991120953
 42
1.570796326794897
  0
LINE
  5
E8
330
B4
100
AcDbEntity
  8
AM_4
100
AcDbLine
 10
-1.27675
 20
-1.71875
 30
0.0
 11
-1.27675
 21
0.5728153177287234
 31
0.0
  0
ELLIPSE
  5
E9
330
B4
100
AcDbEntity
  8
AM_4
100
AcDbEllipse
 10
-1.276749999999999
 20
0.7120695092069045
 30
0.0
 11
0.1536499999999998
 21
0.0
 31
0.0
210
0.0
220
0.0
230
1.0
 40
0.9063077870366489
 41
4.71238898038469
 42
6.283185307179586
  0
LINE
  5
EA
330
B4
100
AcDbEntity
  8
AM_4
100
AcDbLine
 10
-1.59375
 20
1.566208333333333
 30
0.0
 11
-1.59375
 21
-1.566208333333333
 31
0.0
  0
ARC
  5
EB
330
B4
100
AcDbEntity
  8
AM_4
100
AcDbCircle
 10
-1.488083333333333
 20
-1.566208333333334
 30
0.0
 40
0.1056666666666661
100
AcDbArc
 50
180.0
 51
270.0
  0
ARC
  5
EC
330
B4
100
AcDbEntity
  8
AM_4
100
AcDbCircle
 10
-1.488083333333333
 20
1.566208333333333
 30
0.0
 40
0.1056666666666668
100
AcDbArc
 50
90.0
 51
180.0
  0
LWPOLYLINE
  5
ED
330
B4
100
AcDbEntity
  8
AM_4
100
AcDbPolyline
 90
       11
 70
     0
 43
0.0
 10
-1.27675
 20
0.5643205197120527
 10
-1.302482005179206
 20
0.5663866780101692
 10
-1.327487211398877
 20
0.5724584470094645
 10
-1.351038552679179
 20
0.5823953811810795
 10
-1.372502610598775
 20
0.5958305184129878
 10
-1.391291329003416
 20
0.6124404091607075
 10
-1.406857577861147
 20
0.6316444970415929
 10
-1.418730991528922
 20
0.652934049888534
 10
-1.426593985596427
 20
0.6756163970244478
 10
-1.43015603294159
 20
0.6989667970565889
 10
-1.43039999933858
 20
0.7065519853387418
  0
LWPOLYLINE
  5
EE
330
B4
100
AcDbEntity
  8
AM_4
100
AcDbPolyline
 90
       11
 70
     0
 43
0.0
 10
-1.27675
 20
1.664799595484393
 10
-1.302118605699438
 20
1.664992870639431
 10
-1.327487211398877
 20
1.665572561537183
 10
-1.350723567875274
 20
1.666442252785616
 10
-1.372502610598775
 20
1.667550975401196
 10
-1.391055966665376
 20
1.668719133689162
 10
-1.406857577861147
 20
1.6698759459738
 10
-1.418602043975834
 20
1.670832036892136
 10
-1.426593985596427
 20
1.671529513094047
 10
-1.430150876683711
 20
1.671852123272968
 10
-1.430399999999953
 20
1.671874999999996
  0
LINE
  5
EF
330
B4
100
AcDbEntity
  8
AM_4
100
AcDbLine
 10
-1.488083333333333
 20
-1.671875
 30
0.0
 11
-1.27675
 21
-1.671875
 31
0.0
  0
LINE
  5
F0
330
B4
100
AcDbEntity
  8
AM_4
100
AcDbLine
 10
-1.429901316279622
 20
1.671875
 30
0.0
 11
-1.488083333333333
 21
1.671875
 31
0.0
  0
LINE
  5
F1
330
B4
100
AcDbEntity
  8
AM_4
100
AcDbLine
 10
-1.488083333333333
 20
1.671875
 30
0.0
 11
-1.488083333333333
 21
-1.671875
 31
0.0
  0
LINE
  5
F2
330
B4
100
AcDbEntity
  8
AM_4
100
AcDbLine
 10
-1.27675
 20
1.709483644408685
 30
0.0
 11
-1.27675
 21
0.8428289026684154
 31
0.0
  0
LWPOLYLINE
  5
F3
330
B4
100
AcDbEntity
  8
AM_4
100
AcDbPolyline
 90
       20
 70
     0
 43
0.0
 10
-1.27675
 20
0.8839935461136664
 10
-1.253206540255967
 20
0.8827704602397235
 10
-1.230005059594891
 20
0.8791269088512271
 10
-1.199247135914977
 20
0.870192284193473
 10
-1.169860789565218
 20
0.8564042619296152
 10
-1.144873123540388
 20
0.8391659542218922
 10
-1.123077849004653
 20
0.8175785154073791
 10
-1.107174811512153
 20
0.7945277981996288
 10
-1.095780813820807
 20
0.768327344412466
 10
-1.090226048069602
 20
0.7427777149904374
 10
-1.089657654116658
 20
0.7157236493827165
 10
-1.094023576111536
 20
0.6900682453363575
 10
-1.102961959468603
 20
0.6652448531997145
 10
-1.116317395536486
 20
0.6418169275584542
 10
-1.133549729506365
 20
0.6205387968669153
 10
-1.15507216553087
 20
0.6012861805433024
 10
-1.179592373331685
 20
0.5853983471201033
 10
-1.207475531611538
 20
0.5729130873073736
 10
-1.23793570963239
 20
0.564599505893966
 10
-1.27675
 20
0.560924466434642
  0
LINE
  5
F4
330
B4
100
AcDbEntity
  8
AM_4
100
AcDbLine
 10
-1.27675
 20
-1.71875
 30
0.0
 11
-0.9597499999999998
 21
-1.71875
 31
0.0
  0
LINE
  5
F5
330
B4
100
AcDbEntity
  8
AM_4
100
AcDbLine
 10
-0.9597499999999998
 20
1.71875
 30
0.0
 11
-1.08925
 21
1.71875
 31
0.0
  0
LWPOLYLINE
  5
F6
330
B4
100
AcDbEntity
  8
AM_4
100
AcDbPolyline
 90
       11
 70
     0
 43
0.0
 10
-1.089250000000039
 20
1.718749999999996
 10
-1.089657654116658
 20
1.718709945620833
 10
-1.093911980617995
 20
1.718297037634551
 10
-1.102961959468603
 20
1.717449711877597
 10
-1.116101993982014
 20
1.716294780493615
 10
-1.133549729506365
 20
1.714899617463105
 10
-1.154763923217217
 20
1.713416876990633
 10
-1.179592373331684
 20
1.711980611192172
 10
-1.207475531611538
 20
1.710753888887781
 10
-1.23793570963239
 20
1.709882600018857
 10
-1.27675
 20
1.709483644408685
  0
LINE
  5
F7
330
B4
100
AcDbEntity
  8
AM_4
100
AcDbLine
 10
-0.9597499999999998
 20
1.71875
 30
0.0
 11
-0.9597499999999998
 21
-1.71875
 31
0.0
  0
ENDBLK
  5
B7
330
B4
100
AcDbEntity
  8
0
100
AcDbBlockEnd
  0
BLOCK
  5
FA
330
F8
100
AcDbEntity
  8
0
100
AcDbBlockBegin
  2
4_070021i_0_in_070704_2
 70
     2
 10
0.0
 20
0.0
 30
0.0
  3
4_070021i_0_in_070704_2
  1

  0
ATTDEF
  5
FC
330
F8
100
AcDbEntity
  8
AM_6
100
AcDbText
 10
6.3921875
 20
1.77165
 30
0.0
 40
0.5
  1
S-2000 Insert -Inch
100
AcDbAttributeDefinition
  3

  2
NN
 70
     8
280
     0
  0
ATTDEF
  5
FD
330
F8
100
AcDbEntity
  8
AM_6
100
AcDbText
 10
6.3921875
 20
1.27165
 30
0.0
 40
0.5
  1
S-2000 Bearings
100
AcDbAttributeDefinition
  3

  2
NT
 70
     8
280
     0
  0
ATTDEF
  5
FE
330
F8
100
AcDbEntity
  8
AM_6
100
AcDbText
 10
6.3921875
 20
0.7716500000000002
 30
0.0
 40
0.5
  1
070021i
100
AcDbAttributeDefinition
  3

  2
NB
 70
     8
280
     0
  0
ATTDEF
  5
FF
330
F8
100
AcDbEntity
  8
AM_6
100
AcDbText
 10
6.3921875
 20
0.2716500000000002
 30
0.0
 40
0.5
  1
$PN.i
100
AcDbAttributeDefinition
  3

  2
NBSYN
 70
     8
280
     0
  0
ATTDEF
  5
100
330
F8
100
AcDbEntity
  8
AM_6
100
AcDbText
 10
6.3921875
 20
-0.2283499999999998
 30
0.0
 40
0.5
  1
070021i
100
AcDbAttributeDefinition
  3

  2
LINA
 70
     8
280
     0
  0
ATTDEF
  5
101
330
F8
100
AcDbEntity
  8
AM_6
100
AcDbText
 10
6.3921875
 20
-0.7283499999999998
 30
0.0
 40
0.5
  1
1-15/16
100
AcDbAttributeDefinition
  3

  2
SS
 70
     8
280
     0
  0
ATTDEF
  5
102
330
F8
100
AcDbEntity
  8
AM_6
100
AcDbText
 10
6.3921875
 20
-1.22835
 30
0.0
 40
0.5
  1
2.31
100
AcDbAttributeDefinition
  3

  2
CC
 70
     8
280
     0
  0
ATTDEF
  5
103
330
F8
100
AcDbEntity
  8
AM_6
100
AcDbText
 10
6.3921875
 20
-1.72835
 30
0.0
 40
0.5
  1
1.937500
100
AcDbAttributeDefinition
  3

  2
SS1
 70
     8
280
     0
  0
ATTDEF
  5
104
330
F8
100
AcDbEntity
  8
AM_6
100
AcDbText
 10
6.3921875
 20
-2.22835
 30
0.0
 40
0.5
  1
070021
100
AcDbAttributeDefinition
  3

  2
PN
 70
     8
280
     0
  0
ATTDEF
  5
105
330
F8
100
AcDbEntity
  8
AM_6
100
AcDbText
 10
6.3921875
 20
-2.72835
 30
0.0
 40
0.5
  1
INS-S2-115L
100
AcDbAttributeDefinition
  3

  2
DESCRIPTION
 70
     8
280
     0
  0
ATTDEF
  5
106
330
F8
100
AcDbEntity
  8
AM_6
100
AcDbText
 10
6.3921875
 20
-3.22835
 30
0.0
 40
0.5
  1
Labyrinth Seal
100
AcDbAttributeDefinition
  3

  2
ST
 70
     8
280
     0
  0
ATTDEF
  5
107
330
F8
100
AcDbEntity
  8
AM_6
100
AcDbText
 10
6.3921875
 20
-3.72835
 30
0.0
 40
0.5
  1
2
100
AcDbAttributeDefinition
  3

  2
ST1
 70
     8
280
     0
  0
ATTDEF
  5
108
330
F8
100
AcDbEntity
  8
AM_6
100
AcDbText
 10
6.3921875
 20
-4.22835
 30
0.0
 40
0.5
  1
3.5433
100
AcDbAttributeDefinition
  3

  2
A
 70
     8
280
     0
  0
ATTDEF
  5
109
330
F8
100
AcDbEntity
  8
AM_6
100
AcDbText
 10
6.3921875
 20
-4.72835
 30
0.0
 40
0.5
  1
61/64
100
AcDbAttributeDefinition
  3

  2
B
 70
     8
280
     0
  0
ATTDEF
  5
10A
330
F8
100
AcDbEntity
  8
AM_6
100
AcDbText
 10
6.3921875
 20
-5.22835
 30
0.0
 40
0.5
  1
2-27/32
100
AcDbAttributeDefinition
  3

  2
C
 70
     8
280
     0
  0
ATTDEF
  5
10B
330
F8
100
AcDbEntity
  8
AM_6
100
AcDbText
 10
6.3921875
 20
-5.72835
 30
0.0
 40
0.5
  1
0.977
100
AcDbAttributeDefinition
  3

  2
D
 70
     8
280
     0
  0
ATTDEF
  5
10C
330
F8
100
AcDbEntity
  8
AM_6
100
AcDbText
 10
6.3921875
 20
-6.22835
 30
0.0
 40
0.5
  1
3-11/32
100
AcDbAttributeDefinition
  3

  2
E
 70
     8
280
     0
  0
ATTDEF
  5
10D
330
F8
100
AcDbEntity
  8
AM_6
100
AcDbText
 10
6.3921875
 20
-6.72835
 30
0.0
 40
0.5
  1
0.53125
100
AcDbAttributeDefinition
  3

  2
F
 70
     8
280
     0
  0
ATTDEF
  5
10E
330
F8
100
AcDbEntity
  8
AM_6
100
AcDbText
 10
6.3921875
 20
-7.22835
 30
0.0
 40
0.5
  1
1
100
AcDbAttributeDefinition
  3

  2
DD
 70
     8
280
     0
  0
ATTDEF
  5
10F
330
F8
100
AcDbEntity
  8
AM_6
100
AcDbText
 10
6.3921875
 20
-7.72835
 30
0.0
 40
0.5
  1
baldor
100
AcDbAttributeDefinition
  3

  2
COMPANY
 70
     8
280
     0
  0
LINE
  5
110
330
F8
100
AcDbEntity
  8
AM_9
100
AcDbLine
 10
-1.48175
 20
1.154877756637566
 30
0.0
 11
-1.48175
 21
0.96875
 31
0.0
  0
LINE
  5
111
330
F8
100
AcDbEntity
  8
AM_9
100
AcDbLine
 10
-1.07175
 20
0.96875
 30
0.0
 11
-1.07175
 21
1.154962221367664
 31
0.0
  0
LINE
  5
112
330
F8
100
AcDbEntity
  8
AM_9
100
AcDbLine
 10
-1.48175
 20
0.4881240923105078
 30
0.0
 11
-1.48175
 21
0.4093796815139764
 31
0.0
  0
LINE
  5
113
330
F8
100
AcDbEntity
  8
AM_9
100
AcDbLine
 10
-1.07175
 20
0.409348864830776
 30
0.0
 11
-1.07175
 21
0.4881240923105079
 31
0.0
  0
LWPOLYLINE
  5
114
330
F8
100
AcDbEntity
  8
AM_9
100
AcDbPolyline
 90
        4
 70
     0
 43
0.0
 10
-1.477131691816198
 20
0.4482175976841645
 10
-1.477903715279822
 20
0.4447857261341431
 10
-1.481689807045839
 20
0.4139080907666526
 10
-1.481749998916322
 20
0.4094305446793951
  0
LWPOLYLINE
  5
115
330
F8
100
AcDbEntity
  8
AM_9
100
AcDbPolyline
 90
        5
 70
     0
 43
0.0
 10
-1.422834666298354
 20
0.5352199665020163
 10
-1.433308288531906
 20
0.5255160061022681
 10
-1.453373180344152
 20
0.5013190575168165
 10
-1.468428285948385
 20
0.474140388213466
 10
-1.477131691816198
 20
0.4482175976841645
  0
LWPOLYLINE
  5
116
330
F8
100
AcDbEntity
  8
AM_9
100
AcDbPolyline
 90
        5
 70
     0
 43
0.0
 10
-1.339406935710829
 20
0.5779171041027115
 10
-1.351160510139437
 20
0.5744793289699689
 10
-1.381434066716186
 20
0.5623204337713851
 10
-1.409198712124415
 20
0.5458236567720393
 10
-1.422834666298354
 20
0.5352199665020163
  0
LWPOLYLINE
  5
117
330
F8
100
AcDbEntity
  8
AM_9
100
AcDbPolyline
 90
        5
 70
     0
 43
0.0
 10
-1.131975280451902
 20
0.5363309408360072
 10
-1.155091342376678
 20
0.552947421118201
 10
-1.184548434943482
 20
0.5679731851036358
 10
-1.216796348718526
 20
0.5785936452282089
 10
-1.228616818002461
 20
0.5812556473705622
  0
LWPOLYLINE
  5
118
330
F8
100
AcDbEntity
  8
AM_9
100
AcDbPolyline
 90
        6
 70
     0
 43
0.0
 10
-1.07646045408515
 20
0.4485943149320416
 10
-1.07922134857059
 20
0.4583885309759159
 10
-1.090871992397568
 20
0.4861321433266658
 10
-1.107696965601481
 20
0.5115312804343691
 10
-1.129097258118034
 20
0.5338620959593247
 10
-1.131975280451902
 20
0.5363309408360072
  0
LWPOLYLINE
  5
119
330
F8
100
AcDbEntity
  8
AM_9
100
AcDbPolyline
 90
        3
 70
     0
 43
0.0
 10
-1.071750000500865
 20
0.409398453444428
 10
-1.072886064059495
 20
0.4288430010579504
 10
-1.07646045408515
 20
0.4485943149320416
  0
LWPOLYLINE
  5
11A
330
F8
100
AcDbEntity
  8
AM_9
100
AcDbPolyline
 90
       11
 70
     0
 43
0.0
 10
-1.481749998916322
 20
0.4094305446793951
 10
-1.479674362693866
 20
0.3829860779201023
 10
-1.472133226411993
 20
0.3523329055112975
 10
-1.459267528997691
 20
0.3229483459410855
 10
-1.441507328877598
 20
0.2955979838589718
 10
-1.418842169532938
 20
0.2707236158708055
 10
-1.392219681517259
 20
0.2495882433293515
 10
-1.361922214352253
 20
0.2327810981844399
 10
-1.32913298668423
 20
0.221126527520521
 10
-1.303169867213706
 20
0.2160601660521318
 10
-1.27675
 20
0.2143466326527852
  0
LWPOLYLINE
  5
11B
330
F8
100
AcDbEntity
  8
AM_9
100
AcDbPolyline
 90
        8
 70
     0
 43
0.0
 10
-1.152470582119469
 20
0.6309945483708159
 10
-1.142668559939227
 20
0.6242252158873672
 10
-1.118719404785717
 20
0.6033408369111423
 10
-1.098995335435469
 20
0.5787257344100865
 10
-1.084305624917102
 20
0.551232841494723
 10
-1.075191907098632
 20
0.5216613630812377
 10
-1.071769874684364
 20
0.4907096659398388
 10
-1.071750000576729
 20
0.4881380287629355
  0
LWPOLYLINE
  5
11C
330
F8
100
AcDbEntity
  8
AM_9
100
AcDbPolyline
 90
       10
 70
     0
 43
0.0
 10
-1.404507478856363
 20
0.6286995562887309
 10
-1.397231352391879
 20
0.6333634238699369
 10
-1.367650303144283
 20
0.648436972693003
 10
-1.33537500327932
 20
0.6590286972977397
 10
-1.301395425831918
 20
0.6649324833827778
 10
-1.267154582061244
 20
0.6659645037566182
 10
-1.233187555419073
 20
0.6622764730365414
 10
-1.200710575943977
 20
0.6539702262409812
 10
-1.170342745364521
 20
0.6412787325986631
 10
-1.152470582119469
 20
0.6309945483708159
  0
LWPOLYLINE
  5
11D
330
F8
100
AcDbEntity
  8
AM_9
100
AcDbPolyline
 90
        7
 70
     0
 43
0.0
 10
-1.481749999363772
 20
0.4881094545278523
 10
-1.480544998115517
 20
0.5081490698992479
 10
-1.474048212665202
 20
0.5379371389228211
 10
-1.462170443226722
 20
0.565963361436172
 10
-1.44508651427101
 20
0.5916166019356104
 10
-1.423389899355452
 20
0.6141873703698317
 10
-1.404507478856363
 20
0.6286995562887309
  0
LWPOLYLINE
  5
11E
330
F8
100
AcDbEntity
  8
AM_9
100
AcDbPolyline
 90
       11
 70
     0
 43
0.0
 10
-1.071750000576729
 20
0.4881380287629355
 10
-1.074157761293979
 20
0.4596740657920109
 10
-1.082113953789169
 20
0.4290386003036939
 10
-1.095452571434621
 20
0.3997597701124795
 10
-1.113726360126783
 20
0.372643524411945
 10
-1.136816196985514
 20
0.3482500085262513
 10
-1.163823889191244
 20
0.3276763021680447
 10
-1.194310959345697
 20
0.3115511382649416
 10
-1.227185264890733
 20
0.3005496543899619
 10
-1.251776989680055
 20
0.296086952188345
 10
-1.27675
 20
0.2945809289154055
  0
LWPOLYLINE
  5
11F
330
F8
100
AcDbEntity
  8
AM_9
100
AcDbPolyline
 90
       11
 70
     0
 43
0.0
 10
-1.27675
 20
0.2143466326527852
 10
-1.242770758055889
 20
0.2171971026045974
 10
-1.209760007254816
 20
0.2255469264103231
 10
-1.178689613290677
 20
0.2391432046943243
 10
-1.150336626444858
 20
0.2574272711717
 10
-1.125161888553895
 20
0.2801846132755332
 10
-1.104215047962213
 20
0.3063918783944212
 10
-1.088004046756649
 20
0.3355575662992906
 10
-1.07717199397038
 20
0.3664847618072958
 10
-1.072173780560767
 20
0.3977455807645244
 10
-1.071750000500865
 20
0.409398453444428
  0
LWPOLYLINE
  5
120
330
F8
100
AcDbEntity
  8
AM_9
100
AcDbPolyline
 90
       11
 70
     0
 43
0.0
 10
-1.27675
 20
0.9468112602308868
 10
-1.243255003627408
 20
0.9474035451073634
 10
-1.209760007254816
 20
0.9491781822334519
 10
-1.179095648858121
 20
0.9518339848928179
 10
-1.150336626444858
 20
0.9552130147321026
 10
-1.125473840198574
 20
0.9588201286082112
 10
-1.104215047962213
 20
0.9624031754803604
 10
-1.088185925789876
 20
0.965405600036959
 10
-1.07717199397038
 20
0.9676171469081968
 10
-1.072184388217628
 20
0.9686581708858375
 10
-1.071750000000972
 20
0.9687499999997943
  0
LINE
  5
121
330
F8
100
AcDbEntity
  8
AM_9
100
AcDbLine
 10
1.25
 20
0.96875
 30
0.0
 11
-1.07175
 21
0.96875
 31
0.0
  0
LINE
  5
122
330
F8
100
AcDbEntity
  8
AM_9
100
AcDbLine
 10
-1.48175
 20
0.96875
 30
0.0
 11
-1.59375
 21
0.96875
 31
0.0
  0
LINE
  5
123
330
F8
100
AcDbEntity
  8
AM_9
100
AcDbLine
 10
-1.59375
 20
-0.96875
 30
0.0
 11
1.25
 21
-0.96875
 31
0.0
  0
LINE
  5
124
330
F8
100
AcDbEntity
  8
AM_9
100
AcDbLine
 10
-1.471185414587284
 20
0.9665695489439595
 30
0.0
 11
-1.48174999999808
 21
0.9687499999995938
 31
0.0
  0
LINE
  5
125
330
F8
100
AcDbEntity
  8
AM_9
100
AcDbLine
 10
-1.263616960491782
 20
0.9469023388009459
 30
0.0
 11
-1.281199217936017
 21
0.9468217139674409
 31
0.0
  0
LWPOLYLINE
  5
126
330
F8
100
AcDbEntity
  8
AM_9
100
AcDbPolyline
 90
       11
 70
     0
 43
0.0
 10
-1.48174999999808
 20
0.9687499999995938
 10
-1.479763454135101
 20
0.9683315677286707
 10
-1.472133226411993
 20
0.9667606568655759
 10
-1.459495862267387
 20
0.9642860637154571
 10
-1.441507328877598
 20
0.9610393019637028
 10
-1.419201064148256
 20
0.9574674240813472
 10
-1.392219681517259
 20
0.9538264044624145
 10
-1.362397955376678
 20
0.950677197980579
 10
-1.32913298668423
 20
0.9482592155070048
 10
-1.303400336268896
 20
0.9471862556663526
 10
-1.27675
 20
0.9468112602308868
  0
LWPOLYLINE
  5
127
330
F8
100
AcDbEntity
  8
AM_9
100
AcDbPolyline
 90
       11
 70
     0
 43
0.0
 10
-1.27675
 20
0.2945809289154055
 10
-1.31085843538501
 20
0.2974090635686094
 10
-1.343998002252065
 20
0.3057019191665715
 10
-1.375197523479572
 20
0.3192274373077653
 10
-1.403655193923415
 20
0.3374457705877584
 10
-1.42879195531181
 20
0.360055348193841
 10
-1.449674449120014
 20
0.3861162654203096
 10
-1.465749307750009
 20
0.4150579676835031
 10
-1.476455549264894
 20
0.4457796282625968
 10
-1.481363652474625
 20
0.4770156832445993
 10
-1.481749999363772
 20
0.4881094545278523
  0
LWPOLYLINE
  5
128
330
F8
100
AcDbEntity
  8
AM_9
100
AcDbPolyline
 90
       11
 70
     0
 43
0.0
 10
-1.27675
 20
1.136661779070626
 10
-1.310374001126032
 20
1.137158992160605
 10
-1.343998002252065
 20
1.138649328725439
 10
-1.374786334280951
 20
1.140881730434512
 10
-1.403655193923415
 20
1.1437241486673
 10
-1.428479194740476
 20
1.146743976891352
 10
-1.449674449120014
 20
1.149740346818994
 10
-1.465571069430812
 20
1.15223842856459
 10
-1.476455549264894
 20
1.154072054252763
 10
-1.481354431485292
 20
1.154929856477621
 10
-1.481749999999383
 20
1.15499999999989
  0
LINE
  5
129
330
F8
100
AcDbEntity
  8
AM_9
100
AcDbLine
 10
-0.9597499999999997
 20
1.155
 30
0.0
 11
-1.071964888604288
 21
1.155
 31
0.0
  0
LINE
  5
12A
330
F8
100
AcDbEntity
  8
AM_9
100
AcDbLine
 10
-0.4285000000000002
 20
1.155
 30
0.0
 11
-0.7343749999999999
 21
1.155
 31
0.0
  0
LINE
  5
12B
330
F8
100
AcDbEntity
  8
AM_9
100
AcDbLine
 10
-1.481059419942035
 20
1.155
 30
0.0
 11
-1.59375
 21
1.155
 31
0.0
  0
LINE
  5
12C
330
F8
100
AcDbEntity
  8
AM_9
100
AcDbLine
 10
-0.7343749999999999
 20
-1.155
 30
0.0
 11
-0.4285000000000002
 21
-1.155
 31
0.0
  0
LINE
  5
12D
330
F8
100
AcDbEntity
  8
AM_9
100
AcDbLine
 10
-1.59375
 20
-1.155
 30
0.0
 11
-0.9597499999999997
 21
-1.155
 31
0.0
  0
LINE
  5
12E
330
F8
100
AcDbEntity
  8
AM_9
100
AcDbLine
 10
-1.082618378553238
 20
1.153120586255205
 30
0.0
 11
-1.071750000000512
 21
1.154999999999909
 31
0.0
  0
LINE
  5
12F
330
F8
100
AcDbEntity
  8
AM_9
100
AcDbLine
 10
-1.28919718314445
 20
1.136729929388778
 30
0.0
 11
-1.271234740588993
 21
1.136675159439306
 31
0.0
  0
LWPOLYLINE
  5
130
330
F8
100
AcDbEntity
  8
AM_9
100
AcDbPolyline
 90
       11
 70
     0
 43
0.0
 10
-1.071750000000512
 20
1.154999999999909
 10
-1.074063289603336
 20
1.154591660532598
 10
-1.082113953789169
 20
1.153205615007395
 10
-1.095214750620486
 20
1.151066916719998
 10
-1.113726360126783
 20
1.148292953543438
 10
-1.136448368403657
 20
1.14528797593819
 10
-1.163823889191244
 20
1.142257548236119
 10
-1.193836840693594
 20
1.139681794180362
 10
-1.227185264890733
 20
1.13774191404134
 10
-1.251584828794659
 20
1.136940317625246
 10
-1.27675
 20
1.136661779070626
  0
LINE
  5
131
330
F8
100
AcDbEntity
  8
AM_9
100
AcDbLine
 10
1.25
 20
-1.155
 30
0.0
 11
1.25
 21
1.155
 31
0.0
  0
LINE
  5
132
330
F8
100
AcDbEntity
  8
AM_9
100
AcDbLine
 10
1.25
 20
1.155
 30
0.0
 11
0.9745000000000005
 21
1.155
 31
0.0
  0
LINE
  5
133
330
F8
100
AcDbEntity
  8
AM_9
100
AcDbLine
 10
0.9745000000000005
 20
-1.155
 30
0.0
 11
1.25
 21
-1.155
 31
0.0
  0
LINE
  5
134
330
F8
100
AcDbEntity
  8
AM_9
100
AcDbLine
 10
0.9745000000000005
 20
-1.3220075
 30
0.0
 11
0.9745000000000005
 21
1.3220075
 31
0.0
  0
ARC
  5
135
330
F8
100
AcDbEntity
  8
AM_9
100
AcDbCircle
 10
0.879187500000001
 20
1.3220075
 30
0.0
 40
0.0953124999999995
100
AcDbArc
 50
0.0000008537736463
 51
90.0
  0
ARC
  5
136
330
F8
100
AcDbEntity
  8
AM_9
100
AcDbCircle
 10
0.8791875000000009
 20
-1.3220075
 30
0.0
 40
0.0953124999999995
100
AcDbArc
 50
270.0
 51
0.0
  0
LINE
  5
137
330
F8
100
AcDbEntity
  8
AM_9
100
AcDbLine
 10
-0.4285000000000002
 20
-1.3220075
 30
0.0
 11
-0.4285000000000002
 21
1.3220075
 31
0.0
  0
ARC
  5
138
330
F8
100
AcDbEntity
  8
AM_9
100
AcDbCircle
 10
-0.3331875000000006
 20
1.3220075
 30
0.0
 40
0.0953124999999997
100
AcDbArc
 50
90.0
 51
180.0
  0
ARC
  5
139
330
F8
100
AcDbEntity
  8
AM_9
100
AcDbCircle
 10
-0.3331875000000006
 20
-1.3220075
 30
0.0
 40
0.0953124999999995
100
AcDbArc
 50
180.0
 51
270.0
  0
LINE
  5
13A
330
F8
100
AcDbEntity
  8
AM_9
100
AcDbLine
 10
0.8791875
 20
-1.41732
 30
0.0
 11
0.8791875
 21
1.41732
 31
0.0
  0
LINE
  5
13B
330
F8
100
AcDbEntity
  8
AM_9
100
AcDbLine
 10
0.8791875
 20
1.41732
 30
0.0
 11
0.7495624999999999
 21
1.41732
 31
0.0
  0
LINE
  5
13C
330
F8
100
AcDbEntity
  8
AM_9
100
AcDbLine
 10
0.7495624999999999
 20
-1.41732
 30
0.0
 11
0.8791875
 21
-1.41732
 31
0.0
  0
LINE
  5
13D
330
F8
100
AcDbEntity
  8
AM_9
100
AcDbLine
 10
-0.3331875000000004
 20
-1.41732
 30
0.0
 11
-0.3331875000000004
 21
1.41732
 31
0.0
  0
LINE
  5
13E
330
F8
100
AcDbEntity
  8
AM_9
100
AcDbLine
 10
-0.2035624999999997
 20
1.41732
 30
0.0
 11
-0.3331875000000004
 21
1.41732
 31
0.0
  0
LINE
  5
13F
330
F8
100
AcDbEntity
  8
AM_9
100
AcDbLine
 10
-0.3331875000000004
 20
-1.41732
 30
0.0
 11
-0.2035624999999997
 21
-1.41732
 31
0.0
  0
LINE
  5
140
330
F8
100
AcDbEntity
  8
AM_9
100
AcDbLine
 10
0.3206562500000009
 20
1.700784
 30
0.0
 11
0.2253437499999996
 21
1.700784
 31
0.0
  0
LINE
  5
141
330
F8
100
AcDbEntity
  8
AM_9
100
AcDbLine
 10
0.2253437499999996
 20
-1.700784
 30
0.0
 11
0.3206562500000009
 21
-1.700784
 31
0.0
  0
LINE
  5
142
330
F8
100
AcDbEntity
  8
AM_9
100
AcDbLine
 10
-0.2035624999999997
 20
-1.6763375
 30
0.0
 11
-0.2035624999999997
 21
1.6763375
 31
0.0
  0
ARC
  5
143
330
F8
100
AcDbEntity
  8
AM_9
100
AcDbCircle
 10
-0.1082499999999995
 20
1.6763375
 30
0.0
 40
0.0953125000000004
100
AcDbArc
 50
90.0
 51
180.0
  0
ARC
  5
144
330
F8
100
AcDbEntity
  8
AM_9
100
AcDbCircle
 10
-0.108249999999999
 20
-1.676337499999999
 30
0.0
 40
0.0953125000000008
100
AcDbArc
 50
180.0
 51
270.0
  0
LINE
  5
145
330
F8
100
AcDbEntity
  8
AM_9
100
AcDbLine
 10
0.2253437499999996
 20
-1.700784
 30
0.0
 11
0.2253437499999996
 21
1.700784
 31
0.0
  0
LINE
  5
146
330
F8
100
AcDbEntity
  8
AM_9
100
AcDbLine
 10
0.2253437499999996
 20
1.700784
 30
0.0
 11
0.1844292458236075
 21
1.77165
 31
0.0
  0
LINE
  5
147
330
F8
100
AcDbEntity
  8
AM_9
100
AcDbLine
 10
0.1844292458236075
 20
-1.77165
 30
0.0
 11
0.2253437499999996
 21
-1.700784
 31
0.0
  0
LINE
  5
148
330
F8
100
AcDbEntity
  8
AM_9
100
AcDbLine
 10
0.7495624999999999
 20
-1.676337499999999
 30
0.0
 11
0.7495624999999999
 21
1.676337499999999
 31
0.0
  0
ARC
  5
149
330
F8
100
AcDbEntity
  8
AM_9
100
AcDbCircle
 10
0.6542499999999992
 20
1.676337499999999
 30
0.0
 40
0.0953125000000007
100
AcDbArc
 50
0.0
 51
90.0
  0
ARC
  5
14A
330
F8
100
AcDbEntity
  8
AM_9
100
AcDbCircle
 10
0.6542499999999997
 20
-1.6763375
 30
0.0
 40
0.0953125000000004
100
AcDbArc
 50
270.0
 51
0.0
  0
LINE
  5
14B
330
F8
100
AcDbEntity
  8
AM_9
100
AcDbLine
 10
0.3206562500000009
 20
-1.700784
 30
0.0
 11
0.3206562500000009
 21
1.700784
 31
0.0
  0
LINE
  5
14C
330
F8
100
AcDbEntity
  8
AM_9
100
AcDbLine
 10
0.3206562500000009
 20
-1.700784
 30
0.0
 11
0.3615707541763928
 21
-1.77165
 31
0.0
  0
LINE
  5
14D
330
F8
100
AcDbEntity
  8
AM_9
100
AcDbLine
 10
0.3615707541763928
 20
1.77165
 30
0.0
 11
0.3206562500000009
 21
1.700784
 31
0.0
  0
LINE
  5
14E
330
F8
100
AcDbEntity
  8
AM_9
100
AcDbLine
 10
0.65425
 20
-1.77165
 30
0.0
 11
0.65425
 21
1.77165
 31
0.0
  0
LINE
  5
14F
330
F8
100
AcDbEntity
  8
AM_9
100
AcDbLine
 10
0.3615707541763928
 20
-1.77165
 30
0.0
 11
0.3615707541763928
 21
1.77165
 31
0.0
  0
LINE
  5
150
330
F8
100
AcDbEntity
  8
AM_9
100
AcDbLine
 10
0.65425
 20
1.77165
 30
0.0
 11
0.3615707541763928
 21
1.77165
 31
0.0
  0
LINE
  5
151
330
F8
100
AcDbEntity
  8
AM_9
100
AcDbLine
 10
0.3615707541763928
 20
-1.77165
 30
0.0
 11
0.65425
 21
-1.77165
 31
0.0
  0
LINE
  5
152
330
F8
100
AcDbEntity
  8
AM_9
100
AcDbLine
 10
0.1844292458236075
 20
-1.77165
 30
0.0
 11
0.1844292458236075
 21
1.77165
 31
0.0
  0
LINE
  5
153
330
F8
100
AcDbEntity
  8
AM_9
100
AcDbLine
 10
-0.1082500000000001
 20
-1.77165
 30
0.0
 11
-0.1082500000000001
 21
1.77165
 31
0.0
  0
LINE
  5
154
330
F8
100
AcDbEntity
  8
AM_9
100
AcDbLine
 10
0.1844292458236075
 20
1.77165
 30
0.0
 11
-0.1082500000000001
 21
1.77165
 31
0.0
  0
LINE
  5
155
330
F8
100
AcDbEntity
  8
AM_9
100
AcDbLine
 10
-0.1082500000000001
 20
-1.77165
 30
0.0
 11
0.1844292458236075
 21
-1.77165
 31
0.0
  0
LINE
  5
158
330
F8
100
AcDbEntity
  8
AM_7
100
AcDbLine
 10
1.3921875
 20
0.0
 30
0.0
 11
-1.7359375
 21
0.0
 31
0.0
  0
LINE
  5
159
330
F8
100
AcDbEntity
  8
AM_7
100
AcDbLine
 10
-1.27675
 20
-0.0592307692307692
 30
0.0
 11
-1.27675
 21
1.7481875
 31
0.0
  0
LWPOLYLINE
  5
15A
330
F8
100
AcDbEntity
  8
AM_4
100
AcDbPolyline
 90
        5
 70
     0
 43
0.0
 10
-1.228616818002461
 20
0.5812556473705622
 10
-1.250810385800203
 20
0.584589595465975
 10
-1.284940842116226
 20
0.5857837481735078
 10
-1.318836076776439
 20
0.5823704532999637
 10
-1.339406935710829
 20
0.5779171041027115
  0
LINE
  5
15B
330
F8
100
AcDbEntity
  8
AM_4
100
AcDbLine
 10
-0.7343749999999999
 20
1.155
 30
0.0
 11
-0.9597499999999997
 21
1.155
 31
0.0
  0
LINE
  5
15C
330
F8
100
AcDbEntity
  8
AM_4
100
AcDbLine
 10
-0.9597499999999997
 20
-1.155
 30
0.0
 11
-0.7343749999999999
 21
-1.155
 31
0.0
  0
ENDBLK
  5
FB
330
F8
100
AcDbEntity
  8
0
100
AcDbBlockEnd
  0
BLOCK
  5
15F
330
15D
100
AcDbEntity
  8
0
100
AcDbBlockBegin
  2
5_405015E_Inch_0_in_070704_2
 70
     2
 10
0.0
 20
0.0
 30
0.0
  3
5_405015E_Inch_0_in_070704_2
  1

  0
ATTDEF
  5
161
330
15D
100
AcDbEntity
  8
AM_6
100
AcDbText
 10
4.676387777510708
 20
2.614338338148094
 30
0.0
 40
0.5
  1
405015E -Inch
100
AcDbAttributeDefinition
  3

  2
NN
 70
     8
280
     0
  0
ATTDEF
  5
162
330
15D
100
AcDbEntity
  8
AM_6
100
AcDbText
 10
4.676387777510708
 20
2.114338338148094
 30
0.0
 40
0.5
  1
Grease Fitting
100
AcDbAttributeDefinition
  3

  2
NT
 70
     8
280
     0
  0
ATTDEF
  5
163
330
15D
100
AcDbEntity
  8
AM_6
100
AcDbText
 10
4.676387777510708
 20
1.614338338148094
 30
0.0
 40
0.5
  1
405015E-Inch
100
AcDbAttributeDefinition
  3

  2
NB
 70
     8
280
     0
  0
ATTDEF
  5
164
330
15D
100
AcDbEntity
  8
AM_6
100
AcDbText
 10
4.676387777510708
 20
1.114338338148094
 30
0.0
 40
0.5
  1
$MN.-Inch
100
AcDbAttributeDefinition
  3

  2
NBSYN
 70
     8
280
     0
  0
ATTDEF
  5
165
330
15D
100
AcDbEntity
  8
AM_6
100
AcDbText
 10
4.676387777510708
 20
0.614338338148094
 30
0.0
 40
0.5
  1
405015E
100
AcDbAttributeDefinition
  3

  2
LINA
 70
     8
280
     0
  0
ATTDEF
  5
166
330
15D
100
AcDbEntity
  8
AM_6
100
AcDbText
 10
4.676387777510708
 20
0.114338338148094
 30
0.0
 40
0.5
  1
405015E
100
AcDbAttributeDefinition
  3

  2
MN
 70
     8
280
     0
  0
ATTDEF
  5
167
330
15D
100
AcDbEntity
  8
AM_6
100
AcDbText
 10
4.676387777510708
 20
-0.385661661851906
 30
0.0
 40
0.5
  1
1/8 x 27PTF
100
AcDbAttributeDefinition
  3

  2
T
 70
     8
280
     0
  0
ATTDEF
  5
168
330
15D
100
AcDbEntity
  8
AM_6
100
AcDbText
 10
4.676387777510708
 20
-0.885661661851906
 30
0.0
 40
0.5
  1
baldor
100
AcDbAttributeDefinition
  3

  2
COMPANY
 70
     8
280
     0
  0
LINE
  5
169
330
15D
100
AcDbEntity
  8
AM_9
100
AcDbLine
 10
-0.5625000000000001
 20
2.461862899217567
 30
0.0
 11
-0.5246853907283024
 21
2.527359723744512
 31
0.0
  0
LINE
  5
16A
330
15D
100
AcDbEntity
  8
AM_9
100
AcDbLine
 10
-0.5246853907283024
 20
2.527359723744512
 30
0.0
 11
-0.5625000000000001
 21
2.549191998586827
 31
0.0
  0
LINE
  5
16B
330
15D
100
AcDbEntity
  8
AM_9
100
AcDbLine
 10
-0.734375
 20
2.164166666666667
 30
0.0
 11
-0.7173001947736596
 21
2.193741096848031
 31
0.0
  0
LINE
  5
16C
330
15D
100
AcDbEntity
  8
AM_9
100
AcDbLine
 10
-0.4855150949615606
 20
2.065204666160009
 30
0.0
 11
-0.3236122224892917
 21
2.345628667173324
 31
0.0
  0
LINE
  5
16D
330
15D
100
AcDbEntity
  8
AM_9
100
AcDbLine
 10
-0.3236122224892917
 20
2.345628667173324
 30
0.0
 11
-0.3370507552600703
 21
2.395781954253049
 31
0.0
  0
LINE
  5
16E
330
15D
100
AcDbEntity
  8
AM_9
100
AcDbLine
 10
-0.5356683820412856
 20
2.051766133389231
 30
0.0
 11
-0.4855150949615606
 21
2.065204666160009
 31
0.0
  0
LINE
  5
16F
330
15D
100
AcDbEntity
  8
AM_9
100
AcDbLine
 10
-0.5356683820412856
 20
2.051766133389231
 30
0.0
 11
-0.3370507552600703
 21
2.395781954253049
 31
0.0
  0
LINE
  5
170
330
15D
100
AcDbEntity
  8
AM_9
100
AcDbLine
 10
-0.3370507552600703
 20
2.395781954253049
 30
0.0
 11
-0.5311844421167676
 21
2.51610303653869
 31
0.0
  0
LINE
  5
171
330
15D
100
AcDbEntity
  8
AM_9
100
AcDbLine
 10
-0.734375
 20
2.158356343072776
 30
0.0
 11
-0.5356683820412856
 21
2.051766133389231
 31
0.0
  0
LWPOLYLINE
  5
172
330
15D
100
AcDbEntity
  8
AM_9
100
AcDbPolyline
 90
        3
 70
     0
 43
0.0
 10
-0.5325381624169185
 20
2.53189352359282
 10
-0.5540089860845594
 20
2.481394057418806
 10
-0.5623929692503976
 20
2.464117591836117
  0
LINE
  5
173
330
15D
100
AcDbEntity
  8
AM_9
100
AcDbLine
 10
-0.7205273395879122
 20
2.193665449541825
 30
0.0
 11
-0.7339924237451038
 21
2.175215820960282
 31
0.0
  0
LINE
  5
174
330
15D
100
AcDbEntity
  8
AM_5
100
AcDbLine
 10
-0.6617307945983941
 20
2.159730296794643
 30
0.0
 11
-0.4855150949615606
 21
2.065204666160009
 31
0.0
  0
LINE
  5
175
330
15D
100
AcDbEntity
  8
AM_5
100
AcDbLine
 10
-0.7022953231884598
 20
2.159730296794643
 30
0.0
 11
-0.6617307945983941
 21
2.159730296794643
 31
0.0
  0
LINE
  5
176
330
15D
100
AcDbEntity
  8
AM_5
100
AcDbLine
 10
-0.493581669746046
 20
2.450973124287153
 30
0.0
 11
-0.3236122224892918
 21
2.345628667173324
 31
0.0
  0
LINE
  5
177
330
15D
100
AcDbEntity
  8
AM_5
100
AcDbLine
 10
-0.513863934041079
 20
2.486103036538689
 30
0.0
 11
-0.493581669746046
 21
2.450973124287153
 31
0.0
  0
LINE
  5
178
330
15D
100
AcDbEntity
  8
AM_5
100
AcDbLine
 10
-0.6795144750479984
 20
2.128928058710359
 30
0.0
 11
-0.4757979892964417
 21
2.481775362371437
 31
0.0
  0
LINE
  5
179
330
15D
100
AcDbEntity
  8
AM_7
100
AcDbLine
 10
-0.9865327300685689
 20
2.541416666666667
 30
0.0
 11
-0.3768508458043241
 21
2.189416666666666
 31
0.0
  0
LINE
  5
17A
330
15D
100
AcDbEntity
  8
AM_4
100
AcDbLine
 10
-0.7590955985041123
 20
2.531349334064033
 30
0.0
 11
-0.7850763606176454
 21
2.546349334064033
 31
0.0
  0
LINE
  5
17B
330
15D
100
AcDbEntity
  8
AM_4
100
AcDbLine
 10
-0.8900763606176455
 20
2.364483999269301
 30
0.0
 11
-0.8640955985041123
 21
2.3494839992693
 31
0.0
  0
LINE
  5
17C
330
15D
100
AcDbEntity
  8
AM_4
100
AcDbLine
 10
-0.8640955985041123
 20
2.3494839992693
 30
0.0
 11
-0.7590955985041123
 21
2.531349334064033
 31
0.0
  0
LINE
  5
17D
330
15D
100
AcDbEntity
  8
AM_4
100
AcDbLine
 10
-0.8640955985041123
 20
2.3494839992693
 30
0.0
 11
-0.8430790280004976
 21
2.321392010419559
 31
0.0
  0
LINE
  5
17E
330
15D
100
AcDbEntity
  8
AM_4
100
AcDbLine
 10
-0.7242589372656001
 20
2.527194444532346
 30
0.0
 11
-0.7590955985041123
 21
2.531349334064033
 31
0.0
  0
LINE
  5
17F
330
15D
100
AcDbEntity
  8
AM_4
100
AcDbLine
 10
-0.8900763606176455
 20
2.364483999269301
 30
0.0
 11
-0.7850763606176454
 21
2.546349334064033
 31
0.0
  0
LINE
  5
180
330
15D
100
AcDbEntity
  8
AM_4
100
AcDbLine
 10
-0.7850763606176454
 20
2.546349334064033
 30
0.0
 11
-0.8220378848447119
 21
2.602330096177566
 31
0.0
  0
LINE
  5
181
330
15D
100
AcDbEntity
  8
AM_4
100
AcDbLine
 10
-0.9570378848447118
 20
2.368503237155767
 30
0.0
 11
-0.8900763606176455
 21
2.364483999269301
 31
0.0
  0
LINE
  5
182
330
15D
100
AcDbEntity
  8
AM_4
100
AcDbLine
 10
-1.010158868114061
 20
2.436494995185239
 30
0.0
 11
-0.9074809661808731
 21
2.614338338148094
 31
0.0
  0
LINE
  5
183
330
15D
100
AcDbEntity
  8
AM_4
100
AcDbLine
 10
-0.9570378848447118
 20
2.368503237155767
 30
0.0
 11
-0.8220378848447119
 21
2.602330096177566
 31
0.0
  0
LINE
  5
184
330
15D
100
AcDbEntity
  8
AM_4
100
AcDbLine
 10
-1.010158868114061
 20
2.436494995185239
 30
0.0
 11
-0.9570378848447118
 21
2.368503237155767
 31
0.0
  0
LINE
  5
185
330
15D
100
AcDbEntity
  8
AM_4
100
AcDbLine
 10
-0.8220378848447119
 20
2.602330096177566
 30
0.0
 11
-0.9074809661808731
 21
2.614338338148094
 31
0.0
  0
LINE
  5
186
330
15D
100
AcDbEntity
  8
AM_4
100
AcDbLine
 10
-0.8430790280004976
 20
2.321392010419559
 30
0.0
 11
-0.7242589372656001
 21
2.527194444532346
 31
0.0
  0
LINE
  5
187
330
15D
100
AcDbEntity
  8
AM_4
100
AcDbLine
 10
-0.8430790280004976
 20
2.321392010419559
 30
0.0
 11
-0.8227939830362249
 21
2.247656892776118
 31
0.0
  0
LINE
  5
188
330
15D
100
AcDbEntity
  8
AM_4
100
AcDbLine
 10
-0.6502599297532093
 20
2.546494639098097
 30
0.0
 11
-0.7242589372656001
 21
2.527194444532346
 31
0.0
  0
LINE
  5
189
330
15D
100
AcDbEntity
  8
AM_4
100
AcDbLine
 10
-0.5625000000000001
 20
2.549191998586827
 30
0.0
 11
-0.6112879311067462
 21
2.577359723744513
 31
0.0
  0
LINE
  5
18A
330
15D
100
AcDbEntity
  8
AM_4
100
AcDbLine
 10
-0.8300379311067463
 20
2.198473609588821
 30
0.0
 11
-0.6112879311067462
 21
2.577359723744513
 31
0.0
  0
LINE
  5
18B
330
15D
100
AcDbEntity
  8
AM_4
100
AcDbLine
 10
-0.7173001947736596
 20
2.193741096848031
 30
0.0
 11
-0.5625000000000001
 21
2.461862899217567
 31
0.0
  0
LINE
  5
18C
330
15D
100
AcDbEntity
  8
AM_4
100
AcDbLine
 10
-0.7434353907283023
 20
2.148473609588821
 30
0.0
 11
-0.734375
 21
2.164166666666667
 31
0.0
  0
LINE
  5
18D
330
15D
100
AcDbEntity
  8
AM_4
100
AcDbLine
 10
-0.8300379311067463
 20
2.198473609588821
 30
0.0
 11
-0.7434353907283023
 21
2.148473609588821
 31
0.0
  0
LINE
  5
18E
330
15D
100
AcDbEntity
  8
AM_4
100
AcDbLine
 10
-0.7369363393398373
 20
2.159730296794643
 30
0.0
 11
-0.734375
 21
2.158356343072776
 31
0.0
  0
LINE
  5
18F
330
15D
100
AcDbEntity
  8
AM_4
100
AcDbLine
 10
-0.8227939830362249
 20
2.247656892776118
 30
0.0
 11
-0.6502599297532093
 21
2.546494639098097
 31
0.0
  0
LINE
  5
190
330
15D
100
AcDbEntity
  8
AM_4
100
AcDbLine
 10
-0.8227939830362249
 20
2.247656892776118
 30
0.0
 11
-0.8275379311067462
 21
2.202803736607743
 31
0.0
  0
LINE
  5
191
330
15D
100
AcDbEntity
  8
AM_4
100
AcDbLine
 10
-0.6137879311067462
 20
2.57302959672559
 30
0.0
 11
-0.6502599297532093
 21
2.546494639098097
 31
0.0
  0
LWPOLYLINE
  5
192
330
15D
100
AcDbEntity
  8
AM_4
100
AcDbPolyline
 90
        4
 70
     0
 43
0.0
 10
-0.6659754311067463
 20
2.48263819520559
 10
-0.6517775201486686
 20
2.506014870338321
 10
-0.6365400485609166
 20
2.528829361233162
 10
-0.6034351594181301
 20
2.572825923896206
  0
LWPOLYLINE
  5
193
330
15D
100
AcDbEntity
  8
AM_4
100
AcDbPolyline
 90
        4
 70
     0
 43
0.0
 10
-0.7128101594181301
 20
2.383382866818359
 10
-0.6913393357504892
 20
2.433882332992373
 10
-0.6791957044180469
 20
2.458510886512015
 10
-0.6659754311067463
 20
2.48263819520559
  0
LWPOLYLINE
  5
194
330
15D
100
AcDbEntity
  8
AM_4
100
AcDbPolyline
 90
        3
 70
     0
 43
0.0
 10
-0.5623929692503976
 20
2.464117591836117
 10
-0.5661526174170017
 20
2.456765503899164
 10
-0.5793728907283024
 20
2.432638195205589
  0
LINE
  5
195
330
15D
100
AcDbEntity
  8
AM_4
100
AcDbLine
 10
-0.7128101594181301
 20
2.383382866818359
 30
0.0
 11
-0.6419131624169185
 21
2.342450466514974
 31
0.0
  0
LWPOLYLINE
  5
196
330
15D
100
AcDbEntity
  8
AM_4
100
AcDbPolyline
 90
        4
 70
     0
 43
0.0
 10
-0.7753504311067463
 20
2.293195138127743
 10
-0.7611525201486686
 20
2.316571813260475
 10
-0.7459150485609166
 20
2.339386304155316
 10
-0.7128101594181301
 20
2.383382866818359
  0
LWPOLYLINE
  5
197
330
15D
100
AcDbEntity
  8
AM_4
100
AcDbPolyline
 90
        4
 70
     0
 43
0.0
 10
-0.8221851594181301
 20
2.193939809740514
 10
-0.8007143357504891
 20
2.244439275914527
 10
-0.788570704418047
 20
2.269067829434169
 10
-0.7753504311067463
 20
2.293195138127743
  0
LINE
  5
198
330
15D
100
AcDbEntity
  8
AM_4
100
AcDbLine
 10
-0.7339924237451038
 20
2.175215820960282
 30
0.0
 11
-0.7512881624169186
 21
2.153007409437128
 31
0.0
  0
LWPOLYLINE
  5
199
330
15D
100
AcDbEntity
  8
AM_4
100
AcDbPolyline
 90
        4
 70
     0
 43
0.0
 10
-0.6887478907283024
 20
2.243195138127744
 10
-0.7029458016863801
 20
2.219818462995012
 10
-0.7181643692890719
 20
2.197031064250799
 10
-0.7205273395879122
 20
2.193665449541825
  0
LWPOLYLINE
  5
19A
330
15D
100
AcDbEntity
  8
AM_4
100
AcDbPolyline
 90
        4
 70
     0
 43
0.0
 10
-0.5793728907283024
 20
2.432638195205589
 10
-0.5935708016863801
 20
2.409261520072858
 10
-0.6088082732741321
 20
2.386447029178017
 10
-0.6419131624169185
 20
2.342450466514974
  0
LWPOLYLINE
  5
19B
330
15D
100
AcDbEntity
  8
AM_4
100
AcDbPolyline
 90
        4
 70
     0
 43
0.0
 10
-0.6419131624169185
 20
2.342450466514974
 10
-0.657685774068607
 20
2.304439127990631
 10
-0.6755276174170016
 20
2.267322446821318
 10
-0.6887478907283024
 20
2.243195138127744
  0
ENDBLK
  5
160
330
15D
100
AcDbEntity
  8
0
100
AcDbBlockEnd
  0
BLOCK
  5
19E
330
19C
100
AcDbEntity
  8
0
100
AcDbBlockBegin
  2
6_070704H_0_in_070704_2
 70
     2
 10
0.0
 20
0.0
 30
0.0
  3
6_070704H_0_in_070704_2
  1

  0
ATTDEF
  5
1A0
330
19C
100
AcDbEntity
  8
AM_6
100
AcDbText
 10
6.265625
 20
3.1875
 30
0.0
 40
0.5
  1
FC-S2 -(Labyrinth Seal)-Housing
100
AcDbAttributeDefinition
  3

  2
NN
 70
     8
280
     0
  0
ATTDEF
  5
1A1
330
19C
100
AcDbEntity
  8
AM_6
100
AcDbText
 10
6.265625
 20
2.6875
 30
0.0
 40
0.5
  1
S-2000 Piloted Flange Bearing -Inch
100
AcDbAttributeDefinition
  3

  2
NT
 70
     8
280
     0
  0
ATTDEF
  5
1A2
330
19C
100
AcDbEntity
  8
AM_6
100
AcDbText
 10
6.265625
 20
2.1875
 30
0.0
 40
0.5
  1
070704H
100
AcDbAttributeDefinition
  3

  2
NB
 70
     8
280
     0
  0
ATTDEF
  5
1A3
330
19C
100
AcDbEntity
  8
AM_6
100
AcDbText
 10
6.265625
 20
1.6875
 30
0.0
 40
0.5
  1
$PN.H
100
AcDbAttributeDefinition
  3

  2
NBSYN
 70
     8
280
     0
  0
ATTDEF
  5
1A4
330
19C
100
AcDbEntity
  8
AM_6
100
AcDbText
 10
6.265625
 20
1.1875
 30
0.0
 40
0.5
  1
070704
100
AcDbAttributeDefinition
  3

  2
LINA
 70
     8
280
     0
  0
ATTDEF
  5
1A5
330
19C
100
AcDbEntity
  8
AM_6
100
AcDbText
 10
6.265625
 20
0.6875
 30
0.0
 40
0.5
  1
1-15/16
100
AcDbAttributeDefinition
  3

  2
SS
 70
     8
280
     0
  0
ATTDEF
  5
1A6
330
19C
100
AcDbEntity
  8
AM_6
100
AcDbText
 10
6.265625
 20
0.1875
 30
0.0
 40
0.5
  1
070704
100
AcDbAttributeDefinition
  3

  2
PN
 70
     8
280
     0
  0
ATTDEF
  5
1A7
330
19C
100
AcDbEntity
  8
AM_6
100
AcDbText
 10
6.265625
 20
-0.3125
 30
0.0
 40
0.5
  1
FC-S2-115L
100
AcDbAttributeDefinition
  3

  2
DESCRIPTION
 70
     8
280
     0
  0
ATTDEF
  5
1A8
330
19C
100
AcDbEntity
  8
AM_6
100
AcDbText
 10
6.265625
 20
-0.8125
 30
0.0
 40
0.5
  1
Non-Expansion Type
100
AcDbAttributeDefinition
  3

  2
EF
 70
     8
280
     0
  0
ATTDEF
  5
1A9
330
19C
100
AcDbEntity
  8
AM_6
100
AcDbText
 10
6.265625
 20
-1.3125
 30
0.0
 40
0.5
  1
2-27/32
100
AcDbAttributeDefinition
  3

  2
A
 70
     8
280
     0
  0
ATTDEF
  5
1AA
330
19C
100
AcDbEntity
  8
AM_6
100
AcDbText
 10
6.265625
 20
-1.8125
 30
0.0
 40
0.5
  1
6-3/8
100
AcDbAttributeDefinition
  3

  2
B
 70
     8
280
     0
  0
ATTDEF
  5
1AB
330
19C
100
AcDbEntity
  8
AM_6
100
AcDbText
 10
6.265625
 20
-2.3125
 30
0.0
 40
0.5
  1
2
100
AcDbAttributeDefinition
  3

  2
C
 70
     8
280
     0
  0
ATTDEF
  5
1AC
330
19C
100
AcDbEntity
  8
AM_6
100
AcDbText
 10
6.265625
 20
-2.8125
 30
0.0
 40
0.5
  1
5-3/8
100
AcDbAttributeDefinition
  3

  2
DD
 70
     8
280
     0
  0
ATTDEF
  5
1AD
330
19C
100
AcDbEntity
  8
AM_6
100
AcDbText
 10
6.265625
 20
-3.3125
 30
0.0
 40
0.5
  1
7/8
100
AcDbAttributeDefinition
  3

  2
E
 70
     8
280
     0
  0
ATTDEF
  5
1AE
330
19C
100
AcDbEntity
  8
AM_6
100
AcDbText
 10
6.265625
 20
-3.8125
 30
0.0
 40
0.5
  1
7/16
100
AcDbAttributeDefinition
  3

  2
F
 70
     8
280
     0
  0
ATTDEF
  5
1AF
330
19C
100
AcDbEntity
  8
AM_6
100
AcDbText
 10
6.265625
 20
-4.3125
 30
0.0
 40
0.5
  1
1-19/32
100
AcDbAttributeDefinition
  3

  2
G
 70
     8
280
     0
  0
ATTDEF
  5
1B0
330
19C
100
AcDbEntity
  8
AM_6
100
AcDbText
 10
6.265625
 20
-4.8125
 30
0.0
 40
0.5
  1
9/16
100
AcDbAttributeDefinition
  3

  2
H
 70
     8
280
     0
  0
ATTDEF
  5
1B1
330
19C
100
AcDbEntity
  8
AM_6
100
AcDbText
 10
6.265625
 20
-5.3125
 30
0.0
 40
0.5
  1
4.500
100
AcDbAttributeDefinition
  3

  2
K
 70
     8
280
     0
  0
ATTDEF
  5
1B2
330
19C
100
AcDbEntity
  8
AM_6
100
AcDbText
 10
6.265625
 20
-5.8125
 30
0.0
 40
0.5
  1
3-7/16
100
AcDbAttributeDefinition
  3

  2
L
 70
     8
280
     0
  0
ATTDEF
  5
1B3
330
19C
100
AcDbEntity
  8
AM_6
100
AcDbText
 10
6.265625
 20
-6.3125
 30
0.0
 40
0.5
  1
7/16-14
100
AcDbAttributeDefinition
  3

  2
M
 70
     8
280
     0
  0
ATTDEF
  5
1B4
330
19C
100
AcDbEntity
  8
AM_6
100
AcDbText
 10
6.265625
 20
-6.8125
 30
0.0
 40
0.5
  1
0.4375
100
AcDbAttributeDefinition
  3

  2
MNDM
 70
     8
280
     0
  0
ATTDEF
  5
1B5
330
19C
100
AcDbEntity
  8
AM_6
100
AcDbText
 10
6.265625
 20
-7.3125
 30
0.0
 40
0.5
  1
0.3602
100
AcDbAttributeDefinition
  3

  2
MKDM
 70
     8
280
     0
  0
ATTDEF
  5
1B6
330
19C
100
AcDbEntity
  8
AM_6
100
AcDbText
 10
6.265625
 20
-7.8125
 30
0.0
 40
0.5
  1
2-55/64
100
AcDbAttributeDefinition
  3

  2
N
 70
     8
280
     0
  0
ATTDEF
  5
1B7
330
19C
100
AcDbEntity
  8
AM_6
100
AcDbText
 10
6.265625
 20
-8.3125
 30
0.0
 40
0.5
  1
2.859375
100
AcDbAttributeDefinition
  3

  2
N1
 70
     8
280
     0
  0
ATTDEF
  5
1B8
330
19C
100
AcDbEntity
  8
AM_6
100
AcDbText
 10
6.265625
 20
-8.8125
 30
0.0
 40
0.5
  1
1-1/4
100
AcDbAttributeDefinition
  3

  2
P
 70
     8
280
     0
  0
ATTDEF
  5
1B9
330
19C
100
AcDbEntity
  8
AM_6
100
AcDbText
 10
6.265625
 20
-9.3125
 30
0.0
 40
0.5
  1
1-17/64
100
AcDbAttributeDefinition
  3

  2
Q
 70
     8
280
     0
  0
ATTDEF
  5
1BA
330
19C
100
AcDbEntity
  8
AM_6
100
AcDbText
 10
6.265625
 20
-9.8125
 30
0.0
 40
0.5
  1
1.265625
100
AcDbAttributeDefinition
  3

  2
Q1
 70
     8
280
     0
  0
ATTDEF
  5
1BB
330
19C
100
AcDbEntity
  8
AM_6
100
AcDbText
 10
6.265625
 20
-10.3125
 30
0.0
 40
0.5
  1
1/4
100
AcDbAttributeDefinition
  3

  2
X
 70
     8
280
     0
  0
ATTDEF
  5
1BC
330
19C
100
AcDbEntity
  8
AM_6
100
AcDbText
 10
6.265625
 20
-10.8125
 30
0.0
 40
0.5
  1
0.020
100
AcDbAttributeDefinition
  3

  2
Y
 70
     8
280
     0
  0
ATTDEF
  5
1BD
330
19C
100
AcDbEntity
  8
AM_6
100
AcDbText
 10
6.265625
 20
-11.3125
 30
0.0
 40
0.5
  1
2-19/64
100
AcDbAttributeDefinition
  3

  2
Z
 70
     8
280
     0
  0
ATTDEF
  5
1BE
330
19C
100
AcDbEntity
  8
AM_6
100
AcDbText
 10
6.265625
 20
-11.8125
 30
0.0
 40
0.5
  1
baldor
100
AcDbAttributeDefinition
  3

  2
COMPANY
 70
     8
280
     0
  0
LINE
  5
1BF
330
19C
100
AcDbEntity
  8
AM_9
100
AcDbLine
 10
0.0
 20
-3.054999999999991
 30
0.0
 11
-0.5062500000000001
 21
-3.054999999999991
 31
0.0
  0
LINE
  5
1C0
330
19C
100
AcDbEntity
  8
AM_9
100
AcDbLine
 10
-0.734375
 20
2.104166666666667
 30
0.0
 11
-0.682659178622282
 21
2.193741096848031
 31
0.0
  0
LINE
  5
1C1
330
19C
100
AcDbEntity
  8
AM_9
100
AcDbLine
 10
-0.5062500000000001
 20
2.499290757143316
 30
0.0
 11
-0.5625000000000001
 21
2.401862899217567
 31
0.0
  0
LINE
  5
1C2
330
19C
100
AcDbEntity
  8
AM_9
100
AcDbLine
 10
-0.5062500000000001
 20
-2.083502583865509
 30
0.0
 11
-0.5625000000000001
 21
-2.083502583865509
 31
0.0
  0
LINE
  5
1C3
330
19C
100
AcDbEntity
  8
AM_9
100
AcDbLine
 10
-0.5062500000000001
 20
-2.038290594937757
 30
0.0
 11
-0.5625000000000001
 21
-2.038290594937757
 31
0.0
  0
LINE
  5
1C4
330
19C
100
AcDbEntity
  8
AM_9
100
AcDbLine
 10
-0.5062500000000001
 20
2.083502583865509
 30
0.0
 11
-0.5625000000000001
 21
2.083502583865509
 31
0.0
  0
LINE
  5
1C5
330
19C
100
AcDbEntity
  8
AM_9
100
AcDbLine
 10
-0.5625000000000001
 20
2.038290594937756
 30
0.0
 11
-0.5062500000000001
 21
2.038290594937756
 31
0.0
  0
LINE
  5
1C6
330
19C
100
AcDbEntity
  8
AM_9
100
AcDbLine
 10
-0.5062500000000001
 20
-2.05946153544398
 30
0.0
 11
-0.5625000000000001
 21
-2.05946153544398
 31
0.0
  0
LINE
  5
1C7
330
19C
100
AcDbEntity
  8
AM_9
100
AcDbLine
 10
-0.5624999999999999
 20
-2.25
 30
0.0
 11
-0.5062500000000001
 21
-2.25
 31
0.0
  0
LINE
  5
1C8
330
19C
100
AcDbEntity
  8
AM_9
100
AcDbLine
 10
-0.5062500000000001
 20
2.193741096848031
 30
0.0
 11
-0.5624999999999999
 21
2.193741096848031
 31
0.0
  0
LINE
  5
1C9
330
19C
100
AcDbEntity
  8
AM_9
100
AcDbLine
 10
-0.5062500000000001
 20
2.05946153544398
 30
0.0
 11
-0.5625000000000001
 21
2.05946153544398
 31
0.0
  0
LINE
  5
1CA
330
19C
100
AcDbEntity
  8
AM_9
100
AcDbLine
 10
-0.5021381578947369
 20
-1.77165
 30
0.0
 11
1.265625
 21
-1.77165
 31
0.0
  0
LINE
  5
1CB
330
19C
100
AcDbEntity
  8
AM_9
100
AcDbLine
 10
1.265625
 20
1.77165
 30
0.0
 11
-0.5021381578947369
 21
1.77165
 31
0.0
  0
LINE
  5
1CC
330
19C
100
AcDbEntity
  8
AM_9
100
AcDbLine
 10
-0.5021381578947369
 20
1.77165
 30
0.0
 11
-0.734375
 21
1.856177297826296
 31
0.0
  0
LINE
  5
1CD
330
19C
100
AcDbEntity
  8
AM_9
100
AcDbLine
 10
-0.734375
 20
-1.856177297826296
 30
0.0
 11
-0.5021381578947369
 21
-1.77165
 31
0.0
  0
LINE
  5
1CE
330
19C
100
AcDbEntity
  8
AM_9
100
AcDbLine
 10
-0.5021381578947369
 20
1.77165
 30
0.0
 11
-0.5021381578947369
 21
-1.77165
 31
0.0
  0
LINE
  5
1CF
330
19C
100
AcDbEntity
  8
AM_9
100
AcDbLine
 10
-0.5062500000000001
 20
-2.038290594937757
 30
0.0
 11
-0.5062500000000001
 21
-2.584458005925787
 31
0.0
  0
LINE
  5
1D0
330
19C
100
AcDbEntity
  8
AM_9
100
AcDbLine
 10
-0.5062500000000001
 20
2.584458005925787
 30
0.0
 11
-0.5062500000000001
 21
2.038290594937756
 31
0.0
  0
LINE
  5
1D1
330
19C
100
AcDbEntity
  8
AM_9
100
AcDbLine
 10
0.0
 20
-1.681599474438847
 30
0.0
 11
-0.5625000000000001
 21
-1.681599474438847
 31
0.0
  0
LINE
  5
1D2
330
19C
100
AcDbEntity
  8
AM_9
100
AcDbLine
 10
-0.5625000000000001
 20
-2.119099474438847
 30
0.0
 11
0.0
 21
-2.119099474438847
 31
0.0
  0
LINE
  5
1D3
330
19C
100
AcDbEntity
  8
AM_9
100
AcDbLine
 10
0.0
 20
2.119099474438847
 30
0.0
 11
-0.5625000000000001
 21
2.119099474438847
 31
0.0
  0
LINE
  5
1D4
330
19C
100
AcDbEntity
  8
AM_9
100
AcDbLine
 10
-0.5625000000000001
 20
1.681599474438847
 30
0.0
 11
0.0
 21
1.681599474438847
 31
0.0
  0
LINE
  5
1D5
330
19C
100
AcDbEntity
  8
AM_9
100
AcDbLine
 10
-0.0386499999999999
 20
0.1800999999999995
 30
0.0
 11
-0.4675999999999997
 21
0.1800999999999995
 31
0.0
  0
LINE
  5
1D6
330
19C
100
AcDbEntity
  8
AM_9
100
AcDbLine
 10
-0.4675999999999997
 20
-0.1800999999999995
 30
0.0
 11
-0.0386499999999999
 21
-0.1800999999999995
 31
0.0
  0
LINE
  5
1D7
330
19C
100
AcDbEntity
  8
AM_9
100
AcDbLine
 10
-0.0386499999999999
 20
-0.1800999999999995
 30
0.0
 11
-0.0386499999999999
 21
0.1800999999999995
 31
0.0
  0
LINE
  5
1D8
330
19C
100
AcDbEntity
  8
AM_9
100
AcDbLine
 10
-0.0386499999999999
 20
-0.1800999999999995
 30
0.0
 11
0.0000000000000003
 21
-0.2187499999999999
 31
0.0
  0
LINE
  5
1D9
330
19C
100
AcDbEntity
  8
AM_9
100
AcDbLine
 10
0.0000000000000003
 20
0.2187499999999999
 30
0.0
 11
-0.0386499999999999
 21
0.1800999999999995
 31
0.0
  0
LINE
  5
1DA
330
19C
100
AcDbEntity
  8
AM_9
100
AcDbLine
 10
-0.4675999999999997
 20
-0.1800999999999995
 30
0.0
 11
-0.4675999999999997
 21
0.1800999999999995
 31
0.0
  0
LINE
  5
1DB
330
19C
100
AcDbEntity
  8
AM_9
100
AcDbLine
 10
-0.4675999999999997
 20
0.1800999999999995
 30
0.0
 11
-0.5062499999999999
 21
0.2187499999999999
 31
0.0
  0
LINE
  5
1DC
330
19C
100
AcDbEntity
  8
AM_9
100
AcDbLine
 10
-0.5062499999999999
 20
-0.2187499999999999
 30
0.0
 11
-0.4675999999999997
 21
-0.1800999999999995
 31
0.0
  0
LINE
  5
1DD
330
19C
100
AcDbEntity
  8
AM_5
100
AcDbLine
 10
-0.0000000000000003
 20
-0.2187499999999999
 30
0.0
 11
-0.5062500000000004
 21
-0.2187499999999999
 31
0.0
  0
LINE
  5
1DE
330
19C
100
AcDbEntity
  8
AM_5
100
AcDbLine
 10
0.0000000000000003
 20
0.2187500000000005
 30
0.0
 11
-0.5062500000000004
 21
0.2187500000000005
 31
0.0
  0
LINE
  5
1DF
330
19C
100
AcDbEntity
  8
AM_7
100
AcDbLine
 10
-0.5906250000000002
 20
1.900349474438846
 30
0.0
 11
0.0281249999999999
 21
1.900349474438846
 31
0.0
  0
LINE
  5
1E0
330
19C
100
AcDbEntity
  8
AM_7
100
AcDbLine
 10
-0.5906250000000002
 20
-1.900349474438846
 30
0.0
 11
0.0281249999999999
 21
-1.900349474438846
 31
0.0
  0
LINE
  5
1E1
330
19C
100
AcDbEntity
  8
AM_4
100
AcDbLine
 10
-0.5625000000000001
 20
2.401862899217567
 30
0.0
 11
-0.682659178622282
 21
2.193741096848031
 31
0.0
  0
LINE
  5
1E2
330
19C
100
AcDbEntity
  8
AM_4
100
AcDbLine
 10
-0.734375
 20
-2.25
 30
0.0
 11
-0.5624999999999999
 21
-2.25
 31
0.0
  0
LINE
  5
1E3
330
19C
100
AcDbEntity
  8
AM_4
100
AcDbLine
 10
-0.734375
 20
-2.25
 30
0.0
 11
-0.734375
 21
2.193741096848031
 31
0.0
  0
LINE
  5
1E4
330
19C
100
AcDbEntity
  8
AM_4
100
AcDbLine
 10
-0.5624999999999999
 20
2.193741096848031
 30
0.0
 11
-0.734375
 21
2.193741096848031
 31
0.0
  0
LINE
  5
1E5
330
19C
100
AcDbEntity
  8
AM_4
100
AcDbLine
 10
-0.734375
 20
-1.798546250991328
 30
0.0
 11
-0.5625000000000001
 21
-1.798546250991328
 31
0.0
  0
LINE
  5
1E6
330
19C
100
AcDbEntity
  8
AM_4
100
AcDbLine
 10
-0.734375
 20
1.798546250991326
 30
0.0
 11
-0.5625000000000001
 21
1.798546250991326
 31
0.0
  0
LINE
  5
1E7
330
19C
100
AcDbEntity
  8
AM_4
100
AcDbLine
 10
1.265625
 20
-2.142857142857143
 30
0.0
 11
1.265625
 21
2.142857142857143
 31
0.0
  0
LINE
  5
1E8
330
19C
100
AcDbEntity
  8
AM_4
100
AcDbLine
 10
0.875
 20
-2.142857142857143
 30
0.0
 11
1.265625
 21
-2.142857142857143
 31
0.0
  0
LINE
  5
1E9
330
19C
100
AcDbEntity
  8
AM_4
100
AcDbLine
 10
1.265625
 20
2.142857142857143
 30
0.0
 11
0.875
 21
2.142857142857143
 31
0.0
  0
LINE
  5
1EA
330
19C
100
AcDbEntity
  8
AM_4
100
AcDbLine
 10
-0.734375
 20
-1.351936160861541
 30
0.0
 11
-0.5625000000000001
 21
-1.351936160861541
 31
0.0
  0
LINE
  5
1EB
330
19C
100
AcDbEntity
  8
AM_4
100
AcDbLine
 10
-0.5062500000000001
 20
-0.9061557173172406
 30
0.0
 11
-0.5625000000000001
 21
-0.9061557173172406
 31
0.0
  0
LINE
  5
1EC
330
19C
100
AcDbEntity
  8
AM_4
100
AcDbLine
 10
-0.5062500000000001
 20
0.9061557173172401
 30
0.0
 11
-0.5625000000000001
 21
0.9061557173172397
 31
0.0
  0
LINE
  5
1ED
330
19C
100
AcDbEntity
  8
AM_4
100
AcDbLine
 10
-0.734375
 20
1.351936160861541
 30
0.0
 11
-0.5625000000000001
 21
1.351936160861541
 31
0.0
  0
LINE
  5
1EE
330
19C
100
AcDbEntity
  8
AM_4
100
AcDbLine
 10
0.875
 20
-2.25
 30
0.0
 11
0.875
 21
2.25
 31
0.0
  0
LINE
  5
1EF
330
19C
100
AcDbEntity
  8
AM_4
100
AcDbLine
 10
0.0
 20
-2.25
 30
0.0
 11
0.875
 21
-2.25
 31
0.0
  0
LINE
  5
1F0
330
19C
100
AcDbEntity
  8
AM_4
100
AcDbLine
 10
0.875
 20
2.25
 30
0.0
 11
0.0
 21
2.25
 31
0.0
  0
LINE
  5
1F1
330
19C
100
AcDbEntity
  8
AM_4
100
AcDbLine
 10
-0.5062500000000001
 20
1.150233794995806
 30
0.0
 11
-0.5625000000000001
 21
1.150233794995806
 31
0.0
  0
LINE
  5
1F2
330
19C
100
AcDbEntity
  8
AM_4
100
AcDbLine
 10
-0.5062500000000001
 20
-1.150233794995807
 30
0.0
 11
-0.5625000000000001
 21
-1.150233794995807
 31
0.0
  0
LINE
  5
1F3
330
19C
100
AcDbEntity
  8
AM_4
100
AcDbLine
 10
-0.5625000000000001
 20
-2.584458005925787
 30
0.0
 11
-0.5625000000000001
 21
-0.9061557173172406
 31
0.0
  0
LINE
  5
1F4
330
19C
100
AcDbEntity
  8
AM_4
100
AcDbLine
 10
-0.5625000000000001
 20
-2.584458005925787
 30
0.0
 11
-0.5062500000000001
 21
-2.584458005925787
 31
0.0
  0
LINE
  5
1F5
330
19C
100
AcDbEntity
  8
AM_4
100
AcDbLine
 10
-0.5062500000000001
 20
-2.584458005925787
 30
0.0
 11
-0.5062500000000001
 21
-3.183038893188855
 31
0.0
  0
LINE
  5
1F6
330
19C
100
AcDbEntity
  8
AM_4
100
AcDbLine
 10
0.0
 20
-3.183038893188854
 30
0.0
 11
-0.5062500000000001
 21
-3.183038893188855
 31
0.0
  0
LINE
  5
1F7
330
19C
100
AcDbEntity
  8
AM_4
100
AcDbLine
 10
0.0
 20
-3.183038893188854
 30
0.0
 11
0.0
 21
3.1875
 31
0.0
  0
LINE
  5
1F8
330
19C
100
AcDbEntity
  8
AM_4
100
AcDbLine
 10
-0.5062500000000001
 20
2.584458005925787
 30
0.0
 11
-0.5625000000000001
 21
2.584458005925787
 31
0.0
  0
LINE
  5
1F9
330
19C
100
AcDbEntity
  8
AM_4
100
AcDbLine
 10
-0.5625000000000001
 20
0.9061557173172397
 30
0.0
 11
-0.5625000000000001
 21
2.584458005925787
 31
0.0
  0
LINE
  5
1FA
330
19C
100
AcDbEntity
  8
AM_4
100
AcDbLine
 10
-0.5624999999999998
 20
1.865672282477846
 30
0.0
 11
-0.5062499999999999
 21
1.865672282477846
 31
0.0
  0
LINE
  5
1FB
330
19C
100
AcDbEntity
  8
AM_4
100
AcDbLine
 10
-0.5062499999999999
 20
1.865672282477846
 30
0.0
 11
-0.5062499999999999
 21
-1.865672282477846
 31
0.0
  0
LINE
  5
1FC
330
19C
100
AcDbEntity
  8
AM_4
100
AcDbLine
 10
-0.5062499999999999
 20
-1.865672282477846
 30
0.0
 11
-0.5624999999999998
 21
-1.865672282477846
 31
0.0
  0
LINE
  5
1FD
330
19C
100
AcDbEntity
  8
AM_4
100
AcDbLine
 10
0.0
 20
3.1875
 30
0.0
 11
-0.5062500000000001
 21
3.1875
 31
0.0
  0
LINE
  5
1FE
330
19C
100
AcDbEntity
  8
AM_4
100
AcDbLine
 10
-0.5062500000000001
 20
3.1875
 30
0.0
 11
-0.5062500000000001
 21
2.584458005925787
 31
0.0
  0
ENDBLK
  5
19F
330
19C
100
AcDbEntity
  8
0
100
AcDbBlockEnd
  0
ENDSEC
  0
SECTION
  2
ENTITIES
  0
INSERT
  5
6F
330
1F
100
AcDbEntity
  8
0
100
AcDbBlockReference
  2
1_070704_2
 10
0.0
 20
0.0
 30
0.0
  0
POINT
  5
200
330
1F
100
AcDbEntity
  8
ConnectionPoints
100
AcDbPoint
 10
-1.59375
 20
0.0
 30
0.0000000000000001
  0
POINT
  5
201
330
1F
100
AcDbEntity
  8
ConnectionPoints
100
AcDbPoint
 10
-1.59375
 20
0.0
 30
0.0000000000000001
  0
POINT
  5
202
330
1F
100
AcDbEntity
  8
ConnectionPoints
100
AcDbPoint
 10
2.13975
 20
0.0
 30
-0.0000000000000001
  0
POINT
  5
203
330
1F
100
AcDbEntity
  8
ConnectionPoints
100
AcDbPoint
 10
-1.59375
 20
0.0
 30
0.0000000000000001
  0
POINT
  5
204
330
1F
100
AcDbEntity
  8
ConnectionPoints
100
AcDbPoint
 10
-0.6340603907283024
 20
2.337916666666667
 30
0.0
  0
POINT
  5
205
330
1F
100
AcDbEntity
  8
ConnectionPoints
100
AcDbPoint
 10
1.21875
 20
0.0
 30
-0.0000000000000001
  0
POINT
  5
206
330
1F
100
AcDbEntity
  8
ConnectionPoints
100
AcDbPoint
 10
-0.6340603907283024
 20
2.337916666666667
 30
0.0
  0
POINT
  5
207
330
1F
100
AcDbEntity
  8
ConnectionPoints
100
AcDbPoint
 10
-0.6024865478819947
 20
2.6478125
 30
0.0
  0
POINT
  5
208
330
1F
100
AcDbEntity
  8
ConnectionPoints
100
AcDbPoint
 10
-1.34375
 20
0.0
 30
0.0000000000000001
  0
POINT
  5
209
330
1F
100
AcDbEntity
  8
ConnectionPoints
100
AcDbPoint
 10
-1.59375
 20
0.0
 30
0.0000000000000001
  0
ENDSEC
  0
SECTION
  2
OBJECTS
  0
DICTIONARY
  5
C
330
0
100
AcDbDictionary
281
     1
  3
ACAD_DETAILVIEWSTYLE
350
211
  3
ACAD_GROUP
350
D
  3
ACAD_LAYOUT
350
1A
  3
ACAD_MATERIAL
350
43
  3
ACAD_MLEADERSTYLE
350
6B
  3
ACAD_MLINESTYLE
350
17
  3
ACAD_PLOTSETTINGS
350
19
  3
ACAD_PLOTSTYLENAME
350
E
  3
ACAD_SCALELIST
350
47
  3
ACAD_SECTIONVIEWSTYLE
350
212
  3
ACAD_TABLESTYLE
350
69
  3
ACAD_VISUALSTYLE
350
2A
  3
ACDB_RECOMPOSE_DATA
350
20E
  3
AcDbVariableDictionary
350
20A
  0
SUN
  5
6D
330
29
100
AcDbSun
 90
        1
290
     0
 63
     7
421
 16777215
 40
1.0
291
     1
 91
  2455826
 92
 54000000
292
     0
 70
     2
 71
   256
280
     1
  0
DICTIONARY
  5
211
102
{ACAD_REACTORS
330
C
102
}
330
C
100
AcDbDictionary
281
     1
  0
DICTIONARY
  5
D
102
{ACAD_REACTORS
330
C
102
}
330
C
100
AcDbDictionary
281
     1
  0
DICTIONARY
  5
1A
102
{ACAD_REACTORS
330
C
102
}
330
C
100
AcDbDictionary
281
     1
  3
Layout1
350
1E
  3
Layout2
350
26
  3
Model
350
22
  0
DICTIONARY
  5
43
102
{ACAD_REACTORS
330
C
102
}
330
C
100
AcDbDictionary
281
     1
  3
ByBlock
350
45
  3
ByLayer
350
44
  3
Global
350
46
  0
DICTIONARY
  5
6B
102
{ACAD_REACTORS
330
C
102
}
330
C
100
AcDbDictionary
281
     1
  3
Standard
350
6C
  0
DICTIONARY
  5
17
102
{ACAD_REACTORS
330
C
102
}
330
C
100
AcDbDictionary
281
     1
  3
Standard
350
18
  0
DICTIONARY
  5
19
102
{ACAD_REACTORS
330
C
102
}
330
C
100
AcDbDictionary
281
     1
  0
ACDBDICTIONARYWDFLT
  5
E
102
{ACAD_REACTORS
330
C
102
}
330
C
100
AcDbDictionary
281
     1
  3
Normal
350
F
100
AcDbDictionaryWithDefault
340
F
  0
DICTIONARY
  5
47
102
{ACAD_REACTORS
330
C
102
}
330
C
100
AcDbDictionary
281
     1
  3
A0
350
48
  3
A1
350
49
  3
A2
350
4A
  3
A3
350
4B
  3
A4
350
4C
  3
A5
350
4D
  3
A6
350
4E
  3
A7
350
4F
  3
A8
350
50
  3
A9
350
51
  3
B0
350
52
  3
B1
350
53
  3
B2
350
54
  3
B3
350
55
  3
B4
350
56
  3
B5
350
57
  3
B6
350
58
  3
B7
350
59
  3
B8
350
5A
  3
B9
350
5B
  3
C0
350
5C
  3
C1
350
5D
  3
C2
350
5E
  3
C3
350
5F
  3
C4
350
60
  3
C5
350
61
  3
C6
350
62
  3
C7
350
63
  3
C8
350
64
  3
C9
350
65
  3
D0
350
66
  3
D1
350
67
  3
D2
350
68
  0
DICTIONARY
  5
212
102
{ACAD_REACTORS
330
C
102
}
330
C
100
AcDbDictionary
281
     1
  0
DICTIONARY
  5
69
102
{ACAD_REACTORS
330
C
102
}
330
C
100
AcDbDictionary
281
     1
  3
Standard
350
6A
  0
DICTIONARY
  5
2A
102
{ACAD_REACTORS
330
C
102
}
330
C
100
AcDbDictionary
281
     1
  3
2dWireframe
350
2F
  3
Basic
350
32
  3
Brighten
350
36
  3
ColorChange
350
3A
  3
Conceptual
350
34
  3
Dim
350
35
  3
EdgeColorOff
350
3D
  3
Facepattern
350
39
  3
Flat
350
2B
  3
FlatWithEdges
350
2C
  3
Gouraud
350
2D
  3
GouraudWithEdges
350
2E
  3
Hidden
350
31
  3
JitterOff
350
3B
  3
Linepattern
350
38
  3
OverhangOff
350
3C
  3
Realistic
350
33
  3
Shaded
350
42
  3
Shaded with edges
350
41
  3
Shades of Gray
350
3E
  3
Sketchy
350
3F
  3
Thicken
350
37
  3
Wireframe
350
30
  3
X-Ray
350
40
  0
XRECORD
  5
20E
102
{ACAD_REACTORS
330
C
102
}
330
C
100
AcDbXrecord
280
     1
 90
        1
330
6A
  0
DICTIONARY
  5
20A
102
{ACAD_REACTORS
330
C
102
}
330
C
100
AcDbDictionary
281
     1
  3
CANNOSCALE
350
20B
  3
CMLEADERSTYLE
350
210
  3
CTABLESTYLE
350
20F
  0
LAYOUT
  5
1E
102
{ACAD_REACTORS
330
1A
102
}
330
1A
100
AcDbPlotSettings
  1

  2
none_device
  4

  6

 40
0.0
 41
0.0
 42
0.0
 43
0.0
 44
0.0
 45
0.0
 46
0.0
 47
0.0
 48
0.0
 49
0.0
140
0.0
141
0.0
142
1.0
143
1.0
 70
   688
 72
     0
 73
     0
 74
     5
  7

 75
    16
 76
     0
 77
     2
 78
   300
147
1.0
148
0.0
149
0.0
100
AcDbLayout
  1
Layout1
 70
     1
 71
     1
 10
0.0
 20
0.0
 11
12.0
 21
9.0
 12
0.0
 22
0.0
 32
0.0
 14
1.000000000000000E+20
 24
1.000000000000000E+20
 34
1.000000000000000E+20
 15
-1.000000000000000E+20
 25
-1.000000000000000E+20
 35
-1.000000000000000E+20
146
0.0
 13
0.0
 23
0.0
 33
0.0
 16
1.0
 26
0.0
 36
0.0
 17
0.0
 27
1.0
 37
0.0
 76
     0
330
1B
  0
LAYOUT
  5
26
102
{ACAD_REACTORS
330
1A
102
}
330
1A
100
AcDbPlotSettings
  1

  2
none_device
  4

  6

 40
0.0
 41
0.0
 42
0.0
 43
0.0
 44
0.0
 45
0.0
 46
0.0
 47
0.0
 48
0.0
 49
0.0
140
0.0
141
0.0
142
1.0
143
1.0
 70
   688
 72
     0
 73
     0
 74
     5
  7

 75
    16
 76
     0
 77
     2
 78
   300
147
1.0
148
0.0
149
0.0
100
AcDbLayout
  1
Layout2
 70
     1
 71
     2
 10
0.0
 20
0.0
 11
0.0
 21
0.0
 12
0.0
 22
0.0
 32
0.0
 14
0.0
 24
0.0
 34
0.0
 15
0.0
 25
0.0
 35
0.0
146
0.0
 13
0.0
 23
0.0
 33
0.0
 16
1.0
 26
0.0
 36
0.0
 17
0.0
 27
1.0
 37
0.0
 76
     0
330
23
  0
LAYOUT
  5
22
102
{ACAD_REACTORS
330
1A
102
}
330
1A
100
AcDbPlotSettings
  1

  2
none_device
  4
Letter_(8.50_x_11.00_Inches)
  6

 40
6.35
 41
6.35
 42
6.35000508
 43
6.35000508
 44
215.9
 45
279.4
 46
0.0
 47
0.0
 48
0.0
 49
0.0
140
0.0
141
0.0
142
1.0
143
1.0
 70
  1712
 72
     0
 73
     0
 74
     0
  7

 75
     0
 76
     0
 77
     2
 78
   300
147
1.0
148
0.0
149
0.0
100
AcDbLayout
  1
Model
 70
     1
 71
     0
 10
0.0
 20
0.0
 11
12.0
 21
9.0
 12
0.0
 22
0.0
 32
0.0
 14
1.000000000000000E+20
 24
1.000000000000000E+20
 34
1.000000000000000E+20
 15
-1.000000000000000E+20
 25
-1.000000000000000E+20
 35
-1.000000000000000E+20
146
0.0
 13
0.0
 23
0.0
 33
0.0
 16
1.0
 26
0.0
 36
0.0
 17
0.0
 27
1.0
 37
0.0
 76
     0
330
1F
331
29
  0
MATERIAL
  5
45
102
{ACAD_REACTORS
330
43
102
}
330
43
100
AcDbMaterial
  1
ByBlock
 72
     1
 94
      127
  0
MATERIAL
  5
44
102
{ACAD_REACTORS
330
43
102
}
330
43
100
AcDbMaterial
  1
ByLayer
 72
     1
 94
      127
  0
MATERIAL
  5
46
102
{ACAD_REACTORS
330
43
102
}
330
43
100
AcDbMaterial
  1
Global
 72
     1
 94
      127
  0
MLEADERSTYLE
  5
6C
102
{ACAD_REACTORS
330
6B
102
}
330
6B
100
AcDbMLeaderStyle
179
     2
170
     2
171
     1
172
     0
 90
        2
 40
0.0
 41
0.0
173
     1
 91
-1056964608
340
14
 92
       -2
290
     1
 42
0.09
291
     1
 43
0.36
  3
Standard
341
0
 44
0.18
300

342
11
174
     1
178
     6
175
     1
176
     0
 93
-1056964608
 45
0.18
292
     0
297
     0
 46
0.18
343
0
 94
-1056964608
 47
1.0
 49
1.0
140
1.0
293
     1
141
0.0
294
     1
177
     0
142
1.0
295
     0
296
     0
143
0.125
271
     0
272
     9
273
     9
298
     0
  0
MLINESTYLE
  5
18
102
{ACAD_REACTORS
330
17
102
}
330
17
100
AcDbMlineStyle
  2
Standard
 70
     0
  3

 62
   256
 51
90.0
 52
90.0
 71
     2
 49
0.5
 62
   256
  6
BYLAYER
 49
-0.5
 62
   256
  6
BYLAYER
  0
ACDBPLACEHOLDER
  5
F
102
{ACAD_REACTORS
330
E
102
}
330
E
  0
SCALE
  5
48
102
{ACAD_REACTORS
330
47
102
}
330
47
100
AcDbScale
 70
     0
300
1:1
140
1.0
141
1.0
290
     1
  0
SCALE
  5
49
102
{ACAD_REACTORS
330
47
102
}
330
47
100
AcDbScale
 70
     0
300
1:2
140
1.0
141
2.0
290
     0
  0
SCALE
  5
4A
102
{ACAD_REACTORS
330
47
102
}
330
47
100
AcDbScale
 70
     0
300
1:4
140
1.0
141
4.0
290
     0
  0
SCALE
  5
4B
102
{ACAD_REACTORS
330
47
102
}
330
47
100
AcDbScale
 70
     0
300
1:5
140
1.0
141
5.0
290
     0
  0
SCALE
  5
4C
102
{ACAD_REACTORS
330
47
102
}
330
47
100
AcDbScale
 70
     0
300
1:8
140
1.0
141
8.0
290
     0
  0
SCALE
  5
4D
102
{ACAD_REACTORS
330
47
102
}
330
47
100
AcDbScale
 70
     0
300
1:10
140
1.0
141
10.0
290
     0
  0
SCALE
  5
4E
102
{ACAD_REACTORS
330
47
102
}
330
47
100
AcDbScale
 70
     0
300
1:16
140
1.0
141
16.0
290
     0
  0
SCALE
  5
4F
102
{ACAD_REACTORS
330
47
102
}
330
47
100
AcDbScale
 70
     0
300
1:20
140
1.0
141
20.0
290
     0
  0
SCALE
  5
50
102
{ACAD_REACTORS
330
47
102
}
330
47
100
AcDbScale
 70
     0
300
1:30
140
1.0
141
30.0
290
     0
  0
SCALE
  5
51
102
{ACAD_REACTORS
330
47
102
}
330
47
100
AcDbScale
 70
     0
300
1:40
140
1.0
141
40.0
290
     0
  0
SCALE
  5
52
102
{ACAD_REACTORS
330
47
102
}
330
47
100
AcDbScale
 70
     0
300
1:50
140
1.0
141
50.0
290
     0
  0
SCALE
  5
53
102
{ACAD_REACTORS
330
47
102
}
330
47
100
AcDbScale
 70
     0
300
1:100
140
1.0
141
100.0
290
     0
  0
SCALE
  5
54
102
{ACAD_REACTORS
330
47
102
}
330
47
100
AcDbScale
 70
     0
300
2:1
140
2.0
141
1.0
290
     0
  0
SCALE
  5
55
102
{ACAD_REACTORS
330
47
102
}
330
47
100
AcDbScale
 70
     0
300
4:1
140
4.0
141
1.0
290
     0
  0
SCALE
  5
56
102
{ACAD_REACTORS
330
47
102
}
330
47
100
AcDbScale
 70
     0
300
8:1
140
8.0
141
1.0
290
     0
  0
SCALE
  5
57
102
{ACAD_REACTORS
330
47
102
}
330
47
100
AcDbScale
 70
     0
300
10:1
140
10.0
141
1.0
290
     0
  0
SCALE
  5
58
102
{ACAD_REACTORS
330
47
102
}
330
47
100
AcDbScale
 70
     0
300
100:1
140
100.0
141
1.0
290
     0
  0
SCALE
  5
59
102
{ACAD_REACTORS
330
47
102
}
330
47
100
AcDbScale
 70
     0
300
1/128" = 1'-0"
140
0.0078125
141
12.0
290
     0
  0
SCALE
  5
5A
102
{ACAD_REACTORS
330
47
102
}
330
47
100
AcDbScale
 70
     0
300
1/64" = 1'-0"
140
0.015625
141
12.0
290
     0
  0
SCALE
  5
5B
102
{ACAD_REACTORS
330
47
102
}
330
47
100
AcDbScale
 70
     0
300
1/32" = 1'-0"
140
0.03125
141
12.0
290
     0
  0
SCALE
  5
5C
102
{ACAD_REACTORS
330
47
102
}
330
47
100
AcDbScale
 70
     0
300
1/16" = 1'-0"
140
0.0625
141
12.0
290
     0
  0
SCALE
  5
5D
102
{ACAD_REACTORS
330
47
102
}
330
47
100
AcDbScale
 70
     0
300
3/32" = 1'-0"
140
0.09375
141
12.0
290
     0
  0
SCALE
  5
5E
102
{ACAD_REACTORS
330
47
102
}
330
47
100
AcDbScale
 70
     0
300
1/8" = 1'-0"
140
0.125
141
12.0
290
     0
  0
SCALE
  5
5F
102
{ACAD_REACTORS
330
47
102
}
330
47
100
AcDbScale
 70
     0
300
3/16" = 1'-0"
140
0.1875
141
12.0
290
     0
  0
SCALE
  5
60
102
{ACAD_REACTORS
330
47
102
}
330
47
100
AcDbScale
 70
     0
300
1/4" = 1'-0"
140
0.25
141
12.0
290
     0
  0
SCALE
  5
61
102
{ACAD_REACTORS
330
47
102
}
330
47
100
AcDbScale
 70
     0
300
3/8" = 1'-0"
140
0.375
141
12.0
290
     0
  0
SCALE
  5
62
102
{ACAD_REACTORS
330
47
102
}
330
47
100
AcDbScale
 70
     0
300
1/2" = 1'-0"
140
0.5
141
12.0
290
     0
  0
SCALE
  5
63
102
{ACAD_REACTORS
330
47
102
}
330
47
100
AcDbScale
 70
     0
300
3/4" = 1'-0"
140
0.75
141
12.0
290
     0
  0
SCALE
  5
64
102
{ACAD_REACTORS
330
47
102
}
330
47
100
AcDbScale
 70
     0
300
1" = 1'-0"
140
1.0
141
12.0
290
     0
  0
SCALE
  5
65
102
{ACAD_REACTORS
330
47
102
}
330
47
100
AcDbScale
 70
     0
300
1-1/2" = 1'-0"
140
1.5
141
12.0
290
     0
  0
SCALE
  5
66
102
{ACAD_REACTORS
330
47
102
}
330
47
100
AcDbScale
 70
     0
300
3" = 1'-0"
140
3.0
141
12.0
290
     0
  0
SCALE
  5
67
102
{ACAD_REACTORS
330
47
102
}
330
47
100
AcDbScale
 70
     0
300
6" = 1'-0"
140
6.0
141
12.0
290
     0
  0
SCALE
  5
68
102
{ACAD_REACTORS
330
47
102
}
330
47
100
AcDbScale
 70
     0
300
1'-0" = 1'-0"
140
12.0
141
12.0
290
     0
  0
TABLESTYLE
  5
6A
102
{ACAD_REACTORS
330
69
102
}
102
{ACAD_XDICTIONARY
360
20C
102
}
330
69
100
AcDbTableStyle
  3
Standard
 70
     0
 71
     0
 40
0.06
 41
0.06
280
     0
281
     0
  7
Standard
140
0.18
170
     2
 62
     0
 63
   257
283
     0
 90
        4
 91
        0
  1

274
    -2
284
     1
 64
     0
275
    -2
285
     1
 65
     0
276
    -2
286
     1
 66
     0
277
    -2
287
     1
 67
     0
278
    -2
288
     1
 68
     0
279
    -2
289
     1
 69
     0
  7
Standard
140
0.25
170
     5
 62
     0
 63
   257
283
     0
 90
        4
 91
        0
  1

274
    -2
284
     1
 64
     0
275
    -2
285
     1
 65
     0
276
    -2
286
     1
 66
     0
277
    -2
287
     1
 67
     0
278
    -2
288
     1
 68
     0
279
    -2
289
     1
 69
     0
  7
Standard
140
0.18
170
     5
 62
     0
 63
   257
283
     0
 90
        4
 91
        0
  1

274
    -2
284
     1
 64
     0
275
    -2
285
     1
 65
     0
276
    -2
286
     1
 66
     0
277
    -2
287
     1
 67
     0
278
    -2
288
     1
 68
     0
279
    -2
289
     1
 69
     0
  0
VISUALSTYLE
  5
2F
102
{ACAD_REACTORS
330
2A
102
}
330
2A
100
AcDbVisualStyle
  2
2dWireframe
 70
     4
177
     3
291
     0
 70
    58
 90
        0
176
     1
 90
        2
176
     1
 90
        0
176
     1
 90
        0
176
     1
 40
0.6
176
     1
 40
30.0
176
     1
 62
     7
420
 16777215
176
     1
 90
        1
176
     1
 90
        4
176
     1
 62
     7
176
     1
 62
   257
176
     1
 90
        1
176
     1
 90
        1
176
     1
 40
1.0
176
     1
 90
        0
176
     1
 62
   257
176
     1
 40
1.0
176
     1
 90
        1
176
     1
 90
        6
176
     1
 90
        2
176
     1
 62
     7
176
     1
 90
        5
176
     1
 90
        0
176
     1
 90
        0
176
     1
290
     0
176
     1
 90
        1
176
     1
 40
0.0
176
     1
 90
        0
176
     1
290
     1
176
     1
290
     1
176
     1
290
     0
176
     1
290
     0
176
     1
290
     0
176
     1
290
     0
176
     1
290
     0
176
     1
290
     0
176
     1
290
     0
176
     1
 90
       50
176
     1
 40
0.0
176
     1
 40
1.0
176
     1
 90
        0
176
     1
 62
    18
420
        0
176
     1
 90
       50
176
     1
 90
        3
176
     1
 62
     5
420
      255
176
     1
290
     0
176
     1
 90
       50
176
     1
 90
       50
176
     1
 90
       50
176
     1
290
     0
176
     1
 90
       50
176
     1
 62
   256
176
     0
 40
1.0
176
     0
 90
        2
176
     1
  1
strokes_ogs.tif
176
     1
290
     0
176
     1
 40
1.0
176
     1
 40
1.0
176
     1
  0
VISUALSTYLE
  5
32
102
{ACAD_REACTORS
330
2A
102
}
330
2A
100
AcDbVisualStyle
  2
Basic
 70
     7
177
     3
291
     1
 70
    58
 90
        1
176
     1
 90
        0
176
     1
 90
        1
176
     1
 90
        0
176
     1
 40
0.6
176
     1
 40
30.0
176
     1
 62
     7
420
 16777215
176
     1
 90
        0
176
     1
 90
        4
176
     1
 62
     7
176
     1
 62
   257
176
     1
 90
        1
176
     1
 90
        1
176
     1
 40
1.0
176
     1
 90
        8
176
     1
 62
     7
176
     1
 40
1.0
176
     1
 90
        1
176
     1
 90
        6
176
     1
 90
        2
176
     1
 62
     7
176
     1
 90
        5
176
     1
 90
        0
176
     1
 90
        0
176
     1
290
     0
176
     1
 90
        1
176
     1
 40
0.0
176
     1
 90
        0
176
     1
290
     0
176
     1
290
     1
176
     1
290
     1
176
     1
290
     0
176
     1
290
     0
176
     1
290
     0
176
     1
290
     0
176
     1
290
     0
176
     1
290
     0
176
     1
 90
       50
176
     1
 40
0.0
176
     1
 40
1.0
176
     1
 90
        0
176
     1
 62
    18
420
        0
176
     1
 90
       50
176
     1
 90
        3
176
     1
 62
     5
420
      255
176
     1
290
     0
176
     1
 90
       50
176
     1
 90
       50
176
     1
 90
       50
176
     1
290
     0
176
     1
 90
       50
176
     1
 62
   256
176
     0
 40
1.0
176
     0
 90
        2
176
     1
  1
strokes_ogs.tif
176
     1
290
     0
176
     1
 40
1.0
176
     1
 40
1.0
176
     1
  0
VISUALSTYLE
  5
36
102
{ACAD_REACTORS
330
2A
102
}
330
2A
100
AcDbVisualStyle
  2
Brighten
 70
    12
177
     3
291
     1
 70
    58
 90
        2
176
     1
 90
        2
176
     1
 90
        0
176
     1
 90
        0
176
     1
 40
0.6
176
     1
 40
30.0
176
     1
 62
     7
420
 16777215
176
     1
 90
        1
176
     1
 90
        4
176
     1
 62
     7
176
     1
 62
   257
176
     1
 90
        1
176
     1
 90
        1
176
     1
 40
1.0
176
     1
 90
        8
176
     1
 62
     7
176
     1
 40
1.0
176
     1
 90
        1
176
     1
 90
        6
176
     1
 90
        2
176
     1
 62
     7
176
     1
 90
        5
176
     1
 90
        0
176
     1
 90
        0
176
     1
290
     0
176
     1
 90
        1
176
     1
 40
50.0
176
     1
 90
        0
176
     1
290
     0
176
     1
290
     1
176
     1
290
     1
176
     1
290
     0
176
     1
290
     0
176
     1
290
     0
176
     1
290
     0
176
     1
290
     0
176
     1
290
     0
176
     1
 90
       50
176
     1
 40
0.0
176
     1
 40
1.0
176
     1
 90
        0
176
     1
 62
    18
420
        0
176
     1
 90
       50
176
     1
 90
        3
176
     1
 62
     5
420
      255
176
     1
290
     0
176
     1
 90
       50
176
     1
 90
       50
176
     1
 90
       50
176
     1
290
     0
176
     1
 90
       50
176
     1
 62
   256
176
     0
 40
1.0
176
     0
 90
        2
176
     1
  1
strokes_ogs.tif
176
     1
290
     0
176
     1
 40
1.0
176
     1
 40
1.0
176
     1
  0
VISUALSTYLE
  5
3A
102
{ACAD_REACTORS
330
2A
102
}
330
2A
100
AcDbVisualStyle
  2
ColorChange
 70
    16
177
     3
291
     1
 70
    58
 90
        2
176
     1
 90
        2
176
     1
 90
        3
176
     1
 90
        0
176
     1
 40
0.6
176
     1
 40
30.0
176
     1
 62
     8
420
  8421504
176
     1
 90
        1
176
     1
 90
        4
176
     1
 62
     7
176
     1
 62
   257
176
     1
 90
        1
176
     1
 90
        1
176
     1
 40
1.0
176
     1
 90
        8
176
     1
 62
     8
420
  8421504
176
     1
 40
1.0
176
     1
 90
        1
176
     1
 90
        6
176
     1
 90
        2
176
     1
 62
     7
176
     1
 90
        5
176
     1
 90
        0
176
     1
 90
        0
176
     1
290
     0
176
     1
 90
        1
176
     1
 40
0.0
176
     1
 90
        0
176
     1
290
     0
176
     1
290
     1
176
     1
290
     1
176
     1
290
     0
176
     1
290
     0
176
     1
290
     0
176
     1
290
     0
176
     1
290
     0
176
     1
290
     0
176
     1
 90
       50
176
     1
 40
0.0
176
     1
 40
1.0
176
     1
 90
        0
176
     1
 62
    18
420
        0
176
     1
 90
       50
176
     1
 90
        3
176
     1
 62
     5
420
      255
176
     1
290
     0
176
     1
 90
       50
176
     1
 90
       50
176
     1
 90
       50
176
     1
290
     0
176
     1
 90
       50
176
     1
 62
   256
176
     0
 40
1.0
176
     0
 90
        2
176
     1
  1
strokes_ogs.tif
176
     1
290
     0
176
     1
 40
1.0
176
     1
 40
1.0
176
     1
  0
VISUALSTYLE
  5
34
102
{ACAD_REACTORS
330
2A
102
}
330
2A
100
AcDbVisualStyle
  2
Conceptual
 70
     9
177
     3
291
     0
 70
    58
 90
        3
176
     1
 90
        2
176
     1
 90
        0
176
     1
 90
        0
176
     1
 40
0.6
176
     1
 40
30.0
176
     1
 62
     7
420
 16777215
176
     1
 90
        2
176
     1
 90
        2
176
     1
 62
     7
176
     1
 62
   257
176
     1
 90
        1
176
     1
 90
        1
176
     1
 40
179.0
176
     1
 90
        8
176
     1
 62
     7
176
     1
 40
1.0
176
     1
 90
        1
176
     1
 90
        6
176
     1
 90
        2
176
     1
 62
     7
176
     1
 90
        3
176
     1
 90
        0
176
     1
 90
        0
176
     1
290
     0
176
     1
 90
        1
176
     1
 40
0.0
176
     1
 90
        0
176
     1
290
     0
176
     1
290
     1
176
     1
290
     1
176
     1
290
     0
176
     1
290
     0
176
     1
290
     0
176
     1
290
     0
176
     1
290
     0
176
     1
290
     0
176
     1
 90
       50
176
     1
 40
0.0
176
     1
 40
1.0
176
     1
 90
        0
176
     1
 62
    18
420
        0
176
     1
 90
       50
176
     1
 90
        3
176
     1
 62
     5
420
      255
176
     1
290
     0
176
     1
 90
       50
176
     1
 90
       50
176
     1
 90
       50
176
     1
290
     0
176
     1
 90
       50
176
     1
 62
   256
176
     0
 40
1.0
176
     0
 90
        2
176
     1
  1
strokes_ogs.tif
176
     1
290
     0
176
     1
 40
1.0
176
     1
 40
1.0
176
     1
  0
VISUALSTYLE
  5
35
102
{ACAD_REACTORS
330
2A
102
}
330
2A
100
AcDbVisualStyle
  2
Dim
 70
    11
177
     3
291
     1
 70
    58
 90
        2
176
     1
 90
        2
176
     1
 90
        0
176
     1
 90
        0
176
     1
 40
0.6
176
     1
 40
30.0
176
     1
 62
     7
420
 16777215
176
     1
 90
        1
176
     1
 90
        4
176
     1
 62
     7
176
     1
 62
   257
176
     1
 90
        1
176
     1
 90
        1
176
     1
 40
1.0
176
     1
 90
        8
176
     1
 62
     7
176
     1
 40
1.0
176
     1
 90
        1
176
     1
 90
        6
176
     1
 90
        2
176
     1
 62
     7
176
     1
 90
        5
176
     1
 90
        0
176
     1
 90
        0
176
     1
290
     0
176
     1
 90
        1
176
     1
 40
-50.0
176
     1
 90
        0
176
     1
290
     0
176
     1
290
     1
176
     1
290
     1
176
     1
290
     0
176
     1
290
     0
176
     1
290
     0
176
     1
290
     0
176
     1
290
     0
176
     1
290
     0
176
     1
 90
       50
176
     1
 40
0.0
176
     1
 40
1.0
176
     1
 90
        0
176
     1
 62
    18
420
        0
176
     1
 90
       50
176
     1
 90
        3
176
     1
 62
     5
420
      255
176
     1
290
     0
176
     1
 90
       50
176
     1
 90
       50
176
     1
 90
       50
176
     1
290
     0
176
     1
 90
       50
176
     1
 62
   256
176
     0
 40
1.0
176
     0
 90
        2
176
     1
  1
strokes_ogs.tif
176
     1
290
     0
176
     1
 40
1.0
176
     1
 40
1.0
176
     1
  0
VISUALSTYLE
  5
3D
102
{ACAD_REACTORS
330
2A
102
}
330
2A
100
AcDbVisualStyle
  2
EdgeColorOff
 70
    22
177
     3
291
     1
 70
    58
 90
        2
176
     0
 90
        2
176
     0
 90
        0
176
     0
 90
        0
176
     0
 40
0.6
176
     0
 40
30.0
176
     0
 62
     7
420
 16777215
176
     0
 90
        1
176
     0
 90
        4
176
     0
 62
     7
176
     0
 62
   257
176
     0
 90
        1
176
     0
 90
        1
176
     0
 40
1.0
176
     0
 90
        8
176
     2
 62
     7
176
     0
 40
1.0
176
     0
 90
        1
176
     0
 90
        6
176
     0
 90
        2
176
     0
 62
     7
176
     0
 90
        5
176
     0
 90
        0
176
     0
 90
        0
176
     0
290
     0
176
     0
 90
        1
176
     0
 40
0.0
176
     0
 90
        0
176
     0
290
     0
176
     0
290
     1
176
     0
290
     1
176
     0
290
     0
176
     0
290
     0
176
     0
290
     0
176
     0
290
     0
176
     0
290
     0
176
     0
290
     0
176
     0
 90
       50
176
     0
 40
0.0
176
     0
 40
1.0
176
     0
 90
        0
176
     0
 62
    18
420
        0
176
     0
 90
       50
176
     0
 90
        3
176
     0
 62
     5
420
      255
176
     0
290
     0
176
     0
 90
       50
176
     0
 90
       50
176
     0
 90
       50
176
     0
290
     0
176
     0
 90
       50
176
     0
 62
   256
176
     0
 40
1.0
176
     0
 90
        2
176
     0
  1
strokes_ogs.tif
176
     0
290
     0
176
     0
 40
1.0
176
     0
 40
1.0
176
     0
  0
VISUALSTYLE
  5
39
102
{ACAD_REACTORS
330
2A
102
}
330
2A
100
AcDbVisualStyle
  2
Facepattern
 70
    15
177
     3
291
     1
 70
    58
 90
        2
176
     1
 90
        2
176
     1
 90
        0
176
     1
 90
        0
176
     1
 40
0.6
176
     1
 40
30.0
176
     1
 62
     7
420
 16777215
176
     1
 90
        1
176
     1
 90
        4
176
     1
 62
     7
176
     1
 62
   257
176
     1
 90
        1
176
     1
 90
        1
176
     1
 40
1.0
176
     1
 90
        8
176
     1
 62
     7
176
     1
 40
1.0
176
     1
 90
        1
176
     1
 90
        6
176
     1
 90
        2
176
     1
 62
     7
176
     1
 90
        5
176
     1
 90
        0
176
     1
 90
        0
176
     1
290
     0
176
     1
 90
        1
176
     1
 40
0.0
176
     1
 90
        0
176
     1
290
     0
176
     1
290
     1
176
     1
290
     1
176
     1
290
     0
176
     1
290
     0
176
     1
290
     0
176
     1
290
     0
176
     1
290
     0
176
     1
290
     0
176
     1
 90
       50
176
     1
 40
0.0
176
     1
 40
1.0
176
     1
 90
        0
176
     1
 62
    18
420
        0
176
     1
 90
       50
176
     1
 90
        3
176
     1
 62
     5
420
      255
176
     1
290
     0
176
     1
 90
       50
176
     1
 90
       50
176
     1
 90
       50
176
     1
290
     0
176
     1
 90
       50
176
     1
 62
   256
176
     0
 40
1.0
176
     0
 90
        2
176
     1
  1
strokes_ogs.tif
176
     1
290
     0
176
     1
 40
1.0
176
     1
 40
1.0
176
     1
  0
VISUALSTYLE
  5
2B
102
{ACAD_REACTORS
330
2A
102
}
330
2A
100
AcDbVisualStyle
  2
Flat
 70
     0
177
     3
291
     1
 70
    58
 90
        2
176
     1
 90
        1
176
     1
 90
        1
176
     1
 90
        2
176
     1
 40
0.6
176
     1
 40
30.0
176
     1
 62
     7
420
 16777215
176
     1
 90
        0
176
     1
 90
        0
176
     1
 62
     7
176
     1
 62
   257
176
     1
 90
        1
176
     1
 90
        1
176
     1
 40
1.0
176
     1
 90
        8
176
     1
 62
     7
176
     1
 40
1.0
176
     1
 90
        1
176
     1
 90
        6
176
     1
 90
        2
176
     1
 62
     7
176
     1
 90
        5
176
     1
 90
        0
176
     1
 90
        0
176
     1
290
     0
176
     1
 90
       13
176
     1
 40
0.0
176
     1
 90
        0
176
     1
290
     0
176
     1
290
     1
176
     1
290
     1
176
     1
290
     0
176
     1
290
     0
176
     1
290
     0
176
     1
290
     0
176
     1
290
     0
176
     1
290
     0
176
     1
 90
       50
176
     1
 40
0.0
176
     1
 40
1.0
176
     1
 90
        0
176
     1
 62
    18
420
        0
176
     1
 90
       50
176
     1
 90
        3
176
     1
 62
     5
420
      255
176
     1
290
     0
176
     1
 90
       50
176
     1
 90
       50
176
     1
 90
       50
176
     1
290
     0
176
     1
 90
       50
176
     1
 62
   256
176
     0
 40
1.0
176
     0
 90
        2
176
     1
  1
strokes_ogs.tif
176
     1
290
     0
176
     1
 40
1.0
176
     1
 40
1.0
176
     1
  0
VISUALSTYLE
  5
2C
102
{ACAD_REACTORS
330
2A
102
}
330
2A
100
AcDbVisualStyle
  2
FlatWithEdges
 70
     1
177
     3
291
     1
 70
    58
 90
        2
176
     1
 90
        1
176
     1
 90
        1
176
     1
 90
        2
176
     1
 40
0.6
176
     1
 40
30.0
176
     1
 62
     7
420
 16777215
176
     1
 90
        1
176
     1
 90
        0
176
     1
 62
     7
176
     1
 62
   257
176
     1
 90
        1
176
     1
 90
        1
176
     1
 40
1.0
176
     1
 90
        0
176
     1
 62
   257
176
     1
 40
1.0
176
     1
 90
        1
176
     1
 90
        6
176
     1
 90
        2
176
     1
 62
     7
176
     1
 90
        5
176
     1
 90
        0
176
     1
 90
        0
176
     1
290
     0
176
     1
 90
       13
176
     1
 40
0.0
176
     1
 90
        0
176
     1
290
     0
176
     1
290
     1
176
     1
290
     1
176
     1
290
     0
176
     1
290
     0
176
     1
290
     0
176
     1
290
     0
176
     1
290
     0
176
     1
290
     0
176
     1
 90
       50
176
     1
 40
0.0
176
     1
 40
1.0
176
     1
 90
        0
176
     1
 62
    18
420
        0
176
     1
 90
       50
176
     1
 90
        3
176
     1
 62
     5
420
      255
176
     1
290
     0
176
     1
 90
       50
176
     1
 90
       50
176
     1
 90
       50
176
     1
290
     0
176
     1
 90
       50
176
     1
 62
   256
176
     0
 40
1.0
176
     0
 90
        2
176
     1
  1
strokes_ogs.tif
176
     1
290
     0
176
     1
 40
1.0
176
     1
 40
1.0
176
     1
  0
VISUALSTYLE
  5
2D
102
{ACAD_REACTORS
330
2A
102
}
330
2A
100
AcDbVisualStyle
  2
Gouraud
 70
     2
177
     3
291
     1
 70
    58
 90
        2
176
     1
 90
        2
176
     1
 90
        1
176
     1
 90
        2
176
     1
 40
0.6
176
     1
 40
30.0
176
     1
 62
     7
420
 16777215
176
     1
 90
        0
176
     1
 90
        0
176
     1
 62
     7
176
     1
 62
   257
176
     1
 90
        1
176
     1
 90
        1
176
     1
 40
1.0
176
     1
 90
        0
176
     1
 62
     7
176
     1
 40
1.0
176
     1
 90
        1
176
     1
 90
        6
176
     1
 90
        2
176
     1
 62
     7
176
     1
 90
        5
176
     1
 90
        0
176
     1
 90
        0
176
     1
290
     0
176
     1
 90
       13
176
     1
 40
0.0
176
     1
 90
        0
176
     1
290
     0
176
     1
290
     1
176
     1
290
     1
176
     1
290
     0
176
     1
290
     0
176
     1
290
     0
176
     1
290
     0
176
     1
290
     0
176
     1
290
     0
176
     1
 90
       50
176
     1
 40
0.0
176
     1
 40
1.0
176
     1
 90
        0
176
     1
 62
    18
420
        0
176
     1
 90
       50
176
     1
 90
        3
176
     1
 62
     5
420
      255
176
     1
290
     0
176
     1
 90
       50
176
     1
 90
       50
176
     1
 90
       50
176
     1
290
     0
176
     1
 90
       50
176
     1
 62
   256
176
     0
 40
1.0
176
     0
 90
        2
176
     1
  1
strokes_ogs.tif
176
     1
290
     0
176
     1
 40
1.0
176
     1
 40
1.0
176
     1
  0
VISUALSTYLE
  5
2E
102
{ACAD_REACTORS
330
2A
102
}
330
2A
100
AcDbVisualStyle
  2
GouraudWithEdges
 70
     3
177
     3
291
     1
 70
    58
 90
        2
176
     1
 90
        2
176
     1
 90
        1
176
     1
 90
        2
176
     1
 40
0.6
176
     1
 40
30.0
176
     1
 62
     7
420
 16777215
176
     1
 90
        1
176
     1
 90
        0
176
     1
 62
     7
176
     1
 62
   257
176
     1
 90
        1
176
     1
 90
        1
176
     1
 40
1.0
176
     1
 90
        0
176
     1
 62
   257
176
     1
 40
1.0
176
     1
 90
        1
176
     1
 90
        6
176
     1
 90
        2
176
     1
 62
     7
176
     1
 90
        5
176
     1
 90
        0
176
     1
 90
        0
176
     1
290
     0
176
     1
 90
       13
176
     1
 40
0.0
176
     1
 90
        0
176
     1
290
     0
176
     1
290
     1
176
     1
290
     1
176
     1
290
     0
176
     1
290
     0
176
     1
290
     0
176
     1
290
     0
176
     1
290
     0
176
     1
290
     0
176
     1
 90
       50
176
     1
 40
0.0
176
     1
 40
1.0
176
     1
 90
        0
176
     1
 62
    18
420
        0
176
     1
 90
       50
176
     1
 90
        3
176
     1
 62
     5
420
      255
176
     1
290
     0
176
     1
 90
       50
176
     1
 90
       50
176
     1
 90
       50
176
     1
290
     0
176
     1
 90
       50
176
     1
 62
   256
176
     0
 40
1.0
176
     0
 90
        2
176
     1
  1
strokes_ogs.tif
176
     1
290
     0
176
     1
 40
1.0
176
     1
 40
1.0
176
     1
  0
VISUALSTYLE
  5
31
102
{ACAD_REACTORS
330
2A
102
}
330
2A
100
AcDbVisualStyle
  2
Hidden
 70
     6
177
     3
291
     0
 70
    58
 90
        1
176
     1
 90
        2
176
     1
 90
        2
176
     1
 90
        0
176
     1
 40
0.6
176
     1
 40
30.0
176
     1
 62
     7
420
 16777215
176
     1
 90
        2
176
     1
 90
        2
176
     1
 62
     7
176
     1
 62
   257
176
     1
 90
        2
176
     1
 90
        1
176
     1
 40
40.0
176
     1
 90
        0
176
     1
 62
   257
176
     1
 40
1.0
176
     1
 90
        1
176
     1
 90
        6
176
     1
 90
        2
176
     1
 62
     7
176
     1
 90
        3
176
     1
 90
        0
176
     1
 90
        0
176
     1
290
     0
176
     1
 90
        1
176
     1
 40
0.0
176
     1
 90
        0
176
     1
290
     0
176
     1
290
     1
176
     1
290
     1
176
     1
290
     0
176
     1
290
     0
176
     1
290
     0
176
     1
290
     0
176
     1
290
     0
176
     1
290
     0
176
     1
 90
       50
176
     1
 40
0.0
176
     1
 40
1.0
176
     1
 90
        0
176
     1
 62
    18
420
        0
176
     1
 90
       50
176
     1
 90
        3
176
     1
 62
     5
420
      255
176
     1
290
     0
176
     1
 90
       50
176
     1
 90
       50
176
     1
 90
       50
176
     1
290
     0
176
     1
 90
       50
176
     1
 62
   256
176
     0
 40
1.0
176
     0
 90
        2
176
     1
  1
strokes_ogs.tif
176
     1
290
     0
176
     1
 40
1.0
176
     1
 40
1.0
176
     1
  0
VISUALSTYLE
  5
3B
102
{ACAD_REACTORS
330
2A
102
}
330
2A
100
AcDbVisualStyle
  2
JitterOff
 70
    20
177
     3
291
     1
 70
    58
 90
        2
176
     0
 90
        2
176
     0
 90
        0
176
     0
 90
        0
176
     0
 40
0.6
176
     0
 40
30.0
176
     0
 62
     7
420
 16777215
176
     0
 90
        1
176
     0
 90
        4
176
     0
 62
     7
176
     0
 62
   257
176
     0
 90
        1
176
     0
 90
        1
176
     0
 40
1.0
176
     0
 90
       10
176
     2
 62
     7
176
     0
 40
1.0
176
     0
 90
        1
176
     0
 90
        6
176
     0
 90
        2
176
     0
 62
     7
176
     0
 90
        5
176
     0
 90
        0
176
     0
 90
        0
176
     0
290
     0
176
     0
 90
        1
176
     0
 40
0.0
176
     0
 90
        0
176
     0
290
     0
176
     0
290
     1
176
     0
290
     1
176
     0
290
     0
176
     0
290
     0
176
     0
290
     0
176
     0
290
     0
176
     0
290
     0
176
     0
290
     0
176
     0
 90
       50
176
     0
 40
0.0
176
     0
 40
1.0
176
     0
 90
        0
176
     0
 62
    18
420
        0
176
     0
 90
       50
176
     0
 90
        3
176
     0
 62
     5
420
      255
176
     0
290
     0
176
     0
 90
       50
176
     0
 90
       50
176
     0
 90
       50
176
     0
290
     0
176
     0
 90
       50
176
     0
 62
   256
176
     0
 40
1.0
176
     0
 90
        2
176
     0
  1
strokes_ogs.tif
176
     0
290
     0
176
     0
 40
1.0
176
     0
 40
1.0
176
     0
  0
VISUALSTYLE
  5
38
102
{ACAD_REACTORS
330
2A
102
}
330
2A
100
AcDbVisualStyle
  2
Linepattern
 70
    14
177
     3
291
     1
 70
    58
 90
        2
176
     1
 90
        2
176
     1
 90
        0
176
     1
 90
        0
176
     1
 40
0.6
176
     1
 40
30.0
176
     1
 62
     7
420
 16777215
176
     1
 90
        1
176
     1
 90
        4
176
     1
 62
     7
176
     1
 62
   257
176
     1
 90
        7
176
     1
 90
        7
176
     1
 40
1.0
176
     1
 90
        8
176
     1
 62
     7
176
     1
 40
1.0
176
     1
 90
        1
176
     1
 90
        6
176
     1
 90
        2
176
     1
 62
     7
176
     1
 90
        5
176
     1
 90
        0
176
     1
 90
        0
176
     1
290
     0
176
     1
 90
        1
176
     1
 40
0.0
176
     1
 90
        0
176
     1
290
     0
176
     1
290
     1
176
     1
290
     1
176
     1
290
     0
176
     1
290
     0
176
     1
290
     0
176
     1
290
     0
176
     1
290
     0
176
     1
290
     0
176
     1
 90
       50
176
     1
 40
0.0
176
     1
 40
1.0
176
     1
 90
        0
176
     1
 62
    18
420
        0
176
     1
 90
       50
176
     1
 90
        3
176
     1
 62
     5
420
      255
176
     1
290
     0
176
     1
 90
       50
176
     1
 90
       50
176
     1
 90
       50
176
     1
290
     0
176
     1
 90
       50
176
     1
 62
   256
176
     0
 40
1.0
176
     0
 90
        2
176
     1
  1
strokes_ogs.tif
176
     1
290
     0
176
     1
 40
1.0
176
     1
 40
1.0
176
     1
  0
VISUALSTYLE
  5
3C
102
{ACAD_REACTORS
330
2A
102
}
330
2A
100
AcDbVisualStyle
  2
OverhangOff
 70
    21
177
     3
291
     1
 70
    58
 90
        2
176
     0
 90
        2
176
     0
 90
        0
176
     0
 90
        0
176
     0
 40
0.6
176
     0
 40
30.0
176
     0
 62
     7
420
 16777215
176
     0
 90
        1
176
     0
 90
        4
176
     0
 62
     7
176
     0
 62
   257
176
     0
 90
        1
176
     0
 90
        1
176
     0
 40
1.0
176
     0
 90
        9
176
     2
 62
     7
176
     0
 40
1.0
176
     0
 90
        1
176
     0
 90
        6
176
     0
 90
        2
176
     0
 62
     7
176
     0
 90
        5
176
     0
 90
        0
176
     0
 90
        0
176
     0
290
     0
176
     0
 90
        1
176
     0
 40
0.0
176
     0
 90
        0
176
     0
290
     0
176
     0
290
     1
176
     0
290
     1
176
     0
290
     0
176
     0
290
     0
176
     0
290
     0
176
     0
290
     0
176
     0
290
     0
176
     0
290
     0
176
     0
 90
       50
176
     0
 40
0.0
176
     0
 40
1.0
176
     0
 90
        0
176
     0
 62
    18
420
        0
176
     0
 90
       50
176
     0
 90
        3
176
     0
 62
     5
420
      255
176
     0
290
     0
176
     0
 90
       50
176
     0
 90
       50
176
     0
 90
       50
176
     0
290
     0
176
     0
 90
       50
176
     0
 62
   256
176
     0
 40
1.0
176
     0
 90
        2
176
     0
  1
strokes_ogs.tif
176
     0
290
     0
176
     0
 40
1.0
176
     0
 40
1.0
176
     0
  0
VISUALSTYLE
  5
33
102
{ACAD_REACTORS
330
2A
102
}
330
2A
100
AcDbVisualStyle
  2
Realistic
 70
     8
177
     3
291
     0
 70
    58
 90
        2
176
     1
 90
        3
176
     1
 90
        0
176
     1
 90
        2
176
     1
 40
0.6
176
     1
 40
30.0
176
     1
 62
     7
420
 16777215
176
     1
 90
        0
176
     1
 90
        0
176
     1
 62
     7
176
     1
 62
   257
176
     1
 90
        1
176
     1
 90
        1
176
     1
 40
1.0
176
     1
 90
        8
176
     1
 62
   257
176
     1
 40
1.0
176
     1
 90
        1
176
     1
 90
        6
176
     1
 90
        2
176
     1
 62
     7
176
     1
 90
        3
176
     1
 90
        0
176
     1
 90
        0
176
     1
290
     0
176
     1
 90
       13
176
     1
 40
0.0
176
     1
 90
        0
176
     1
290
     0
176
     1
290
     1
176
     1
290
     1
176
     1
290
     0
176
     1
290
     0
176
     1
290
     0
176
     1
290
     0
176
     1
290
     0
176
     1
290
     0
176
     1
 90
       50
176
     1
 40
0.0
176
     1
 40
1.0
176
     1
 90
        0
176
     1
 62
    18
420
        0
176
     1
 90
       50
176
     1
 90
        3
176
     1
 62
     5
420
      255
176
     1
290
     0
176
     1
 90
       50
176
     1
 90
       50
176
     1
 90
       50
176
     1
290
     0
176
     1
 90
       50
176
     1
 62
   256
176
     0
 40
1.0
176
     0
 90
        2
176
     1
  1
strokes_ogs.tif
176
     1
290
     0
176
     1
 40
1.0
176
     1
 40
1.0
176
     1
  0
VISUALSTYLE
  5
42
102
{ACAD_REACTORS
330
2A
102
}
330
2A
100
AcDbVisualStyle
  2
Shaded
 70
    27
177
     3
291
     0
 70
    58
 90
        2
176
     1
 90
        2
176
     1
 90
        1
176
     1
 90
        2
176
     1
 40
0.6
176
     1
 40
30.0
176
     1
 62
     7
420
 16777215
176
     1
 90
        0
176
     1
 90
        4
176
     1
 62
     7
176
     1
 62
   257
176
     1
 90
        1
176
     1
 90
        1
176
     1
 40
1.0
176
     1
 90
        8
176
     1
 62
   257
176
     1
 40
1.0
176
     1
 90
        1
176
     1
 90
        6
176
     1
 90
        2
176
     1
 62
     8
420
  7895160
176
     1
 90
        3
176
     1
 90
        0
176
     1
 90
        0
176
     1
290
     0
176
     1
 90
        5
176
     1
 40
0.0
176
     1
 90
        0
176
     1
290
     0
176
     1
290
     1
176
     1
290
     1
176
     1
290
     0
176
     1
290
     0
176
     1
290
     0
176
     1
290
     0
176
     1
290
     0
176
     1
290
     0
176
     1
 90
       50
176
     1
 40
0.0
176
     1
 40
1.0
176
     1
 90
        0
176
     1
 62
    18
420
        0
176
     1
 90
       50
176
     1
 90
        3
176
     1
 62
     5
420
      255
176
     1
290
     0
176
     1
 90
       50
176
     1
 90
       50
176
     1
 90
       50
176
     1
290
     0
176
     1
 90
       50
176
     1
 62
   256
176
     0
 40
1.0
176
     0
 90
        2
176
     1
  1
strokes_ogs.tif
176
     1
290
     0
176
     1
 40
1.0
176
     1
 40
1.0
176
     1
  0
VISUALSTYLE
  5
41
102
{ACAD_REACTORS
330
2A
102
}
330
2A
100
AcDbVisualStyle
  2
Shaded with edges
 70
    26
177
     3
291
     0
 70
    58
 90
        2
176
     1
 90
        2
176
     1
 90
        1
176
     1
 90
        2
176
     1
 40
0.6
176
     1
 40
30.0
176
     1
 62
     7
420
 16777215
176
     1
 90
        1
176
     1
 90
       10
176
     1
 62
     7
176
     1
 62
   257
176
     1
 90
        2
176
     1
 90
        1
176
     1
 40
1.0
176
     1
 90
        8
176
     1
 62
   257
176
     1
 40
1.0
176
     1
 90
        1
176
     1
 90
        6
176
     1
 90
        2
176
     1
 62
     7
176
     1
 90
        3
176
     1
 90
        0
176
     1
 90
        0
176
     1
290
     0
176
     1
 90
        5
176
     1
 40
0.0
176
     1
 90
        0
176
     1
290
     0
176
     1
290
     1
176
     1
290
     1
176
     1
290
     0
176
     1
290
     0
176
     1
290
     0
176
     1
290
     0
176
     1
290
     0
176
     1
290
     0
176
     1
 90
       50
176
     1
 40
0.0
176
     1
 40
1.0
176
     1
 90
        0
176
     1
 62
    18
420
        0
176
     1
 90
       50
176
     1
 90
        3
176
     1
 62
     5
420
      255
176
     1
290
     0
176
     1
 90
       50
176
     1
 90
       50
176
     1
 90
       50
176
     1
290
     0
176
     1
 90
       50
176
     1
 62
   256
176
     0
 40
1.0
176
     0
 90
        2
176
     1
  1
strokes_ogs.tif
176
     1
290
     0
176
     1
 40
1.0
176
     1
 40
1.0
176
     1
  0
VISUALSTYLE
  5
3E
102
{ACAD_REACTORS
330
2A
102
}
330
2A
100
AcDbVisualStyle
  2
Shades of Gray
 70
    23
177
     3
291
     0
 70
    58
 90
        2
176
     1
 90
        2
176
     1
 90
        3
176
     1
 90
        0
176
     1
 40
0.6
176
     1
 40
30.0
176
     1
 62
     7
420
 16777215
176
     1
 90
        2
176
     1
 90
        2
176
     1
 62
     7
176
     1
 62
     7
176
     1
 90
        1
176
     1
 90
        1
176
     1
 40
40.0
176
     1
 90
        8
176
     1
 62
     7
176
     1
 40
1.0
176
     1
 90
        1
176
     1
 90
        6
176
     1
 90
        2
176
     1
 62
     7
176
     1
 90
        3
176
     1
 90
        0
176
     1
 90
        0
176
     1
290
     0
176
     1
 90
        1
176
     1
 40
0.0
176
     1
 90
        0
176
     1
290
     0
176
     1
290
     1
176
     1
290
     1
176
     1
290
     0
176
     1
290
     0
176
     1
290
     0
176
     1
290
     0
176
     1
290
     0
176
     1
290
     0
176
     1
 90
       50
176
     1
 40
0.0
176
     1
 40
1.0
176
     1
 90
        0
176
     1
 62
    18
420
        0
176
     1
 90
       50
176
     1
 90
        3
176
     1
 62
     5
420
      255
176
     1
290
     0
176
     1
 90
       50
176
     1
 90
       50
176
     1
 90
       50
176
     1
290
     0
176
     1
 90
       50
176
     1
 62
   256
176
     0
 40
1.0
176
     0
 90
        2
176
     1
  1
strokes_ogs.tif
176
     1
290
     0
176
     1
 40
1.0
176
     1
 40
1.0
176
     1
  0
VISUALSTYLE
  5
3F
102
{ACAD_REACTORS
330
2A
102
}
330
2A
100
AcDbVisualStyle
  2
Sketchy
 70
    24
177
     3
291
     0
 70
    58
 90
        1
176
     1
 90
        2
176
     1
 90
        2
176
     1
 90
        0
176
     1
 40
0.6
176
     1
 40
30.0
176
     1
 62
     7
420
 16777215
176
     1
 90
        2
176
     1
 90
        2
176
     1
 62
     7
176
     1
 62
     7
176
     1
 90
        1
176
     1
 90
        1
176
     1
 40
40.0
176
     1
 90
       11
176
     1
 62
     7
176
     1
 40
1.0
176
     1
 90
        1
176
     1
 90
        6
176
     1
 90
        2
176
     1
 62
     7
176
     1
 90
        6
176
     1
 90
        0
176
     1
 90
        0
176
     1
290
     0
176
     1
 90
        1
176
     1
 40
0.0
176
     1
 90
        0
176
     1
290
     0
176
     1
290
     1
176
     1
290
     1
176
     1
290
     0
176
     1
290
     0
176
     1
290
     0
176
     1
290
     0
176
     1
290
     0
176
     1
290
     0
176
     1
 90
       50
176
     1
 40
0.0
176
     1
 40
1.0
176
     1
 90
        0
176
     1
 62
    18
420
        0
176
     1
 90
       50
176
     1
 90
        3
176
     1
 62
     5
420
      255
176
     1
290
     0
176
     1
 90
       50
176
     1
 90
       50
176
     1
 90
       50
176
     1
290
     0
176
     1
 90
       50
176
     1
 62
   256
176
     0
 40
1.0
176
     0
 90
        2
176
     1
  1
strokes_ogs.tif
176
     1
290
     0
176
     1
 40
1.0
176
     1
 40
1.0
176
     1
  0
VISUALSTYLE
  5
37
102
{ACAD_REACTORS
330
2A
102
}
330
2A
100
AcDbVisualStyle
  2
Thicken
 70
    13
177
     3
291
     1
 70
    58
 90
        2
176
     1
 90
        2
176
     1
 90
        0
176
     1
 90
        0
176
     1
 40
0.6
176
     1
 40
30.0
176
     1
 62
     7
420
 16777215
176
     1
 90
        1
176
     1
 90
        4
176
     1
 62
     7
176
     1
 62
   257
176
     1
 90
        1
176
     1
 90
        1
176
     1
 40
1.0
176
     1
 90
       12
176
     1
 62
     7
176
     1
 40
1.0
176
     1
 90
        1
176
     1
 90
        6
176
     1
 90
        2
176
     1
 62
     7
176
     1
 90
        5
176
     1
 90
        0
176
     1
 90
        0
176
     1
290
     0
176
     1
 90
        1
176
     1
 40
0.0
176
     1
 90
        0
176
     1
290
     0
176
     1
290
     1
176
     1
290
     1
176
     1
290
     0
176
     1
290
     0
176
     1
290
     0
176
     1
290
     0
176
     1
290
     0
176
     1
290
     0
176
     1
 90
       50
176
     1
 40
0.0
176
     1
 40
1.0
176
     1
 90
        0
176
     1
 62
    18
420
        0
176
     1
 90
       50
176
     1
 90
        3
176
     1
 62
     5
420
      255
176
     1
290
     0
176
     1
 90
       50
176
     1
 90
       50
176
     1
 90
       50
176
     1
290
     0
176
     1
 90
       50
176
     1
 62
   256
176
     0
 40
1.0
176
     0
 90
        2
176
     1
  1
strokes_ogs.tif
176
     1
290
     0
176
     1
 40
1.0
176
     1
 40
1.0
176
     1
  0
VISUALSTYLE
  5
30
102
{ACAD_REACTORS
330
2A
102
}
330
2A
100
AcDbVisualStyle
  2
Wireframe
 70
     5
177
     3
291
     0
 70
    58
 90
        0
176
     1
 90
        2
176
     1
 90
        0
176
     1
 90
        0
176
     1
 40
0.6
176
     1
 40
30.0
176
     1
 62
     7
420
 16777215
176
     1
 90
        1
176
     1
 90
        4
176
     1
 62
     7
176
     1
 62
   257
176
     1
 90
        1
176
     1
 90
        1
176
     1
 40
1.0
176
     1
 90
        0
176
     1
 62
   257
176
     1
 40
1.0
176
     1
 90
        1
176
     1
 90
        6
176
     1
 90
        2
176
     1
 62
     7
176
     1
 90
        3
176
     1
 90
        0
176
     1
 90
        0
176
     1
290
     0
176
     1
 90
        1
176
     1
 40
0.0
176
     1
 90
        0
176
     1
290
     0
176
     1
290
     1
176
     1
290
     1
176
     1
290
     0
176
     1
290
     0
176
     1
290
     0
176
     1
290
     0
176
     1
290
     0
176
     1
290
     0
176
     1
 90
       50
176
     1
 40
0.0
176
     1
 40
1.0
176
     1
 90
        0
176
     1
 62
    18
420
        0
176
     1
 90
       50
176
     1
 90
        3
176
     1
 62
     5
420
      255
176
     1
290
     0
176
     1
 90
       50
176
     1
 90
       50
176
     1
 90
       50
176
     1
290
     0
176
     1
 90
       50
176
     1
 62
   256
176
     0
 40
1.0
176
     0
 90
        2
176
     1
  1
strokes_ogs.tif
176
     1
290
     0
176
     1
 40
1.0
176
     1
 40
1.0
176
     1
  0
VISUALSTYLE
  5
40
102
{ACAD_REACTORS
330
2A
102
}
330
2A
100
AcDbVisualStyle
  2
X-Ray
 70
    25
177
     3
291
     0
 70
    58
 90
        2
176
     1
 90
        2
176
     1
 90
        1
176
     1
 90
        1
176
     1
 40
0.5
176
     1
 40
30.0
176
     1
 62
     7
420
 16777215
176
     1
 90
        1
176
     1
 90
        0
176
     1
 62
     7
176
     1
 62
   257
176
     1
 90
        1
176
     1
 90
        1
176
     1
 40
1.0
176
     1
 90
        8
176
     1
 62
     7
176
     1
 40
1.0
176
     1
 90
        1
176
     1
 90
        6
176
     1
 90
        2
176
     1
 62
     7
176
     1
 90
        3
176
     1
 90
        0
176
     1
 90
        0
176
     1
290
     0
176
     1
 90
       13
176
     1
 40
0.0
176
     1
 90
        0
176
     1
290
     0
176
     1
290
     1
176
     1
290
     1
176
     1
290
     0
176
     1
290
     0
176
     1
290
     0
176
     1
290
     0
176
     1
290
     0
176
     1
290
     0
176
     1
 90
       50
176
     1
 40
0.0
176
     1
 40
1.0
176
     1
 90
        0
176
     1
 62
    18
420
        0
176
     1
 90
       50
176
     1
 90
        3
176
     1
 62
     5
420
      255
176
     1
290
     0
176
     1
 90
       50
176
     1
 90
       50
176
     1
 90
       50
176
     1
290
     0
176
     1
 90
       50
176
     1
 62
   256
176
     0
 40
1.0
176
     0
 90
        2
176
     1
  1
strokes_ogs.tif
176
     1
290
     0
176
     1
 40
1.0
176
     1
 40
1.0
176
     1
  0
DICTIONARYVAR
  5
20B
102
{ACAD_REACTORS
330
20A
102
}
330
20A
100
DictionaryVariables
280
     0
  1
1:1
  0
DICTIONARYVAR
  5
210
102
{ACAD_REACTORS
330
20A
102
}
330
20A
100
DictionaryVariables
280
     0
  1
Standard
  0
DICTIONARYVAR
  5
20F
102
{ACAD_REACTORS
330
20A
102
}
330
20A
100
DictionaryVariables
280
     0
  1
Standard
  0
DICTIONARY
  5
20C
330
6A
100
AcDbDictionary
280
     1
281
     1
  3
ACAD_ROUNDTRIP_2008_TABLESTYLE_CELLSTYLEMAP
360
20D
  0
CELLSTYLEMAP
  5
20D
102
{ACAD_REACTORS
330
20C
102
}
330
20C
100
AcDbCellStyleMap
 90
        3
300
CELLSTYLE
  1
TABLEFORMAT_BEGIN
 90
        5
170
     1
 91
        0
 92
    32768
 62
   257
 93
        1
300
CONTENTFORMAT
  1
CONTENTFORMAT_BEGIN
 90
        0
 91
        0
 92
        4
 93
        0
300

 40
0.0
140
1.0
 94
        5
 62
     0
340
11
144
0.25
309
CONTENTFORMAT_END
171
     1
301
MARGIN
  1
CELLMARGIN_BEGIN
 40
0.06
 40
0.06
 40
0.06
 40
0.06
 40
0.06
 40
0.06
309
CELLMARGIN_END
 94
        6
 95
        1
302
GRIDFORMAT
  1
GRIDFORMAT_BEGIN
 90
        0
 91
        1
 62
     0
 92
       -2
340
14
 93
        0
 40
0.045
309
GRIDFORMAT_END
 95
        2
302
GRIDFORMAT
  1
GRIDFORMAT_BEGIN
 90
        0
 91
        1
 62
     0
 92
       -2
340
14
 93
        0
 40
0.045
309
GRIDFORMAT_END
 95
        4
302
GRIDFORMAT
  1
GRIDFORMAT_BEGIN
 90
        0
 91
        1
 62
     0
 92
       -2
340
14
 93
        0
 40
0.045
309
GRIDFORMAT_END
 95
        8
302
GRIDFORMAT
  1
GRIDFORMAT_BEGIN
 90
        0
 91
        1
 62
     0
 92
       -2
340
14
 93
        0
 40
0.045
309
GRIDFORMAT_END
 95
       16
302
GRIDFORMAT
  1
GRIDFORMAT_BEGIN
 90
        0
 91
        1
 62
     0
 92
       -2
340
14
 93
        0
 40
0.045
309
GRIDFORMAT_END
 95
       32
302
GRIDFORMAT
  1
GRIDFORMAT_BEGIN
 90
        0
 91
        1
 62
     0
 92
       -2
340
14
 93
        0
 40
0.045
309
GRIDFORMAT_END
309
TABLEFORMAT_END
  1
CELLSTYLE_BEGIN
 90
        1
 91
        1
300
_TITLE
309
CELLSTYLE_END
300
CELLSTYLE
  1
TABLEFORMAT_BEGIN
 90
        5
170
     1
 91
        0
 92
        0
 62
   257
 93
        1
300
CONTENTFORMAT
  1
CONTENTFORMAT_BEGIN
 90
        0
 91
        0
 92
        4
 93
        0
300

 40
0.0
140
1.0
 94
        5
 62
     0
340
11
144
0.18
309
CONTENTFORMAT_END
171
     1
301
MARGIN
  1
CELLMARGIN_BEGIN
 40
0.06
 40
0.06
 40
0.06
 40
0.06
 40
0.06
 40
0.06
309
CELLMARGIN_END
 94
        6
 95
        1
302
GRIDFORMAT
  1
GRIDFORMAT_BEGIN
 90
        0
 91
        1
 62
     0
 92
       -2
340
14
 93
        0
 40
0.045
309
GRIDFORMAT_END
 95
        2
302
GRIDFORMAT
  1
GRIDFORMAT_BEGIN
 90
        0
 91
        1
 62
     0
 92
       -2
340
14
 93
        0
 40
0.045
309
GRIDFORMAT_END
 95
        4
302
GRIDFORMAT
  1
GRIDFORMAT_BEGIN
 90
        0
 91
        1
 62
     0
 92
       -2
340
14
 93
        0
 40
0.045
309
GRIDFORMAT_END
 95
        8
302
GRIDFORMAT
  1
GRIDFORMAT_BEGIN
 90
        0
 91
        1
 62
     0
 92
       -2
340
14
 93
        0
 40
0.045
309
GRIDFORMAT_END
 95
       16
302
GRIDFORMAT
  1
GRIDFORMAT_BEGIN
 90
        0
 91
        1
 62
     0
 92
       -2
340
14
 93
        0
 40
0.045
309
GRIDFORMAT_END
 95
       32
302
GRIDFORMAT
  1
GRIDFORMAT_BEGIN
 90
        0
 91
        1
 62
     0
 92
       -2
340
14
 93
        0
 40
0.045
309
GRIDFORMAT_END
309
TABLEFORMAT_END
  1
CELLSTYLE_BEGIN
 90
        2
 91
        1
300
_HEADER
309
CELLSTYLE_END
300
CELLSTYLE
  1
TABLEFORMAT_BEGIN
 90
        5
170
     1
 91
        0
 92
        0
 62
   257
 93
        1
300
CONTENTFORMAT
  1
CONTENTFORMAT_BEGIN
 90
        0
 91
        0
 92
        4
 93
        0
300

 40
0.0
140
1.0
 94
        2
 62
     0
340
11
144
0.18
309
CONTENTFORMAT_END
171
     1
301
MARGIN
  1
CELLMARGIN_BEGIN
 40
0.06
 40
0.06
 40
0.06
 40
0.06
 40
0.06
 40
0.06
309
CELLMARGIN_END
 94
        6
 95
        1
302
GRIDFORMAT
  1
GRIDFORMAT_BEGIN
 90
        0
 91
        1
 62
     0
 92
       -2
340
14
 93
        0
 40
0.045
309
GRIDFORMAT_END
 95
        2
302
GRIDFORMAT
  1
GRIDFORMAT_BEGIN
 90
        0
 91
        1
 62
     0
 92
       -2
340
14
 93
        0
 40
0.045
309
GRIDFORMAT_END
 95
        4
302
GRIDFORMAT
  1
GRIDFORMAT_BEGIN
 90
        0
 91
        1
 62
     0
 92
       -2
340
14
 93
        0
 40
0.045
309
GRIDFORMAT_END
 95
        8
302
GRIDFORMAT
  1
GRIDFORMAT_BEGIN
 90
        0
 91
        1
 62
     0
 92
       -2
340
14
 93
        0
 40
0.045
309
GRIDFORMAT_END
 95
       16
302
GRIDFORMAT
  1
GRIDFORMAT_BEGIN
 90
        0
 91
        1
 62
     0
 92
       -2
340
14
 93
        0
 40
0.045
309
GRIDFORMAT_END
 95
       32
302
GRIDFORMAT
  1
GRIDFORMAT_BEGIN
 90
        0
 91
        1
 62
     0
 92
       -2
340
14
 93
        0
 40
0.045
309
GRIDFORMAT_END
309
TABLEFORMAT_END
  1
CELLSTYLE_BEGIN
 90
        3
 91
        2
300
_DATA
309
CELLSTYLE_END
  0
ENDSEC
  0
EOF