0
SECTION
  2
HEADER
  9
$ACADVER
  1
AC1027
  9
$ACADMAINTVER
 70
     8
  9
$DWGCODEPAGE
  3
ANSI_1252
  9
$REQUIREDVERSIONS
160
                 0
  9
$COMMENTS
  1
File was created by Cadenas
  9
$CUSTOMPROPERTYTAG
  1
NN
  9
$CUSTOMPROPERTY
  1
S-2000 Piloted Flange Trident Seal
  9
$CUSTOMPROPERTYTAG
  1
NT
  9
$CUSTOMPROPERTY
  1
S-2000 Piloted Flange Bearing -Inch
  9
$CUSTOMPROPERTYTAG
  1
NB
  9
$CUSTOMPROPERTY
  1
070679
  9
$CUSTOMPROPERTYTAG
  1
NBSYN
  9
$CUSTOMPROPERTY
  1
$PN.
  9
$CUSTOMPROPERTYTAG
  1
LINA
  9
$CUSTOMPROPERTY
  1
070679
  9
$CUSTOMPROPERTYTAG
  1
SS
  9
$CUSTOMPROPERTY
  1
2-3/16
  9
$CUSTOMPROPERTYTAG
  1
PN
  9
$CUSTOMPROPERTY
  1
070679
  9
$CUSTOMPROPERTYTAG
  1
DESCRIPTION
  9
$CUSTOMPROPERTY
  1
FC-S2-203RE
  9
$CUSTOMPROPERTYTAG
  1
EF
  9
$CUSTOMPROPERTY
  1
Expansion Type
  9
$CUSTOMPROPERTYTAG
  1
ST
  9
$CUSTOMPROPERTY
  1
Contact Seal
  9
$CUSTOMPROPERTYTAG
  1
A
  9
$CUSTOMPROPERTY
  1
2-15/16
  9
$CUSTOMPROPERTYTAG
  1
B
  9
$CUSTOMPROPERTY
  1
7-1/8
  9
$CUSTOMPROPERTYTAG
  1
C
  9
$CUSTOMPROPERTY
  1
2-3/16
  9
$CUSTOMPROPERTYTAG
  1
D
  9
$CUSTOMPROPERTY
  1
4-1/4
  9
$CUSTOMPROPERTYTAG
  1
DD
  9
$CUSTOMPROPERTY
  1
6
  9
$CUSTOMPROPERTYTAG
  1
E
  9
$CUSTOMPROPERTY
  1
1
  9
$CUSTOMPROPERTYTAG
  1
F
  9
$CUSTOMPROPERTY
  1
1/2
  9
$CUSTOMPROPERTYTAG
  1
G
  9
$CUSTOMPROPERTY
  1
1-9/16
  9
$CUSTOMPROPERTYTAG
  1
H
  9
$CUSTOMPROPERTY
  1
9/16
  9
$CUSTOMPROPERTYTAG
  1
K
  9
$CUSTOMPROPERTY
  1
5.000
  9
$CUSTOMPROPERTYTAG
  1
L
  9
$CUSTOMPROPERTY
  1
3-3/4
  9
$CUSTOMPROPERTYTAG
  1
M
  9
$CUSTOMPROPERTY
  1
1/2-13
  9
$CUSTOMPROPERTYTAG
  1
N
  9
$CUSTOMPROPERTY
  1
2-63/64
  9
$CUSTOMPROPERTYTAG
  1
P
  9
$CUSTOMPROPERTY
  1
1-3/8
  9
$CUSTOMPROPERTYTAG
  1
Q
  9
$CUSTOMPROPERTY
  1
1-27/64
  9
$CUSTOMPROPERTYTAG
  1
X
  9
$CUSTOMPROPERTY
  1
1/4
  9
$CUSTOMPROPERTYTAG
  1
Y
  9
$CUSTOMPROPERTY
  1
0.025
  9
$CUSTOMPROPERTYTAG
  1
Z
  9
$CUSTOMPROPERTY
  1
2-19/32
  9
$CUSTOMPROPERTYTAG
  1
COMPANY
  9
$CUSTOMPROPERTY
  1
baldor
  9
$INSBASE
 10
0.0
 20
0.0
 30
0.0
  9
$EXTMIN
 10
1.000000000000000E+20
 20
1.000000000000000E+20
 30
1.000000000000000E+20
  9
$EXTMAX
 10
-1.000000000000000E+20
 20
-1.000000000000000E+20
 30
-1.000000000000000E+20
  9
$LIMMIN
 10
0.0
 20
0.0
  9
$LIMMAX
 10
12.0
 20
9.0
  9
$ORTHOMODE
 70
     0
  9
$REGENMODE
 70
     1
  9
$FILLMODE
 70
     1
  9
$QTEXTMODE
 70
     0
  9
$MIRRTEXT
 70
     1
  9
$LTSCALE
 40
1.0
  9
$ATTMODE
 70
     1
  9
$TEXTSIZE
 40
0.2
  9
$TRACEWID
 40
0.05
  9
$TEXTSTYLE
  7
Standard
  9
$CLAYER
  8
0
  9
$CELTYPE
  6
ByLayer
  9
$CECOLOR
 62
   256
  9
$CELTSCALE
 40
1.0
  9
$DISPSILH
 70
     0
  9
$DIMSCALE
 40
1.0
  9
$DIMASZ
 40
0.18
  9
$DIMEXO
 40
0.0625
  9
$DIMDLI
 40
0.38
  9
$DIMRND
 40
0.0
  9
$DIMDLE
 40
0.0
  9
$DIMEXE
 40
0.18
  9
$DIMTP
 40
0.0
  9
$DIMTM
 40
0.0
  9
$DIMTXT
 40
0.18
  9
$DIMCEN
 40
0.09
  9
$DIMTSZ
 40
0.0
  9
$DIMTOL
 70
     0
  9
$DIMLIM
 70
     0
  9
$DIMTIH
 70
     1
  9
$DIMTOH
 70
     1
  9
$DIMSE1
 70
     0
  9
$DIMSE2
 70
     0
  9
$DIMTAD
 70
     0
  9
$DIMZIN
 70
     0
  9
$DIMBLK
  1

  9
$DIMASO
 70
     1
  9
$DIMSHO
 70
     1
  9
$DIMPOST
  1

  9
$DIMAPOST
  1

  9
$DIMALT
 70
     0
  9
$DIMALTD
 70
     2
  9
$DIMALTF
 40
25.4
  9
$DIMLFAC
 40
1.0
  9
$DIMTOFL
 70
     0
  9
$DIMTVP
 40
0.0
  9
$DIMTIX
 70
     0
  9
$DIMSOXD
 70
     0
  9
$DIMSAH
 70
     0
  9
$DIMBLK1
  1

  9
$DIMBLK2
  1

  9
$DIMSTYLE
  2
Standard
  9
$DIMCLRD
 70
     0
  9
$DIMCLRE
 70
     0
  9
$DIMCLRT
 70
     0
  9
$DIMTFAC
 40
1.0
  9
$DIMGAP
 40
0.09
  9
$DIMJUST
 70
     0
  9
$DIMSD1
 70
     0
  9
$DIMSD2
 70
     0
  9
$DIMTOLJ
 70
     1
  9
$DIMTZIN
 70
     0
  9
$DIMALTZ
 70
     0
  9
$DIMALTTZ
 70
     0
  9
$DIMUPT
 70
     0
  9
$DIMDEC
 70
     4
  9
$DIMTDEC
 70
     4
  9
$DIMALTU
 70
     2
  9
$DIMALTTD
 70
     2
  9
$DIMTXSTY
  7
Standard
  9
$DIMAUNIT
 70
     0
  9
$DIMADEC
 70
     0
  9
$DIMALTRND
 40
0.0
  9
$DIMAZIN
 70
     0
  9
$DIMDSEP
 70
    46
  9
$DIMATFIT
 70
     3
  9
$DIMFRAC
 70
     0
  9
$DIMLDRBLK
  1

  9
$DIMLUNIT
 70
     2
  9
$DIMLWD
 70
    -2
  9
$DIMLWE
 70
    -2
  9
$DIMTMOVE
 70
     0
  9
$DIMFXL
 40
1.0
  9
$DIMFXLON
 70
     0
  9
$DIMJOGANG
 40
0.7853981633974483
  9
$DIMTFILL
 70
     0
  9
$DIMTFILLCLR
 70
     0
  9
$DIMARCSYM
 70
     0
  9
$DIMLTYPE
  6

  9
$DIMLTEX1
  6

  9
$DIMLTEX2
  6

  9
$DIMTXTDIRECTION
 70
     0
  9
$LUNITS
 70
     2
  9
$LUPREC
 70
     4
  9
$SKETCHINC
 40
0.1
  9
$FILLETRAD
 40
0.5
  9
$AUNITS
 70
     0
  9
$AUPREC
 70
     0
  9
$MENU
  1
.
  9
$ELEVATION
 40
0.0
  9
$PELEVATION
 40
0.0
  9
$THICKNESS
 40
0.0
  9
$LIMCHECK
 70
     0
  9
$CHAMFERA
 40
0.0
  9
$CHAMFERB
 40
0.0
  9
$CHAMFERC
 40
0.0
  9
$CHAMFERD
 40
0.0
  9
$SKPOLY
 70
     0
  9
$TDCREATE
 40
2458168.985518194
  9
$TDUCREATE
 40
2458168.943851528
  9
$TDUPDATE
 40
2458168.985518368
  9
$TDUUPDATE
 40
2458168.943851701
  9
$TDINDWG
 40
0.0000000116
  9
$TDUSRTIMER
 40
0.0000000116
  9
$USRTIMER
 70
     1
  9
$ANGBASE
 50
0.0
  9
$ANGDIR
 70
     0
  9
$PDMODE
 70
     0
  9
$PDSIZE
 40
0.0
  9
$PLINEWID
 40
0.0
  9
$SPLFRAME
 70
     0
  9
$SPLINETYPE
 70
     6
  9
$SPLINESEGS
 70
     8
  9
$HANDSEED
  5
230
  9
$SURFTAB1
 70
     6
  9
$SURFTAB2
 70
     6
  9
$SURFTYPE
 70
     6
  9
$SURFU
 70
     6
  9
$SURFV
 70
     6
  9
$UCSBASE
  2

  9
$UCSNAME
  2

  9
$UCSORG
 10
0.0
 20
0.0
 30
0.0
  9
$UCSXDIR
 10
1.0
 20
0.0
 30
0.0
  9
$UCSYDIR
 10
0.0
 20
1.0
 30
0.0
  9
$UCSORTHOREF
  2

  9
$UCSORTHOVIEW
 70
     0
  9
$UCSORGTOP
 10
0.0
 20
0.0
 30
0.0
  9
$UCSORGBOTTOM
 10
0.0
 20
0.0
 30
0.0
  9
$UCSORGLEFT
 10
0.0
 20
0.0
 30
0.0
  9
$UCSORGRIGHT
 10
0.0
 20
0.0
 30
0.0
  9
$UCSORGFRONT
 10
0.0
 20
0.0
 30
0.0
  9
$UCSORGBACK
 10
0.0
 20
0.0
 30
0.0
  9
$PUCSBASE
  2

  9
$PUCSNAME
  2

  9
$PUCSORG
 10
0.0
 20
0.0
 30
0.0
  9
$PUCSXDIR
 10
1.0
 20
0.0
 30
0.0
  9
$PUCSYDIR
 10
0.0
 20
1.0
 30
0.0
  9
$PUCSORTHOREF
  2

  9
$PUCSORTHOVIEW
 70
     0
  9
$PUCSORGTOP
 10
0.0
 20
0.0
 30
0.0
  9
$PUCSORGBOTTOM
 10
0.0
 20
0.0
 30
0.0
  9
$PUCSORGLEFT
 10
0.0
 20
0.0
 30
0.0
  9
$PUCSORGRIGHT
 10
0.0
 20
0.0
 30
0.0
  9
$PUCSORGFRONT
 10
0.0
 20
0.0
 30
0.0
  9
$PUCSORGBACK
 10
0.0
 20
0.0
 30
0.0
  9
$USERI1
 70
     0
  9
$USERI2
 70
     0
  9
$USERI3
 70
     0
  9
$USERI4
 70
     0
  9
$USERI5
 70
     0
  9
$USERR1
 40
0.0
  9
$USERR2
 40
0.0
  9
$USERR3
 40
0.0
  9
$USERR4
 40
0.0
  9
$USERR5
 40
0.0
  9
$WORLDVIEW
 70
     1
  9
$SHADEDGE
 70
     3
  9
$SHADEDIF
 70
    70
  9
$TILEMODE
 70
     1
  9
$MAXACTVP
 70
    64
  9
$PINSBASE
 10
0.0
 20
0.0
 30
0.0
  9
$PLIMCHECK
 70
     0
  9
$PEXTMIN
 10
1.000000000000000E+20
 20
1.000000000000000E+20
 30
1.000000000000000E+20
  9
$PEXTMAX
 10
-1.000000000000000E+20
 20
-1.000000000000000E+20
 30
-1.000000000000000E+20
  9
$PLIMMIN
 10
0.0
 20
0.0
  9
$PLIMMAX
 10
12.0
 20
9.0
  9
$UNITMODE
 70
     0
  9
$VISRETAIN
 70
     1
  9
$PLINEGEN
 70
     0
  9
$PSLTSCALE
 70
     1
  9
$TREEDEPTH
 70
  3020
  9
$CMLSTYLE
  2
Standard
  9
$CMLJUST
 70
     0
  9
$CMLSCALE
 40
1.0
  9
$PROXYGRAPHICS
 70
     1
  9
$MEASUREMENT
 70
     0
  9
$CELWEIGHT
370
    -1
  9
$ENDCAPS
280
     0
  9
$JOINSTYLE
280
     0
  9
$LWDISPLAY
290
     0
  9
$INSUNITS
 70
     1
  9
$HYPERLINKBASE
  1

  9
$STYLESHEET
  1

  9
$XEDIT
290
     1
  9
$CEPSNTYPE
380
     0
  9
$PSTYLEMODE
290
     1
  9
$FINGERPRINTGUID
  2
{E8AA20B1-ADC8-48C2-91A3-283CF6CE509C}
  9
$VERSIONGUID
  2
{FAEB1C32-E019-11D5-929B-00C0DF256EC4}
  9
$EXTNAMES
290
     1
  9
$PSVPSCALE
 40
0.0
  9
$OLESTARTUP
290
     0
  9
$SORTENTS
280
   127
  9
$INDEXCTL
280
     0
  9
$HIDETEXT
280
     1
  9
$XCLIPFRAME
280
     2
  9
$HALOGAP
280
     0
  9
$OBSCOLOR
 70
   257
  9
$OBSLTYPE
280
     0
  9
$INTERSECTIONDISPLAY
280
     0
  9
$INTERSECTIONCOLOR
 70
   257
  9
$DIMASSOC
280
     2
  9
$PROJECTNAME
  1

  9
$CAMERADISPLAY
290
     0
  9
$LENSLENGTH
 40
50.0
  9
$CAMERAHEIGHT
 40
0.0
  9
$STEPSPERSEC
 40
2.0
  9
$STEPSIZE
 40
6.0
  9
$3DDWFPREC
 40
2.0
  9
$PSOLWIDTH
 40
0.25
  9
$PSOLHEIGHT
 40
4.0
  9
$LOFTANG1
 40
1.570796326794897
  9
$LOFTANG2
 40
1.570796326794897
  9
$LOFTMAG1
 40
0.0
  9
$LOFTMAG2
 40
0.0
  9
$LOFTPARAM
 70
     7
  9
$LOFTNORMALS
280
     1
  9
$LATITUDE
 40
37.795
  9
$LONGITUDE
 40
-122.394
  9
$NORTHDIRECTION
 40
0.0
  9
$TIMEZONE
 70
 -8000
  9
$LIGHTGLYPHDISPLAY
280
     1
  9
$TILEMODELIGHTSYNCH
280
     1
  9
$CMATERIAL
347
44
  9
$SOLIDHIST
280
     0
  9
$SHOWHIST
280
     1
  9
$DWFFRAME
280
     2
  9
$DGNFRAME
280
     2
  9
$REALWORLDSCALE
290
     1
  9
$INTERFERECOLOR
 62
   256
  9
$CSHADOW
280
     0
  9
$SHADOWPLANELOCATION
 40
0.0
  0
ENDSEC
  0
SECTION
  2
CLASSES
  0
CLASS
  1
ACDBDICTIONARYWDFLT
  2
AcDbDictionaryWithDefault
  3
ObjectDBX Classes
 90
        0
 91
        4
280
     0
281
     0
  0
CLASS
  1
VISUALSTYLE
  2
AcDbVisualStyle
  3
ObjectDBX Classes
 90
     4095
 91
        4
280
     0
281
     0
  0
CLASS
  1
MATERIAL
  2
AcDbMaterial
  3
ObjectDBX Classes
 90
     1153
 91
        4
280
     0
281
     0
  0
CLASS
  1
SCALE
  2
AcDbScale
  3
ObjectDBX Classes
 90
     1153
 91
        4
280
     0
281
     0
  0
CLASS
  1
TABLESTYLE
  2
AcDbTableStyle
  3
ObjectDBX Classes
 90
     4095
 91
        4
280
     0
281
     0
  0
CLASS
  1
MLEADERSTYLE
  2
AcDbMLeaderStyle
  3
ACDB_MLEADERSTYLE_CLASS
 90
     4095
 91
        4
280
     0
281
     0
  0
CLASS
  1
SUN
  2
AcDbSun
  3
SCENEOE
 90
     1153
 91
        4
280
     0
281
     0
  0
CLASS
  1
DICTIONARYVAR
  2
AcDbDictionaryVar
  3
ObjectDBX Classes
 90
        0
 91
        4
280
     0
281
     0
  0
CLASS
  1
CELLSTYLEMAP
  2
AcDbCellStyleMap
  3
ObjectDBX Classes
 90
     1152
 91
        4
280
     0
281
     0
  0
ENDSEC
  0
SECTION
  2
TABLES
  0
TABLE
  2
VPORT
  5
8
330
0
100
AcDbSymbolTable
 70
     1
  0
VPORT
  5
29
330
8
100
AcDbSymbolTableRecord
100
AcDbViewportTableRecord
  2
*Active
 70
     0
 10
0.0
 20
0.0
 11
1.0
 21
1.0
 12
0.0000000000000036
 22
0.4500000000000002
 13
0.0
 23
0.0
 14
0.5
 24
0.5
 15
0.5
 25
0.5
 16
0.0
 26
0.0
 36
1.0
 17
0.0
 27
0.0
 37
0.0
 40
4.1055
 41
1.770186335403727
 42
50.0
 43
0.0
 44
0.0
 50
0.0
 51
0.0
 71
     0
 72
   100
 73
     1
 74
     3
 75
     0
 76
     0
 77
     0
 78
     0
281
     0
 65
     1
110
0.0
120
0.0
130
0.0
111
1.0
121
0.0
131
0.0
112
0.0
122
1.0
132
0.0
 79
     0
146
0.0
348
2F
 60
     3
 61
     5
292
     1
282
     1
141
0.0
142
0.0
 63
   250
361
6D
  0
ENDTAB
  0
TABLE
  2
LTYPE
  5
5
330
0
100
AcDbSymbolTable
 70
     3
  0
LTYPE
  5
14
330
5
100
AcDbSymbolTableRecord
100
AcDbLinetypeTableRecord
  2
ByBlock
 70
     0
  3

 72
    65
 73
     0
 40
0.0
  0
LTYPE
  5
15
330
5
100
AcDbSymbolTableRecord
100
AcDbLinetypeTableRecord
  2
ByLayer
 70
     0
  3

 72
    65
 73
     0
 40
0.0
  0
LTYPE
  5
16
330
5
100
AcDbSymbolTableRecord
100
AcDbLinetypeTableRecord
  2
Continuous
 70
     0
  3
Solid line
 72
    65
 73
     0
 40
0.0
  0
LTYPE
  5
A7
330
5
100
AcDbSymbolTableRecord
100
AcDbLinetypeTableRecord
  2
Dashed
 70
     0
  3

 72
    65
 73
     2
 40
2.0
 49
1.0
 74
     0
 49
-1.0
 74
     0
  0
LTYPE
  5
14F
330
5
100
AcDbSymbolTableRecord
100
AcDbLinetypeTableRecord
  2
Center
 70
     0
  3

 72
    65
 73
     4
 40
1.5
 49
0.45
 74
     0
 49
-0.5
 74
     0
 49
0.05
 74
     0
 49
-0.5
 74
     0
  0
ENDTAB
  0
TABLE
  2
LAYER
  5
2
330
0
100
AcDbSymbolTable
 70
     7
  0
LAYER
  5
10
330
2
100
AcDbSymbolTableRecord
100
AcDbLayerTableRecord
  2
0
 70
     0
 62
     7
  6
Continuous
370
    -3
390
F
347
46
348
0
  0
LAYER
  5
72
330
2
100
AcDbSymbolTableRecord
100
AcDbLayerTableRecord
  2
AM_6
 70
     0
 62
    -2
  6
Continuous
370
    35
390
F
347
46
348
0
  0
LAYER
  5
A8
330
2
100
AcDbSymbolTableRecord
100
AcDbLayerTableRecord
  2
AM_9
 70
     0
 62
     6
  6
Dashed
370
    25
390
F
347
46
348
0
  0
LAYER
  5
E7
330
2
100
AcDbSymbolTableRecord
100
AcDbLayerTableRecord
  2
AM_4
 70
     0
 62
     7
  6
Continuous
370
    50
390
F
347
46
348
0
  0
LAYER
  5
FF
330
2
100
AcDbSymbolTableRecord
100
AcDbLayerTableRecord
  2
AM_5
 70
     0
 62
     3
  6
Continuous
370
    25
390
F
347
46
348
0
  0
LAYER
  5
150
330
2
100
AcDbSymbolTableRecord
100
AcDbLayerTableRecord
  2
AM_7
 70
     0
 62
     7
  6
Center
370
    25
390
F
347
46
348
0
  0
LAYER
  5
21C
330
2
100
AcDbSymbolTableRecord
100
AcDbLayerTableRecord
  2
ConnectionPoints
 70
     0
 62
     7
  6
Continuous
370
    50
390
F
347
46
348
0
  0
ENDTAB
  0
TABLE
  2
STYLE
  5
3
330
0
100
AcDbSymbolTable
 70
     1
  0
STYLE
  5
11
330
3
100
AcDbSymbolTableRecord
100
AcDbTextStyleTableRecord
  2
Standard
 70
     0
 40
0.0
 41
1.0
 50
0.0
 71
     0
 42
0.2
  3
txt
  4

  0
ENDTAB
  0
TABLE
  2
VIEW
  5
6
330
0
100
AcDbSymbolTable
 70
     0
  0
ENDTAB
  0
TABLE
  2
UCS
  5
7
330
0
100
AcDbSymbolTable
 70
     0
  0
ENDTAB
  0
TABLE
  2
APPID
  5
9
330
0
100
AcDbSymbolTable
 70
     1
  0
APPID
  5
12
330
9
100
AcDbSymbolTableRecord
100
AcDbRegAppTableRecord
  2
ACAD
 70
     0
  0
ENDTAB
  0
TABLE
  2
DIMSTYLE
  5
A
330
0
100
AcDbSymbolTable
 70
     1
100
AcDbDimStyleTable
  0
DIMSTYLE
105
27
330
A
100
AcDbSymbolTableRecord
100
AcDbDimStyleTableRecord
  2
Standard
 70
     0
178
     0
340
11
  0
ENDTAB
  0
TABLE
  2
BLOCK_RECORD
  5
1
330
0
100
AcDbSymbolTable
 70
     7
  0
BLOCK_RECORD
  5
1F
330
1
100
AcDbSymbolTableRecord
100
AcDbBlockTableRecord
  2
*Model_Space
340
22
 70
     0
280
     1
281
     0
  0
BLOCK_RECORD
  5
1B
330
1
100
AcDbSymbolTableRecord
100
AcDbBlockTableRecord
  2
*Paper_Space
340
1E
 70
     0
280
     1
281
     0
  0
BLOCK_RECORD
  5
23
330
1
100
AcDbSymbolTableRecord
100
AcDbBlockTableRecord
  2
*Paper_Space0
340
26
 70
     0
280
     1
281
     0
  0
BLOCK_RECORD
  5
6E
330
1
100
AcDbSymbolTableRecord
100
AcDbBlockTableRecord
  2
1_070679_4
340
0
102
{BLKREFS
331
6F
102
}
 70
     0
280
     1
281
     0
  0
BLOCK_RECORD
  5
90
330
1
100
AcDbSymbolTableRecord
100
AcDbBlockTableRecord
  2
2_2_3_16_Disc_0_in_070679_4
340
0
102
{BLKREFS
331
91
102
}
 70
     0
280
     1
281
     0
  0
BLOCK_RECORD
  5
B4
330
1
100
AcDbSymbolTableRecord
100
AcDbBlockTableRecord
  2
3_2_3_16CS2i_0_in_070679_4
340
0
102
{BLKREFS
331
B5
102
}
 70
     0
280
     1
281
     0
  0
BLOCK_RECORD
  5
101
330
1
100
AcDbSymbolTableRecord
100
AcDbBlockTableRecord
  2
4_070007i_0_in_070679_4
340
0
102
{BLKREFS
331
102
102
}
 70
     0
280
     1
281
     0
  0
BLOCK_RECORD
  5
158
330
1
100
AcDbSymbolTableRecord
100
AcDbBlockTableRecord
  2
5_405015E_Inch_0_in_070679_4
340
0
102
{BLKREFS
331
159
102
}
 70
     0
280
     1
281
     0
  0
BLOCK_RECORD
  5
1AB
330
1
100
AcDbSymbolTableRecord
100
AcDbBlockTableRecord
  2
6_070679H_0_in_070679_4
340
0
102
{BLKREFS
331
1AC
102
}
 70
     0
280
     1
281
     0
  0
ENDTAB
  0
ENDSEC
  0
SECTION
  2
BLOCKS
  0
BLOCK
  5
20
330
1F
100
AcDbEntity
  8
0
100
AcDbBlockBegin
  2
*Model_Space
 70
     0
 10
0.0
 20
0.0
 30
0.0
  3
*Model_Space
  1

  0
ENDBLK
  5
21
330
1F
100
AcDbEntity
  8
0
100
AcDbBlockEnd
  0
BLOCK
  5
1C
330
1B
100
AcDbEntity
 67
     1
  8
0
100
AcDbBlockBegin
  2
*Paper_Space
 70
     0
 10
0.0
 20
0.0
 30
0.0
  3
*Paper_Space
  1

  0
ENDBLK
  5
1D
330
1B
100
AcDbEntity
 67
     1
  8
0
100
AcDbBlockEnd
  0
BLOCK
  5
24
330
23
100
AcDbEntity
  8
0
100
AcDbBlockBegin
  2
*Paper_Space0
 70
     0
 10
0.0
 20
0.0
 30
0.0
  3
*Paper_Space0
  1

  0
ENDBLK
  5
25
330
23
100
AcDbEntity
  8
0
100
AcDbBlockEnd
  0
BLOCK
  5
70
330
6E
100
AcDbEntity
  8
0
100
AcDbBlockBegin
  2
1_070679_4
 70
     2
 10
0.0
 20
0.0
 30
0.0
  3
1_070679_4
  1

  0
ATTDEF
  5
73
330
6E
100
AcDbEntity
  8
AM_6
100
AcDbText
 10
8.562500000000004
 20
1.771875
 30
0.0
 40
0.5
  1
S-2000 Piloted Flange Trident Seal
100
AcDbAttributeDefinition
  3

  2
NN
 70
     8
280
     0
  0
ATTDEF
  5
74
330
6E
100
AcDbEntity
  8
AM_6
100
AcDbText
 10
8.562500000000004
 20
1.271875
 30
0.0
 40
0.5
  1
S-2000 Piloted Flange Bearing -Inch
100
AcDbAttributeDefinition
  3

  2
NT
 70
     8
280
     0
  0
ATTDEF
  5
75
330
6E
100
AcDbEntity
  8
AM_6
100
AcDbText
 10
8.562500000000004
 20
0.7718750000000001
 30
0.0
 40
0.5
  1
070679
100
AcDbAttributeDefinition
  3

  2
NB
 70
     8
280
     0
  0
ATTDEF
  5
76
330
6E
100
AcDbEntity
  8
AM_6
100
AcDbText
 10
8.562500000000004
 20
0.2718750000000001
 30
0.0
 40
0.5
  1
$PN.
100
AcDbAttributeDefinition
  3

  2
NBSYN
 70
     8
280
     0
  0
ATTDEF
  5
77
330
6E
100
AcDbEntity
  8
AM_6
100
AcDbText
 10
8.562500000000004
 20
-0.2281249999999999
 30
0.0
 40
0.5
  1
070679
100
AcDbAttributeDefinition
  3

  2
LINA
 70
     8
280
     0
  0
ATTDEF
  5
78
330
6E
100
AcDbEntity
  8
AM_6
100
AcDbText
 10
8.562500000000004
 20
-0.7281249999999999
 30
0.0
 40
0.5
  1
2-3/16
100
AcDbAttributeDefinition
  3

  2
SS
 70
     8
280
     0
  0
ATTDEF
  5
79
330
6E
100
AcDbEntity
  8
AM_6
100
AcDbText
 10
8.562500000000004
 20
-1.228125
 30
0.0
 40
0.5
  1
070679
100
AcDbAttributeDefinition
  3

  2
PN
 70
     8
280
     0
  0
ATTDEF
  5
7A
330
6E
100
AcDbEntity
  8
AM_6
100
AcDbText
 10
8.562500000000004
 20
-1.728125
 30
0.0
 40
0.5
  1
FC-S2-203RE
100
AcDbAttributeDefinition
  3

  2
DESCRIPTION
 70
     8
280
     0
  0
ATTDEF
  5
7B
330
6E
100
AcDbEntity
  8
AM_6
100
AcDbText
 10
8.562500000000004
 20
-2.228125
 30
0.0
 40
0.5
  1
Expansion Type
100
AcDbAttributeDefinition
  3

  2
EF
 70
     8
280
     0
  0
ATTDEF
  5
7C
330
6E
100
AcDbEntity
  8
AM_6
100
AcDbText
 10
8.562500000000004
 20
-2.728125
 30
0.0
 40
0.5
  1
Contact Seal
100
AcDbAttributeDefinition
  3

  2
ST
 70
     8
280
     0
  0
ATTDEF
  5
7D
330
6E
100
AcDbEntity
  8
AM_6
100
AcDbText
 10
8.562500000000004
 20
-3.228125
 30
0.0
 40
0.5
  1
2-15/16
100
AcDbAttributeDefinition
  3

  2
A
 70
     8
280
     0
  0
ATTDEF
  5
7E
330
6E
100
AcDbEntity
  8
AM_6
100
AcDbText
 10
8.562500000000004
 20
-3.728125
 30
0.0
 40
0.5
  1
7-1/8
100
AcDbAttributeDefinition
  3

  2
B
 70
     8
280
     0
  0
ATTDEF
  5
7F
330
6E
100
AcDbEntity
  8
AM_6
100
AcDbText
 10
8.562500000000004
 20
-4.228125
 30
0.0
 40
0.5
  1
2-3/16
100
AcDbAttributeDefinition
  3

  2
C
 70
     8
280
     0
  0
ATTDEF
  5
80
330
6E
100
AcDbEntity
  8
AM_6
100
AcDbText
 10
8.562500000000004
 20
-4.728125
 30
0.0
 40
0.5
  1
4-1/4
100
AcDbAttributeDefinition
  3

  2
D
 70
     8
280
     0
  0
ATTDEF
  5
81
330
6E
100
AcDbEntity
  8
AM_6
100
AcDbText
 10
8.562500000000004
 20
-5.228125
 30
0.0
 40
0.5
  1
6
100
AcDbAttributeDefinition
  3

  2
DD
 70
     8
280
     0
  0
ATTDEF
  5
82
330
6E
100
AcDbEntity
  8
AM_6
100
AcDbText
 10
8.562500000000004
 20
-5.728125
 30
0.0
 40
0.5
  1
1
100
AcDbAttributeDefinition
  3

  2
E
 70
     8
280
     0
  0
ATTDEF
  5
83
330
6E
100
AcDbEntity
  8
AM_6
100
AcDbText
 10
8.562500000000004
 20
-6.228125
 30
0.0
 40
0.5
  1
1/2
100
AcDbAttributeDefinition
  3

  2
F
 70
     8
280
     0
  0
ATTDEF
  5
84
330
6E
100
AcDbEntity
  8
AM_6
100
AcDbText
 10
8.562500000000004
 20
-6.728125
 30
0.0
 40
0.5
  1
1-9/16
100
AcDbAttributeDefinition
  3

  2
G
 70
     8
280
     0
  0
ATTDEF
  5
85
330
6E
100
AcDbEntity
  8
AM_6
100
AcDbText
 10
8.562500000000004
 20
-7.228125
 30
0.0
 40
0.5
  1
9/16
100
AcDbAttributeDefinition
  3

  2
H
 70
     8
280
     0
  0
ATTDEF
  5
86
330
6E
100
AcDbEntity
  8
AM_6
100
AcDbText
 10
8.562500000000004
 20
-7.728125
 30
0.0
 40
0.5
  1
5.000
100
AcDbAttributeDefinition
  3

  2
K
 70
     8
280
     0
  0
ATTDEF
  5
87
330
6E
100
AcDbEntity
  8
AM_6
100
AcDbText
 10
8.562500000000004
 20
-8.228125
 30
0.0
 40
0.5
  1
3-3/4
100
AcDbAttributeDefinition
  3

  2
L
 70
     8
280
     0
  0
ATTDEF
  5
88
330
6E
100
AcDbEntity
  8
AM_6
100
AcDbText
 10
8.562500000000004
 20
-8.728125
 30
0.0
 40
0.5
  1
1/2-13
100
AcDbAttributeDefinition
  3

  2
M
 70
     8
280
     0
  0
ATTDEF
  5
89
330
6E
100
AcDbEntity
  8
AM_6
100
AcDbText
 10
8.562500000000004
 20
-9.228125
 30
0.0
 40
0.5
  1
2-63/64
100
AcDbAttributeDefinition
  3

  2
N
 70
     8
280
     0
  0
ATTDEF
  5
8A
330
6E
100
AcDbEntity
  8
AM_6
100
AcDbText
 10
8.562500000000004
 20
-9.728125
 30
0.0
 40
0.5
  1
1-3/8
100
AcDbAttributeDefinition
  3

  2
P
 70
     8
280
     0
  0
ATTDEF
  5
8B
330
6E
100
AcDbEntity
  8
AM_6
100
AcDbText
 10
8.562500000000004
 20
-10.228125
 30
0.0
 40
0.5
  1
1-27/64
100
AcDbAttributeDefinition
  3

  2
Q
 70
     8
280
     0
  0
ATTDEF
  5
8C
330
6E
100
AcDbEntity
  8
AM_6
100
AcDbText
 10
8.562500000000004
 20
-10.728125
 30
0.0
 40
0.5
  1
1/4
100
AcDbAttributeDefinition
  3

  2
X
 70
     8
280
     0
  0
ATTDEF
  5
8D
330
6E
100
AcDbEntity
  8
AM_6
100
AcDbText
 10
8.562500000000004
 20
-11.228125
 30
0.0
 40
0.5
  1
0.025
100
AcDbAttributeDefinition
  3

  2
Y
 70
     8
280
     0
  0
ATTDEF
  5
8E
330
6E
100
AcDbEntity
  8
AM_6
100
AcDbText
 10
8.562500000000004
 20
-11.728125
 30
0.0
 40
0.5
  1
2-19/32
100
AcDbAttributeDefinition
  3

  2
Z
 70
     8
280
     0
  0
ATTDEF
  5
8F
330
6E
100
AcDbEntity
  8
AM_6
100
AcDbText
 10
8.562500000000004
 20
-12.228125
 30
0.0
 40
0.5
  1
baldor
100
AcDbAttributeDefinition
  3

  2
COMPANY
 70
     8
280
     0
  0
INSERT
  5
91
330
6E
100
AcDbEntity
  8
0
100
AcDbBlockReference
  2
2_2_3_16_Disc_0_in_070679_4
 10
0.0
 20
0.0
 30
0.0
  0
INSERT
  5
B5
330
6E
100
AcDbEntity
  8
0
100
AcDbBlockReference
  2
3_2_3_16CS2i_0_in_070679_4
 10
0.0
 20
0.0
 30
0.0
  0
INSERT
  5
102
330
6E
100
AcDbEntity
  8
0
100
AcDbBlockReference
  2
4_070007i_0_in_070679_4
 10
0.0
 20
0.0
 30
0.0
  0
INSERT
  5
159
330
6E
100
AcDbEntity
  8
0
100
AcDbBlockReference
  2
5_405015E_Inch_0_in_070679_4
 10
0.0
 20
0.0
 30
0.0
  0
INSERT
  5
1AC
330
6E
100
AcDbEntity
  8
0
100
AcDbBlockReference
  2
6_070679H_0_in_070679_4
 10
0.0
 20
0.0
 30
0.0
  0
ENDBLK
  5
71
330
6E
100
AcDbEntity
  8
0
100
AcDbBlockEnd
  0
BLOCK
  5
92
330
90
100
AcDbEntity
  8
0
100
AcDbBlockBegin
  2
2_2_3_16_Disc_0_in_070679_4
 70
     2
 10
0.0
 20
0.0
 30
0.0
  3
2_2_3_16_Disc_0_in_070679_4
  1

  0
ATTDEF
  5
94
330
90
100
AcDbEntity
  8
AM_6
100
AcDbText
 10
6.9685
 20
1.375
 30
0.0
 40
0.5
  1
S-2000 -Disc -Inch
100
AcDbAttributeDefinition
  3

  2
NN
 70
     8
280
     0
  0
ATTDEF
  5
95
330
90
100
AcDbEntity
  8
AM_6
100
AcDbText
 10
6.9685
 20
0.875
 30
0.0
 40
0.5
  1
S-2000 Bearings
100
AcDbAttributeDefinition
  3

  2
NT
 70
     8
280
     0
  0
ATTDEF
  5
96
330
90
100
AcDbEntity
  8
AM_6
100
AcDbText
 10
6.9685
 20
0.375
 30
0.0
 40
0.5
  1
2-3/16-Disc
100
AcDbAttributeDefinition
  3

  2
NB
 70
     8
280
     0
  0
ATTDEF
  5
97
330
90
100
AcDbEntity
  8
AM_6
100
AcDbText
 10
6.9685
 20
-0.125
 30
0.0
 40
0.5
  1
$SS.-Disc
100
AcDbAttributeDefinition
  3

  2
NBSYN
 70
     8
280
     0
  0
ATTDEF
  5
98
330
90
100
AcDbEntity
  8
AM_6
100
AcDbText
 10
6.9685
 20
-0.625
 30
0.0
 40
0.5
  1
2-3/16-Disc
100
AcDbAttributeDefinition
  3

  2
LINA
 70
     8
280
     0
  0
ATTDEF
  5
99
330
90
100
AcDbEntity
  8
AM_6
100
AcDbText
 10
6.9685
 20
-1.125
 30
0.0
 40
0.5
  1
2-3/16
100
AcDbAttributeDefinition
  3

  2
SS
 70
     8
280
     0
  0
ATTDEF
  5
9A
330
90
100
AcDbEntity
  8
AM_6
100
AcDbText
 10
6.9685
 20
-1.625
 30
0.0
 40
0.5
  1
2.62
100
AcDbAttributeDefinition
  3

  2
CC
 70
     8
280
     0
  0
ATTDEF
  5
9B
330
90
100
AcDbEntity
  8
AM_6
100
AcDbText
 10
6.9685
 20
-2.125
 30
0.0
 40
0.5
  1
0.41
100
AcDbAttributeDefinition
  3

  2
CSD
 70
     8
280
     0
  0
ATTDEF
  5
9C
330
90
100
AcDbEntity
  8
AM_6
100
AcDbText
 10
6.9685
 20
-2.625
 30
0.0
 40
0.5
  1
2.187500
100
AcDbAttributeDefinition
  3

  2
SS1
 70
     8
280
     0
  0
ATTDEF
  5
9D
330
90
100
AcDbEntity
  8
AM_6
100
AcDbText
 10
6.9685
 20
-3.125
 30
0.0
 40
0.5
  1
3.9370
100
AcDbAttributeDefinition
  3

  2
A
 70
     8
280
     0
  0
ATTDEF
  5
9E
330
90
100
AcDbEntity
  8
AM_6
100
AcDbText
 10
6.9685
 20
-3.625
 30
0.0
 40
0.5
  1
1-3/64
100
AcDbAttributeDefinition
  3

  2
B
 70
     8
280
     0
  0
ATTDEF
  5
9F
330
90
100
AcDbEntity
  8
AM_6
100
AcDbText
 10
6.9685
 20
-4.125
 30
0.0
 40
0.5
  1
1.046875
100
AcDbAttributeDefinition
  3

  2
B1
 70
     8
280
     0
  0
ATTDEF
  5
A0
330
90
100
AcDbEntity
  8
AM_6
100
AcDbText
 10
6.9685
 20
-4.625
 30
0.0
 40
0.5
  1
2-15/16
100
AcDbAttributeDefinition
  3

  2
C
 70
     8
280
     0
  0
ATTDEF
  5
A1
330
90
100
AcDbEntity
  8
AM_6
100
AcDbText
 10
6.9685
 20
-5.125
 30
0.0
 40
0.5
  1
2.937500
100
AcDbAttributeDefinition
  3

  2
C1
 70
     8
280
     0
  0
ATTDEF
  5
A2
330
90
100
AcDbEntity
  8
AM_6
100
AcDbText
 10
6.9685
 20
-5.625
 30
0.0
 40
0.5
  1
1.050
100
AcDbAttributeDefinition
  3

  2
D
 70
     8
280
     0
  0
ATTDEF
  5
A3
330
90
100
AcDbEntity
  8
AM_6
100
AcDbText
 10
6.9685
 20
-6.125
 30
0.0
 40
0.5
  1
3-21/32
100
AcDbAttributeDefinition
  3

  2
E
 70
     8
280
     0
  0
ATTDEF
  5
A4
330
90
100
AcDbEntity
  8
AM_6
100
AcDbText
 10
6.9685
 20
-6.625
 30
0.0
 40
0.5
  1
3.656250
100
AcDbAttributeDefinition
  3

  2
E1
 70
     8
280
     0
  0
ATTDEF
  5
A5
330
90
100
AcDbEntity
  8
AM_6
100
AcDbText
 10
6.9685
 20
-7.125
 30
0.0
 40
0.5
  1
0.317
100
AcDbAttributeDefinition
  3

  2
F
 70
     8
280
     0
  0
ATTDEF
  5
A6
330
90
100
AcDbEntity
  8
AM_6
100
AcDbText
 10
6.9685
 20
-7.625
 30
0.0
 40
0.5
  1
baldor
100
AcDbAttributeDefinition
  3

  2
COMPANY
 70
     8
280
     0
  0
LINE
  5
A9
330
90
100
AcDbEntity
  8
AM_9
100
AcDbLine
 10
1.31
 20
1.28125
 30
0.0
 11
1.31
 21
1.375
 31
0.0
  0
LINE
  5
AA
330
90
100
AcDbEntity
  8
AM_9
100
AcDbLine
 10
-1.31
 20
1.375
 30
0.0
 11
-1.31
 21
1.28125
 31
0.0
  0
LINE
  5
AB
330
90
100
AcDbEntity
  8
AM_9
100
AcDbLine
 10
1.87475
 20
0.9749999999999999
 30
0.0
 11
1.87475
 21
1.28125
 31
0.0
  0
LINE
  5
AC
330
90
100
AcDbEntity
  8
AM_9
100
AcDbLine
 10
-1.87475
 20
1.28125
 30
0.0
 11
-1.87475
 21
0.9749999999999999
 31
0.0
  0
LINE
  5
AD
330
90
100
AcDbEntity
  8
AM_9
100
AcDbLine
 10
-1.87475
 20
1.375
 30
0.0
 11
1.874749999996762
 21
1.375
 31
0.0
  0
ARC
  5
AE
330
90
100
AcDbEntity
  8
AM_9
100
AcDbCircle
 10
1.87475
 20
1.28125
 30
0.0
 40
0.09375
100
AcDbArc
 50
0.0
 51
90.0
  0
ARC
  5
AF
330
90
100
AcDbEntity
  8
AM_9
100
AcDbCircle
 10
-1.87475
 20
1.28125
 30
0.0
 40
0.09375
100
AcDbArc
 50
90.0
 51
180.0
  0
LINE
  5
B0
330
90
100
AcDbEntity
  8
AM_9
100
AcDbLine
 10
-1.9685
 20
0.9749999999999999
 30
0.0
 11
1.9685
 21
0.9749999999999999
 31
0.0
  0
LINE
  5
B1
330
90
100
AcDbEntity
  8
AM_9
100
AcDbLine
 10
-1.9685
 20
1.28125
 30
0.0
 11
1.9685
 21
1.28125
 31
0.0
  0
LINE
  5
B2
330
90
100
AcDbEntity
  8
AM_9
100
AcDbLine
 10
1.9685
 20
0.9749999999999999
 30
0.0
 11
1.9685
 21
1.28125
 31
0.0
  0
LINE
  5
B3
330
90
100
AcDbEntity
  8
AM_9
100
AcDbLine
 10
-1.9685
 20
1.28125
 30
0.0
 11
-1.9685
 21
0.9749999999999999
 31
0.0
  0
ENDBLK
  5
93
330
90
100
AcDbEntity
  8
0
100
AcDbBlockEnd
  0
BLOCK
  5
B6
330
B4
100
AcDbEntity
  8
0
100
AcDbBlockBegin
  2
3_2_3_16CS2i_0_in_070679_4
 70
     2
 10
0.0
 20
0.0
 30
0.0
  3
3_2_3_16CS2i_0_in_070679_4
  1

  0
ATTDEF
  5
B8
330
B4
100
AcDbEntity
  8
AM_6
100
AcDbText
 10
6.875
 20
-0.6784999999999999
 30
0.0
 40
0.5
  1
S-2000 Collar -Inch
100
AcDbAttributeDefinition
  3

  2
NN
 70
     8
280
     0
  0
ATTDEF
  5
B9
330
B4
100
AcDbEntity
  8
AM_6
100
AcDbText
 10
6.875
 20
-1.1785
 30
0.0
 40
0.5
  1
S-2000 Bearings
100
AcDbAttributeDefinition
  3

  2
NT
 70
     8
280
     0
  0
ATTDEF
  5
BA
330
B4
100
AcDbEntity
  8
AM_6
100
AcDbText
 10
6.875
 20
-1.6785
 30
0.0
 40
0.5
  1
2-3/16CS2i
100
AcDbAttributeDefinition
  3

  2
NB
 70
     8
280
     0
  0
ATTDEF
  5
BB
330
B4
100
AcDbEntity
  8
AM_6
100
AcDbText
 10
6.875
 20
-2.1785
 30
0.0
 40
0.5
  1
$BORE.CS2i
100
AcDbAttributeDefinition
  3

  2
NBSYN
 70
     8
280
     0
  0
ATTDEF
  5
BC
330
B4
100
AcDbEntity
  8
AM_6
100
AcDbText
 10
6.875
 20
-2.6785
 30
0.0
 40
0.5
  1
2-3/16CS2i
100
AcDbAttributeDefinition
  3

  2
LINA
 70
     8
280
     0
  0
ATTDEF
  5
BD
330
B4
100
AcDbEntity
  8
AM_6
100
AcDbText
 10
6.875
 20
-3.1785
 30
0.0
 40
0.5
  1
2-3/16
100
AcDbAttributeDefinition
  3

  2
BORE
 70
     8
280
     0
  0
ATTDEF
  5
BE
330
B4
100
AcDbEntity
  8
AM_6
100
AcDbText
 10
6.875
 20
-3.6785
 30
0.0
 40
0.5
  1
2.187500
100
AcDbAttributeDefinition
  3

  2
BORE1
 70
     8
280
     0
  0
ATTDEF
  5
BF
330
B4
100
AcDbEntity
  8
AM_6
100
AcDbText
 10
6.875
 20
-4.1785
 30
0.0
 40
0.5
  1
3-3/4
100
AcDbAttributeDefinition
  3

  2
L1
 70
     8
280
     0
  0
ATTDEF
  5
C0
330
B4
100
AcDbEntity
  8
AM_6
100
AcDbText
 10
6.875
 20
-4.6785
 30
0.0
 40
0.5
  1
3.75000
100
AcDbAttributeDefinition
  3

  2
L
 70
     8
280
     0
  0
ATTDEF
  5
C1
330
B4
100
AcDbEntity
  8
AM_6
100
AcDbText
 10
6.875
 20
-5.1785
 30
0.0
 40
0.5
  1
3.65625
100
AcDbAttributeDefinition
  3

  2
L2
 70
     8
280
     0
  0
ATTDEF
  5
C2
330
B4
100
AcDbEntity
  8
AM_6
100
AcDbText
 10
6.875
 20
-5.6785
 30
0.0
 40
0.5
  1
3.75
100
AcDbAttributeDefinition
  3

  2
A
 70
     8
280
     0
  0
ATTDEF
  5
C3
330
B4
100
AcDbEntity
  8
AM_6
100
AcDbText
 10
6.875
 20
-6.1785
 30
0.0
 40
0.5
  1
1.66
100
AcDbAttributeDefinition
  3

  2
B
 70
     8
280
     0
  0
ATTDEF
  5
C4
330
B4
100
AcDbEntity
  8
AM_6
100
AcDbText
 10
6.875
 20
-6.6785
 30
0.0
 40
0.5
  1
2.62
100
AcDbAttributeDefinition
  3

  2
C
 70
     8
280
     0
  0
ATTDEF
  5
C5
330
B4
100
AcDbEntity
  8
AM_6
100
AcDbText
 10
6.875
 20
-7.1785
 30
0.0
 40
0.5
  1
3.81
100
AcDbAttributeDefinition
  3

  2
D
 70
     8
280
     0
  0
ATTDEF
  5
C6
330
B4
100
AcDbEntity
  8
AM_6
100
AcDbText
 10
6.875
 20
-7.6785
 30
0.0
 40
0.5
  1
0.41
100
AcDbAttributeDefinition
  3

  2
E
 70
     8
280
     0
  0
ATTDEF
  5
C7
330
B4
100
AcDbEntity
  8
AM_6
100
AcDbText
 10
6.875
 20
-8.1785
 30
0.0
 40
0.5
  1
0.317
100
AcDbAttributeDefinition
  3

  2
F
 70
     8
280
     0
  0
ATTDEF
  5
C8
330
B4
100
AcDbEntity
  8
AM_6
100
AcDbText
 10
6.875
 20
-8.6785
 30
0.0
 40
0.5
  1
3/8-16
100
AcDbAttributeDefinition
  3

  2
CS
 70
     8
280
     0
  0
ATTDEF
  5
C9
330
B4
100
AcDbEntity
  8
AM_6
100
AcDbText
 10
6.875
 20
-9.1785
 30
0.0
 40
0.5
  1
0.3750
100
AcDbAttributeDefinition
  3

  2
NDM
 70
     8
280
     0
  0
ATTDEF
  5
CA
330
B4
100
AcDbEntity
  8
AM_6
100
AcDbText
 10
6.875
 20
-9.6785
 30
0.0
 40
0.5
  1
0.3070
100
AcDbAttributeDefinition
  3

  2
KDM
 70
     8
280
     0
  0
ATTDEF
  5
CB
330
B4
100
AcDbEntity
  8
AM_6
100
AcDbText
 10
6.875
 20
-10.1785
 30
0.0
 40
0.5
  1
1
100
AcDbAttributeDefinition
  3

  2
DD
 70
     8
280
     0
  0
ATTDEF
  5
CC
330
B4
100
AcDbEntity
  8
AM_6
100
AcDbText
 10
6.875
 20
-10.6785
 30
0.0
 40
0.5
  1
baldor
100
AcDbAttributeDefinition
  3

  2
COMPANY
 70
     8
280
     0
  0
LINE
  5
CD
330
B4
100
AcDbEntity
  8
AM_9
100
AcDbLine
 10
1.225563850703691
 20
-0.8595777354678221
 30
0.0
 11
1.217730804683094
 21
-0.8498076822411809
 31
0.0
  0
LINE
  5
CE
330
B4
100
AcDbEntity
  8
AM_9
100
AcDbLine
 10
1.217816328964345
 20
-1.141085644470063
 30
0.0
 11
1.225563850703691
 21
-1.131422264532177
 31
0.0
  0
LWPOLYLINE
  5
CF
330
B4
100
AcDbEntity
  8
AM_9
100
AcDbPolyline
 90
       26
 70
     0
 43
0.0
 10
1.217684314164586
 20
-0.8497496956455176
 10
1.216999396072269
 20
-0.8489096928570703
 10
1.206362002735438
 20
-0.8390817706221803
 10
1.19468364102338
 20
-0.8338579159082086
 10
1.181775253773751
 20
-0.833461035959137
 10
1.16838690396558
 20
-0.8380944244189178
 10
1.154820036961259
 20
-0.8478302234453635
 10
1.141698668648096
 20
-0.8623821778929861
 10
1.12979606196759
 20
-0.8811114805471888
 10
1.119434091176485
 20
-0.9037406006762148
 10
1.111592513900957
 20
-0.928299513172281
 10
1.106115373294208
 20
-0.9551405960750727
 10
1.103518187254809
 20
-0.9813068790595092
 10
1.103419024349801
 20
-1.007913312255015
 10
1.10569528589723
 20
-1.032858590402661
 10
1.110111606136304
 20
-1.056772864413716
 10
1.116550127683316
 20
-1.079271781918626
 10
1.124630728156065
 20
-1.099580400446549
 10
1.134619270852658
 20
-1.118228298023223
 10
1.145646884395766
 20
-1.133588966392302
 10
1.158137890744344
 20
-1.146024895961858
 10
1.170906775726575
 20
-1.154155558172997
 10
1.184122051604662
 20
-1.15783772390218
 10
1.196798082246531
 20
-1.156568765370067
 10
1.208773773828
 20
-1.150161891818041
 10
1.217685908410276
 20
-1.14124831614948
  0
LWPOLYLINE
  5
D0
330
B4
100
AcDbEntity
  8
AM_9
100
AcDbPolyline
 90
        7
 70
     0
 43
0.0
 10
1.250316389556263
 20
-0.9954999999999995
 10
1.249881487022084
 20
-0.9747840041108466
 10
1.248175629209625
 20
-0.9498454899562548
 10
1.245216622848759
 20
-0.9264207879622611
 10
1.241041179679522
 20
-0.9048175490326127
 10
1.23685100938551
 20
-0.8892005411986187
 10
1.231937313881441
 20
-0.8752397954003346
  0
LWPOLYLINE
  5
D1
330
B4
100
AcDbEntity
  8
AM_9
100
AcDbPolyline
 90
        8
 70
     0
 43
0.0
 10
1.220863310230543
 20
-1.136965615659159
 10
1.22886418038631
 20
-1.12279549681806
 10
1.236632271926409
 20
-1.102513127851825
 10
1.242516554667284
 20
-1.079424217417115
 10
1.246803816034648
 20
-1.053454832298562
 10
1.24928127022974
 20
-1.027398493763943
 10
1.250293238592868
 20
-1.000314561680349
 10
1.250316389556263
 20
-0.9954999999999995
  0
LWPOLYLINE
  5
D2
330
B4
100
AcDbEntity
  8
AM_9
100
AcDbPolyline
 90
        3
 70
     0
 43
0.0
 10
1.217685908410276
 20
-1.14124831614948
 10
1.219566981798516
 20
-1.138792117539707
 10
1.220863310230543
 20
-1.136965615659159
  0
LINE
  5
D3
330
B4
100
AcDbEntity
  8
AM_9
100
AcDbLine
 10
1.195284024933284
 20
-1.14915
 30
0.0
 11
1.656806198120635
 21
-1.14915
 31
0.0
  0
LINE
  5
D4
330
B4
100
AcDbEntity
  8
AM_9
100
AcDbLine
 10
1.668648582102528
 20
-0.8418499999999998
 30
0.0
 11
1.195284024933284
 21
-0.8418499999999998
 31
0.0
  0
ELLIPSE
  5
D5
330
B4
100
AcDbEntity
  8
AM_9
100
AcDbEllipse
 10
1.668648582102515
 20
-0.9955000000000158
 30
0.0
 11
-2.822504710335177E-17
 21
-0.1536500000000172
 31
0.0
210
0.0
220
0.0
230
1.0
 40
0.4226182617406591
 41
3.453316798113944
 42
4.71238898038469
  0
LINE
  5
D6
330
B4
100
AcDbEntity
  8
AM_9
100
AcDbLine
 10
1.660735066362786
 20
-0.8316805369950271
 30
0.0
 11
1.638368756332123
 21
-0.85957773546782
 31
0.0
  0
LWPOLYLINE
  5
D7
330
B4
100
AcDbEntity
  8
AM_9
100
AcDbPolyline
 90
        4
 70
     0
 43
0.0
 10
-0.0545867201468119
 20
-0.8412352417193525
 10
-0.0784268920163274
 20
-0.8505011832843069
 10
-0.10056079052441
 20
-0.8629670526958363
 10
-0.1210596296870884
 20
-0.8788634593545529
  0
LWPOLYLINE
  5
D8
330
B4
100
AcDbEntity
  8
AM_9
100
AcDbPolyline
 90
       33
 70
     0
 43
0.0
 10
-0.1210596296870884
 20
-0.8788634593545529
 10
-0.1380706071265528
 20
-0.8966701157711676
 10
-0.1525342706923626
 20
-0.9173019590924534
 10
-0.1643967438447603
 20
-0.9420863697565763
 10
-0.1718671759439518
 20
-0.9694971891904088
 10
-0.1741232344449831
 20
-0.9951113863322277
 10
-0.1718626982362593
 20
-1.021528432271583
 10
-0.1655966254627791
 20
-1.045597425947526
 10
-0.1552349511698023
 20
-1.06893954382495
 10
-0.1412573633607875
 20
-1.090333282325705
 10
-0.1236562657339956
 20
-1.109739242274472
 10
-0.1024002684883928
 20
-1.126798195922009
 10
-0.0781056686083398
 20
-1.140650268227061
 10
-0.0508998687165548
 20
-1.150863865708289
 10
-0.0216203839008335
 20
-1.156735321434016
 10
0.0085516278986318
 20
-1.157802778927689
 10
0.0393336208691112
 20
-1.15377641594891
 10
0.0684408241020605
 20
-1.14485444446062
 10
0.0963944229988956
 20
-1.130707843527011
 10
0.1203075545524224
 20
-1.112812488178497
 10
0.1413136064491949
 20
-1.090260408416192
 10
0.1565972625778261
 20
-1.066384898216064
 10
0.1676657698532875
 20
-1.039227222146959
 10
0.1730481175155231
 20
-1.013482440638728
 10
0.173844925862247
 20
-0.9863344290798584
 10
0.1702736894798117
 20
-0.9616116484080386
 10
0.1624509144122013
 20
-0.937152034726319
 10
0.150986632057124
 20
-0.9147359880339714
 10
0.1357406240249631
 20
-0.8939016015487251
 10
0.116822232929838
 20
-0.8751573910766541
 10
0.0946425783032141
 20
-0.8592160685789436
 10
0.0691608229352961
 20
-0.8464358508653559
 10
0.0525635472050663
 20
-0.8406216478228471
  0
LINE
  5
D9
330
B4
100
AcDbEntity
  8
AM_9
100
AcDbLine
 10
1.222693918751746
 20
-0.8568131230274956
 30
0.0
 11
1.217684314164586
 21
-0.8497496956455176
 31
0.0
  0
LWPOLYLINE
  5
DA
330
B4
100
AcDbEntity
  8
AM_9
100
AcDbPolyline
 90
        3
 70
     0
 43
0.0
 10
1.231937313881441
 20
-0.8752397954003346
 10
1.224952589298932
 20
-0.8606021573955065
 10
1.222693918751746
 20
-0.8568131230274956
  0
LINE
  5
DB
330
B4
100
AcDbEntity
  8
AM_9
100
AcDbLine
 10
1.31
 20
-1.3125
 30
0.0
 11
1.31
 21
-0.6784999999999999
 31
0.0
  0
LINE
  5
DC
330
B4
100
AcDbEntity
  8
AM_9
100
AcDbLine
 10
-1.31
 20
-0.6784999999999999
 30
0.0
 11
-1.31
 21
-1.3125
 31
0.0
  0
LINE
  5
DD
330
B4
100
AcDbEntity
  8
AM_9
100
AcDbLine
 10
0.15365
 20
-0.9954999999999998
 30
0.0
 11
-0.15365
 21
-0.9954999999999998
 31
0.0
  0
LINE
  5
DE
330
B4
100
AcDbEntity
  8
AM_9
100
AcDbLine
 10
1.71591683909683
 20
-0.9954999999999998
 30
0.0
 11
1.615946645935733
 21
-0.9954999999999998
 31
0.0
  0
LINE
  5
DF
330
B4
100
AcDbEntity
  8
AM_9
100
AcDbLine
 10
-1.875
 20
-0.6784999999999999
 30
0.0
 11
1.875
 21
-0.6784999999999999
 31
0.0
  0
LINE
  5
E0
330
B4
100
AcDbEntity
  8
AM_9
100
AcDbLine
 10
1.875
 20
-0.7656250000000001
 30
0.0
 11
1.875
 21
-0.6784999999999999
 31
0.0
  0
LINE
  5
E1
330
B4
100
AcDbEntity
  8
AM_9
100
AcDbLine
 10
-1.875
 20
-0.6784999999999999
 30
0.0
 11
-1.875
 21
-0.7656250000000001
 31
0.0
  0
LINE
  5
E2
330
B4
100
AcDbEntity
  8
AM_9
100
AcDbLine
 10
0.0967447064155028
 20
-0.8378092523475348
 30
0.0
 11
0.1053574454287433
 21
-0.8439944299784323
 31
0.0
  0
LWPOLYLINE
  5
E3
330
B4
100
AcDbEntity
  8
AM_9
100
AcDbPolyline
 90
        9
 70
     0
 43
0.0
 10
-0.0971715020606241
 20
-0.8380978626814766
 10
-0.0768952656293091
 20
-0.8262241322608321
 10
-0.0474915673137428
 20
-0.8147361158495088
 10
-0.0188980122079816
 20
-0.8090505167307767
 10
0.0111514790280457
 20
-0.808365128966385
 10
0.0391341337019712
 20
-0.8125470779743986
 10
0.0667966569708152
 20
-0.8215760161023741
 10
0.092027384873843
 20
-0.8347365016852814
 10
0.0967447064155028
 20
-0.8378092523475348
  0
LWPOLYLINE
  5
E4
330
B4
100
AcDbEntity
  8
AM_9
100
AcDbPolyline
 90
        3
 70
     0
 43
0.0
 10
-0.1051369299425234
 20
-0.8438262357056358
 10
-0.1029704093318451
 20
-0.8422020543684571
 10
-0.0971715020606241
 20
-0.8380978626814766
  0
ARC
  5
E5
330
B4
100
AcDbEntity
  8
AM_9
100
AcDbCircle
 10
0.0
 20
-0.9954999999999998
 30
0.0
 40
0.1536500000000001
100
AcDbArc
 50
30.77809891719414
 51
149.2219010828059
  0
ELLIPSE
  5
E6
330
B4
100
AcDbEntity
  8
AM_9
100
AcDbEllipse
 10
1.195284024933284
 20
-0.9954999999999997
 30
0.0
 11
-2.822504710334865E-17
 21
-0.1536500000000002
 31
0.0
210
0.0
220
0.0
230
1.0
 40
0.4226182617406986
 41
0.0
 42
6.283185307179586
  0
LWPOLYLINE
  5
E8
330
B4
100
AcDbEntity
  8
AM_4
100
AcDbPolyline
 90
       11
 70
     0
 43
0.0
 10
1.656849998542957
 20
-1.149149999327498
 10
1.64935923158306
 20
-1.148146716688784
 10
1.638291466109967
 20
-1.143047203614805
 10
1.627459803395313
 20
-1.133819800313571
 10
1.617214338916251
 20
-1.120653009545071
 10
1.607919774943726
 20
-1.103980178782845
 10
1.599910109475777
 20
-1.084158694300662
 10
1.593503412558469
 20
-1.061832860650557
 10
1.588981005999465
 20
-1.037598999109214
 10
1.586498691446531
 20
-1.012170305966226
 10
1.586046247263913
 20
-0.9954999999999998
  0
ELLIPSE
  5
E9
330
B4
100
AcDbEntity
  8
AM_4
100
AcDbEllipse
 10
1.668648582102527
 20
-0.9955000000000005
 30
0.0
 11
-2.822504710334875E-17
 21
-0.1536500000000007
 31
0.0
210
0.0
220
0.0
230
1.0
 40
0.4226182617406985
 41
1.570796326794897
 42
3.453316798114131
  0
LWPOLYLINE
  5
EA
330
B4
100
AcDbEntity
  8
AM_4
100
AcDbPolyline
 90
       14
 70
     0
 43
0.0
 10
1.660953052070501
 20
-0.8314086473968096
 10
1.665400118251633
 20
-0.8262241322608319
 10
1.678711108023097
 20
-0.8147361158495088
 10
1.69144615883847
 20
-0.8090221591861
 10
1.704009864618884
 20
-0.8083651289663851
 10
1.715651105535827
 20
-0.8126583221718021
 10
1.726477909908139
 20
-0.8215760161023742
 10
1.736289552648598
 20
-0.8349543477953043
 10
1.744878175070563
 20
-0.852262372346376
 10
1.752356864937151
 20
-0.8738371609930762
 10
1.758342321238348
 20
-0.8984396499179718
 10
1.76295676419834
 20
-0.9267193152097711
 10
1.765894760625679
 20
-0.9567938762564703
 10
1.76719475769525
 20
-0.9954999999999998
  0
LWPOLYLINE
  5
EB
330
B4
100
AcDbEntity
  8
AM_4
100
AcDbPolyline
 90
       20
 70
     0
 43
0.0
 10
0.15365
 20
-0.9954999999999997
 10
0.1515395991881519
 20
-1.020878581085125
 10
0.1450242496564725
 20
-1.04625716217025
 10
0.1346546261703944
 20
-1.069503068523618
 10
0.1201353245703577
 20
-1.091290533406881
 10
0.1026378893883346
 20
-1.109840658393714
 10
0.081686283635517
 20
-1.125637133692954
 10
0.0589983462357651
 20
-1.137371482833742
 10
0.0339445512609399
 20
-1.145353561651678
 10
0.0086983723729996
 20
-1.148903588022121
 10
-0.0175300423312108
 20
-1.148146716688784
 10
-0.042468334342848
 20
-1.143164359539274
 10
-0.0669025809757279
 20
-1.133819800313571
 10
-0.0888176653901712
 20
-1.120878406492663
 10
-0.1088134794556346
 20
-1.103980178782845
 10
-0.1252698961683864
 20
-1.08447064467543
 10
-0.1385939179686963
 20
-1.061832860650557
 10
-0.1476659114004807
 20
-1.03796293807858
 10
-0.1527429978722181
 20
-1.012170305966225
 10
-0.15365
 20
-0.9954999999999997
  0
LWPOLYLINE
  5
EC
330
B4
100
AcDbEntity
  8
AM_4
100
AcDbPolyline
 90
       11
 70
     0
 43
0.0
 10
1.71591683909683
 20
-0.9954999999999998
 10
1.715159463142617
 20
-1.021242001669665
 10
1.712912190944498
 20
-1.046257162170251
 10
1.709183101455433
 20
-1.069818464068364
 10
1.704033921022635
 20
-1.091290533406881
 10
1.697500187906907
 20
-1.110076072959489
 10
1.689711202061004
 20
-1.125637133692954
 10
1.680774652251414
 20
-1.13750015575863
 10
1.67090387148812
 20
-1.145353561651678
 10
1.660342766452992
 20
-1.148908641025081
 10
1.656849998542957
 20
-1.149149999327498
  0
LINE
  5
ED
330
B4
100
AcDbEntity
  8
AM_4
100
AcDbLine
 10
1.828125
 20
-1.206833333333333
 30
0.0
 11
1.828125
 21
-0.9954999999999998
 31
0.0
  0
LINE
  5
EE
330
B4
100
AcDbEntity
  8
AM_4
100
AcDbLine
 10
-1.828125
 20
-0.9954999999999998
 30
0.0
 11
-1.828125
 21
-1.206833333333333
 31
0.0
  0
LINE
  5
EF
330
B4
100
AcDbEntity
  8
AM_4
100
AcDbLine
 10
-1.722458333333333
 20
-1.3125
 30
0.0
 11
1.722458333333192
 21
-1.3125
 31
0.0
  0
LINE
  5
F0
330
B4
100
AcDbEntity
  8
AM_4
100
AcDbLine
 10
-1.828125
 20
-1.206833333333333
 30
0.0
 11
1.828125
 21
-1.206833333333333
 31
0.0
  0
ARC
  5
F1
330
B4
100
AcDbEntity
  8
AM_4
100
AcDbCircle
 10
1.722458333333335
 20
-1.206833333333334
 30
0.0
 40
0.1056666666666655
100
AcDbArc
 50
270.0
 51
0.0
  0
ARC
  5
F2
330
B4
100
AcDbEntity
  8
AM_4
100
AcDbCircle
 10
-1.722458333333334
 20
-1.206833333333334
 30
0.0
 40
0.1056666666666657
100
AcDbArc
 50
180.0
 51
270.0
  0
LINE
  5
F3
330
B4
100
AcDbEntity
  8
AM_4
100
AcDbLine
 10
1.71591683909683
 20
-0.9954999999999998
 30
0.0
 11
1.875
 21
-0.9954999999999998
 31
0.0
  0
LINE
  5
F4
330
B4
100
AcDbEntity
  8
AM_4
100
AcDbLine
 10
0.15365
 20
-0.9954999999999997
 30
0.0
 11
1.615946645935733
 21
-0.9954999999999998
 31
0.0
  0
LWPOLYLINE
  5
F5
330
B4
100
AcDbEntity
  8
AM_4
100
AcDbPolyline
 90
        8
 70
     0
 43
0.0
 10
1.615946645935732
 20
-0.9954999999999998
 10
1.616666315552194
 20
-0.9720487476728941
 10
1.618800089558374
 20
-0.9489373211729832
 10
1.623993164036208
 20
-0.9182606613516437
 10
1.631874999123903
 20
-0.8889487974527611
 10
1.641516687387491
 20
-0.8639885404485015
 10
1.653245458117283
 20
-0.8422020543684571
 10
1.660953052070501
 20
-0.8314086473968096
  0
LINE
  5
F6
330
B4
100
AcDbEntity
  8
AM_4
100
AcDbLine
 10
1.875
 20
-0.9954999999999998
 30
0.0
 11
1.875
 21
-0.7656250000000001
 31
0.0
  0
LINE
  5
F7
330
B4
100
AcDbEntity
  8
AM_4
100
AcDbLine
 10
-1.875
 20
-0.7656250000000001
 30
0.0
 11
-1.875
 21
-0.9954999999999998
 31
0.0
  0
LINE
  5
F8
330
B4
100
AcDbEntity
  8
AM_4
100
AcDbLine
 10
-1.875
 20
-0.9954999999999998
 30
0.0
 11
-0.15365
 21
-0.9954999999999997
 31
0.0
  0
LWPOLYLINE
  5
F9
330
B4
100
AcDbEntity
  8
AM_4
100
AcDbPolyline
 90
        7
 70
     0
 43
0.0
 10
0.1069071251423075
 20
-0.8451917271882774
 10
0.1154068158291718
 20
-0.8522623723463759
 10
0.1358485487913043
 20
-0.873525438991017
 10
0.1530620304673608
 20
-0.8984396499179718
 10
0.1662962895631634
 20
-0.9263227844304369
 10
0.1750804621692249
 20
-0.95679387625647
 10
0.1789417607470981
 20
-0.9954999999999997
  0
LINE
  5
FA
330
B4
100
AcDbEntity
  8
AM_4
100
AcDbLine
 10
0.1053574454287433
 20
-0.8439944299784323
 30
0.0
 11
0.1069071251423075
 21
-0.8451917271882774
 31
0.0
  0
LINE
  5
FB
330
B4
100
AcDbEntity
  8
AM_4
100
AcDbLine
 10
-0.1064642723272612
 20
-0.8448468214306007
 30
0.0
 11
-0.1051369299425234
 21
-0.8438262357056358
 31
0.0
  0
LWPOLYLINE
  5
FC
330
B4
100
AcDbEntity
  8
AM_4
100
AcDbPolyline
 90
        7
 70
     0
 43
0.0
 10
-0.1789417607470984
 20
-0.9954999999999997
 10
-0.1775544043661239
 20
-0.9722186605864914
 10
-0.1733262199381616
 20
-0.9489373211729832
 10
-0.1630273679391601
 20
-0.9182606613516436
 10
-0.1471956902587711
 20
-0.8889487974527611
 10
-0.1274859376883898
 20
-0.8639885404485015
 10
-0.1064642723272612
 20
-0.8448468214306007
  0
ARC
  5
FD
330
B4
100
AcDbEntity
  8
AM_4
100
AcDbCircle
 10
0.0000000000000005
 20
-0.9954999999999998
 30
0.0
 40
0.1536500000000005
100
AcDbArc
 50
149.221901082806
 51
180.0
  0
ARC
  5
FE
330
B4
100
AcDbEntity
  8
AM_4
100
AcDbCircle
 10
0.000000000000002
 20
-0.9954999999999992
 30
0.0
 40
0.153649999999998
100
AcDbArc
 50
0.0
 51
30.77809891719431
  0
CIRCLE
  5
100
330
B4
100
AcDbEntity
  8
AM_5
100
AcDbCircle
 10
0.0000000000000001
 20
-0.9954999999999996
 30
0.0
 40
0.1875
  0
ENDBLK
  5
B7
330
B4
100
AcDbEntity
  8
0
100
AcDbBlockEnd
  0
BLOCK
  5
103
330
101
100
AcDbEntity
  8
0
100
AcDbBlockBegin
  2
4_070007i_0_in_070679_4
 70
     2
 10
0.0
 20
0.0
 30
0.0
  3
4_070007i_0_in_070679_4
  1

  0
ATTDEF
  5
105
330
101
100
AcDbEntity
  8
AM_6
100
AcDbText
 10
6.9685
 20
1.771875
 30
0.0
 40
0.5
  1
S-2000 Insert -Inch
100
AcDbAttributeDefinition
  3

  2
NN
 70
     8
280
     0
  0
ATTDEF
  5
106
330
101
100
AcDbEntity
  8
AM_6
100
AcDbText
 10
6.9685
 20
1.271875
 30
0.0
 40
0.5
  1
S-2000 Bearings
100
AcDbAttributeDefinition
  3

  2
NT
 70
     8
280
     0
  0
ATTDEF
  5
107
330
101
100
AcDbEntity
  8
AM_6
100
AcDbText
 10
6.9685
 20
0.7718750000000001
 30
0.0
 40
0.5
  1
070007i
100
AcDbAttributeDefinition
  3

  2
NB
 70
     8
280
     0
  0
ATTDEF
  5
108
330
101
100
AcDbEntity
  8
AM_6
100
AcDbText
 10
6.9685
 20
0.2718750000000001
 30
0.0
 40
0.5
  1
$PN.i
100
AcDbAttributeDefinition
  3

  2
NBSYN
 70
     8
280
     0
  0
ATTDEF
  5
109
330
101
100
AcDbEntity
  8
AM_6
100
AcDbText
 10
6.9685
 20
-0.2281249999999999
 30
0.0
 40
0.5
  1
070007i
100
AcDbAttributeDefinition
  3

  2
LINA
 70
     8
280
     0
  0
ATTDEF
  5
10A
330
101
100
AcDbEntity
  8
AM_6
100
AcDbText
 10
6.9685
 20
-0.7281249999999999
 30
0.0
 40
0.5
  1
2-3/16
100
AcDbAttributeDefinition
  3

  2
SS
 70
     8
280
     0
  0
ATTDEF
  5
10B
330
101
100
AcDbEntity
  8
AM_6
100
AcDbText
 10
6.9685
 20
-1.228125
 30
0.0
 40
0.5
  1
2.62
100
AcDbAttributeDefinition
  3

  2
CC
 70
     8
280
     0
  0
ATTDEF
  5
10C
330
101
100
AcDbEntity
  8
AM_6
100
AcDbText
 10
6.9685
 20
-1.728125
 30
0.0
 40
0.5
  1
2.187500
100
AcDbAttributeDefinition
  3

  2
SS1
 70
     8
280
     0
  0
ATTDEF
  5
10D
330
101
100
AcDbEntity
  8
AM_6
100
AcDbText
 10
6.9685
 20
-2.228125
 30
0.0
 40
0.5
  1
070007
100
AcDbAttributeDefinition
  3

  2
PN
 70
     8
280
     0
  0
ATTDEF
  5
10E
330
101
100
AcDbEntity
  8
AM_6
100
AcDbText
 10
6.9685
 20
-2.728125
 30
0.0
 40
0.5
  1
INS-S2-203R
100
AcDbAttributeDefinition
  3

  2
DESCRIPTION
 70
     8
280
     0
  0
ATTDEF
  5
10F
330
101
100
AcDbEntity
  8
AM_6
100
AcDbText
 10
6.9685
 20
-3.228125
 30
0.0
 40
0.5
  1
Contact Seal
100
AcDbAttributeDefinition
  3

  2
ST
 70
     8
280
     0
  0
ATTDEF
  5
110
330
101
100
AcDbEntity
  8
AM_6
100
AcDbText
 10
6.9685
 20
-3.728125
 30
0.0
 40
0.5
  1
1
100
AcDbAttributeDefinition
  3

  2
ST1
 70
     8
280
     0
  0
ATTDEF
  5
111
330
101
100
AcDbEntity
  8
AM_6
100
AcDbText
 10
6.9685
 20
-4.228125
 30
0.0
 40
0.5
  1
3.9370
100
AcDbAttributeDefinition
  3

  2
A
 70
     8
280
     0
  0
ATTDEF
  5
112
330
101
100
AcDbEntity
  8
AM_6
100
AcDbText
 10
6.9685
 20
-4.728125
 30
0.0
 40
0.5
  1
1-3/64
100
AcDbAttributeDefinition
  3

  2
B
 70
     8
280
     0
  0
ATTDEF
  5
113
330
101
100
AcDbEntity
  8
AM_6
100
AcDbText
 10
6.9685
 20
-5.228125
 30
0.0
 40
0.5
  1
2-15/16
100
AcDbAttributeDefinition
  3

  2
C
 70
     8
280
     0
  0
ATTDEF
  5
114
330
101
100
AcDbEntity
  8
AM_6
100
AcDbText
 10
6.9685
 20
-5.728125
 30
0.0
 40
0.5
  1
1.050
100
AcDbAttributeDefinition
  3

  2
D
 70
     8
280
     0
  0
ATTDEF
  5
115
330
101
100
AcDbEntity
  8
AM_6
100
AcDbText
 10
6.9685
 20
-6.228125
 30
0.0
 40
0.5
  1
3-21/32
100
AcDbAttributeDefinition
  3

  2
E
 70
     8
280
     0
  0
ATTDEF
  5
116
330
101
100
AcDbEntity
  8
AM_6
100
AcDbText
 10
6.9685
 20
-6.728125
 30
0.0
 40
0.5
  1
0.40625
100
AcDbAttributeDefinition
  3

  2
F
 70
     8
280
     0
  0
ATTDEF
  5
117
330
101
100
AcDbEntity
  8
AM_6
100
AcDbText
 10
6.9685
 20
-7.228125
 30
0.0
 40
0.5
  1
1
100
AcDbAttributeDefinition
  3

  2
DD
 70
     8
280
     0
  0
ATTDEF
  5
118
330
101
100
AcDbEntity
  8
AM_6
100
AcDbText
 10
6.9685
 20
-7.728125
 30
0.0
 40
0.5
  1
baldor
100
AcDbAttributeDefinition
  3

  2
COMPANY
 70
     8
280
     0
  0
LINE
  5
119
330
101
100
AcDbEntity
  8
AM_9
100
AcDbLine
 10
1.187263201018011
 20
-0.7905000000000002
 30
0.0
 11
0.991156738268439
 21
-0.7905000000000002
 31
0.0
  0
LINE
  5
11A
330
101
100
AcDbEntity
  8
AM_9
100
AcDbLine
 10
0.991230190518359
 20
-1.2005
 30
0.0
 11
1.187263201018011
 21
-1.2005
 31
0.0
  0
LWPOLYLINE
  5
11B
330
101
100
AcDbEntity
  8
AM_9
100
AcDbPolyline
 90
       21
 70
     0
 43
0.0
 10
0.9912807621024943
 20
-0.7905000005984847
 10
0.9817677725008773
 20
-0.7916859199922381
 10
0.9665998142692884
 20
-0.7981382279818148
 10
0.9512845801542088
 20
-0.8099533828574725
 10
0.9363041615986458
 20
-0.8269663117474236
 10
0.9223478978037626
 20
-0.8485818481375225
 10
0.9098607191976659
 20
-0.8746960509860255
 10
0.8996338345651546
 20
-0.9042440824655769
 10
0.8922170350969668
 20
-0.936511661326747
 10
0.8879804805530923
 20
-0.9705002721646956
 10
0.8872097125363625
 20
-1.004710247936746
 10
0.8897971433870957
 20
-1.038656960913158
 10
0.8955967158644388
 20
-1.071092788977798
 10
0.9042565973765444
 20
-1.101435554185032
 10
0.9155249208420962
 20
-1.129135862579423
 10
0.9287415117412195
 20
-1.15313019505583
 10
0.9435329512696529
 20
-1.17294781651697
 10
0.959080215576122
 20
-1.187737562367084
 10
0.9746693329036318
 20
-1.196949829596604
 10
0.9898184761551077
 20
-1.200471255466082
 10
0.9912667978224846
 20
-1.200499999263455
  0
LWPOLYLINE
  5
11C
330
101
100
AcDbEntity
  8
AM_9
100
AcDbPolyline
 90
       11
 70
     0
 43
0.0
 10
0.9912667978224846
 20
-1.200499999263455
 10
1.003802918371051
 20
-1.198185776092236
 10
1.016521393800403
 20
-1.19034402015236
 10
1.027673597480799
 20
-1.177135464307554
 10
1.037179259771529
 20
-1.159002689581855
 10
1.045069455505341
 20
-1.136027891358673
 10
1.051248706954836
 20
-1.109123733254016
 10
1.055800005746392
 20
-1.078687443334288
 10
1.058759614214757
 20
-1.045835312723606
 10
1.059948640093625
 20
-1.02086813203633
 10
1.060343758159011
 20
-0.9955
  0
LWPOLYLINE
  5
11D
330
101
100
AcDbEntity
  8
AM_9
100
AcDbPolyline
 90
       12
 70
     0
 43
0.0
 10
1.085999105122733
 20
-0.9954999999999995
 10
1.08616176233639
 20
-0.985156547522722
 10
1.088739689646789
 20
-0.9511487838366424
 10
1.094409877144046
 20
-0.9185933848840413
 10
1.102847170245061
 20
-0.8881786009262109
 10
1.113789093062649
 20
-0.860557946768477
 10
1.126645538598998
 20
-0.8366990306221197
 10
1.141018527423363
 20
-0.8171567660265918
 10
1.156192642157241
 20
-0.8026609173794466
 10
1.171520680293251
 20
-0.7937372377154547
 10
1.186529515648283
 20
-0.7905073301942238
 10
1.187258774405259
 20
-0.7905000002675812
  0
LWPOLYLINE
  5
11E
330
101
100
AcDbEntity
  8
AM_9
100
AcDbPolyline
 90
       11
 70
     0
 43
0.0
 10
1.187270413385766
 20
-1.200499999289625
 10
1.177563519845764
 20
-1.199257559447961
 10
1.16249332011631
 20
-1.192673984341719
 10
1.147413980184277
 20
-1.180673897281876
 10
1.13281099579651
 20
-1.1634521331698
 10
1.1193126935682
 20
-1.14159848665385
 10
1.107383045598463
 20
-1.115355437236501
 10
1.097685640642459
 20
-1.085712331163461
 10
1.09071833186564
 20
-1.053421540617336
 10
1.086793840225052
 20
-1.019458571218725
 10
1.085999105122733
 20
-0.9954999999999995
  0
LWPOLYLINE
  5
11F
330
101
100
AcDbEntity
  8
AM_9
100
AcDbPolyline
 90
        3
 70
     0
 43
0.0
 10
1.258783166090581
 20
-0.9687700060393718
 10
1.258870822737971
 20
-0.9712909284356943
 10
1.259272592436419
 20
-0.9955
  0
LWPOLYLINE
  5
120
330
101
100
AcDbEntity
  8
AM_9
100
AcDbPolyline
 90
       10
 70
     0
 43
0.0
 10
1.187258774405259
 20
-0.7905000002675812
 10
1.200580534138511
 20
-0.7930947362227
 10
1.213491982702566
 20
-0.8012745437757589
 10
1.2249567819925
 20
-0.8148664910309431
 10
1.234844940827152
 20
-0.8334143954151157
 10
1.243118787522108
 20
-0.8567244823830545
 10
1.249669078492284
 20
-0.883928635743626
 10
1.25451480876272
 20
-0.9145119095218577
 10
1.257665892774119
 20
-0.9474270540677914
 10
1.258783166090581
 20
-0.9687700060393718
  0
LWPOLYLINE
  5
121
330
101
100
AcDbEntity
  8
AM_9
100
AcDbPolyline
 90
       11
 70
     0
 43
0.0
 10
1.060343758159011
 20
-0.9955
 10
1.059626033961841
 20
-0.9614268099521176
 10
1.057461561710305
 20
-0.9283223779707325
 10
1.053789698130665
 20
-0.8971580661710177
 10
1.048547038566564
 20
-0.8687289046335933
 10
1.041552926499962
 20
-0.8435816476045254
 10
1.032824503607823
 20
-0.8226814809167172
 10
1.022247645105918
 20
-0.8065695613029021
 10
1.01000597544279
 20
-0.7958290801845066
 10
0.9964392565428248
 20
-0.7908963995904186
 10
0.9912807621024943
 20
-0.7905000005984847
  0
LINE
  5
122
330
101
100
AcDbEntity
  8
AM_9
100
AcDbLine
 10
-1.09375
 20
1.625
 30
0.0
 11
-1.09375
 21
-1.3125
 31
0.0
  0
LINE
  5
123
330
101
100
AcDbEntity
  8
AM_9
100
AcDbLine
 10
1.09375
 20
-1.3125
 30
0.0
 11
1.09375
 21
1.625
 31
0.0
  0
LWPOLYLINE
  5
124
330
101
100
AcDbEntity
  8
AM_9
100
AcDbPolyline
 90
       11
 70
     0
 43
0.0
 10
1.258564708839695
 20
-1.027599975518454
 10
1.258465837888455
 20
-1.029676491401275
 10
1.25604770321035
 20
-1.062883885282032
 10
1.251978988272666
 20
-1.094151355867768
 10
1.246239731656208
 20
-1.122663968963368
 10
1.238719545099824
 20
-1.147780176973312
 10
1.22948190780081
 20
-1.168628295183939
 10
1.218495110255592
 20
-1.184631762130507
 10
1.205971968495443
 20
-1.19527206533389
 10
1.192238957187316
 20
-1.200132720287751
 10
1.187270413385766
 20
-1.200499999289625
  0
LINE
  5
125
330
101
100
AcDbEntity
  8
AM_9
100
AcDbLine
 10
1.259272592436419
 20
-0.9955
 30
0.0
 11
1.258564708839695
 21
-1.027599975518454
 31
0.0
  0
LWPOLYLINE
  5
126
330
101
100
AcDbEntity
  8
AM_9
100
AcDbPolyline
 90
        7
 70
     0
 43
0.0
 10
0.1270259934238562
 20
-0.8345981759125074
 10
0.1505419316099102
 20
-0.8563521404147475
 10
0.1719791576847949
 20
-0.8839286357436263
 10
0.1881198969557809
 20
-0.9140389395517934
 10
0.1992836969483429
 20
-0.9474270540677914
 10
0.203544767014277
 20
-0.9711170588094115
 10
0.2050000000000001
 20
-0.9955
  0
LWPOLYLINE
  5
127
330
101
100
AcDbEntity
  8
AM_9
100
AcDbPolyline
 90
        3
 70
     0
 43
0.0
 10
0.1092458767443889
 20
-0.8220343307327073
 10
0.12551197865683
 20
-0.8334143954151157
 10
0.1270259934238562
 20
-0.8345981759125074
  0
LWPOLYLINE
  5
128
330
101
100
AcDbEntity
  8
AM_9
100
AcDbPolyline
 90
        9
 70
     0
 43
0.0
 10
-0.1092992478717448
 20
-0.8220679544759075
 10
-0.1014919388188296
 20
-0.8173865913110556
 10
-0.0695563671712618
 20
-0.8026609173794466
 10
-0.0366688362279888
 20
-0.7938061814291649
 10
-0.0017335875807116
 20
-0.7905073301942238
 10
0.0319009665459805
 20
-0.7929973374658196
 10
0.0655856093551429
 20
-0.8012745437757591
 10
0.0964814979249858
 20
-0.8146234659825908
 10
0.1092458767443889
 20
-0.8220343307327073
  0
LINE
  5
129
330
101
100
AcDbEntity
  8
AM_9
100
AcDbLine
 10
-0.1266787355966622
 20
-0.8343246360400233
 30
0.0
 11
-0.1092992478717448
 21
-0.8220679544759075
 31
0.0
  0
LWPOLYLINE
  5
12A
330
101
100
AcDbEntity
  8
AM_9
100
AcDbPolyline
 90
        8
 70
     0
 43
0.0
 10
-0.2050000000000001
 20
-0.9954999999999995
 10
-0.2047633457483493
 20
-0.9856525517040213
 10
-0.2001448715926319
 20
-0.951148783836642
 10
-0.1902039849299882
 20
-0.9190314174529643
 10
-0.1746628675501592
 20
-0.8881786009262109
 10
-0.1546295751160205
 20
-0.8609091589318242
 10
-0.1296427866278933
 20
-0.8366990306221197
 10
-0.1266787355966622
 20
-0.8343246360400233
  0
LWPOLYLINE
  5
12B
330
101
100
AcDbEntity
  8
AM_9
100
AcDbPolyline
 90
       20
 70
     0
 43
0.0
 10
0.2050000000000001
 20
-0.9955
 10
0.2022123957651323
 20
-1.029191942641016
 10
0.1936089150950906
 20
-1.062883885282032
 10
0.1799288980105058
 20
-1.093737424949583
 10
0.1607928014479619
 20
-1.122663968963368
 10
0.1375900678653783
 20
-1.147467013607561
 10
0.1097797495292406
 20
-1.168628295183939
 10
0.0795037556076581
 20
-1.184455425548667
 10
0.0460013251138731
 20
-1.19527206533389
 10
0.0124067901828451
 20
-1.200124220358585
 10
-0.0225356821021837
 20
-1.199257559447961
 10
-0.0555671354045747
 20
-1.192825349265952
 10
-0.0879524176213551
 20
-1.180673897281876
 10
-0.1171300288064872
 20
-1.163742552143599
 10
-0.1438062314277615
 20
-1.14159848665385
 10
-0.1660134283604555
 20
-1.115768622691074
 10
-0.1840835009066647
 20
-1.085712331163461
 10
-0.1965010689564304
 20
-1.053915151279272
 10
-0.2035951543263181
 20
-1.019458571218725
 10
-0.2050000000000001
 20
-0.9954999999999995
  0
LINE
  5
12C
330
101
100
AcDbEntity
  8
AM_9
100
AcDbLine
 10
-1.31
 20
-0.27225
 30
0.0
 11
-1.31
 21
-1.3125
 31
0.0
  0
LINE
  5
12D
330
101
100
AcDbEntity
  8
AM_9
100
AcDbLine
 10
1.31
 20
-1.3125
 30
0.0
 11
1.31
 21
-0.27225
 31
0.0
  0
ARC
  5
12E
330
101
100
AcDbEntity
  8
AM_9
100
AcDbCircle
 10
-1.470112500000001
 20
1.317562500000001
 30
0.0
 40
0.1046874999999992
100
AcDbArc
 50
94.85104803597085
 51
180.0
  0
ARC
  5
12F
330
101
100
AcDbEntity
  8
AM_9
100
AcDbCircle
 10
1.470112500000001
 20
1.317562500000001
 30
0.0
 40
0.1046874999999989
100
AcDbArc
 50
0.0
 51
85.14895196402925
  0
LINE
  5
130
330
101
100
AcDbEntity
  8
AM_9
100
AcDbLine
 10
-1.5748
 20
1.3175625
 30
0.0
 11
-1.5748
 21
1.0984375
 31
0.0
  0
LINE
  5
131
330
101
100
AcDbEntity
  8
AM_9
100
AcDbLine
 10
1.5748
 20
1.0984375
 30
0.0
 11
1.5748
 21
1.3175625
 31
0.0
  0
LINE
  5
132
330
101
100
AcDbEntity
  8
AM_9
100
AcDbLine
 10
1.5748
 20
1.3175625
 30
0.0
 11
-1.5748
 21
1.3175625
 31
0.0
  0
LINE
  5
133
330
101
100
AcDbEntity
  8
AM_9
100
AcDbLine
 10
-1.5748
 20
0.0515624999999998
 30
0.0
 11
-1.5748
 21
-0.1675625000000001
 31
0.0
  0
LINE
  5
134
330
101
100
AcDbEntity
  8
AM_9
100
AcDbLine
 10
1.5748
 20
-0.1675625000000001
 30
0.0
 11
1.5748
 21
0.0515624999999998
 31
0.0
  0
LINE
  5
135
330
101
100
AcDbEntity
  8
AM_9
100
AcDbLine
 10
1.4701125
 20
-0.2722500000000002
 30
0.0
 11
-1.4701125
 21
-0.2722500000000002
 31
0.0
  0
ARC
  5
136
330
101
100
AcDbEntity
  8
AM_9
100
AcDbCircle
 10
-1.470112499999999
 20
-0.1675624999999998
 30
0.0
 40
0.1046875000000005
100
AcDbArc
 50
179.9999991462263
 51
270.0
  0
ARC
  5
137
330
101
100
AcDbEntity
  8
AM_9
100
AcDbCircle
 10
1.470112499999999
 20
-0.1675625000000001
 30
0.0
 40
0.1046875000000001
100
AcDbArc
 50
270.0
 51
0.0
  0
LINE
  5
138
330
101
100
AcDbEntity
  8
AM_9
100
AcDbLine
 10
1.5748
 20
-0.1675625000000001
 30
0.0
 11
-1.5748
 21
-0.1675625000000001
 31
0.0
  0
LINE
  5
139
330
101
100
AcDbEntity
  8
AM_9
100
AcDbLine
 10
-1.88976
 20
0.6273437500000025
 30
0.0
 11
-1.88976
 21
0.5226562499999974
 31
0.0
  0
LINE
  5
13A
330
101
100
AcDbEntity
  8
AM_9
100
AcDbLine
 10
1.88976
 20
0.5226562499999974
 30
0.0
 11
1.88976
 21
0.6273437500000025
 31
0.0
  0
LINE
  5
13B
330
101
100
AcDbEntity
  8
AM_9
100
AcDbLine
 10
-1.9685
 20
0.99375
 30
0.0
 11
-1.9685
 21
0.6728043101959936
 31
0.0
  0
LINE
  5
13C
330
101
100
AcDbEntity
  8
AM_9
100
AcDbLine
 10
1.9685
 20
0.6728043101959936
 30
0.0
 11
1.9685
 21
0.99375
 31
0.0
  0
LINE
  5
13D
330
101
100
AcDbEntity
  8
AM_9
100
AcDbLine
 10
1.8638125
 20
0.0515624999999998
 30
0.0
 11
-1.8638125
 21
0.0515624999999998
 31
0.0
  0
ARC
  5
13E
330
101
100
AcDbEntity
  8
AM_9
100
AcDbCircle
 10
-1.8638125
 20
0.1562499999999991
 30
0.0
 40
0.1046874999999994
100
AcDbArc
 50
179.9999991462263
 51
270.0
  0
ARC
  5
13F
330
101
100
AcDbEntity
  8
AM_9
100
AcDbCircle
 10
1.8638125
 20
0.1562499999999991
 30
0.0
 40
0.1046874999999993
100
AcDbArc
 50
270.0
 51
0.0000008537736463
  0
LINE
  5
140
330
101
100
AcDbEntity
  8
AM_9
100
AcDbLine
 10
-1.9685
 20
0.4771956898040064
 30
0.0
 11
-1.9685
 21
0.1562499999999994
 31
0.0
  0
LINE
  5
141
330
101
100
AcDbEntity
  8
AM_9
100
AcDbLine
 10
1.9685
 20
0.1562499999999994
 30
0.0
 11
1.9685
 21
0.4771956898040064
 31
0.0
  0
LINE
  5
142
330
101
100
AcDbEntity
  8
AM_9
100
AcDbLine
 10
1.9685
 20
0.1562499999999994
 30
0.0
 11
-1.9685
 21
0.1562499999999994
 31
0.0
  0
LINE
  5
143
330
101
100
AcDbEntity
  8
AM_9
100
AcDbLine
 10
1.88976
 20
0.6273437500000025
 30
0.0
 11
1.9685
 21
0.6728043101959936
 31
0.0
  0
LINE
  5
144
330
101
100
AcDbEntity
  8
AM_9
100
AcDbLine
 10
-1.968499999999999
 20
0.6728043101959936
 30
0.0
 11
-1.88976
 21
0.6273437500000025
 31
0.0
  0
LINE
  5
145
330
101
100
AcDbEntity
  8
AM_9
100
AcDbLine
 10
1.9685
 20
0.6728043101959936
 30
0.0
 11
-1.968499999999999
 21
0.6728043101959936
 31
0.0
  0
LINE
  5
146
330
101
100
AcDbEntity
  8
AM_9
100
AcDbLine
 10
1.88976
 20
0.6273437500000025
 30
0.0
 11
-1.88976
 21
0.6273437500000025
 31
0.0
  0
LINE
  5
147
330
101
100
AcDbEntity
  8
AM_9
100
AcDbLine
 10
-1.88976
 20
0.5226562499999974
 30
0.0
 11
-1.9685
 21
0.4771956898040064
 31
0.0
  0
LINE
  5
148
330
101
100
AcDbEntity
  8
AM_9
100
AcDbLine
 10
1.968499999999999
 20
0.4771956898040064
 30
0.0
 11
1.88976
 21
0.5226562499999974
 31
0.0
  0
LINE
  5
149
330
101
100
AcDbEntity
  8
AM_9
100
AcDbLine
 10
1.88976
 20
0.5226562499999974
 30
0.0
 11
-1.88976
 21
0.5226562499999974
 31
0.0
  0
LINE
  5
14A
330
101
100
AcDbEntity
  8
AM_9
100
AcDbLine
 10
1.968499999999999
 20
0.4771956898040064
 30
0.0
 11
-1.9685
 21
0.4771956898040064
 31
0.0
  0
LINE
  5
14B
330
101
100
AcDbEntity
  8
AM_9
100
AcDbLine
 10
1.863812501559965
 20
1.0984375
 30
0.0
 11
-1.863812501559965
 21
1.0984375
 31
0.0
  0
ARC
  5
14C
330
101
100
AcDbEntity
  8
AM_9
100
AcDbCircle
 10
-1.86381250000005
 20
0.9937500000000502
 30
0.0
 40
0.1046874999999498
100
AcDbArc
 50
90.0
 51
180.0
  0
ARC
  5
14D
330
101
100
AcDbEntity
  8
AM_9
100
AcDbCircle
 10
1.8638125000002
 20
0.9937500000002
 30
0.0
 40
0.1046874999998
100
AcDbArc
 50
0.0
 51
90.0
  0
LINE
  5
14E
330
101
100
AcDbEntity
  8
AM_9
100
AcDbLine
 10
1.9685
 20
0.99375
 30
0.0
 11
-1.9685
 21
0.99375
 31
0.0
  0
LINE
  5
151
330
101
100
AcDbEntity
  8
AM_7
100
AcDbLine
 10
0.0
 20
1.771875
 30
0.0
 11
0.0
 21
-1.459375
 31
0.0
  0
LINE
  5
152
330
101
100
AcDbEntity
  8
AM_4
100
AcDbLine
 10
-1.31
 20
1.625
 30
0.0
 11
-1.31
 21
1.42225
 31
0.0
  0
LINE
  5
153
330
101
100
AcDbEntity
  8
AM_4
100
AcDbLine
 10
1.31
 20
1.42225
 30
0.0
 11
1.31
 21
1.625
 31
0.0
  0
LINE
  5
154
330
101
100
AcDbEntity
  8
AM_4
100
AcDbLine
 10
1.31
 20
1.625
 30
0.0
 11
-1.31
 21
1.625
 31
0.0
  0
LINE
  5
155
330
101
100
AcDbEntity
  8
AM_4
100
AcDbLine
 10
1.470112500000001
 20
1.42225
 30
0.0
 11
-1.470112500000001
 21
1.42225
 31
0.0
  0
ARC
  5
156
330
101
100
AcDbEntity
  8
AM_4
100
AcDbCircle
 10
-1.470112500000001
 20
1.317562500000069
 30
0.0
 40
0.104687499999931
100
AcDbArc
 50
90.0
 51
94.85104803597355
  0
ARC
  5
157
330
101
100
AcDbEntity
  8
AM_4
100
AcDbCircle
 10
1.470112500000001
 20
1.317562500000069
 30
0.0
 40
0.104687499999931
100
AcDbArc
 50
85.14895196402645
 51
90.0
  0
ENDBLK
  5
104
330
101
100
AcDbEntity
  8
0
100
AcDbBlockEnd
  0
BLOCK
  5
15A
330
158
100
AcDbEntity
  8
0
100
AcDbBlockBegin
  2
5_405015E_Inch_0_in_070679_4
 70
     2
 10
0.0
 20
0.0
 30
0.0
  3
5_405015E_Inch_0_in_070679_4
  1

  0
ATTDEF
  5
15C
330
158
100
AcDbEntity
  8
AM_6
100
AcDbText
 10
5.252590742770462
 20
-0.3368200265771152
 30
0.0
 40
0.5
  1
405015E -Inch
100
AcDbAttributeDefinition
  3

  2
NN
 70
     8
280
     0
  0
ATTDEF
  5
15D
330
158
100
AcDbEntity
  8
AM_6
100
AcDbText
 10
5.252590742770462
 20
-0.8368200265771152
 30
0.0
 40
0.5
  1
Grease Fitting
100
AcDbAttributeDefinition
  3

  2
NT
 70
     8
280
     0
  0
ATTDEF
  5
15E
330
158
100
AcDbEntity
  8
AM_6
100
AcDbText
 10
5.252590742770462
 20
-1.336820026577115
 30
0.0
 40
0.5
  1
405015E-Inch
100
AcDbAttributeDefinition
  3

  2
NB
 70
     8
280
     0
  0
ATTDEF
  5
15F
330
158
100
AcDbEntity
  8
AM_6
100
AcDbText
 10
5.252590742770462
 20
-1.836820026577115
 30
0.0
 40
0.5
  1
$MN.-Inch
100
AcDbAttributeDefinition
  3

  2
NBSYN
 70
     8
280
     0
  0
ATTDEF
  5
160
330
158
100
AcDbEntity
  8
AM_6
100
AcDbText
 10
5.252590742770462
 20
-2.336820026577115
 30
0.0
 40
0.5
  1
405015E
100
AcDbAttributeDefinition
  3

  2
LINA
 70
     8
280
     0
  0
ATTDEF
  5
161
330
158
100
AcDbEntity
  8
AM_6
100
AcDbText
 10
5.252590742770462
 20
-2.836820026577115
 30
0.0
 40
0.5
  1
405015E
100
AcDbAttributeDefinition
  3

  2
MN
 70
     8
280
     0
  0
ATTDEF
  5
162
330
158
100
AcDbEntity
  8
AM_6
100
AcDbText
 10
5.252590742770462
 20
-3.336820026577115
 30
0.0
 40
0.5
  1
1/8 x 27PTF
100
AcDbAttributeDefinition
  3

  2
T
 70
     8
280
     0
  0
ATTDEF
  5
163
330
158
100
AcDbEntity
  8
AM_6
100
AcDbText
 10
5.252590742770462
 20
-3.836820026577115
 30
0.0
 40
0.5
  1
baldor
100
AcDbAttributeDefinition
  3

  2
COMPANY
 70
     8
280
     0
  0
LINE
  5
164
330
158
100
AcDbEntity
  8
AM_9
100
AcDbLine
 10
0.1262953713852306
 20
-0.8353929635059544
 30
0.0
 11
0.1262953713852306
 21
-0.7644959665047427
 31
0.0
  0
LINE
  5
165
330
158
100
AcDbEntity
  8
AM_9
100
AcDbLine
 10
-0.1262953713852306
 20
-0.8353929635059544
 30
0.0
 11
-0.1262953713852306
 21
-0.7644959665047427
 31
0.0
  0
LWPOLYLINE
  5
166
330
158
100
AcDbEntity
  8
AM_9
100
AcDbPolyline
 90
        3
 70
     0
 43
0.0
 10
0.1262953713852306
 20
-0.7644959665047427
 10
0.0634316146914367
 20
-0.7587342347605689
 10
0.0
 20
-0.7566431948161266
  0
LWPOLYLINE
  5
167
330
158
100
AcDbEntity
  8
AM_9
100
AcDbPolyline
 90
        4
 70
     0
 43
0.0
 10
0.0
 20
-0.7566431948161266
 10
-0.0483998160558989
 20
-0.7578708384085745
 10
-0.0967996321117978
 20
-0.7613911033306051
 10
-0.1262953713852306
 20
-0.7644959665047427
  0
LWPOLYLINE
  5
168
330
158
100
AcDbEntity
  8
AM_9
100
AcDbPolyline
 90
        3
 70
     0
 43
0.0
 10
-0.1262953713852306
 20
-0.7644959665047427
 10
-0.1577272497321276
 20
-0.7315134296234941
 10
-0.1894430570778459
 20
-0.7019556948161266
  0
LWPOLYLINE
  5
169
330
158
100
AcDbEntity
  8
AM_9
100
AcDbPolyline
 90
        3
 70
     0
 43
0.0
 10
0.1894430570778459
 20
-0.7019556948161266
 10
0.1578692142315383
 20
-0.7313721733768962
 10
0.1262953713852306
 20
-0.7644959665047427
  0
LWPOLYLINE
  5
16A
330
158
100
AcDbEntity
  8
AM_9
100
AcDbPolyline
 90
        4
 70
     0
 43
0.0
 10
-0.1018632613522791
 20
-0.8380120294993141
 10
-0.0967996321117978
 20
-0.838497826680092
 10
-0.0485424412477544
 20
-0.8420109317146369
 10
0.0
 20
-0.8432457351945705
  0
LINE
  5
16B
330
158
100
AcDbEntity
  8
AM_9
100
AcDbLine
 10
-0.1050087569988762
 20
-0.8377000178092995
 30
0.0
 11
-0.1018632613522791
 21
-0.8380120294993141
 31
0.0
  0
LINE
  5
16C
330
158
100
AcDbEntity
  8
AM_9
100
AcDbLine
 10
0.101866192704947
 20
-0.8380117423491296
 30
0.0
 11
0.1050474083588161
 21
-0.8376961357664547
 31
0.0
  0
LWPOLYLINE
  5
16D
330
158
100
AcDbEntity
  8
AM_9
100
AcDbPolyline
 90
        3
 70
     0
 43
0.0
 10
0.0
 20
-0.8432457351945705
 10
0.0631476856926153
 20
-0.841173006633801
 10
0.101866192704947
 20
-0.8380117423491296
  0
LWPOLYLINE
  5
16E
330
158
100
AcDbEntity
  8
AM_9
100
AcDbPolyline
 90
        3
 70
     0
 43
0.0
 10
-0.1894430570778459
 20
-0.7019556948161266
 10
-0.2210168999241536
 20
-0.6766846733768962
 10
-0.2525907427704612
 20
-0.6551209665047428
  0
LWPOLYLINE
  5
16F
330
158
100
AcDbEntity
  8
AM_9
100
AcDbPolyline
 90
        3
 70
     0
 43
0.0
 10
0.2525907427704612
 20
-0.6551209665047428
 10
0.2211588644235643
 20
-0.6765800398976436
 10
0.1894430570778459
 20
-0.7019556948161266
  0
LINE
  5
170
330
158
100
AcDbEntity
  8
AM_9
100
AcDbLine
 10
-0.1321931418159853
 20
-0.3710341293110314
 30
0.0
 11
-0.1621706131788416
 21
-0.3922314025945325
 31
0.0
  0
LINE
  5
171
330
158
100
AcDbEntity
  8
AM_9
100
AcDbLine
 10
0.1621706131788416
 20
-0.3922314025945325
 30
0.0
 11
0.1321931418159853
 21
-0.3710341293110314
 31
0.0
  0
LINE
  5
172
330
158
100
AcDbEntity
  8
AM_9
100
AcDbLine
 10
-0.1985852938306408
 20
-0.4477755341296823
 30
0.0
 11
-0.2057184028850727
 21
-0.6454119940384971
 31
0.0
  0
LINE
  5
173
330
158
100
AcDbEntity
  8
AM_9
100
AcDbLine
 10
0.2057184028850727
 20
-0.6454119940384971
 30
0.0
 11
0.1985852938306408
 21
-0.4477755341296823
 31
0.0
  0
LINE
  5
174
330
158
100
AcDbEntity
  8
AM_9
100
AcDbLine
 10
0.1017810272422101
 20
-0.8377035689804136
 30
0.0
 11
0.105
 21
-0.8314011743408862
 31
0.0
  0
LINE
  5
175
330
158
100
AcDbEntity
  8
AM_9
100
AcDbLine
 10
-0.105
 20
-0.8314011743408862
 30
0.0
 11
-0.1017810272422101
 21
-0.8377035689804136
 31
0.0
  0
ELLIPSE
  5
176
330
158
100
AcDbEntity
  8
AM_9
100
AcDbEllipse
 10
0.0
 20
-0.8248034025919366
 30
0.0
 11
-0.1049999999999998
 21
1.285879139104718E-17
 31
0.0
210
0.0
220
0.0
230
1.0
 40
0.5000000000000072
 41
0.0
 42
3.141592653589793
  0
ELLIPSE
  5
177
330
158
100
AcDbEntity
  8
AM_9
100
AcDbEllipse
 10
0.0
 20
-0.8507841647054697
 30
0.0
 11
-0.1050000000000003
 21
1.285879139104724E-17
 31
0.0
210
0.0
220
0.0
230
1.0
 40
0.5000000000000019
 41
5.990342535451012
 42
9.717620732497954
  0
LINE
  5
178
330
158
100
AcDbEntity
  8
AM_9
100
AcDbLine
 10
0.0976523208201058
 20
-0.8307229024533188
 30
0.0
 11
0.1098343496897825
 21
-0.8219360493264688
 31
0.0
  0
LINE
  5
179
330
158
100
AcDbEntity
  8
AM_9
100
AcDbLine
 10
-0.1098343496897825
 20
-0.8219360493264688
 30
0.0
 11
-0.0976523208201058
 21
-0.8307229024533188
 31
0.0
  0
ELLIPSE
  5
17A
330
158
100
AcDbEntity
  8
AM_9
100
AcDbEllipse
 10
-0.0000000000000023
 20
-0.7968767867208819
 30
0.0
 11
-0.1188200907348999
 21
1.455126437928933E-17
 31
0.0
210
0.0
220
0.0
230
1.0
 40
0.4999999999999665
 41
0.2500328930986804
 42
2.891559760491123
  0
ELLIPSE
  5
17B
330
158
100
AcDbEntity
  8
AM_9
100
AcDbEllipse
 10
0.0
 20
-0.7497347604825415
 30
0.0
 11
-0.1725340532830152
 21
2.112932760969635E-17
 31
0.0
210
0.0
220
0.0
230
1.0
 40
0.5000000000000002
 41
0.6061451401950846
 42
2.535447513394709
  0
ELLIPSE
  5
17C
330
158
100
AcDbEntity
  8
AM_9
100
AcDbEllipse
 10
-0.0000000000000009
 20
-0.7338707351945667
 30
0.0
 11
-0.2187500000000002
 21
2.678914873134838E-17
 31
0.0
210
0.0
220
0.0
230
1.0
 40
0.5000000000000168
 41
1.065244638251239
 42
2.076348015338561
  0
ELLIPSE
  5
17D
330
158
100
AcDbEntity
  8
AM_9
100
AcDbEllipse
 10
-0.0000000000040655
 20
-0.7338707352031596
 30
0.0
 11
-0.2137499999918557
 21
2.617682533077728E-17
 31
0.0
210
0.0
220
0.0
230
1.0
 40
0.4999999999794884
 41
1.042972124161271
 42
2.098620529461384
  0
ELLIPSE
  5
17E
330
158
100
AcDbEntity
  8
AM_9
100
AcDbEllipse
 10
0.0
 20
-0.9027456889325364
 30
0.0
 11
-0.1349999999999996
 21
1.653273178848922E-17
 31
0.0
210
0.0
220
0.0
230
1.0
 40
0.4999999999999966
 41
0.2354336045415586
 42
2.906159049048235
  0
ELLIPSE
  5
17F
330
158
100
AcDbEntity
  8
AM_9
100
AcDbEllipse
 10
0.0000000000000017
 20
-0.4177714628132481
 30
0.0
 11
-0.1619028724722672
 21
1.982738345459241E-17
 31
0.0
210
0.0
220
0.0
230
1.0
 40
0.4999999999999956
 41
0.0
 42
6.283185307179586
  0
ELLIPSE
  5
180
330
158
100
AcDbEntity
  8
AM_9
100
AcDbEllipse
 10
0.0000000000000002
 20
-0.6472681948161254
 30
0.0
 11
-0.2187499999999993
 21
2.678914873134827E-17
 31
0.0
210
0.0
220
0.0
230
1.0
 40
0.4999999999999954
 41
0.0
 42
6.283185307179586
  0
ELLIPSE
  5
181
330
158
100
AcDbEntity
  8
AM_9
100
AcDbEllipse
 10
-0.0000000000002476
 20
-0.6472681948122363
 30
0.0
 11
-0.2057518972233172
 21
2.519734023530306E-17
 31
0.0
210
0.0
220
0.0
230
1.0
 40
0.4999999999997993
 41
0.0
 42
6.283185307179586
  0
ELLIPSE
  5
182
330
158
100
AcDbEntity
  8
AM_9
100
AcDbEllipse
 10
-0.0000000000010026
 20
-0.449567372739623
 30
0.0
 11
-0.198617626782218
 21
2.432364408930869E-17
 31
0.0
210
0.0
220
0.0
230
1.0
 40
0.5000000000000944
 41
0.0
 42
6.283185307179586
  0
LWPOLYLINE
  5
183
330
158
100
AcDbEntity
  8
AM_4
100
AcDbPolyline
 90
        3
 70
     0
 43
0.0
 10
-0.1894430570778459
 20
-0.7885582351945705
 10
-0.1578692142315383
 20
-0.8138292566338009
 10
-0.1262953713852306
 20
-0.8353929635059544
  0
LINE
  5
184
330
158
100
AcDbEntity
  8
AM_4
100
AcDbLine
 10
-0.1262953713852306
 20
-0.8353929635059544
 30
0.0
 11
-0.1050087569988762
 21
-0.8377000178092995
 31
0.0
  0
LWPOLYLINE
  5
185
330
158
100
AcDbEntity
  8
AM_4
100
AcDbPolyline
 90
        3
 70
     0
 43
0.0
 10
0.1262953713852306
 20
-0.8353929635059544
 10
0.1577272497321276
 20
-0.8139338901130535
 10
0.1894430570778459
 20
-0.7885582351945705
  0
LINE
  5
186
330
158
100
AcDbEntity
  8
AM_4
100
AcDbLine
 10
0.1050474083588161
 20
-0.8376961357664547
 30
0.0
 11
0.1262953713852306
 21
-0.8353929635059544
 31
0.0
  0
LWPOLYLINE
  5
187
330
158
100
AcDbEntity
  8
AM_4
100
AcDbPolyline
 90
        3
 70
     0
 43
0.0
 10
0.1894430570778459
 20
-0.7885582351945705
 10
0.2210168999241535
 20
-0.7591417566338009
 10
0.2525907427704612
 20
-0.7260179635059544
  0
LWPOLYLINE
  5
188
330
158
100
AcDbEntity
  8
AM_4
100
AcDbPolyline
 90
        3
 70
     0
 43
0.0
 10
-0.2525907427704612
 20
-0.7260179635059544
 10
-0.2211588644235643
 20
-0.759000500387203
 10
-0.1894430570778459
 20
-0.7885582351945705
  0
LINE
  5
189
330
158
100
AcDbEntity
  8
AM_4
100
AcDbLine
 10
0.105
 20
-0.8314011743408862
 30
0.0
 11
0.1151252948555658
 21
-0.8115769605860721
 31
0.0
  0
LINE
  5
18A
330
158
100
AcDbEntity
  8
AM_4
100
AcDbLine
 10
-0.1151252948555658
 20
-0.8115769605860721
 30
0.0
 11
-0.105
 21
-0.8314011743408862
 31
0.0
  0
ELLIPSE
  5
18B
330
158
100
AcDbEntity
  8
AM_4
100
AcDbEllipse
 10
-0.0000000000000029
 20
-0.7968767867208593
 30
0.0
 11
-0.1188200907349004
 21
1.770557339659619E-9
 31
0.0
210
0.0
220
0.0
230
1.0
 40
0.500000000000015
 41
2.891559788924627
 42
6.533218228712462
  0
ELLIPSE
  5
18C
330
158
100
AcDbEntity
  8
AM_4
100
AcDbEllipse
 10
0.0
 20
-0.8248034025919366
 30
0.0
 11
-0.1049999999999999
 21
1.564621938212794E-9
 31
0.0
210
0.0
220
0.0
230
1.0
 40
0.5000000000000014
 41
3.141592679399361
 42
6.283185332989154
  0
LINE
  5
18D
330
158
100
AcDbEntity
  8
AM_4
100
AcDbLine
 10
-0.105
 20
-0.8248034025919365
 30
0.0
 11
-0.105
 21
-0.8507841647054697
 31
0.0
  0
LINE
  5
18E
330
158
100
AcDbEntity
  8
AM_4
100
AcDbLine
 10
0.105
 20
-0.8507841647054697
 30
0.0
 11
0.105
 21
-0.8248034025919365
 31
0.0
  0
LINE
  5
18F
330
158
100
AcDbEntity
  8
AM_4
100
AcDbLine
 10
0.1098343496897825
 20
-0.8219360493264688
 30
0.0
 11
0.1417971541629018
 21
-0.7988813946846123
 31
0.0
  0
LINE
  5
190
330
158
100
AcDbEntity
  8
AM_4
100
AcDbLine
 10
-0.1417971541629018
 20
-0.7988813946846123
 30
0.0
 11
-0.1098343496897825
 21
-0.8219360493264688
 31
0.0
  0
ELLIPSE
  5
191
330
158
100
AcDbEntity
  8
AM_4
100
AcDbEllipse
 10
0.0000000000000026
 20
-0.7497347604825443
 30
0.0
 11
-0.1725340532830128
 21
2.112932760969605E-17
 31
0.0
210
0.0
220
0.0
230
1.0
 40
0.4999999999999958
 41
2.535447513394723
 42
6.889330447374639
  0
LWPOLYLINE
  5
192
330
158
100
AcDbEntity
  8
AM_4
100
AcDbPolyline
 90
        3
 70
     0
 43
0.0
 10
0.2525907427704612
 20
-0.7260179635059544
 10
0.2211588644235643
 20
-0.7045588901130534
 10
0.1894430570778459
 20
-0.6791832351945705
  0
LINE
  5
193
330
158
100
AcDbEntity
  8
AM_4
100
AcDbLine
 10
0.2525907427704612
 20
-0.7260179635059544
 30
0.0
 11
0.2525907427704612
 21
-0.6551209665047428
 31
0.0
  0
LWPOLYLINE
  5
194
330
158
100
AcDbEntity
  8
AM_4
100
AcDbPolyline
 90
        3
 70
     0
 43
0.0
 10
0.1894430570778459
 20
-0.5925806948161266
 10
0.2210168999241536
 20
-0.6219971733768962
 10
0.2525907427704612
 20
-0.6551209665047428
  0
LWPOLYLINE
  5
195
330
158
100
AcDbEntity
  8
AM_4
100
AcDbPolyline
 90
        3
 70
     0
 43
0.0
 10
0.1262953713852306
 20
-0.5457459665047428
 10
0.1577272497321276
 20
-0.5672050398976436
 10
0.1894430570778459
 20
-0.5925806948161266
  0
ELLIPSE
  5
196
330
158
100
AcDbEntity
  8
AM_4
100
AcDbEllipse
 10
0.0000000000000011
 20
-0.7338707351945716
 30
0.0
 11
-0.2187500000000019
 21
2.678914873134859E-17
 31
0.0
210
0.0
220
0.0
230
1.0
 40
0.5000000000000012
 41
2.076348015338561
 42
7.34842994543081
  0
LWPOLYLINE
  5
197
330
158
100
AcDbEntity
  8
AM_4
100
AcDbPolyline
 90
        3
 70
     0
 43
0.0
 10
0.1894430570778459
 20
-0.6791832351945705
 10
0.1578692142315383
 20
-0.649766756633801
 10
0.1262953713852306
 20
-0.6166429635059543
  0
LWPOLYLINE
  5
198
330
158
100
AcDbEntity
  8
AM_4
100
AcDbPolyline
 90
        4
 70
     0
 43
0.0
 10
0.0
 20
-0.6244957351945705
 10
-0.0483998160558989
 20
-0.6232680916021226
 10
-0.0967996321117978
 20
-0.6197478266800921
 10
-0.1262953713852306
 20
-0.6166429635059543
  0
LWPOLYLINE
  5
199
330
158
100
AcDbEntity
  8
AM_4
100
AcDbPolyline
 90
        3
 70
     0
 43
0.0
 10
0.1262953713852306
 20
-0.6166429635059543
 10
0.0634316146914367
 20
-0.6224046952501283
 10
0.0
 20
-0.6244957351945705
  0
LINE
  5
19A
330
158
100
AcDbEntity
  8
AM_4
100
AcDbLine
 10
0.1262953713852306
 20
-0.6166429635059543
 30
0.0
 11
0.1262953713852306
 21
-0.5457459665047428
 31
0.0
  0
LWPOLYLINE
  5
19B
330
158
100
AcDbEntity
  8
AM_4
100
AcDbPolyline
 90
        3
 70
     0
 43
0.0
 10
0.0
 20
-0.5378931948161266
 10
0.0631476856926153
 20
-0.5399659233768962
 10
0.1262953713852306
 20
-0.5457459665047428
  0
LWPOLYLINE
  5
19C
330
158
100
AcDbEntity
  8
AM_4
100
AcDbPolyline
 90
        4
 70
     0
 43
0.0
 10
-0.1262953713852306
 20
-0.5457459665047428
 10
-0.0967996321117978
 20
-0.5426411033306051
 10
-0.0485424412477544
 20
-0.5391279982960602
 10
0.0
 20
-0.5378931948161266
  0
LINE
  5
19D
330
158
100
AcDbEntity
  8
AM_4
100
AcDbLine
 10
-0.2525907427704612
 20
-0.7260179635059544
 30
0.0
 11
-0.2525907427704612
 21
-0.6551209665047428
 31
0.0
  0
LWPOLYLINE
  5
19E
330
158
100
AcDbEntity
  8
AM_4
100
AcDbPolyline
 90
        3
 70
     0
 43
0.0
 10
-0.1894430570778459
 20
-0.6791832351945705
 10
-0.2210168999241536
 20
-0.7044542566338009
 10
-0.2525907427704612
 20
-0.7260179635059544
  0
LWPOLYLINE
  5
19F
330
158
100
AcDbEntity
  8
AM_4
100
AcDbPolyline
 90
        3
 70
     0
 43
0.0
 10
-0.1262953713852306
 20
-0.6166429635059543
 10
-0.1577272497321276
 20
-0.649625500387203
 10
-0.1894430570778459
 20
-0.6791832351945705
  0
LINE
  5
1A0
330
158
100
AcDbEntity
  8
AM_4
100
AcDbLine
 10
-0.1262953713852306
 20
-0.6166429635059543
 30
0.0
 11
-0.1262953713852306
 21
-0.5457459665047428
 31
0.0
  0
LWPOLYLINE
  5
1A1
330
158
100
AcDbEntity
  8
AM_4
100
AcDbPolyline
 90
        3
 70
     0
 43
0.0
 10
-0.1894430570778459
 20
-0.5925806948161266
 10
-0.1578692142315383
 20
-0.5673096733768962
 10
-0.1262953713852306
 20
-0.5457459665047428
  0
LWPOLYLINE
  5
1A2
330
158
100
AcDbEntity
  8
AM_4
100
AcDbPolyline
 90
        3
 70
     0
 43
0.0
 10
-0.2525907427704612
 20
-0.6551209665047428
 10
-0.2211588644235643
 20
-0.6221384296234942
 10
-0.1894430570778459
 20
-0.5925806948161266
  0
ELLIPSE
  5
1A3
330
158
100
AcDbEntity
  8
AM_4
100
AcDbEllipse
 10
-0.0000000000000004
 20
-0.7338707351945701
 30
0.0
 11
-0.2137500000000004
 21
2.617682533177472E-17
 31
0.0
210
0.0
220
0.0
230
1.0
 40
0.500000000000001
 41
2.098620529422327
 42
7.326157431347056
  0
LINE
  5
1A4
330
158
100
AcDbEntity
  8
AM_4
100
AcDbLine
 10
-0.1005298463144155
 20
-0.8356287201392419
 30
0.0
 11
-0.1292526595471057
 21
-0.8832601173473862
 31
0.0
  0
LINE
  5
1A5
330
158
100
AcDbEntity
  8
AM_4
100
AcDbLine
 10
0.1292526595471057
 20
-0.8832601173473862
 30
0.0
 11
0.1005298463144155
 21
-0.8356287201392419
 31
0.0
  0
ELLIPSE
  5
1A6
330
158
100
AcDbEntity
  8
AM_4
100
AcDbEllipse
 10
0.0
 20
-0.8507841647054696
 30
0.0
 11
-0.1049999999999999
 21
1.564621938212795E-9
 31
0.0
210
0.0
220
0.0
230
1.0
 40
0.5000000000000033
 41
3.434435453258043
 42
5.990342563390691
  0
LINE
  5
1A7
330
158
100
AcDbEntity
  8
AM_4
100
AcDbLine
 10
0.0998453562378797
 20
-0.9840032836764894
 30
0.0
 11
0.1312757938985219
 21
-0.9184910528241138
 31
0.0
  0
LINE
  5
1A8
330
158
100
AcDbEntity
  8
AM_4
100
AcDbLine
 10
-0.1312757938985219
 20
-0.9184910528241138
 30
0.0
 11
-0.0998453562378797
 21
-0.9840032836764894
 31
0.0
  0
ELLIPSE
  5
1A9
330
158
100
AcDbEntity
  8
AM_4
100
AcDbEllipse
 10
0.0000000000000022
 20
-0.9027456889325447
 30
0.0
 11
-0.1349999999999978
 21
1.653273178848900E-17
 31
0.0
210
0.0
220
0.0
230
1.0
 40
0.4999999999999892
 41
2.906159049048349
 42
6.518618911721022
  0
ELLIPSE
  5
1AA
330
158
100
AcDbEntity
  8
AM_4
100
AcDbEllipse
 10
0.0000000000000001
 20
-0.972027721235291
 30
0.0
 11
-0.1026779019331875
 21
1.257441639456439E-17
 31
0.0
210
0.0
220
0.0
230
1.0
 40
0.4999999999999962
 41
0.0
 42
6.283185307179586
  0
ENDBLK
  5
15B
330
158
100
AcDbEntity
  8
0
100
AcDbBlockEnd
  0
BLOCK
  5
1AD
330
1AB
100
AcDbEntity
  8
0
100
AcDbBlockBegin
  2
6_070679H_0_in_070679_4
 70
     2
 10
0.0
 20
0.0
 30
0.0
  3
6_070679H_0_in_070679_4
  1

  0
ATTDEF
  5
1AF
330
1AB
100
AcDbEntity
  8
AM_6
100
AcDbText
 10
8.562500000000004
 20
1.421875
 30
0.0
 40
0.5
  1
FC-S2 -(Contact Seal)-Housing
100
AcDbAttributeDefinition
  3

  2
NN
 70
     8
280
     0
  0
ATTDEF
  5
1B0
330
1AB
100
AcDbEntity
  8
AM_6
100
AcDbText
 10
8.562500000000004
 20
0.921875
 30
0.0
 40
0.5
  1
S-2000 Piloted Flange Bearing -Inch
100
AcDbAttributeDefinition
  3

  2
NT
 70
     8
280
     0
  0
ATTDEF
  5
1B1
330
1AB
100
AcDbEntity
  8
AM_6
100
AcDbText
 10
8.562500000000004
 20
0.421875
 30
0.0
 40
0.5
  1
070679H
100
AcDbAttributeDefinition
  3

  2
NB
 70
     8
280
     0
  0
ATTDEF
  5
1B2
330
1AB
100
AcDbEntity
  8
AM_6
100
AcDbText
 10
8.562500000000004
 20
-0.078125
 30
0.0
 40
0.5
  1
$PN.H
100
AcDbAttributeDefinition
  3

  2
NBSYN
 70
     8
280
     0
  0
ATTDEF
  5
1B3
330
1AB
100
AcDbEntity
  8
AM_6
100
AcDbText
 10
8.562500000000004
 20
-0.578125
 30
0.0
 40
0.5
  1
070679
100
AcDbAttributeDefinition
  3

  2
LINA
 70
     8
280
     0
  0
ATTDEF
  5
1B4
330
1AB
100
AcDbEntity
  8
AM_6
100
AcDbText
 10
8.562500000000004
 20
-1.078125
 30
0.0
 40
0.5
  1
2-3/16
100
AcDbAttributeDefinition
  3

  2
SS
 70
     8
280
     0
  0
ATTDEF
  5
1B5
330
1AB
100
AcDbEntity
  8
AM_6
100
AcDbText
 10
8.562500000000004
 20
-1.578125
 30
0.0
 40
0.5
  1
070679
100
AcDbAttributeDefinition
  3

  2
PN
 70
     8
280
     0
  0
ATTDEF
  5
1B6
330
1AB
100
AcDbEntity
  8
AM_6
100
AcDbText
 10
8.562500000000004
 20
-2.078125
 30
0.0
 40
0.5
  1
FC-S2-203RE
100
AcDbAttributeDefinition
  3

  2
DESCRIPTION
 70
     8
280
     0
  0
ATTDEF
  5
1B7
330
1AB
100
AcDbEntity
  8
AM_6
100
AcDbText
 10
8.562500000000004
 20
-2.578125
 30
0.0
 40
0.5
  1
Expansion Type
100
AcDbAttributeDefinition
  3

  2
EF
 70
     8
280
     0
  0
ATTDEF
  5
1B8
330
1AB
100
AcDbEntity
  8
AM_6
100
AcDbText
 10
8.562500000000004
 20
-3.078125
 30
0.0
 40
0.5
  1
2-15/16
100
AcDbAttributeDefinition
  3

  2
A
 70
     8
280
     0
  0
ATTDEF
  5
1B9
330
1AB
100
AcDbEntity
  8
AM_6
100
AcDbText
 10
8.562500000000004
 20
-3.578125
 30
0.0
 40
0.5
  1
7-1/8
100
AcDbAttributeDefinition
  3

  2
B
 70
     8
280
     0
  0
ATTDEF
  5
1BA
330
1AB
100
AcDbEntity
  8
AM_6
100
AcDbText
 10
8.562500000000004
 20
-4.078125
 30
0.0
 40
0.5
  1
2-3/16
100
AcDbAttributeDefinition
  3

  2
C
 70
     8
280
     0
  0
ATTDEF
  5
1BB
330
1AB
100
AcDbEntity
  8
AM_6
100
AcDbText
 10
8.562500000000004
 20
-4.578125
 30
0.0
 40
0.5
  1
6
100
AcDbAttributeDefinition
  3

  2
DD
 70
     8
280
     0
  0
ATTDEF
  5
1BC
330
1AB
100
AcDbEntity
  8
AM_6
100
AcDbText
 10
8.562500000000004
 20
-5.078125
 30
0.0
 40
0.5
  1
1
100
AcDbAttributeDefinition
  3

  2
E
 70
     8
280
     0
  0
ATTDEF
  5
1BD
330
1AB
100
AcDbEntity
  8
AM_6
100
AcDbText
 10
8.562500000000004
 20
-5.578125
 30
0.0
 40
0.5
  1
1/2
100
AcDbAttributeDefinition
  3

  2
F
 70
     8
280
     0
  0
ATTDEF
  5
1BE
330
1AB
100
AcDbEntity
  8
AM_6
100
AcDbText
 10
8.562500000000004
 20
-6.078125
 30
0.0
 40
0.5
  1
1-9/16
100
AcDbAttributeDefinition
  3

  2
G
 70
     8
280
     0
  0
ATTDEF
  5
1BF
330
1AB
100
AcDbEntity
  8
AM_6
100
AcDbText
 10
8.562500000000004
 20
-6.578125
 30
0.0
 40
0.5
  1
9/16
100
AcDbAttributeDefinition
  3

  2
H
 70
     8
280
     0
  0
ATTDEF
  5
1C0
330
1AB
100
AcDbEntity
  8
AM_6
100
AcDbText
 10
8.562500000000004
 20
-7.078125
 30
0.0
 40
0.5
  1
5.000
100
AcDbAttributeDefinition
  3

  2
K
 70
     8
280
     0
  0
ATTDEF
  5
1C1
330
1AB
100
AcDbEntity
  8
AM_6
100
AcDbText
 10
8.562500000000004
 20
-7.578125
 30
0.0
 40
0.5
  1
3-3/4
100
AcDbAttributeDefinition
  3

  2
L
 70
     8
280
     0
  0
ATTDEF
  5
1C2
330
1AB
100
AcDbEntity
  8
AM_6
100
AcDbText
 10
8.562500000000004
 20
-8.078125
 30
0.0
 40
0.5
  1
1/2-13
100
AcDbAttributeDefinition
  3

  2
M
 70
     8
280
     0
  0
ATTDEF
  5
1C3
330
1AB
100
AcDbEntity
  8
AM_6
100
AcDbText
 10
8.562500000000004
 20
-8.578125
 30
0.0
 40
0.5
  1
0.5000
100
AcDbAttributeDefinition
  3

  2
MNDM
 70
     8
280
     0
  0
ATTDEF
  5
1C4
330
1AB
100
AcDbEntity
  8
AM_6
100
AcDbText
 10
8.562500000000004
 20
-9.078125
 30
0.0
 40
0.5
  1
0.4167
100
AcDbAttributeDefinition
  3

  2
MKDM
 70
     8
280
     0
  0
ATTDEF
  5
1C5
330
1AB
100
AcDbEntity
  8
AM_6
100
AcDbText
 10
8.562500000000004
 20
-9.578125
 30
0.0
 40
0.5
  1
2-63/64
100
AcDbAttributeDefinition
  3

  2
N
 70
     8
280
     0
  0
ATTDEF
  5
1C6
330
1AB
100
AcDbEntity
  8
AM_6
100
AcDbText
 10
8.562500000000004
 20
-10.078125
 30
0.0
 40
0.5
  1
2.984375
100
AcDbAttributeDefinition
  3

  2
N1
 70
     8
280
     0
  0
ATTDEF
  5
1C7
330
1AB
100
AcDbEntity
  8
AM_6
100
AcDbText
 10
8.562500000000004
 20
-10.578125
 30
0.0
 40
0.5
  1
1-3/8
100
AcDbAttributeDefinition
  3

  2
P
 70
     8
280
     0
  0
ATTDEF
  5
1C8
330
1AB
100
AcDbEntity
  8
AM_6
100
AcDbText
 10
8.562500000000004
 20
-11.078125
 30
0.0
 40
0.5
  1
1-27/64
100
AcDbAttributeDefinition
  3

  2
Q
 70
     8
280
     0
  0
ATTDEF
  5
1C9
330
1AB
100
AcDbEntity
  8
AM_6
100
AcDbText
 10
8.562500000000004
 20
-11.578125
 30
0.0
 40
0.5
  1
1.421875
100
AcDbAttributeDefinition
  3

  2
Q1
 70
     8
280
     0
  0
ATTDEF
  5
1CA
330
1AB
100
AcDbEntity
  8
AM_6
100
AcDbText
 10
8.562500000000004
 20
-12.078125
 30
0.0
 40
0.5
  1
1/4
100
AcDbAttributeDefinition
  3

  2
X
 70
     8
280
     0
  0
ATTDEF
  5
1CB
330
1AB
100
AcDbEntity
  8
AM_6
100
AcDbText
 10
8.562500000000004
 20
-12.578125
 30
0.0
 40
0.5
  1
0.025
100
AcDbAttributeDefinition
  3

  2
Y
 70
     8
280
     0
  0
ATTDEF
  5
1CC
330
1AB
100
AcDbEntity
  8
AM_6
100
AcDbText
 10
8.562500000000004
 20
-13.078125
 30
0.0
 40
0.5
  1
2-19/32
100
AcDbAttributeDefinition
  3

  2
Z
 70
     8
280
     0
  0
ATTDEF
  5
1CD
330
1AB
100
AcDbEntity
  8
AM_6
100
AcDbText
 10
8.562500000000004
 20
-13.578125
 30
0.0
 40
0.5
  1
baldor
100
AcDbAttributeDefinition
  3

  2
COMPANY
 70
     8
280
     0
  0
LINE
  5
1CE
330
1AB
100
AcDbEntity
  8
AM_9
100
AcDbLine
 10
2.79165
 20
-0.0416500000000001
 30
0.0
 11
2.79165
 21
-0.4646
 31
0.0
  0
LINE
  5
1CF
330
1AB
100
AcDbEntity
  8
AM_9
100
AcDbLine
 10
3.20835
 20
-0.4646
 30
0.0
 11
3.20835
 21
-0.0416500000000001
 31
0.0
  0
LINE
  5
1D0
330
1AB
100
AcDbEntity
  8
AM_9
100
AcDbLine
 10
-2.79165
 20
-0.4645999999999981
 30
0.0
 11
-2.79165
 21
-0.0416499999999993
 31
0.0
  0
LINE
  5
1D1
330
1AB
100
AcDbEntity
  8
AM_9
100
AcDbLine
 10
-3.20835
 20
-0.0416499999999993
 30
0.0
 11
-3.20835
 21
-0.4645999999999981
 31
0.0
  0
LINE
  5
1D2
330
1AB
100
AcDbEntity
  8
AM_9
100
AcDbLine
 10
-3.20835
 20
-0.4645999999999981
 30
0.0
 11
-2.79165
 21
-0.4645999999999981
 31
0.0
  0
LINE
  5
1D3
330
1AB
100
AcDbEntity
  8
AM_9
100
AcDbLine
 10
-3.20835
 20
-0.4645999999999981
 30
0.0
 11
-3.25
 21
-0.5062499999999993
 31
0.0
  0
LINE
  5
1D4
330
1AB
100
AcDbEntity
  8
AM_9
100
AcDbLine
 10
-2.75
 20
-0.5062499999999993
 30
0.0
 11
-2.79165
 21
-0.4645999999999981
 31
0.0
  0
LINE
  5
1D5
330
1AB
100
AcDbEntity
  8
AM_9
100
AcDbLine
 10
-3.20835
 20
-0.0416499999999993
 30
0.0
 11
-2.79165
 21
-0.0416499999999993
 31
0.0
  0
LINE
  5
1D6
330
1AB
100
AcDbEntity
  8
AM_9
100
AcDbLine
 10
-2.79165
 20
-0.0416499999999993
 30
0.0
 11
-2.75
 21
0.0
 31
0.0
  0
LINE
  5
1D7
330
1AB
100
AcDbEntity
  8
AM_9
100
AcDbLine
 10
-3.25
 20
0.0
 30
0.0
 11
-3.20835
 21
-0.0416499999999993
 31
0.0
  0
LINE
  5
1D8
330
1AB
100
AcDbEntity
  8
AM_9
100
AcDbLine
 10
3.20835
 20
-0.4646
 30
0.0
 11
2.79165
 21
-0.4646
 31
0.0
  0
LINE
  5
1D9
330
1AB
100
AcDbEntity
  8
AM_9
100
AcDbLine
 10
2.79165
 20
-0.4646
 30
0.0
 11
2.75
 21
-0.5062500000000001
 31
0.0
  0
LINE
  5
1DA
330
1AB
100
AcDbEntity
  8
AM_9
100
AcDbLine
 10
3.25
 20
-0.5062500000000001
 30
0.0
 11
3.20835
 21
-0.4646
 31
0.0
  0
LINE
  5
1DB
330
1AB
100
AcDbEntity
  8
AM_9
100
AcDbLine
 10
3.20835
 20
-0.0416500000000001
 30
0.0
 11
2.79165
 21
-0.0416500000000001
 31
0.0
  0
LINE
  5
1DC
330
1AB
100
AcDbEntity
  8
AM_9
100
AcDbLine
 10
3.20835
 20
-0.0416500000000001
 30
0.0
 11
3.25
 21
0.0
 31
0.0
  0
LINE
  5
1DD
330
1AB
100
AcDbEntity
  8
AM_9
100
AcDbLine
 10
2.75
 20
0.0
 30
0.0
 11
2.79165
 21
-0.0416500000000001
 31
0.0
  0
LINE
  5
1DE
330
1AB
100
AcDbEntity
  8
AM_9
100
AcDbLine
 10
2.315839560933757
 20
-0.5062500000000001
 30
0.0
 11
2.315839560933757
 21
-0.5625000000000001
 31
0.0
  0
LINE
  5
1DF
330
1AB
100
AcDbEntity
  8
AM_9
100
AcDbLine
 10
2.270627572006005
 20
-0.5062500000000001
 30
0.0
 11
2.270627572006005
 21
-0.5625000000000001
 31
0.0
  0
LINE
  5
1E0
330
1AB
100
AcDbEntity
  8
AM_9
100
AcDbLine
 10
-2.315839560933757
 20
-0.5062500000000001
 30
0.0
 11
-2.315839560933757
 21
-0.5625000000000001
 31
0.0
  0
LINE
  5
1E1
330
1AB
100
AcDbEntity
  8
AM_9
100
AcDbLine
 10
-2.270627572006005
 20
-0.5625000000000001
 30
0.0
 11
-2.270627572006005
 21
-0.5062500000000001
 31
0.0
  0
LINE
  5
1E2
330
1AB
100
AcDbEntity
  8
AM_9
100
AcDbLine
 10
-2.291479610914549
 20
-0.5062500000000001
 30
0.0
 11
-2.291479610914549
 21
-0.5625000000000001
 31
0.0
  0
LINE
  5
1E3
330
1AB
100
AcDbEntity
  8
AM_9
100
AcDbLine
 10
-2.5
 20
-0.5062500000000001
 30
0.0
 11
-2.5
 21
-0.5624999999999999
 31
0.0
  0
LINE
  5
1E4
330
1AB
100
AcDbEntity
  8
AM_9
100
AcDbLine
 10
2.29147961091455
 20
-0.5062500000000001
 30
0.0
 11
2.29147961091455
 21
-0.5625000000000001
 31
0.0
  0
LINE
  5
1E5
330
1AB
100
AcDbEntity
  8
AM_9
100
AcDbLine
 10
2.5
 20
-0.5624999999999999
 30
0.0
 11
2.5
 21
-0.5062500000000001
 31
0.0
  0
LINE
  5
1E6
330
1AB
100
AcDbEntity
  8
AM_9
100
AcDbLine
 10
1.9685
 20
-0.5432565789473686
 30
0.0
 11
1.9685
 21
1.421875
 31
0.0
  0
LINE
  5
1E7
330
1AB
100
AcDbEntity
  8
AM_9
100
AcDbLine
 10
-1.9685
 20
1.421875
 30
0.0
 11
-1.9685
 21
-0.5432565789473686
 31
0.0
  0
LINE
  5
1E8
330
1AB
100
AcDbEntity
  8
AM_9
100
AcDbLine
 10
-1.9685
 20
-0.5432565789473686
 30
0.0
 11
1.9685
 21
-0.5432565789473686
 31
0.0
  0
LINE
  5
1E9
330
1AB
100
AcDbEntity
  8
AM_9
100
AcDbLine
 10
-1.9685
 20
-0.5432565789473686
 30
0.0
 11
-2.049435486303932
 21
-0.7656250000000001
 31
0.0
  0
LINE
  5
1EA
330
1AB
100
AcDbEntity
  8
AM_9
100
AcDbLine
 10
2.049435486303932
 20
-0.7656250000000001
 30
0.0
 11
1.9685
 21
-0.5432565789473686
 31
0.0
  0
LINE
  5
1EB
330
1AB
100
AcDbEntity
  8
AM_9
100
AcDbLine
 10
-2.897162917006602
 20
-0.5062500000000001
 30
0.0
 11
-2.270627572006005
 21
-0.5062500000000001
 31
0.0
  0
LINE
  5
1EC
330
1AB
100
AcDbEntity
  8
AM_9
100
AcDbLine
 10
2.270627572006005
 20
-0.5062500000000001
 30
0.0
 11
2.897162917006605
 21
-0.5062500000000001
 31
0.0
  0
LINE
  5
1ED
330
1AB
100
AcDbEntity
  8
AM_9
100
AcDbLine
 10
-2.371320343559643
 20
0.0
 30
0.0
 11
-2.371320343559643
 21
-0.5625000000000001
 31
0.0
  0
LINE
  5
1EE
330
1AB
100
AcDbEntity
  8
AM_9
100
AcDbLine
 10
-1.871320343559643
 20
-0.5625000000000001
 30
0.0
 11
-1.871320343559643
 21
0.0
 31
0.0
  0
LINE
  5
1EF
330
1AB
100
AcDbEntity
  8
AM_9
100
AcDbLine
 10
1.871320343559643
 20
0.0
 30
0.0
 11
1.871320343559643
 21
-0.5625000000000001
 31
0.0
  0
LINE
  5
1F0
330
1AB
100
AcDbEntity
  8
AM_9
100
AcDbLine
 10
2.371320343559643
 20
-0.5625000000000001
 30
0.0
 11
2.371320343559643
 21
0.0
 31
0.0
  0
LINE
  5
1F1
330
1AB
100
AcDbEntity
  8
AM_9
100
AcDbLine
 10
0.2140581843608392
 20
-0.7656249999999999
 30
0.0
 11
-0.2140506961268218
 21
-0.7656249999999999
 31
0.0
  0
LINE
  5
1F2
330
1AB
100
AcDbEntity
  8
AM_9
100
AcDbLine
 10
0.1929243199199511
 20
-0.0000000000000003
 30
0.0
 11
0.1929243199199511
 21
-0.5062500000000004
 31
0.0
  0
LINE
  5
1F3
330
1AB
100
AcDbEntity
  8
AM_9
100
AcDbLine
 10
-0.1929243199199443
 20
-0.0000000000000003
 30
0.0
 11
-0.1929243199199443
 21
-0.5062500000000004
 31
0.0
  0
LINE
  5
1F4
330
1AB
100
AcDbEntity
  8
AM_5
100
AcDbLine
 10
3.25
 20
0.0
 30
0.0
 11
3.25
 21
-0.5062500000000001
 31
0.0
  0
LINE
  5
1F5
330
1AB
100
AcDbEntity
  8
AM_5
100
AcDbLine
 10
2.75
 20
-0.0000000000000005
 30
0.0
 11
2.75
 21
-0.5062499999999995
 31
0.0
  0
LINE
  5
1F6
330
1AB
100
AcDbEntity
  8
AM_5
100
AcDbLine
 10
-3.25
 20
0.0
 30
0.0
 11
-3.25
 21
-0.5062499999999993
 31
0.0
  0
LINE
  5
1F7
330
1AB
100
AcDbEntity
  8
AM_5
100
AcDbLine
 10
-2.75
 20
-0.0000000000000005
 30
0.0
 11
-2.75
 21
-0.5062499999999988
 31
0.0
  0
LINE
  5
1F8
330
1AB
100
AcDbEntity
  8
AM_7
100
AcDbLine
 10
2.121320343559643
 20
-0.5906250000000002
 30
0.0
 11
2.121320343559643
 21
0.0281249999999999
 31
0.0
  0
LINE
  5
1F9
330
1AB
100
AcDbEntity
  8
AM_7
100
AcDbLine
 10
-2.121320343559643
 20
-0.5906250000000002
 30
0.0
 11
-2.121320343559643
 21
0.0281249999999999
 31
0.0
  0
LINE
  5
1FA
330
1AB
100
AcDbEntity
  8
AM_7
100
AcDbLine
 10
3.0
 20
0.0253125
 30
0.0
 11
3.0
 21
-0.5315625
 31
0.0
  0
LINE
  5
1FB
330
1AB
100
AcDbEntity
  8
AM_7
100
AcDbLine
 10
-3.0
 20
0.0253125
 30
0.0
 11
-3.0
 21
-0.5315624999999993
 31
0.0
  0
LINE
  5
1FC
330
1AB
100
AcDbEntity
  8
AM_4
100
AcDbLine
 10
-2.5
 20
-0.5624999999999999
 30
0.0
 11
-2.5
 21
-0.7656250000000001
 31
0.0
  0
LINE
  5
1FD
330
1AB
100
AcDbEntity
  8
AM_4
100
AcDbLine
 10
2.5
 20
-0.7656250000000001
 30
0.0
 11
2.5
 21
-0.5624999999999999
 31
0.0
  0
LINE
  5
1FE
330
1AB
100
AcDbEntity
  8
AM_4
100
AcDbLine
 10
-1.988614073085038
 20
-0.7656250000000001
 30
0.0
 11
-1.988614073085038
 21
-0.5625000000000001
 31
0.0
  0
LINE
  5
1FF
330
1AB
100
AcDbEntity
  8
AM_4
100
AcDbLine
 10
1.988614073085037
 20
-0.7656250000000001
 30
0.0
 11
1.988614073085037
 21
-0.5625000000000001
 31
0.0
  0
LINE
  5
200
330
1AB
100
AcDbEntity
  8
AM_4
100
AcDbLine
 10
2.380952380952381
 20
1.421875
 30
0.0
 11
-2.380952380952381
 21
1.421875
 31
0.0
  0
LINE
  5
201
330
1AB
100
AcDbEntity
  8
AM_4
100
AcDbLine
 10
2.380952380952381
 20
1.0
 30
0.0
 11
2.380952380952381
 21
1.421875
 31
0.0
  0
LINE
  5
202
330
1AB
100
AcDbEntity
  8
AM_4
100
AcDbLine
 10
-2.380952380952381
 20
1.421875
 30
0.0
 11
-2.380952380952381
 21
1.0
 31
0.0
  0
LINE
  5
203
330
1AB
100
AcDbEntity
  8
AM_4
100
AcDbLine
 10
-0.5
 20
-0.5062499999999999
 30
0.0
 11
-0.5
 21
-0.7656249999999999
 31
0.0
  0
LINE
  5
204
330
1AB
100
AcDbEntity
  8
AM_4
100
AcDbLine
 10
-0.9995604998012377
 20
-0.5062499999999999
 30
0.0
 11
-0.9995604998012377
 21
-0.5624999999999998
 31
0.0
  0
LINE
  5
205
330
1AB
100
AcDbEntity
  8
AM_4
100
AcDbLine
 10
-1.515062397503198
 20
-0.7656250000000001
 30
0.0
 11
-1.515062397503198
 21
-0.5625000000000001
 31
0.0
  0
LINE
  5
206
330
1AB
100
AcDbEntity
  8
AM_4
100
AcDbLine
 10
0.5
 20
-0.5062499999999999
 30
0.0
 11
0.5
 21
-0.7656249999999999
 31
0.0
  0
LINE
  5
207
330
1AB
100
AcDbEntity
  8
AM_4
100
AcDbLine
 10
1.515062397503198
 20
-0.7656250000000001
 30
0.0
 11
1.515062397503198
 21
-0.5625000000000001
 31
0.0
  0
LINE
  5
208
330
1AB
100
AcDbEntity
  8
AM_4
100
AcDbLine
 10
0.9995604998012387
 20
-0.5062499999999999
 30
0.0
 11
0.9995604998012387
 21
-0.5624999999999998
 31
0.0
  0
LINE
  5
209
330
1AB
100
AcDbEntity
  8
AM_4
100
AcDbLine
 10
2.5
 20
1.0
 30
0.0
 11
-2.5
 21
1.0
 31
0.0
  0
LINE
  5
20A
330
1AB
100
AcDbEntity
  8
AM_4
100
AcDbLine
 10
2.5
 20
0.0
 30
0.0
 11
2.5
 21
1.0
 31
0.0
  0
LINE
  5
20B
330
1AB
100
AcDbEntity
  8
AM_4
100
AcDbLine
 10
-2.5
 20
1.0
 30
0.0
 11
-2.5
 21
0.0
 31
0.0
  0
LINE
  5
20C
330
1AB
100
AcDbEntity
  8
AM_4
100
AcDbLine
 10
-0.2140506961268218
 20
-0.7656249999999999
 30
0.0
 11
-2.5
 21
-0.7656250000000001
 31
0.0
  0
LINE
  5
20D
330
1AB
100
AcDbEntity
  8
AM_4
100
AcDbLine
 10
2.5
 20
-0.7656250000000001
 30
0.0
 11
0.2140581843608392
 21
-0.7656249999999999
 31
0.0
  0
LINE
  5
20E
330
1AB
100
AcDbEntity
  8
AM_4
100
AcDbLine
 10
-1.242910658869123
 20
-0.5062499999999999
 30
0.0
 11
-1.242910658869123
 21
-0.5624999999999998
 31
0.0
  0
LINE
  5
20F
330
1AB
100
AcDbEntity
  8
AM_4
100
AcDbLine
 10
1.242910658869124
 20
-0.5062499999999999
 30
0.0
 11
1.242910658869124
 21
-0.5624999999999998
 31
0.0
  0
LINE
  5
210
330
1AB
100
AcDbEntity
  8
AM_4
100
AcDbLine
 10
-2.073126451117195
 20
-0.5062499999999999
 30
0.0
 11
2.073126451117198
 21
-0.5062499999999999
 31
0.0
  0
LINE
  5
211
330
1AB
100
AcDbEntity
  8
AM_4
100
AcDbLine
 10
-2.897162917006602
 20
-0.5062500000000001
 30
0.0
 11
-2.897162917006604
 21
-0.5625000000000001
 31
0.0
  0
LINE
  5
212
330
1AB
100
AcDbEntity
  8
AM_4
100
AcDbLine
 10
-0.9995604998012377
 20
-0.5624999999999998
 30
0.0
 11
-2.897162917006604
 21
-0.5625000000000001
 31
0.0
  0
LINE
  5
213
330
1AB
100
AcDbEntity
  8
AM_4
100
AcDbLine
 10
-2.073126451117195
 20
-0.5624999999999998
 30
0.0
 11
-2.073126451117195
 21
-0.5062499999999999
 31
0.0
  0
LINE
  5
214
330
1AB
100
AcDbEntity
  8
AM_4
100
AcDbLine
 10
2.073126451117198
 20
-0.5062499999999999
 30
0.0
 11
2.073126451117199
 21
-0.5624999999999998
 31
0.0
  0
LINE
  5
215
330
1AB
100
AcDbEntity
  8
AM_4
100
AcDbLine
 10
2.897162917006605
 20
-0.5625000000000001
 30
0.0
 11
0.9995604998012387
 21
-0.5624999999999998
 31
0.0
  0
LINE
  5
216
330
1AB
100
AcDbEntity
  8
AM_4
100
AcDbLine
 10
2.897162917006605
 20
-0.5625000000000001
 30
0.0
 11
2.897162917006605
 21
-0.5062500000000001
 31
0.0
  0
LINE
  5
217
330
1AB
100
AcDbEntity
  8
AM_4
100
AcDbLine
 10
2.897162917006605
 20
-0.5062500000000001
 30
0.0
 11
3.562500000000003
 21
-0.5062500000000001
 31
0.0
  0
LINE
  5
218
330
1AB
100
AcDbEntity
  8
AM_4
100
AcDbLine
 10
-3.562499999999997
 20
0.0
 30
0.0
 11
-3.562499999999997
 21
-0.5062500000000001
 31
0.0
  0
LINE
  5
219
330
1AB
100
AcDbEntity
  8
AM_4
100
AcDbLine
 10
3.562500000000003
 20
-0.5062500000000001
 30
0.0
 11
3.562500000000003
 21
0.0
 31
0.0
  0
LINE
  5
21A
330
1AB
100
AcDbEntity
  8
AM_4
100
AcDbLine
 10
3.562500000000003
 20
0.0
 30
0.0
 11
-3.562499999999997
 21
0.0
 31
0.0
  0
LINE
  5
21B
330
1AB
100
AcDbEntity
  8
AM_4
100
AcDbLine
 10
-3.562499999999997
 20
-0.5062500000000001
 30
0.0
 11
-2.897162917006602
 21
-0.5062500000000001
 31
0.0
  0
ENDBLK
  5
1AE
330
1AB
100
AcDbEntity
  8
0
100
AcDbBlockEnd
  0
ENDSEC
  0
SECTION
  2
ENTITIES
  0
INSERT
  5
6F
330
1F
100
AcDbEntity
  8
0
100
AcDbBlockReference
  2
1_070679_4
 10
0.0
 20
0.0
 30
0.0
  0
POINT
  5
21D
330
1F
100
AcDbEntity
  8
ConnectionPoints
100
AcDbPoint
 10
0.0
 20
-1.3125
 30
0.0000000000000001
  0
POINT
  5
21E
330
1F
100
AcDbEntity
  8
ConnectionPoints
100
AcDbPoint
 10
0.0
 20
-1.3125
 30
0.0000000000000001
  0
POINT
  5
21F
330
1F
100
AcDbEntity
  8
ConnectionPoints
100
AcDbPoint
 10
0.0
 20
2.4625
 30
-0.0000000000000002
  0
POINT
  5
220
330
1F
100
AcDbEntity
  8
ConnectionPoints
100
AcDbPoint
 10
0.0
 20
-1.3125
 30
0.0000000000000001
  0
POINT
  5
221
330
1F
100
AcDbEntity
  8
ConnectionPoints
100
AcDbPoint
 10
0.0
 20
-0.6472681948161266
 30
2.598333333333334
  0
POINT
  5
222
330
1F
100
AcDbEntity
  8
ConnectionPoints
100
AcDbPoint
 10
0.0
 20
1.375
 30
-0.0000000000000001
  0
POINT
  5
223
330
1F
100
AcDbEntity
  8
ConnectionPoints
100
AcDbPoint
 10
0.0
 20
-0.6472681948161267
 30
2.598333333333334
  0
POINT
  5
224
330
1F
100
AcDbEntity
  8
ConnectionPoints
100
AcDbPoint
 10
0.0
 20
-0.6111838029917749
 30
2.9525
  0
POINT
  5
225
330
1F
100
AcDbEntity
  8
ConnectionPoints
100
AcDbPoint
 10
0.0
 20
-1.3125
 30
0.0000000000000001
  0
POINT
  5
226
330
1F
100
AcDbEntity
  8
ConnectionPoints
100
AcDbPoint
 10
0.0
 20
-1.5625
 30
0.0000000000000001
  0
ENDSEC
  0
SECTION
  2
OBJECTS
  0
DICTIONARY
  5
C
330
0
100
AcDbDictionary
281
     1
  3
ACAD_DETAILVIEWSTYLE
350
22E
  3
ACAD_GROUP
350
D
  3
ACAD_LAYOUT
350
1A
  3
ACAD_MATERIAL
350
43
  3
ACAD_MLEADERSTYLE
350
6B
  3
ACAD_MLINESTYLE
350
17
  3
ACAD_PLOTSETTINGS
350
19
  3
ACAD_PLOTSTYLENAME
350
E
  3
ACAD_SCALELIST
350
47
  3
ACAD_SECTIONVIEWSTYLE
350
22F
  3
ACAD_TABLESTYLE
350
69
  3
ACAD_VISUALSTYLE
350
2A
  3
ACDB_RECOMPOSE_DATA
350
22B
  3
AcDbVariableDictionary
350
227
  0
SUN
  5
6D
330
29
100
AcDbSun
 90
        1
290
     0
 63
     7
421
 16777215
 40
1.0
291
     1
 91
  2455826
 92
 54000000
292
     0
 70
     2
 71
   256
280
     1
  0
DICTIONARY
  5
22E
102
{ACAD_REACTORS
330
C
102
}
330
C
100
AcDbDictionary
281
     1
  0
DICTIONARY
  5
D
102
{ACAD_REACTORS
330
C
102
}
330
C
100
AcDbDictionary
281
     1
  0
DICTIONARY
  5
1A
102
{ACAD_REACTORS
330
C
102
}
330
C
100
AcDbDictionary
281
     1
  3
Layout1
350
1E
  3
Layout2
350
26
  3
Model
350
22
  0
DICTIONARY
  5
43
102
{ACAD_REACTORS
330
C
102
}
330
C
100
AcDbDictionary
281
     1
  3
ByBlock
350
45
  3
ByLayer
350
44
  3
Global
350
46
  0
DICTIONARY
  5
6B
102
{ACAD_REACTORS
330
C
102
}
330
C
100
AcDbDictionary
281
     1
  3
Standard
350
6C
  0
DICTIONARY
  5
17
102
{ACAD_REACTORS
330
C
102
}
330
C
100
AcDbDictionary
281
     1
  3
Standard
350
18
  0
DICTIONARY
  5
19
102
{ACAD_REACTORS
330
C
102
}
330
C
100
AcDbDictionary
281
     1
  0
ACDBDICTIONARYWDFLT
  5
E
102
{ACAD_REACTORS
330
C
102
}
330
C
100
AcDbDictionary
281
     1
  3
Normal
350
F
100
AcDbDictionaryWithDefault
340
F
  0
DICTIONARY
  5
47
102
{ACAD_REACTORS
330
C
102
}
330
C
100
AcDbDictionary
281
     1
  3
A0
350
48
  3
A1
350
49
  3
A2
350
4A
  3
A3
350
4B
  3
A4
350
4C
  3
A5
350
4D
  3
A6
350
4E
  3
A7
350
4F
  3
A8
350
50
  3
A9
350
51
  3
B0
350
52
  3
B1
350
53
  3
B2
350
54
  3
B3
350
55
  3
B4
350
56
  3
B5
350
57
  3
B6
350
58
  3
B7
350
59
  3
B8
350
5A
  3
B9
350
5B
  3
C0
350
5C
  3
C1
350
5D
  3
C2
350
5E
  3
C3
350
5F
  3
C4
350
60
  3
C5
350
61
  3
C6
350
62
  3
C7
350
63
  3
C8
350
64
  3
C9
350
65
  3
D0
350
66
  3
D1
350
67
  3
D2
350
68
  0
DICTIONARY
  5
22F
102
{ACAD_REACTORS
330
C
102
}
330
C
100
AcDbDictionary
281
     1
  0
DICTIONARY
  5
69
102
{ACAD_REACTORS
330
C
102
}
330
C
100
AcDbDictionary
281
     1
  3
Standard
350
6A
  0
DICTIONARY
  5
2A
102
{ACAD_REACTORS
330
C
102
}
330
C
100
AcDbDictionary
281
     1
  3
2dWireframe
350
2F
  3
Basic
350
32
  3
Brighten
350
36
  3
ColorChange
350
3A
  3
Conceptual
350
34
  3
Dim
350
35
  3
EdgeColorOff
350
3D
  3
Facepattern
350
39
  3
Flat
350
2B
  3
FlatWithEdges
350
2C
  3
Gouraud
350
2D
  3
GouraudWithEdges
350
2E
  3
Hidden
350
31
  3
JitterOff
350
3B
  3
Linepattern
350
38
  3
OverhangOff
350
3C
  3
Realistic
350
33
  3
Shaded
350
42
  3
Shaded with edges
350
41
  3
Shades of Gray
350
3E
  3
Sketchy
350
3F
  3
Thicken
350
37
  3
Wireframe
350
30
  3
X-Ray
350
40
  0
XRECORD
  5
22B
102
{ACAD_REACTORS
330
C
102
}
330
C
100
AcDbXrecord
280
     1
 90
        1
330
6A
  0
DICTIONARY
  5
227
102
{ACAD_REACTORS
330
C
102
}
330
C
100
AcDbDictionary
281
     1
  3
CANNOSCALE
350
228
  3
CMLEADERSTYLE
350
22D
  3
CTABLESTYLE
350
22C
  0
LAYOUT
  5
1E
102
{ACAD_REACTORS
330
1A
102
}
330
1A
100
AcDbPlotSettings
  1

  2
none_device
  4

  6

 40
0.0
 41
0.0
 42
0.0
 43
0.0
 44
0.0
 45
0.0
 46
0.0
 47
0.0
 48
0.0
 49
0.0
140
0.0
141
0.0
142
1.0
143
1.0
 70
   688
 72
     0
 73
     0
 74
     5
  7

 75
    16
 76
     0
 77
     2
 78
   300
147
1.0
148
0.0
149
0.0
100
AcDbLayout
  1
Layout1
 70
     1
 71
     1
 10
0.0
 20
0.0
 11
12.0
 21
9.0
 12
0.0
 22
0.0
 32
0.0
 14
1.000000000000000E+20
 24
1.000000000000000E+20
 34
1.000000000000000E+20
 15
-1.000000000000000E+20
 25
-1.000000000000000E+20
 35
-1.000000000000000E+20
146
0.0
 13
0.0
 23
0.0
 33
0.0
 16
1.0
 26
0.0
 36
0.0
 17
0.0
 27
1.0
 37
0.0
 76
     0
330
1B
  0
LAYOUT
  5
26
102
{ACAD_REACTORS
330
1A
102
}
330
1A
100
AcDbPlotSettings
  1

  2
none_device
  4

  6

 40
0.0
 41
0.0
 42
0.0
 43
0.0
 44
0.0
 45
0.0
 46
0.0
 47
0.0
 48
0.0
 49
0.0
140
0.0
141
0.0
142
1.0
143
1.0
 70
   688
 72
     0
 73
     0
 74
     5
  7

 75
    16
 76
     0
 77
     2
 78
   300
147
1.0
148
0.0
149
0.0
100
AcDbLayout
  1
Layout2
 70
     1
 71
     2
 10
0.0
 20
0.0
 11
0.0
 21
0.0
 12
0.0
 22
0.0
 32
0.0
 14
0.0
 24
0.0
 34
0.0
 15
0.0
 25
0.0
 35
0.0
146
0.0
 13
0.0
 23
0.0
 33
0.0
 16
1.0
 26
0.0
 36
0.0
 17
0.0
 27
1.0
 37
0.0
 76
     0
330
23
  0
LAYOUT
  5
22
102
{ACAD_REACTORS
330
1A
102
}
330
1A
100
AcDbPlotSettings
  1

  2
none_device
  4
Letter_(8.50_x_11.00_Inches)
  6

 40
6.35
 41
6.35
 42
6.35000508
 43
6.35000508
 44
215.9
 45
279.4
 46
0.0
 47
0.0
 48
0.0
 49
0.0
140
0.0
141
0.0
142
1.0
143
1.0
 70
  1712
 72
     0
 73
     0
 74
     0
  7

 75
     0
 76
     0
 77
     2
 78
   300
147
1.0
148
0.0
149
0.0
100
AcDbLayout
  1
Model
 70
     1
 71
     0
 10
0.0
 20
0.0
 11
12.0
 21
9.0
 12
0.0
 22
0.0
 32
0.0
 14
1.000000000000000E+20
 24
1.000000000000000E+20
 34
1.000000000000000E+20
 15
-1.000000000000000E+20
 25
-1.000000000000000E+20
 35
-1.000000000000000E+20
146
0.0
 13
0.0
 23
0.0
 33
0.0
 16
1.0
 26
0.0
 36
0.0
 17
0.0
 27
1.0
 37
0.0
 76
     0
330
1F
331
29
  0
MATERIAL
  5
45
102
{ACAD_REACTORS
330
43
102
}
330
43
100
AcDbMaterial
  1
ByBlock
 72
     1
 94
      127
  0
MATERIAL
  5
44
102
{ACAD_REACTORS
330
43
102
}
330
43
100
AcDbMaterial
  1
ByLayer
 72
     1
 94
      127
  0
MATERIAL
  5
46
102
{ACAD_REACTORS
330
43
102
}
330
43
100
AcDbMaterial
  1
Global
 72
     1
 94
      127
  0
MLEADERSTYLE
  5
6C
102
{ACAD_REACTORS
330
6B
102
}
330
6B
100
AcDbMLeaderStyle
179
     2
170
     2
171
     1
172
     0
 90
        2
 40
0.0
 41
0.0
173
     1
 91
-1056964608
340
14
 92
       -2
290
     1
 42
0.09
291
     1
 43
0.36
  3
Standard
341
0
 44
0.18
300

342
11
174
     1
178
     6
175
     1
176
     0
 93
-1056964608
 45
0.18
292
     0
297
     0
 46
0.18
343
0
 94
-1056964608
 47
1.0
 49
1.0
140
1.0
293
     1
141
0.0
294
     1
177
     0
142
1.0
295
     0
296
     0
143
0.125
271
     0
272
     9
273
     9
298
     0
  0
MLINESTYLE
  5
18
102
{ACAD_REACTORS
330
17
102
}
330
17
100
AcDbMlineStyle
  2
Standard
 70
     0
  3

 62
   256
 51
90.0
 52
90.0
 71
     2
 49
0.5
 62
   256
  6
BYLAYER
 49
-0.5
 62
   256
  6
BYLAYER
  0
ACDBPLACEHOLDER
  5
F
102
{ACAD_REACTORS
330
E
102
}
330
E
  0
SCALE
  5
48
102
{ACAD_REACTORS
330
47
102
}
330
47
100
AcDbScale
 70
     0
300
1:1
140
1.0
141
1.0
290
     1
  0
SCALE
  5
49
102
{ACAD_REACTORS
330
47
102
}
330
47
100
AcDbScale
 70
     0
300
1:2
140
1.0
141
2.0
290
     0
  0
SCALE
  5
4A
102
{ACAD_REACTORS
330
47
102
}
330
47
100
AcDbScale
 70
     0
300
1:4
140
1.0
141
4.0
290
     0
  0
SCALE
  5
4B
102
{ACAD_REACTORS
330
47
102
}
330
47
100
AcDbScale
 70
     0
300
1:5
140
1.0
141
5.0
290
     0
  0
SCALE
  5
4C
102
{ACAD_REACTORS
330
47
102
}
330
47
100
AcDbScale
 70
     0
300
1:8
140
1.0
141
8.0
290
     0
  0
SCALE
  5
4D
102
{ACAD_REACTORS
330
47
102
}
330
47
100
AcDbScale
 70
     0
300
1:10
140
1.0
141
10.0
290
     0
  0
SCALE
  5
4E
102
{ACAD_REACTORS
330
47
102
}
330
47
100
AcDbScale
 70
     0
300
1:16
140
1.0
141
16.0
290
     0
  0
SCALE
  5
4F
102
{ACAD_REACTORS
330
47
102
}
330
47
100
AcDbScale
 70
     0
300
1:20
140
1.0
141
20.0
290
     0
  0
SCALE
  5
50
102
{ACAD_REACTORS
330
47
102
}
330
47
100
AcDbScale
 70
     0
300
1:30
140
1.0
141
30.0
290
     0
  0
SCALE
  5
51
102
{ACAD_REACTORS
330
47
102
}
330
47
100
AcDbScale
 70
     0
300
1:40
140
1.0
141
40.0
290
     0
  0
SCALE
  5
52
102
{ACAD_REACTORS
330
47
102
}
330
47
100
AcDbScale
 70
     0
300
1:50
140
1.0
141
50.0
290
     0
  0
SCALE
  5
53
102
{ACAD_REACTORS
330
47
102
}
330
47
100
AcDbScale
 70
     0
300
1:100
140
1.0
141
100.0
290
     0
  0
SCALE
  5
54
102
{ACAD_REACTORS
330
47
102
}
330
47
100
AcDbScale
 70
     0
300
2:1
140
2.0
141
1.0
290
     0
  0
SCALE
  5
55
102
{ACAD_REACTORS
330
47
102
}
330
47
100
AcDbScale
 70
     0
300
4:1
140
4.0
141
1.0
290
     0
  0
SCALE
  5
56
102
{ACAD_REACTORS
330
47
102
}
330
47
100
AcDbScale
 70
     0
300
8:1
140
8.0
141
1.0
290
     0
  0
SCALE
  5
57
102
{ACAD_REACTORS
330
47
102
}
330
47
100
AcDbScale
 70
     0
300
10:1
140
10.0
141
1.0
290
     0
  0
SCALE
  5
58
102
{ACAD_REACTORS
330
47
102
}
330
47
100
AcDbScale
 70
     0
300
100:1
140
100.0
141
1.0
290
     0
  0
SCALE
  5
59
102
{ACAD_REACTORS
330
47
102
}
330
47
100
AcDbScale
 70
     0
300
1/128" = 1'-0"
140
0.0078125
141
12.0
290
     0
  0
SCALE
  5
5A
102
{ACAD_REACTORS
330
47
102
}
330
47
100
AcDbScale
 70
     0
300
1/64" = 1'-0"
140
0.015625
141
12.0
290
     0
  0
SCALE
  5
5B
102
{ACAD_REACTORS
330
47
102
}
330
47
100
AcDbScale
 70
     0
300
1/32" = 1'-0"
140
0.03125
141
12.0
290
     0
  0
SCALE
  5
5C
102
{ACAD_REACTORS
330
47
102
}
330
47
100
AcDbScale
 70
     0
300
1/16" = 1'-0"
140
0.0625
141
12.0
290
     0
  0
SCALE
  5
5D
102
{ACAD_REACTORS
330
47
102
}
330
47
100
AcDbScale
 70
     0
300
3/32" = 1'-0"
140
0.09375
141
12.0
290
     0
  0
SCALE
  5
5E
102
{ACAD_REACTORS
330
47
102
}
330
47
100
AcDbScale
 70
     0
300
1/8" = 1'-0"
140
0.125
141
12.0
290
     0
  0
SCALE
  5
5F
102
{ACAD_REACTORS
330
47
102
}
330
47
100
AcDbScale
 70
     0
300
3/16" = 1'-0"
140
0.1875
141
12.0
290
     0
  0
SCALE
  5
60
102
{ACAD_REACTORS
330
47
102
}
330
47
100
AcDbScale
 70
     0
300
1/4" = 1'-0"
140
0.25
141
12.0
290
     0
  0
SCALE
  5
61
102
{ACAD_REACTORS
330
47
102
}
330
47
100
AcDbScale
 70
     0
300
3/8" = 1'-0"
140
0.375
141
12.0
290
     0
  0
SCALE
  5
62
102
{ACAD_REACTORS
330
47
102
}
330
47
100
AcDbScale
 70
     0
300
1/2" = 1'-0"
140
0.5
141
12.0
290
     0
  0
SCALE
  5
63
102
{ACAD_REACTORS
330
47
102
}
330
47
100
AcDbScale
 70
     0
300
3/4" = 1'-0"
140
0.75
141
12.0
290
     0
  0
SCALE
  5
64
102
{ACAD_REACTORS
330
47
102
}
330
47
100
AcDbScale
 70
     0
300
1" = 1'-0"
140
1.0
141
12.0
290
     0
  0
SCALE
  5
65
102
{ACAD_REACTORS
330
47
102
}
330
47
100
AcDbScale
 70
     0
300
1-1/2" = 1'-0"
140
1.5
141
12.0
290
     0
  0
SCALE
  5
66
102
{ACAD_REACTORS
330
47
102
}
330
47
100
AcDbScale
 70
     0
300
3" = 1'-0"
140
3.0
141
12.0
290
     0
  0
SCALE
  5
67
102
{ACAD_REACTORS
330
47
102
}
330
47
100
AcDbScale
 70
     0
300
6" = 1'-0"
140
6.0
141
12.0
290
     0
  0
SCALE
  5
68
102
{ACAD_REACTORS
330
47
102
}
330
47
100
AcDbScale
 70
     0
300
1'-0" = 1'-0"
140
12.0
141
12.0
290
     0
  0
TABLESTYLE
  5
6A
102
{ACAD_REACTORS
330
69
102
}
102
{ACAD_XDICTIONARY
360
229
102
}
330
69
100
AcDbTableStyle
  3
Standard
 70
     0
 71
     0
 40
0.06
 41
0.06
280
     0
281
     0
  7
Standard
140
0.18
170
     2
 62
     0
 63
   257
283
     0
 90
        4
 91
        0
  1

274
    -2
284
     1
 64
     0
275
    -2
285
     1
 65
     0
276
    -2
286
     1
 66
     0
277
    -2
287
     1
 67
     0
278
    -2
288
     1
 68
     0
279
    -2
289
     1
 69
     0
  7
Standard
140
0.25
170
     5
 62
     0
 63
   257
283
     0
 90
        4
 91
        0
  1

274
    -2
284
     1
 64
     0
275
    -2
285
     1
 65
     0
276
    -2
286
     1
 66
     0
277
    -2
287
     1
 67
     0
278
    -2
288
     1
 68
     0
279
    -2
289
     1
 69
     0
  7
Standard
140
0.18
170
     5
 62
     0
 63
   257
283
     0
 90
        4
 91
        0
  1

274
    -2
284
     1
 64
     0
275
    -2
285
     1
 65
     0
276
    -2
286
     1
 66
     0
277
    -2
287
     1
 67
     0
278
    -2
288
     1
 68
     0
279
    -2
289
     1
 69
     0
  0
VISUALSTYLE
  5
2F
102
{ACAD_REACTORS
330
2A
102
}
330
2A
100
AcDbVisualStyle
  2
2dWireframe
 70
     4
177
     3
291
     0
 70
    58
 90
        0
176
     1
 90
        2
176
     1
 90
        0
176
     1
 90
        0
176
     1
 40
0.6
176
     1
 40
30.0
176
     1
 62
     7
420
 16777215
176
     1
 90
        1
176
     1
 90
        4
176
     1
 62
     7
176
     1
 62
   257
176
     1
 90
        1
176
     1
 90
        1
176
     1
 40
1.0
176
     1
 90
        0
176
     1
 62
   257
176
     1
 40
1.0
176
     1
 90
        1
176
     1
 90
        6
176
     1
 90
        2
176
     1
 62
     7
176
     1
 90
        5
176
     1
 90
        0
176
     1
 90
        0
176
     1
290
     0
176
     1
 90
        1
176
     1
 40
0.0
176
     1
 90
        0
176
     1
290
     1
176
     1
290
     1
176
     1
290
     0
176
     1
290
     0
176
     1
290
     0
176
     1
290
     0
176
     1
290
     0
176
     1
290
     0
176
     1
290
     0
176
     1
 90
       50
176
     1
 40
0.0
176
     1
 40
1.0
176
     1
 90
        0
176
     1
 62
    18
420
        0
176
     1
 90
       50
176
     1
 90
        3
176
     1
 62
     5
420
      255
176
     1
290
     0
176
     1
 90
       50
176
     1
 90
       50
176
     1
 90
       50
176
     1
290
     0
176
     1
 90
       50
176
     1
 62
   256
176
     0
 40
1.0
176
     0
 90
        2
176
     1
  1
strokes_ogs.tif
176
     1
290
     0
176
     1
 40
1.0
176
     1
 40
1.0
176
     1
  0
VISUALSTYLE
  5
32
102
{ACAD_REACTORS
330
2A
102
}
330
2A
100
AcDbVisualStyle
  2
Basic
 70
     7
177
     3
291
     1
 70
    58
 90
        1
176
     1
 90
        0
176
     1
 90
        1
176
     1
 90
        0
176
     1
 40
0.6
176
     1
 40
30.0
176
     1
 62
     7
420
 16777215
176
     1
 90
        0
176
     1
 90
        4
176
     1
 62
     7
176
     1
 62
   257
176
     1
 90
        1
176
     1
 90
        1
176
     1
 40
1.0
176
     1
 90
        8
176
     1
 62
     7
176
     1
 40
1.0
176
     1
 90
        1
176
     1
 90
        6
176
     1
 90
        2
176
     1
 62
     7
176
     1
 90
        5
176
     1
 90
        0
176
     1
 90
        0
176
     1
290
     0
176
     1
 90
        1
176
     1
 40
0.0
176
     1
 90
        0
176
     1
290
     0
176
     1
290
     1
176
     1
290
     1
176
     1
290
     0
176
     1
290
     0
176
     1
290
     0
176
     1
290
     0
176
     1
290
     0
176
     1
290
     0
176
     1
 90
       50
176
     1
 40
0.0
176
     1
 40
1.0
176
     1
 90
        0
176
     1
 62
    18
420
        0
176
     1
 90
       50
176
     1
 90
        3
176
     1
 62
     5
420
      255
176
     1
290
     0
176
     1
 90
       50
176
     1
 90
       50
176
     1
 90
       50
176
     1
290
     0
176
     1
 90
       50
176
     1
 62
   256
176
     0
 40
1.0
176
     0
 90
        2
176
     1
  1
strokes_ogs.tif
176
     1
290
     0
176
     1
 40
1.0
176
     1
 40
1.0
176
     1
  0
VISUALSTYLE
  5
36
102
{ACAD_REACTORS
330
2A
102
}
330
2A
100
AcDbVisualStyle
  2
Brighten
 70
    12
177
     3
291
     1
 70
    58
 90
        2
176
     1
 90
        2
176
     1
 90
        0
176
     1
 90
        0
176
     1
 40
0.6
176
     1
 40
30.0
176
     1
 62
     7
420
 16777215
176
     1
 90
        1
176
     1
 90
        4
176
     1
 62
     7
176
     1
 62
   257
176
     1
 90
        1
176
     1
 90
        1
176
     1
 40
1.0
176
     1
 90
        8
176
     1
 62
     7
176
     1
 40
1.0
176
     1
 90
        1
176
     1
 90
        6
176
     1
 90
        2
176
     1
 62
     7
176
     1
 90
        5
176
     1
 90
        0
176
     1
 90
        0
176
     1
290
     0
176
     1
 90
        1
176
     1
 40
50.0
176
     1
 90
        0
176
     1
290
     0
176
     1
290
     1
176
     1
290
     1
176
     1
290
     0
176
     1
290
     0
176
     1
290
     0
176
     1
290
     0
176
     1
290
     0
176
     1
290
     0
176
     1
 90
       50
176
     1
 40
0.0
176
     1
 40
1.0
176
     1
 90
        0
176
     1
 62
    18
420
        0
176
     1
 90
       50
176
     1
 90
        3
176
     1
 62
     5
420
      255
176
     1
290
     0
176
     1
 90
       50
176
     1
 90
       50
176
     1
 90
       50
176
     1
290
     0
176
     1
 90
       50
176
     1
 62
   256
176
     0
 40
1.0
176
     0
 90
        2
176
     1
  1
strokes_ogs.tif
176
     1
290
     0
176
     1
 40
1.0
176
     1
 40
1.0
176
     1
  0
VISUALSTYLE
  5
3A
102
{ACAD_REACTORS
330
2A
102
}
330
2A
100
AcDbVisualStyle
  2
ColorChange
 70
    16
177
     3
291
     1
 70
    58
 90
        2
176
     1
 90
        2
176
     1
 90
        3
176
     1
 90
        0
176
     1
 40
0.6
176
     1
 40
30.0
176
     1
 62
     8
420
  8421504
176
     1
 90
        1
176
     1
 90
        4
176
     1
 62
     7
176
     1
 62
   257
176
     1
 90
        1
176
     1
 90
        1
176
     1
 40
1.0
176
     1
 90
        8
176
     1
 62
     8
420
  8421504
176
     1
 40
1.0
176
     1
 90
        1
176
     1
 90
        6
176
     1
 90
        2
176
     1
 62
     7
176
     1
 90
        5
176
     1
 90
        0
176
     1
 90
        0
176
     1
290
     0
176
     1
 90
        1
176
     1
 40
0.0
176
     1
 90
        0
176
     1
290
     0
176
     1
290
     1
176
     1
290
     1
176
     1
290
     0
176
     1
290
     0
176
     1
290
     0
176
     1
290
     0
176
     1
290
     0
176
     1
290
     0
176
     1
 90
       50
176
     1
 40
0.0
176
     1
 40
1.0
176
     1
 90
        0
176
     1
 62
    18
420
        0
176
     1
 90
       50
176
     1
 90
        3
176
     1
 62
     5
420
      255
176
     1
290
     0
176
     1
 90
       50
176
     1
 90
       50
176
     1
 90
       50
176
     1
290
     0
176
     1
 90
       50
176
     1
 62
   256
176
     0
 40
1.0
176
     0
 90
        2
176
     1
  1
strokes_ogs.tif
176
     1
290
     0
176
     1
 40
1.0
176
     1
 40
1.0
176
     1
  0
VISUALSTYLE
  5
34
102
{ACAD_REACTORS
330
2A
102
}
330
2A
100
AcDbVisualStyle
  2
Conceptual
 70
     9
177
     3
291
     0
 70
    58
 90
        3
176
     1
 90
        2
176
     1
 90
        0
176
     1
 90
        0
176
     1
 40
0.6
176
     1
 40
30.0
176
     1
 62
     7
420
 16777215
176
     1
 90
        2
176
     1
 90
        2
176
     1
 62
     7
176
     1
 62
   257
176
     1
 90
        1
176
     1
 90
        1
176
     1
 40
179.0
176
     1
 90
        8
176
     1
 62
     7
176
     1
 40
1.0
176
     1
 90
        1
176
     1
 90
        6
176
     1
 90
        2
176
     1
 62
     7
176
     1
 90
        3
176
     1
 90
        0
176
     1
 90
        0
176
     1
290
     0
176
     1
 90
        1
176
     1
 40
0.0
176
     1
 90
        0
176
     1
290
     0
176
     1
290
     1
176
     1
290
     1
176
     1
290
     0
176
     1
290
     0
176
     1
290
     0
176
     1
290
     0
176
     1
290
     0
176
     1
290
     0
176
     1
 90
       50
176
     1
 40
0.0
176
     1
 40
1.0
176
     1
 90
        0
176
     1
 62
    18
420
        0
176
     1
 90
       50
176
     1
 90
        3
176
     1
 62
     5
420
      255
176
     1
290
     0
176
     1
 90
       50
176
     1
 90
       50
176
     1
 90
       50
176
     1
290
     0
176
     1
 90
       50
176
     1
 62
   256
176
     0
 40
1.0
176
     0
 90
        2
176
     1
  1
strokes_ogs.tif
176
     1
290
     0
176
     1
 40
1.0
176
     1
 40
1.0
176
     1
  0
VISUALSTYLE
  5
35
102
{ACAD_REACTORS
330
2A
102
}
330
2A
100
AcDbVisualStyle
  2
Dim
 70
    11
177
     3
291
     1
 70
    58
 90
        2
176
     1
 90
        2
176
     1
 90
        0
176
     1
 90
        0
176
     1
 40
0.6
176
     1
 40
30.0
176
     1
 62
     7
420
 16777215
176
     1
 90
        1
176
     1
 90
        4
176
     1
 62
     7
176
     1
 62
   257
176
     1
 90
        1
176
     1
 90
        1
176
     1
 40
1.0
176
     1
 90
        8
176
     1
 62
     7
176
     1
 40
1.0
176
     1
 90
        1
176
     1
 90
        6
176
     1
 90
        2
176
     1
 62
     7
176
     1
 90
        5
176
     1
 90
        0
176
     1
 90
        0
176
     1
290
     0
176
     1
 90
        1
176
     1
 40
-50.0
176
     1
 90
        0
176
     1
290
     0
176
     1
290
     1
176
     1
290
     1
176
     1
290
     0
176
     1
290
     0
176
     1
290
     0
176
     1
290
     0
176
     1
290
     0
176
     1
290
     0
176
     1
 90
       50
176
     1
 40
0.0
176
     1
 40
1.0
176
     1
 90
        0
176
     1
 62
    18
420
        0
176
     1
 90
       50
176
     1
 90
        3
176
     1
 62
     5
420
      255
176
     1
290
     0
176
     1
 90
       50
176
     1
 90
       50
176
     1
 90
       50
176
     1
290
     0
176
     1
 90
       50
176
     1
 62
   256
176
     0
 40
1.0
176
     0
 90
        2
176
     1
  1
strokes_ogs.tif
176
     1
290
     0
176
     1
 40
1.0
176
     1
 40
1.0
176
     1
  0
VISUALSTYLE
  5
3D
102
{ACAD_REACTORS
330
2A
102
}
330
2A
100
AcDbVisualStyle
  2
EdgeColorOff
 70
    22
177
     3
291
     1
 70
    58
 90
        2
176
     0
 90
        2
176
     0
 90
        0
176
     0
 90
        0
176
     0
 40
0.6
176
     0
 40
30.0
176
     0
 62
     7
420
 16777215
176
     0
 90
        1
176
     0
 90
        4
176
     0
 62
     7
176
     0
 62
   257
176
     0
 90
        1
176
     0
 90
        1
176
     0
 40
1.0
176
     0
 90
        8
176
     2
 62
     7
176
     0
 40
1.0
176
     0
 90
        1
176
     0
 90
        6
176
     0
 90
        2
176
     0
 62
     7
176
     0
 90
        5
176
     0
 90
        0
176
     0
 90
        0
176
     0
290
     0
176
     0
 90
        1
176
     0
 40
0.0
176
     0
 90
        0
176
     0
290
     0
176
     0
290
     1
176
     0
290
     1
176
     0
290
     0
176
     0
290
     0
176
     0
290
     0
176
     0
290
     0
176
     0
290
     0
176
     0
290
     0
176
     0
 90
       50
176
     0
 40
0.0
176
     0
 40
1.0
176
     0
 90
        0
176
     0
 62
    18
420
        0
176
     0
 90
       50
176
     0
 90
        3
176
     0
 62
     5
420
      255
176
     0
290
     0
176
     0
 90
       50
176
     0
 90
       50
176
     0
 90
       50
176
     0
290
     0
176
     0
 90
       50
176
     0
 62
   256
176
     0
 40
1.0
176
     0
 90
        2
176
     0
  1
strokes_ogs.tif
176
     0
290
     0
176
     0
 40
1.0
176
     0
 40
1.0
176
     0
  0
VISUALSTYLE
  5
39
102
{ACAD_REACTORS
330
2A
102
}
330
2A
100
AcDbVisualStyle
  2
Facepattern
 70
    15
177
     3
291
     1
 70
    58
 90
        2
176
     1
 90
        2
176
     1
 90
        0
176
     1
 90
        0
176
     1
 40
0.6
176
     1
 40
30.0
176
     1
 62
     7
420
 16777215
176
     1
 90
        1
176
     1
 90
        4
176
     1
 62
     7
176
     1
 62
   257
176
     1
 90
        1
176
     1
 90
        1
176
     1
 40
1.0
176
     1
 90
        8
176
     1
 62
     7
176
     1
 40
1.0
176
     1
 90
        1
176
     1
 90
        6
176
     1
 90
        2
176
     1
 62
     7
176
     1
 90
        5
176
     1
 90
        0
176
     1
 90
        0
176
     1
290
     0
176
     1
 90
        1
176
     1
 40
0.0
176
     1
 90
        0
176
     1
290
     0
176
     1
290
     1
176
     1
290
     1
176
     1
290
     0
176
     1
290
     0
176
     1
290
     0
176
     1
290
     0
176
     1
290
     0
176
     1
290
     0
176
     1
 90
       50
176
     1
 40
0.0
176
     1
 40
1.0
176
     1
 90
        0
176
     1
 62
    18
420
        0
176
     1
 90
       50
176
     1
 90
        3
176
     1
 62
     5
420
      255
176
     1
290
     0
176
     1
 90
       50
176
     1
 90
       50
176
     1
 90
       50
176
     1
290
     0
176
     1
 90
       50
176
     1
 62
   256
176
     0
 40
1.0
176
     0
 90
        2
176
     1
  1
strokes_ogs.tif
176
     1
290
     0
176
     1
 40
1.0
176
     1
 40
1.0
176
     1
  0
VISUALSTYLE
  5
2B
102
{ACAD_REACTORS
330
2A
102
}
330
2A
100
AcDbVisualStyle
  2
Flat
 70
     0
177
     3
291
     1
 70
    58
 90
        2
176
     1
 90
        1
176
     1
 90
        1
176
     1
 90
        2
176
     1
 40
0.6
176
     1
 40
30.0
176
     1
 62
     7
420
 16777215
176
     1
 90
        0
176
     1
 90
        0
176
     1
 62
     7
176
     1
 62
   257
176
     1
 90
        1
176
     1
 90
        1
176
     1
 40
1.0
176
     1
 90
        8
176
     1
 62
     7
176
     1
 40
1.0
176
     1
 90
        1
176
     1
 90
        6
176
     1
 90
        2
176
     1
 62
     7
176
     1
 90
        5
176
     1
 90
        0
176
     1
 90
        0
176
     1
290
     0
176
     1
 90
       13
176
     1
 40
0.0
176
     1
 90
        0
176
     1
290
     0
176
     1
290
     1
176
     1
290
     1
176
     1
290
     0
176
     1
290
     0
176
     1
290
     0
176
     1
290
     0
176
     1
290
     0
176
     1
290
     0
176
     1
 90
       50
176
     1
 40
0.0
176
     1
 40
1.0
176
     1
 90
        0
176
     1
 62
    18
420
        0
176
     1
 90
       50
176
     1
 90
        3
176
     1
 62
     5
420
      255
176
     1
290
     0
176
     1
 90
       50
176
     1
 90
       50
176
     1
 90
       50
176
     1
290
     0
176
     1
 90
       50
176
     1
 62
   256
176
     0
 40
1.0
176
     0
 90
        2
176
     1
  1
strokes_ogs.tif
176
     1
290
     0
176
     1
 40
1.0
176
     1
 40
1.0
176
     1
  0
VISUALSTYLE
  5
2C
102
{ACAD_REACTORS
330
2A
102
}
330
2A
100
AcDbVisualStyle
  2
FlatWithEdges
 70
     1
177
     3
291
     1
 70
    58
 90
        2
176
     1
 90
        1
176
     1
 90
        1
176
     1
 90
        2
176
     1
 40
0.6
176
     1
 40
30.0
176
     1
 62
     7
420
 16777215
176
     1
 90
        1
176
     1
 90
        0
176
     1
 62
     7
176
     1
 62
   257
176
     1
 90
        1
176
     1
 90
        1
176
     1
 40
1.0
176
     1
 90
        0
176
     1
 62
   257
176
     1
 40
1.0
176
     1
 90
        1
176
     1
 90
        6
176
     1
 90
        2
176
     1
 62
     7
176
     1
 90
        5
176
     1
 90
        0
176
     1
 90
        0
176
     1
290
     0
176
     1
 90
       13
176
     1
 40
0.0
176
     1
 90
        0
176
     1
290
     0
176
     1
290
     1
176
     1
290
     1
176
     1
290
     0
176
     1
290
     0
176
     1
290
     0
176
     1
290
     0
176
     1
290
     0
176
     1
290
     0
176
     1
 90
       50
176
     1
 40
0.0
176
     1
 40
1.0
176
     1
 90
        0
176
     1
 62
    18
420
        0
176
     1
 90
       50
176
     1
 90
        3
176
     1
 62
     5
420
      255
176
     1
290
     0
176
     1
 90
       50
176
     1
 90
       50
176
     1
 90
       50
176
     1
290
     0
176
     1
 90
       50
176
     1
 62
   256
176
     0
 40
1.0
176
     0
 90
        2
176
     1
  1
strokes_ogs.tif
176
     1
290
     0
176
     1
 40
1.0
176
     1
 40
1.0
176
     1
  0
VISUALSTYLE
  5
2D
102
{ACAD_REACTORS
330
2A
102
}
330
2A
100
AcDbVisualStyle
  2
Gouraud
 70
     2
177
     3
291
     1
 70
    58
 90
        2
176
     1
 90
        2
176
     1
 90
        1
176
     1
 90
        2
176
     1
 40
0.6
176
     1
 40
30.0
176
     1
 62
     7
420
 16777215
176
     1
 90
        0
176
     1
 90
        0
176
     1
 62
     7
176
     1
 62
   257
176
     1
 90
        1
176
     1
 90
        1
176
     1
 40
1.0
176
     1
 90
        0
176
     1
 62
     7
176
     1
 40
1.0
176
     1
 90
        1
176
     1
 90
        6
176
     1
 90
        2
176
     1
 62
     7
176
     1
 90
        5
176
     1
 90
        0
176
     1
 90
        0
176
     1
290
     0
176
     1
 90
       13
176
     1
 40
0.0
176
     1
 90
        0
176
     1
290
     0
176
     1
290
     1
176
     1
290
     1
176
     1
290
     0
176
     1
290
     0
176
     1
290
     0
176
     1
290
     0
176
     1
290
     0
176
     1
290
     0
176
     1
 90
       50
176
     1
 40
0.0
176
     1
 40
1.0
176
     1
 90
        0
176
     1
 62
    18
420
        0
176
     1
 90
       50
176
     1
 90
        3
176
     1
 62
     5
420
      255
176
     1
290
     0
176
     1
 90
       50
176
     1
 90
       50
176
     1
 90
       50
176
     1
290
     0
176
     1
 90
       50
176
     1
 62
   256
176
     0
 40
1.0
176
     0
 90
        2
176
     1
  1
strokes_ogs.tif
176
     1
290
     0
176
     1
 40
1.0
176
     1
 40
1.0
176
     1
  0
VISUALSTYLE
  5
2E
102
{ACAD_REACTORS
330
2A
102
}
330
2A
100
AcDbVisualStyle
  2
GouraudWithEdges
 70
     3
177
     3
291
     1
 70
    58
 90
        2
176
     1
 90
        2
176
     1
 90
        1
176
     1
 90
        2
176
     1
 40
0.6
176
     1
 40
30.0
176
     1
 62
     7
420
 16777215
176
     1
 90
        1
176
     1
 90
        0
176
     1
 62
     7
176
     1
 62
   257
176
     1
 90
        1
176
     1
 90
        1
176
     1
 40
1.0
176
     1
 90
        0
176
     1
 62
   257
176
     1
 40
1.0
176
     1
 90
        1
176
     1
 90
        6
176
     1
 90
        2
176
     1
 62
     7
176
     1
 90
        5
176
     1
 90
        0
176
     1
 90
        0
176
     1
290
     0
176
     1
 90
       13
176
     1
 40
0.0
176
     1
 90
        0
176
     1
290
     0
176
     1
290
     1
176
     1
290
     1
176
     1
290
     0
176
     1
290
     0
176
     1
290
     0
176
     1
290
     0
176
     1
290
     0
176
     1
290
     0
176
     1
 90
       50
176
     1
 40
0.0
176
     1
 40
1.0
176
     1
 90
        0
176
     1
 62
    18
420
        0
176
     1
 90
       50
176
     1
 90
        3
176
     1
 62
     5
420
      255
176
     1
290
     0
176
     1
 90
       50
176
     1
 90
       50
176
     1
 90
       50
176
     1
290
     0
176
     1
 90
       50
176
     1
 62
   256
176
     0
 40
1.0
176
     0
 90
        2
176
     1
  1
strokes_ogs.tif
176
     1
290
     0
176
     1
 40
1.0
176
     1
 40
1.0
176
     1
  0
VISUALSTYLE
  5
31
102
{ACAD_REACTORS
330
2A
102
}
330
2A
100
AcDbVisualStyle
  2
Hidden
 70
     6
177
     3
291
     0
 70
    58
 90
        1
176
     1
 90
        2
176
     1
 90
        2
176
     1
 90
        0
176
     1
 40
0.6
176
     1
 40
30.0
176
     1
 62
     7
420
 16777215
176
     1
 90
        2
176
     1
 90
        2
176
     1
 62
     7
176
     1
 62
   257
176
     1
 90
        2
176
     1
 90
        1
176
     1
 40
40.0
176
     1
 90
        0
176
     1
 62
   257
176
     1
 40
1.0
176
     1
 90
        1
176
     1
 90
        6
176
     1
 90
        2
176
     1
 62
     7
176
     1
 90
        3
176
     1
 90
        0
176
     1
 90
        0
176
     1
290
     0
176
     1
 90
        1
176
     1
 40
0.0
176
     1
 90
        0
176
     1
290
     0
176
     1
290
     1
176
     1
290
     1
176
     1
290
     0
176
     1
290
     0
176
     1
290
     0
176
     1
290
     0
176
     1
290
     0
176
     1
290
     0
176
     1
 90
       50
176
     1
 40
0.0
176
     1
 40
1.0
176
     1
 90
        0
176
     1
 62
    18
420
        0
176
     1
 90
       50
176
     1
 90
        3
176
     1
 62
     5
420
      255
176
     1
290
     0
176
     1
 90
       50
176
     1
 90
       50
176
     1
 90
       50
176
     1
290
     0
176
     1
 90
       50
176
     1
 62
   256
176
     0
 40
1.0
176
     0
 90
        2
176
     1
  1
strokes_ogs.tif
176
     1
290
     0
176
     1
 40
1.0
176
     1
 40
1.0
176
     1
  0
VISUALSTYLE
  5
3B
102
{ACAD_REACTORS
330
2A
102
}
330
2A
100
AcDbVisualStyle
  2
JitterOff
 70
    20
177
     3
291
     1
 70
    58
 90
        2
176
     0
 90
        2
176
     0
 90
        0
176
     0
 90
        0
176
     0
 40
0.6
176
     0
 40
30.0
176
     0
 62
     7
420
 16777215
176
     0
 90
        1
176
     0
 90
        4
176
     0
 62
     7
176
     0
 62
   257
176
     0
 90
        1
176
     0
 90
        1
176
     0
 40
1.0
176
     0
 90
       10
176
     2
 62
     7
176
     0
 40
1.0
176
     0
 90
        1
176
     0
 90
        6
176
     0
 90
        2
176
     0
 62
     7
176
     0
 90
        5
176
     0
 90
        0
176
     0
 90
        0
176
     0
290
     0
176
     0
 90
        1
176
     0
 40
0.0
176
     0
 90
        0
176
     0
290
     0
176
     0
290
     1
176
     0
290
     1
176
     0
290
     0
176
     0
290
     0
176
     0
290
     0
176
     0
290
     0
176
     0
290
     0
176
     0
290
     0
176
     0
 90
       50
176
     0
 40
0.0
176
     0
 40
1.0
176
     0
 90
        0
176
     0
 62
    18
420
        0
176
     0
 90
       50
176
     0
 90
        3
176
     0
 62
     5
420
      255
176
     0
290
     0
176
     0
 90
       50
176
     0
 90
       50
176
     0
 90
       50
176
     0
290
     0
176
     0
 90
       50
176
     0
 62
   256
176
     0
 40
1.0
176
     0
 90
        2
176
     0
  1
strokes_ogs.tif
176
     0
290
     0
176
     0
 40
1.0
176
     0
 40
1.0
176
     0
  0
VISUALSTYLE
  5
38
102
{ACAD_REACTORS
330
2A
102
}
330
2A
100
AcDbVisualStyle
  2
Linepattern
 70
    14
177
     3
291
     1
 70
    58
 90
        2
176
     1
 90
        2
176
     1
 90
        0
176
     1
 90
        0
176
     1
 40
0.6
176
     1
 40
30.0
176
     1
 62
     7
420
 16777215
176
     1
 90
        1
176
     1
 90
        4
176
     1
 62
     7
176
     1
 62
   257
176
     1
 90
        7
176
     1
 90
        7
176
     1
 40
1.0
176
     1
 90
        8
176
     1
 62
     7
176
     1
 40
1.0
176
     1
 90
        1
176
     1
 90
        6
176
     1
 90
        2
176
     1
 62
     7
176
     1
 90
        5
176
     1
 90
        0
176
     1
 90
        0
176
     1
290
     0
176
     1
 90
        1
176
     1
 40
0.0
176
     1
 90
        0
176
     1
290
     0
176
     1
290
     1
176
     1
290
     1
176
     1
290
     0
176
     1
290
     0
176
     1
290
     0
176
     1
290
     0
176
     1
290
     0
176
     1
290
     0
176
     1
 90
       50
176
     1
 40
0.0
176
     1
 40
1.0
176
     1
 90
        0
176
     1
 62
    18
420
        0
176
     1
 90
       50
176
     1
 90
        3
176
     1
 62
     5
420
      255
176
     1
290
     0
176
     1
 90
       50
176
     1
 90
       50
176
     1
 90
       50
176
     1
290
     0
176
     1
 90
       50
176
     1
 62
   256
176
     0
 40
1.0
176
     0
 90
        2
176
     1
  1
strokes_ogs.tif
176
     1
290
     0
176
     1
 40
1.0
176
     1
 40
1.0
176
     1
  0
VISUALSTYLE
  5
3C
102
{ACAD_REACTORS
330
2A
102
}
330
2A
100
AcDbVisualStyle
  2
OverhangOff
 70
    21
177
     3
291
     1
 70
    58
 90
        2
176
     0
 90
        2
176
     0
 90
        0
176
     0
 90
        0
176
     0
 40
0.6
176
     0
 40
30.0
176
     0
 62
     7
420
 16777215
176
     0
 90
        1
176
     0
 90
        4
176
     0
 62
     7
176
     0
 62
   257
176
     0
 90
        1
176
     0
 90
        1
176
     0
 40
1.0
176
     0
 90
        9
176
     2
 62
     7
176
     0
 40
1.0
176
     0
 90
        1
176
     0
 90
        6
176
     0
 90
        2
176
     0
 62
     7
176
     0
 90
        5
176
     0
 90
        0
176
     0
 90
        0
176
     0
290
     0
176
     0
 90
        1
176
     0
 40
0.0
176
     0
 90
        0
176
     0
290
     0
176
     0
290
     1
176
     0
290
     1
176
     0
290
     0
176
     0
290
     0
176
     0
290
     0
176
     0
290
     0
176
     0
290
     0
176
     0
290
     0
176
     0
 90
       50
176
     0
 40
0.0
176
     0
 40
1.0
176
     0
 90
        0
176
     0
 62
    18
420
        0
176
     0
 90
       50
176
     0
 90
        3
176
     0
 62
     5
420
      255
176
     0
290
     0
176
     0
 90
       50
176
     0
 90
       50
176
     0
 90
       50
176
     0
290
     0
176
     0
 90
       50
176
     0
 62
   256
176
     0
 40
1.0
176
     0
 90
        2
176
     0
  1
strokes_ogs.tif
176
     0
290
     0
176
     0
 40
1.0
176
     0
 40
1.0
176
     0
  0
VISUALSTYLE
  5
33
102
{ACAD_REACTORS
330
2A
102
}
330
2A
100
AcDbVisualStyle
  2
Realistic
 70
     8
177
     3
291
     0
 70
    58
 90
        2
176
     1
 90
        3
176
     1
 90
        0
176
     1
 90
        2
176
     1
 40
0.6
176
     1
 40
30.0
176
     1
 62
     7
420
 16777215
176
     1
 90
        0
176
     1
 90
        0
176
     1
 62
     7
176
     1
 62
   257
176
     1
 90
        1
176
     1
 90
        1
176
     1
 40
1.0
176
     1
 90
        8
176
     1
 62
   257
176
     1
 40
1.0
176
     1
 90
        1
176
     1
 90
        6
176
     1
 90
        2
176
     1
 62
     7
176
     1
 90
        3
176
     1
 90
        0
176
     1
 90
        0
176
     1
290
     0
176
     1
 90
       13
176
     1
 40
0.0
176
     1
 90
        0
176
     1
290
     0
176
     1
290
     1
176
     1
290
     1
176
     1
290
     0
176
     1
290
     0
176
     1
290
     0
176
     1
290
     0
176
     1
290
     0
176
     1
290
     0
176
     1
 90
       50
176
     1
 40
0.0
176
     1
 40
1.0
176
     1
 90
        0
176
     1
 62
    18
420
        0
176
     1
 90
       50
176
     1
 90
        3
176
     1
 62
     5
420
      255
176
     1
290
     0
176
     1
 90
       50
176
     1
 90
       50
176
     1
 90
       50
176
     1
290
     0
176
     1
 90
       50
176
     1
 62
   256
176
     0
 40
1.0
176
     0
 90
        2
176
     1
  1
strokes_ogs.tif
176
     1
290
     0
176
     1
 40
1.0
176
     1
 40
1.0
176
     1
  0
VISUALSTYLE
  5
42
102
{ACAD_REACTORS
330
2A
102
}
330
2A
100
AcDbVisualStyle
  2
Shaded
 70
    27
177
     3
291
     0
 70
    58
 90
        2
176
     1
 90
        2
176
     1
 90
        1
176
     1
 90
        2
176
     1
 40
0.6
176
     1
 40
30.0
176
     1
 62
     7
420
 16777215
176
     1
 90
        0
176
     1
 90
        4
176
     1
 62
     7
176
     1
 62
   257
176
     1
 90
        1
176
     1
 90
        1
176
     1
 40
1.0
176
     1
 90
        8
176
     1
 62
   257
176
     1
 40
1.0
176
     1
 90
        1
176
     1
 90
        6
176
     1
 90
        2
176
     1
 62
     8
420
  7895160
176
     1
 90
        3
176
     1
 90
        0
176
     1
 90
        0
176
     1
290
     0
176
     1
 90
        5
176
     1
 40
0.0
176
     1
 90
        0
176
     1
290
     0
176
     1
290
     1
176
     1
290
     1
176
     1
290
     0
176
     1
290
     0
176
     1
290
     0
176
     1
290
     0
176
     1
290
     0
176
     1
290
     0
176
     1
 90
       50
176
     1
 40
0.0
176
     1
 40
1.0
176
     1
 90
        0
176
     1
 62
    18
420
        0
176
     1
 90
       50
176
     1
 90
        3
176
     1
 62
     5
420
      255
176
     1
290
     0
176
     1
 90
       50
176
     1
 90
       50
176
     1
 90
       50
176
     1
290
     0
176
     1
 90
       50
176
     1
 62
   256
176
     0
 40
1.0
176
     0
 90
        2
176
     1
  1
strokes_ogs.tif
176
     1
290
     0
176
     1
 40
1.0
176
     1
 40
1.0
176
     1
  0
VISUALSTYLE
  5
41
102
{ACAD_REACTORS
330
2A
102
}
330
2A
100
AcDbVisualStyle
  2
Shaded with edges
 70
    26
177
     3
291
     0
 70
    58
 90
        2
176
     1
 90
        2
176
     1
 90
        1
176
     1
 90
        2
176
     1
 40
0.6
176
     1
 40
30.0
176
     1
 62
     7
420
 16777215
176
     1
 90
        1
176
     1
 90
       10
176
     1
 62
     7
176
     1
 62
   257
176
     1
 90
        2
176
     1
 90
        1
176
     1
 40
1.0
176
     1
 90
        8
176
     1
 62
   257
176
     1
 40
1.0
176
     1
 90
        1
176
     1
 90
        6
176
     1
 90
        2
176
     1
 62
     7
176
     1
 90
        3
176
     1
 90
        0
176
     1
 90
        0
176
     1
290
     0
176
     1
 90
        5
176
     1
 40
0.0
176
     1
 90
        0
176
     1
290
     0
176
     1
290
     1
176
     1
290
     1
176
     1
290
     0
176
     1
290
     0
176
     1
290
     0
176
     1
290
     0
176
     1
290
     0
176
     1
290
     0
176
     1
 90
       50
176
     1
 40
0.0
176
     1
 40
1.0
176
     1
 90
        0
176
     1
 62
    18
420
        0
176
     1
 90
       50
176
     1
 90
        3
176
     1
 62
     5
420
      255
176
     1
290
     0
176
     1
 90
       50
176
     1
 90
       50
176
     1
 90
       50
176
     1
290
     0
176
     1
 90
       50
176
     1
 62
   256
176
     0
 40
1.0
176
     0
 90
        2
176
     1
  1
strokes_ogs.tif
176
     1
290
     0
176
     1
 40
1.0
176
     1
 40
1.0
176
     1
  0
VISUALSTYLE
  5
3E
102
{ACAD_REACTORS
330
2A
102
}
330
2A
100
AcDbVisualStyle
  2
Shades of Gray
 70
    23
177
     3
291
     0
 70
    58
 90
        2
176
     1
 90
        2
176
     1
 90
        3
176
     1
 90
        0
176
     1
 40
0.6
176
     1
 40
30.0
176
     1
 62
     7
420
 16777215
176
     1
 90
        2
176
     1
 90
        2
176
     1
 62
     7
176
     1
 62
     7
176
     1
 90
        1
176
     1
 90
        1
176
     1
 40
40.0
176
     1
 90
        8
176
     1
 62
     7
176
     1
 40
1.0
176
     1
 90
        1
176
     1
 90
        6
176
     1
 90
        2
176
     1
 62
     7
176
     1
 90
        3
176
     1
 90
        0
176
     1
 90
        0
176
     1
290
     0
176
     1
 90
        1
176
     1
 40
0.0
176
     1
 90
        0
176
     1
290
     0
176
     1
290
     1
176
     1
290
     1
176
     1
290
     0
176
     1
290
     0
176
     1
290
     0
176
     1
290
     0
176
     1
290
     0
176
     1
290
     0
176
     1
 90
       50
176
     1
 40
0.0
176
     1
 40
1.0
176
     1
 90
        0
176
     1
 62
    18
420
        0
176
     1
 90
       50
176
     1
 90
        3
176
     1
 62
     5
420
      255
176
     1
290
     0
176
     1
 90
       50
176
     1
 90
       50
176
     1
 90
       50
176
     1
290
     0
176
     1
 90
       50
176
     1
 62
   256
176
     0
 40
1.0
176
     0
 90
        2
176
     1
  1
strokes_ogs.tif
176
     1
290
     0
176
     1
 40
1.0
176
     1
 40
1.0
176
     1
  0
VISUALSTYLE
  5
3F
102
{ACAD_REACTORS
330
2A
102
}
330
2A
100
AcDbVisualStyle
  2
Sketchy
 70
    24
177
     3
291
     0
 70
    58
 90
        1
176
     1
 90
        2
176
     1
 90
        2
176
     1
 90
        0
176
     1
 40
0.6
176
     1
 40
30.0
176
     1
 62
     7
420
 16777215
176
     1
 90
        2
176
     1
 90
        2
176
     1
 62
     7
176
     1
 62
     7
176
     1
 90
        1
176
     1
 90
        1
176
     1
 40
40.0
176
     1
 90
       11
176
     1
 62
     7
176
     1
 40
1.0
176
     1
 90
        1
176
     1
 90
        6
176
     1
 90
        2
176
     1
 62
     7
176
     1
 90
        6
176
     1
 90
        0
176
     1
 90
        0
176
     1
290
     0
176
     1
 90
        1
176
     1
 40
0.0
176
     1
 90
        0
176
     1
290
     0
176
     1
290
     1
176
     1
290
     1
176
     1
290
     0
176
     1
290
     0
176
     1
290
     0
176
     1
290
     0
176
     1
290
     0
176
     1
290
     0
176
     1
 90
       50
176
     1
 40
0.0
176
     1
 40
1.0
176
     1
 90
        0
176
     1
 62
    18
420
        0
176
     1
 90
       50
176
     1
 90
        3
176
     1
 62
     5
420
      255
176
     1
290
     0
176
     1
 90
       50
176
     1
 90
       50
176
     1
 90
       50
176
     1
290
     0
176
     1
 90
       50
176
     1
 62
   256
176
     0
 40
1.0
176
     0
 90
        2
176
     1
  1
strokes_ogs.tif
176
     1
290
     0
176
     1
 40
1.0
176
     1
 40
1.0
176
     1
  0
VISUALSTYLE
  5
37
102
{ACAD_REACTORS
330
2A
102
}
330
2A
100
AcDbVisualStyle
  2
Thicken
 70
    13
177
     3
291
     1
 70
    58
 90
        2
176
     1
 90
        2
176
     1
 90
        0
176
     1
 90
        0
176
     1
 40
0.6
176
     1
 40
30.0
176
     1
 62
     7
420
 16777215
176
     1
 90
        1
176
     1
 90
        4
176
     1
 62
     7
176
     1
 62
   257
176
     1
 90
        1
176
     1
 90
        1
176
     1
 40
1.0
176
     1
 90
       12
176
     1
 62
     7
176
     1
 40
1.0
176
     1
 90
        1
176
     1
 90
        6
176
     1
 90
        2
176
     1
 62
     7
176
     1
 90
        5
176
     1
 90
        0
176
     1
 90
        0
176
     1
290
     0
176
     1
 90
        1
176
     1
 40
0.0
176
     1
 90
        0
176
     1
290
     0
176
     1
290
     1
176
     1
290
     1
176
     1
290
     0
176
     1
290
     0
176
     1
290
     0
176
     1
290
     0
176
     1
290
     0
176
     1
290
     0
176
     1
 90
       50
176
     1
 40
0.0
176
     1
 40
1.0
176
     1
 90
        0
176
     1
 62
    18
420
        0
176
     1
 90
       50
176
     1
 90
        3
176
     1
 62
     5
420
      255
176
     1
290
     0
176
     1
 90
       50
176
     1
 90
       50
176
     1
 90
       50
176
     1
290
     0
176
     1
 90
       50
176
     1
 62
   256
176
     0
 40
1.0
176
     0
 90
        2
176
     1
  1
strokes_ogs.tif
176
     1
290
     0
176
     1
 40
1.0
176
     1
 40
1.0
176
     1
  0
VISUALSTYLE
  5
30
102
{ACAD_REACTORS
330
2A
102
}
330
2A
100
AcDbVisualStyle
  2
Wireframe
 70
     5
177
     3
291
     0
 70
    58
 90
        0
176
     1
 90
        2
176
     1
 90
        0
176
     1
 90
        0
176
     1
 40
0.6
176
     1
 40
30.0
176
     1
 62
     7
420
 16777215
176
     1
 90
        1
176
     1
 90
        4
176
     1
 62
     7
176
     1
 62
   257
176
     1
 90
        1
176
     1
 90
        1
176
     1
 40
1.0
176
     1
 90
        0
176
     1
 62
   257
176
     1
 40
1.0
176
     1
 90
        1
176
     1
 90
        6
176
     1
 90
        2
176
     1
 62
     7
176
     1
 90
        3
176
     1
 90
        0
176
     1
 90
        0
176
     1
290
     0
176
     1
 90
        1
176
     1
 40
0.0
176
     1
 90
        0
176
     1
290
     0
176
     1
290
     1
176
     1
290
     1
176
     1
290
     0
176
     1
290
     0
176
     1
290
     0
176
     1
290
     0
176
     1
290
     0
176
     1
290
     0
176
     1
 90
       50
176
     1
 40
0.0
176
     1
 40
1.0
176
     1
 90
        0
176
     1
 62
    18
420
        0
176
     1
 90
       50
176
     1
 90
        3
176
     1
 62
     5
420
      255
176
     1
290
     0
176
     1
 90
       50
176
     1
 90
       50
176
     1
 90
       50
176
     1
290
     0
176
     1
 90
       50
176
     1
 62
   256
176
     0
 40
1.0
176
     0
 90
        2
176
     1
  1
strokes_ogs.tif
176
     1
290
     0
176
     1
 40
1.0
176
     1
 40
1.0
176
     1
  0
VISUALSTYLE
  5
40
102
{ACAD_REACTORS
330
2A
102
}
330
2A
100
AcDbVisualStyle
  2
X-Ray
 70
    25
177
     3
291
     0
 70
    58
 90
        2
176
     1
 90
        2
176
     1
 90
        1
176
     1
 90
        1
176
     1
 40
0.5
176
     1
 40
30.0
176
     1
 62
     7
420
 16777215
176
     1
 90
        1
176
     1
 90
        0
176
     1
 62
     7
176
     1
 62
   257
176
     1
 90
        1
176
     1
 90
        1
176
     1
 40
1.0
176
     1
 90
        8
176
     1
 62
     7
176
     1
 40
1.0
176
     1
 90
        1
176
     1
 90
        6
176
     1
 90
        2
176
     1
 62
     7
176
     1
 90
        3
176
     1
 90
        0
176
     1
 90
        0
176
     1
290
     0
176
     1
 90
       13
176
     1
 40
0.0
176
     1
 90
        0
176
     1
290
     0
176
     1
290
     1
176
     1
290
     1
176
     1
290
     0
176
     1
290
     0
176
     1
290
     0
176
     1
290
     0
176
     1
290
     0
176
     1
290
     0
176
     1
 90
       50
176
     1
 40
0.0
176
     1
 40
1.0
176
     1
 90
        0
176
     1
 62
    18
420
        0
176
     1
 90
       50
176
     1
 90
        3
176
     1
 62
     5
420
      255
176
     1
290
     0
176
     1
 90
       50
176
     1
 90
       50
176
     1
 90
       50
176
     1
290
     0
176
     1
 90
       50
176
     1
 62
   256
176
     0
 40
1.0
176
     0
 90
        2
176
     1
  1
strokes_ogs.tif
176
     1
290
     0
176
     1
 40
1.0
176
     1
 40
1.0
176
     1
  0
DICTIONARYVAR
  5
228
102
{ACAD_REACTORS
330
227
102
}
330
227
100
DictionaryVariables
280
     0
  1
1:1
  0
DICTIONARYVAR
  5
22D
102
{ACAD_REACTORS
330
227
102
}
330
227
100
DictionaryVariables
280
     0
  1
Standard
  0
DICTIONARYVAR
  5
22C
102
{ACAD_REACTORS
330
227
102
}
330
227
100
DictionaryVariables
280
     0
  1
Standard
  0
DICTIONARY
  5
229
330
6A
100
AcDbDictionary
280
     1
281
     1
  3
ACAD_ROUNDTRIP_2008_TABLESTYLE_CELLSTYLEMAP
360
22A
  0
CELLSTYLEMAP
  5
22A
102
{ACAD_REACTORS
330
229
102
}
330
229
100
AcDbCellStyleMap
 90
        3
300
CELLSTYLE
  1
TABLEFORMAT_BEGIN
 90
        5
170
     1
 91
        0
 92
    32768
 62
   257
 93
        1
300
CONTENTFORMAT
  1
CONTENTFORMAT_BEGIN
 90
        0
 91
        0
 92
        4
 93
        0
300

 40
0.0
140
1.0
 94
        5
 62
     0
340
11
144
0.25
309
CONTENTFORMAT_END
171
     1
301
MARGIN
  1
CELLMARGIN_BEGIN
 40
0.06
 40
0.06
 40
0.06
 40
0.06
 40
0.06
 40
0.06
309
CELLMARGIN_END
 94
        6
 95
        1
302
GRIDFORMAT
  1
GRIDFORMAT_BEGIN
 90
        0
 91
        1
 62
     0
 92
       -2
340
14
 93
        0
 40
0.045
309
GRIDFORMAT_END
 95
        2
302
GRIDFORMAT
  1
GRIDFORMAT_BEGIN
 90
        0
 91
        1
 62
     0
 92
       -2
340
14
 93
        0
 40
0.045
309
GRIDFORMAT_END
 95
        4
302
GRIDFORMAT
  1
GRIDFORMAT_BEGIN
 90
        0
 91
        1
 62
     0
 92
       -2
340
14
 93
        0
 40
0.045
309
GRIDFORMAT_END
 95
        8
302
GRIDFORMAT
  1
GRIDFORMAT_BEGIN
 90
        0
 91
        1
 62
     0
 92
       -2
340
14
 93
        0
 40
0.045
309
GRIDFORMAT_END
 95
       16
302
GRIDFORMAT
  1
GRIDFORMAT_BEGIN
 90
        0
 91
        1
 62
     0
 92
       -2
340
14
 93
        0
 40
0.045
309
GRIDFORMAT_END
 95
       32
302
GRIDFORMAT
  1
GRIDFORMAT_BEGIN
 90
        0
 91
        1
 62
     0
 92
       -2
340
14
 93
        0
 40
0.045
309
GRIDFORMAT_END
309
TABLEFORMAT_END
  1
CELLSTYLE_BEGIN
 90
        1
 91
        1
300
_TITLE
309
CELLSTYLE_END
300
CELLSTYLE
  1
TABLEFORMAT_BEGIN
 90
        5
170
     1
 91
        0
 92
        0
 62
   257
 93
        1
300
CONTENTFORMAT
  1
CONTENTFORMAT_BEGIN
 90
        0
 91
        0
 92
        4
 93
        0
300

 40
0.0
140
1.0
 94
        5
 62
     0
340
11
144
0.18
309
CONTENTFORMAT_END
171
     1
301
MARGIN
  1
CELLMARGIN_BEGIN
 40
0.06
 40
0.06
 40
0.06
 40
0.06
 40
0.06
 40
0.06
309
CELLMARGIN_END
 94
        6
 95
        1
302
GRIDFORMAT
  1
GRIDFORMAT_BEGIN
 90
        0
 91
        1
 62
     0
 92
       -2
340
14
 93
        0
 40
0.045
309
GRIDFORMAT_END
 95
        2
302
GRIDFORMAT
  1
GRIDFORMAT_BEGIN
 90
        0
 91
        1
 62
     0
 92
       -2
340
14
 93
        0
 40
0.045
309
GRIDFORMAT_END
 95
        4
302
GRIDFORMAT
  1
GRIDFORMAT_BEGIN
 90
        0
 91
        1
 62
     0
 92
       -2
340
14
 93
        0
 40
0.045
309
GRIDFORMAT_END
 95
        8
302
GRIDFORMAT
  1
GRIDFORMAT_BEGIN
 90
        0
 91
        1
 62
     0
 92
       -2
340
14
 93
        0
 40
0.045
309
GRIDFORMAT_END
 95
       16
302
GRIDFORMAT
  1
GRIDFORMAT_BEGIN
 90
        0
 91
        1
 62
     0
 92
       -2
340
14
 93
        0
 40
0.045
309
GRIDFORMAT_END
 95
       32
302
GRIDFORMAT
  1
GRIDFORMAT_BEGIN
 90
        0
 91
        1
 62
     0
 92
       -2
340
14
 93
        0
 40
0.045
309
GRIDFORMAT_END
309
TABLEFORMAT_END
  1
CELLSTYLE_BEGIN
 90
        2
 91
        1
300
_HEADER
309
CELLSTYLE_END
300
CELLSTYLE
  1
TABLEFORMAT_BEGIN
 90
        5
170
     1
 91
        0
 92
        0
 62
   257
 93
        1
300
CONTENTFORMAT
  1
CONTENTFORMAT_BEGIN
 90
        0
 91
        0
 92
        4
 93
        0
300

 40
0.0
140
1.0
 94
        2
 62
     0
340
11
144
0.18
309
CONTENTFORMAT_END
171
     1
301
MARGIN
  1
CELLMARGIN_BEGIN
 40
0.06
 40
0.06
 40
0.06
 40
0.06
 40
0.06
 40
0.06
309
CELLMARGIN_END
 94
        6
 95
        1
302
GRIDFORMAT
  1
GRIDFORMAT_BEGIN
 90
        0
 91
        1
 62
     0
 92
       -2
340
14
 93
        0
 40
0.045
309
GRIDFORMAT_END
 95
        2
302
GRIDFORMAT
  1
GRIDFORMAT_BEGIN
 90
        0
 91
        1
 62
     0
 92
       -2
340
14
 93
        0
 40
0.045
309
GRIDFORMAT_END
 95
        4
302
GRIDFORMAT
  1
GRIDFORMAT_BEGIN
 90
        0
 91
        1
 62
     0
 92
       -2
340
14
 93
        0
 40
0.045
309
GRIDFORMAT_END
 95
        8
302
GRIDFORMAT
  1
GRIDFORMAT_BEGIN
 90
        0
 91
        1
 62
     0
 92
       -2
340
14
 93
        0
 40
0.045
309
GRIDFORMAT_END
 95
       16
302
GRIDFORMAT
  1
GRIDFORMAT_BEGIN
 90
        0
 91
        1
 62
     0
 92
       -2
340
14
 93
        0
 40
0.045
309
GRIDFORMAT_END
 95
       32
302
GRIDFORMAT
  1
GRIDFORMAT_BEGIN
 90
        0
 91
        1
 62
     0
 92
       -2
340
14
 93
        0
 40
0.045
309
GRIDFORMAT_END
309
TABLEFORMAT_END
  1
CELLSTYLE_BEGIN
 90
        3
 91
        2
300
_DATA
309
CELLSTYLE_END
  0
ENDSEC
  0
EOF