0
SECTION
  2
HEADER
  9
$ACADVER
  1
AC1027
  9
$ACADMAINTVER
 70
     8
  9
$DWGCODEPAGE
  3
ANSI_1252
  9
$REQUIREDVERSIONS
160
                 0
  9
$COMMENTS
  1
File was created by Cadenas
  9
$CUSTOMPROPERTYTAG
  1
NN
  9
$CUSTOMPROPERTY
  1
S-2000 Piloted Flange Trident Seal
  9
$CUSTOMPROPERTYTAG
  1
NT
  9
$CUSTOMPROPERTY
  1
S-2000 Piloted Flange Bearing -Inch
  9
$CUSTOMPROPERTYTAG
  1
NB
  9
$CUSTOMPROPERTY
  1
070679
  9
$CUSTOMPROPERTYTAG
  1
NBSYN
  9
$CUSTOMPROPERTY
  1
$PN.
  9
$CUSTOMPROPERTYTAG
  1
LINA
  9
$CUSTOMPROPERTY
  1
070679
  9
$CUSTOMPROPERTYTAG
  1
SS
  9
$CUSTOMPROPERTY
  1
2-3/16
  9
$CUSTOMPROPERTYTAG
  1
PN
  9
$CUSTOMPROPERTY
  1
070679
  9
$CUSTOMPROPERTYTAG
  1
DESCRIPTION
  9
$CUSTOMPROPERTY
  1
FC-S2-203RE
  9
$CUSTOMPROPERTYTAG
  1
EF
  9
$CUSTOMPROPERTY
  1
Expansion Type
  9
$CUSTOMPROPERTYTAG
  1
ST
  9
$CUSTOMPROPERTY
  1
Contact Seal
  9
$CUSTOMPROPERTYTAG
  1
A
  9
$CUSTOMPROPERTY
  1
2-15/16
  9
$CUSTOMPROPERTYTAG
  1
B
  9
$CUSTOMPROPERTY
  1
7-1/8
  9
$CUSTOMPROPERTYTAG
  1
C
  9
$CUSTOMPROPERTY
  1
2-3/16
  9
$CUSTOMPROPERTYTAG
  1
D
  9
$CUSTOMPROPERTY
  1
4-1/4
  9
$CUSTOMPROPERTYTAG
  1
DD
  9
$CUSTOMPROPERTY
  1
6
  9
$CUSTOMPROPERTYTAG
  1
E
  9
$CUSTOMPROPERTY
  1
1
  9
$CUSTOMPROPERTYTAG
  1
F
  9
$CUSTOMPROPERTY
  1
1/2
  9
$CUSTOMPROPERTYTAG
  1
G
  9
$CUSTOMPROPERTY
  1
1-9/16
  9
$CUSTOMPROPERTYTAG
  1
H
  9
$CUSTOMPROPERTY
  1
9/16
  9
$CUSTOMPROPERTYTAG
  1
K
  9
$CUSTOMPROPERTY
  1
5.000
  9
$CUSTOMPROPERTYTAG
  1
L
  9
$CUSTOMPROPERTY
  1
3-3/4
  9
$CUSTOMPROPERTYTAG
  1
M
  9
$CUSTOMPROPERTY
  1
1/2-13
  9
$CUSTOMPROPERTYTAG
  1
N
  9
$CUSTOMPROPERTY
  1
2-63/64
  9
$CUSTOMPROPERTYTAG
  1
P
  9
$CUSTOMPROPERTY
  1
1-3/8
  9
$CUSTOMPROPERTYTAG
  1
Q
  9
$CUSTOMPROPERTY
  1
1-27/64
  9
$CUSTOMPROPERTYTAG
  1
X
  9
$CUSTOMPROPERTY
  1
1/4
  9
$CUSTOMPROPERTYTAG
  1
Y
  9
$CUSTOMPROPERTY
  1
0.025
  9
$CUSTOMPROPERTYTAG
  1
Z
  9
$CUSTOMPROPERTY
  1
2-19/32
  9
$CUSTOMPROPERTYTAG
  1
COMPANY
  9
$CUSTOMPROPERTY
  1
baldor
  9
$INSBASE
 10
0.0
 20
0.0
 30
0.0
  9
$EXTMIN
 10
1.000000000000000E+20
 20
1.000000000000000E+20
 30
1.000000000000000E+20
  9
$EXTMAX
 10
-1.000000000000000E+20
 20
-1.000000000000000E+20
 30
-1.000000000000000E+20
  9
$LIMMIN
 10
0.0
 20
0.0
  9
$LIMMAX
 10
12.0
 20
9.0
  9
$ORTHOMODE
 70
     0
  9
$REGENMODE
 70
     1
  9
$FILLMODE
 70
     1
  9
$QTEXTMODE
 70
     0
  9
$MIRRTEXT
 70
     1
  9
$LTSCALE
 40
1.0
  9
$ATTMODE
 70
     1
  9
$TEXTSIZE
 40
0.2
  9
$TRACEWID
 40
0.05
  9
$TEXTSTYLE
  7
Standard
  9
$CLAYER
  8
0
  9
$CELTYPE
  6
ByLayer
  9
$CECOLOR
 62
   256
  9
$CELTSCALE
 40
1.0
  9
$DISPSILH
 70
     0
  9
$DIMSCALE
 40
1.0
  9
$DIMASZ
 40
0.18
  9
$DIMEXO
 40
0.0625
  9
$DIMDLI
 40
0.38
  9
$DIMRND
 40
0.0
  9
$DIMDLE
 40
0.0
  9
$DIMEXE
 40
0.18
  9
$DIMTP
 40
0.0
  9
$DIMTM
 40
0.0
  9
$DIMTXT
 40
0.18
  9
$DIMCEN
 40
0.09
  9
$DIMTSZ
 40
0.0
  9
$DIMTOL
 70
     0
  9
$DIMLIM
 70
     0
  9
$DIMTIH
 70
     1
  9
$DIMTOH
 70
     1
  9
$DIMSE1
 70
     0
  9
$DIMSE2
 70
     0
  9
$DIMTAD
 70
     0
  9
$DIMZIN
 70
     0
  9
$DIMBLK
  1

  9
$DIMASO
 70
     1
  9
$DIMSHO
 70
     1
  9
$DIMPOST
  1

  9
$DIMAPOST
  1

  9
$DIMALT
 70
     0
  9
$DIMALTD
 70
     2
  9
$DIMALTF
 40
25.4
  9
$DIMLFAC
 40
1.0
  9
$DIMTOFL
 70
     0
  9
$DIMTVP
 40
0.0
  9
$DIMTIX
 70
     0
  9
$DIMSOXD
 70
     0
  9
$DIMSAH
 70
     0
  9
$DIMBLK1
  1

  9
$DIMBLK2
  1

  9
$DIMSTYLE
  2
Standard
  9
$DIMCLRD
 70
     0
  9
$DIMCLRE
 70
     0
  9
$DIMCLRT
 70
     0
  9
$DIMTFAC
 40
1.0
  9
$DIMGAP
 40
0.09
  9
$DIMJUST
 70
     0
  9
$DIMSD1
 70
     0
  9
$DIMSD2
 70
     0
  9
$DIMTOLJ
 70
     1
  9
$DIMTZIN
 70
     0
  9
$DIMALTZ
 70
     0
  9
$DIMALTTZ
 70
     0
  9
$DIMUPT
 70
     0
  9
$DIMDEC
 70
     4
  9
$DIMTDEC
 70
     4
  9
$DIMALTU
 70
     2
  9
$DIMALTTD
 70
     2
  9
$DIMTXSTY
  7
Standard
  9
$DIMAUNIT
 70
     0
  9
$DIMADEC
 70
     0
  9
$DIMALTRND
 40
0.0
  9
$DIMAZIN
 70
     0
  9
$DIMDSEP
 70
    46
  9
$DIMATFIT
 70
     3
  9
$DIMFRAC
 70
     0
  9
$DIMLDRBLK
  1

  9
$DIMLUNIT
 70
     2
  9
$DIMLWD
 70
    -2
  9
$DIMLWE
 70
    -2
  9
$DIMTMOVE
 70
     0
  9
$DIMFXL
 40
1.0
  9
$DIMFXLON
 70
     0
  9
$DIMJOGANG
 40
0.7853981633974483
  9
$DIMTFILL
 70
     0
  9
$DIMTFILLCLR
 70
     0
  9
$DIMARCSYM
 70
     0
  9
$DIMLTYPE
  6

  9
$DIMLTEX1
  6

  9
$DIMLTEX2
  6

  9
$DIMTXTDIRECTION
 70
     0
  9
$LUNITS
 70
     2
  9
$LUPREC
 70
     4
  9
$SKETCHINC
 40
0.1
  9
$FILLETRAD
 40
0.5
  9
$AUNITS
 70
     0
  9
$AUPREC
 70
     0
  9
$MENU
  1
.
  9
$ELEVATION
 40
0.0
  9
$PELEVATION
 40
0.0
  9
$THICKNESS
 40
0.0
  9
$LIMCHECK
 70
     0
  9
$CHAMFERA
 40
0.0
  9
$CHAMFERB
 40
0.0
  9
$CHAMFERC
 40
0.0
  9
$CHAMFERD
 40
0.0
  9
$SKPOLY
 70
     0
  9
$TDCREATE
 40
2458168.985511319
  9
$TDUCREATE
 40
2458168.943844653
  9
$TDUPDATE
 40
2458168.985511505
  9
$TDUUPDATE
 40
2458168.943844838
  9
$TDINDWG
 40
0.0000000116
  9
$TDUSRTIMER
 40
0.0000000116
  9
$USRTIMER
 70
     1
  9
$ANGBASE
 50
0.0
  9
$ANGDIR
 70
     0
  9
$PDMODE
 70
     0
  9
$PDSIZE
 40
0.0
  9
$PLINEWID
 40
0.0
  9
$SPLFRAME
 70
     0
  9
$SPLINETYPE
 70
     6
  9
$SPLINESEGS
 70
     8
  9
$HANDSEED
  5
211
  9
$SURFTAB1
 70
     6
  9
$SURFTAB2
 70
     6
  9
$SURFTYPE
 70
     6
  9
$SURFU
 70
     6
  9
$SURFV
 70
     6
  9
$UCSBASE
  2

  9
$UCSNAME
  2

  9
$UCSORG
 10
0.0
 20
0.0
 30
0.0
  9
$UCSXDIR
 10
1.0
 20
0.0
 30
0.0
  9
$UCSYDIR
 10
0.0
 20
1.0
 30
0.0
  9
$UCSORTHOREF
  2

  9
$UCSORTHOVIEW
 70
     0
  9
$UCSORGTOP
 10
0.0
 20
0.0
 30
0.0
  9
$UCSORGBOTTOM
 10
0.0
 20
0.0
 30
0.0
  9
$UCSORGLEFT
 10
0.0
 20
0.0
 30
0.0
  9
$UCSORGRIGHT
 10
0.0
 20
0.0
 30
0.0
  9
$UCSORGFRONT
 10
0.0
 20
0.0
 30
0.0
  9
$UCSORGBACK
 10
0.0
 20
0.0
 30
0.0
  9
$PUCSBASE
  2

  9
$PUCSNAME
  2

  9
$PUCSORG
 10
0.0
 20
0.0
 30
0.0
  9
$PUCSXDIR
 10
1.0
 20
0.0
 30
0.0
  9
$PUCSYDIR
 10
0.0
 20
1.0
 30
0.0
  9
$PUCSORTHOREF
  2

  9
$PUCSORTHOVIEW
 70
     0
  9
$PUCSORGTOP
 10
0.0
 20
0.0
 30
0.0
  9
$PUCSORGBOTTOM
 10
0.0
 20
0.0
 30
0.0
  9
$PUCSORGLEFT
 10
0.0
 20
0.0
 30
0.0
  9
$PUCSORGRIGHT
 10
0.0
 20
0.0
 30
0.0
  9
$PUCSORGFRONT
 10
0.0
 20
0.0
 30
0.0
  9
$PUCSORGBACK
 10
0.0
 20
0.0
 30
0.0
  9
$USERI1
 70
     0
  9
$USERI2
 70
     0
  9
$USERI3
 70
     0
  9
$USERI4
 70
     0
  9
$USERI5
 70
     0
  9
$USERR1
 40
0.0
  9
$USERR2
 40
0.0
  9
$USERR3
 40
0.0
  9
$USERR4
 40
0.0
  9
$USERR5
 40
0.0
  9
$WORLDVIEW
 70
     1
  9
$SHADEDGE
 70
     3
  9
$SHADEDIF
 70
    70
  9
$TILEMODE
 70
     1
  9
$MAXACTVP
 70
    64
  9
$PINSBASE
 10
0.0
 20
0.0
 30
0.0
  9
$PLIMCHECK
 70
     0
  9
$PEXTMIN
 10
1.000000000000000E+20
 20
1.000000000000000E+20
 30
1.000000000000000E+20
  9
$PEXTMAX
 10
-1.000000000000000E+20
 20
-1.000000000000000E+20
 30
-1.000000000000000E+20
  9
$PLIMMIN
 10
0.0
 20
0.0
  9
$PLIMMAX
 10
12.0
 20
9.0
  9
$UNITMODE
 70
     0
  9
$VISRETAIN
 70
     1
  9
$PLINEGEN
 70
     0
  9
$PSLTSCALE
 70
     1
  9
$TREEDEPTH
 70
  3020
  9
$CMLSTYLE
  2
Standard
  9
$CMLJUST
 70
     0
  9
$CMLSCALE
 40
1.0
  9
$PROXYGRAPHICS
 70
     1
  9
$MEASUREMENT
 70
     0
  9
$CELWEIGHT
370
    -1
  9
$ENDCAPS
280
     0
  9
$JOINSTYLE
280
     0
  9
$LWDISPLAY
290
     0
  9
$INSUNITS
 70
     1
  9
$HYPERLINKBASE
  1

  9
$STYLESHEET
  1

  9
$XEDIT
290
     1
  9
$CEPSNTYPE
380
     0
  9
$PSTYLEMODE
290
     1
  9
$FINGERPRINTGUID
  2
{342A1022-762B-46B2-970C-79B89C79D42B}
  9
$VERSIONGUID
  2
{FAEB1C32-E019-11D5-929B-00C0DF256EC4}
  9
$EXTNAMES
290
     1
  9
$PSVPSCALE
 40
0.0
  9
$OLESTARTUP
290
     0
  9
$SORTENTS
280
   127
  9
$INDEXCTL
280
     0
  9
$HIDETEXT
280
     1
  9
$XCLIPFRAME
280
     2
  9
$HALOGAP
280
     0
  9
$OBSCOLOR
 70
   257
  9
$OBSLTYPE
280
     0
  9
$INTERSECTIONDISPLAY
280
     0
  9
$INTERSECTIONCOLOR
 70
   257
  9
$DIMASSOC
280
     2
  9
$PROJECTNAME
  1

  9
$CAMERADISPLAY
290
     0
  9
$LENSLENGTH
 40
50.0
  9
$CAMERAHEIGHT
 40
0.0
  9
$STEPSPERSEC
 40
2.0
  9
$STEPSIZE
 40
6.0
  9
$3DDWFPREC
 40
2.0
  9
$PSOLWIDTH
 40
0.25
  9
$PSOLHEIGHT
 40
4.0
  9
$LOFTANG1
 40
1.570796326794897
  9
$LOFTANG2
 40
1.570796326794897
  9
$LOFTMAG1
 40
0.0
  9
$LOFTMAG2
 40
0.0
  9
$LOFTPARAM
 70
     7
  9
$LOFTNORMALS
280
     1
  9
$LATITUDE
 40
37.795
  9
$LONGITUDE
 40
-122.394
  9
$NORTHDIRECTION
 40
0.0
  9
$TIMEZONE
 70
 -8000
  9
$LIGHTGLYPHDISPLAY
280
     1
  9
$TILEMODELIGHTSYNCH
280
     1
  9
$CMATERIAL
347
44
  9
$SOLIDHIST
280
     0
  9
$SHOWHIST
280
     1
  9
$DWFFRAME
280
     2
  9
$DGNFRAME
280
     2
  9
$REALWORLDSCALE
290
     1
  9
$INTERFERECOLOR
 62
   256
  9
$CSHADOW
280
     0
  9
$SHADOWPLANELOCATION
 40
0.0
  0
ENDSEC
  0
SECTION
  2
CLASSES
  0
CLASS
  1
ACDBDICTIONARYWDFLT
  2
AcDbDictionaryWithDefault
  3
ObjectDBX Classes
 90
        0
 91
        4
280
     0
281
     0
  0
CLASS
  1
VISUALSTYLE
  2
AcDbVisualStyle
  3
ObjectDBX Classes
 90
     4095
 91
        4
280
     0
281
     0
  0
CLASS
  1
MATERIAL
  2
AcDbMaterial
  3
ObjectDBX Classes
 90
     1153
 91
        4
280
     0
281
     0
  0
CLASS
  1
SCALE
  2
AcDbScale
  3
ObjectDBX Classes
 90
     1153
 91
        4
280
     0
281
     0
  0
CLASS
  1
TABLESTYLE
  2
AcDbTableStyle
  3
ObjectDBX Classes
 90
     4095
 91
        4
280
     0
281
     0
  0
CLASS
  1
MLEADERSTYLE
  2
AcDbMLeaderStyle
  3
ACDB_MLEADERSTYLE_CLASS
 90
     4095
 91
        4
280
     0
281
     0
  0
CLASS
  1
SUN
  2
AcDbSun
  3
SCENEOE
 90
     1153
 91
        4
280
     0
281
     0
  0
CLASS
  1
DICTIONARYVAR
  2
AcDbDictionaryVar
  3
ObjectDBX Classes
 90
        0
 91
        4
280
     0
281
     0
  0
CLASS
  1
CELLSTYLEMAP
  2
AcDbCellStyleMap
  3
ObjectDBX Classes
 90
     1152
 91
        4
280
     0
281
     0
  0
ENDSEC
  0
SECTION
  2
TABLES
  0
TABLE
  2
VPORT
  5
8
330
0
100
AcDbSymbolTable
 70
     1
  0
VPORT
  5
29
330
8
100
AcDbSymbolTableRecord
100
AcDbViewportTableRecord
  2
*Active
 70
     0
 10
0.0
 20
0.0
 11
1.0
 21
1.0
 12
0.4499999999999993
 22
0.0026138331024921
 13
0.0
 23
0.0
 14
0.5
 24
0.5
 15
0.5
 25
0.5
 16
0.0
 26
0.0
 36
1.0
 17
0.0
 27
0.0
 37
0.0
 40
7.262167780470915
 41
0.5653270654308372
 42
50.0
 43
0.0
 44
0.0
 50
0.0
 51
0.0
 71
     0
 72
   100
 73
     1
 74
     3
 75
     0
 76
     0
 77
     0
 78
     0
281
     0
 65
     1
110
0.0
120
0.0
130
0.0
111
1.0
121
0.0
131
0.0
112
0.0
122
1.0
132
0.0
 79
     0
146
0.0
348
2F
 60
     3
 61
     5
292
     1
282
     1
141
0.0
142
0.0
 63
   250
361
6D
  0
ENDTAB
  0
TABLE
  2
LTYPE
  5
5
330
0
100
AcDbSymbolTable
 70
     3
  0
LTYPE
  5
14
330
5
100
AcDbSymbolTableRecord
100
AcDbLinetypeTableRecord
  2
ByBlock
 70
     0
  3

 72
    65
 73
     0
 40
0.0
  0
LTYPE
  5
15
330
5
100
AcDbSymbolTableRecord
100
AcDbLinetypeTableRecord
  2
ByLayer
 70
     0
  3

 72
    65
 73
     0
 40
0.0
  0
LTYPE
  5
16
330
5
100
AcDbSymbolTableRecord
100
AcDbLinetypeTableRecord
  2
Continuous
 70
     0
  3
Solid line
 72
    65
 73
     0
 40
0.0
  0
LTYPE
  5
A7
330
5
100
AcDbSymbolTableRecord
100
AcDbLinetypeTableRecord
  2
Dashed
 70
     0
  3

 72
    65
 73
     2
 40
2.0
 49
1.0
 74
     0
 49
-1.0
 74
     0
  0
LTYPE
  5
151
330
5
100
AcDbSymbolTableRecord
100
AcDbLinetypeTableRecord
  2
Center
 70
     0
  3

 72
    65
 73
     4
 40
1.5
 49
0.45
 74
     0
 49
-0.5
 74
     0
 49
0.05
 74
     0
 49
-0.5
 74
     0
  0
ENDTAB
  0
TABLE
  2
LAYER
  5
2
330
0
100
AcDbSymbolTable
 70
     7
  0
LAYER
  5
10
330
2
100
AcDbSymbolTableRecord
100
AcDbLayerTableRecord
  2
0
 70
     0
 62
     7
  6
Continuous
370
    -3
390
F
347
46
348
0
  0
LAYER
  5
72
330
2
100
AcDbSymbolTableRecord
100
AcDbLayerTableRecord
  2
AM_6
 70
     0
 62
    -2
  6
Continuous
370
    35
390
F
347
46
348
0
  0
LAYER
  5
A8
330
2
100
AcDbSymbolTableRecord
100
AcDbLayerTableRecord
  2
AM_9
 70
     0
 62
     6
  6
Dashed
370
    25
390
F
347
46
348
0
  0
LAYER
  5
E1
330
2
100
AcDbSymbolTableRecord
100
AcDbLayerTableRecord
  2
AM_5
 70
     0
 62
     3
  6
Continuous
370
    25
390
F
347
46
348
0
  0
LAYER
  5
E6
330
2
100
AcDbSymbolTableRecord
100
AcDbLayerTableRecord
  2
AM_4
 70
     0
 62
     7
  6
Continuous
370
    50
390
F
347
46
348
0
  0
LAYER
  5
152
330
2
100
AcDbSymbolTableRecord
100
AcDbLayerTableRecord
  2
AM_7
 70
     0
 62
     7
  6
Center
370
    25
390
F
347
46
348
0
  0
LAYER
  5
1FD
330
2
100
AcDbSymbolTableRecord
100
AcDbLayerTableRecord
  2
ConnectionPoints
 70
     0
 62
     7
  6
Continuous
370
    50
390
F
347
46
348
0
  0
ENDTAB
  0
TABLE
  2
STYLE
  5
3
330
0
100
AcDbSymbolTable
 70
     1
  0
STYLE
  5
11
330
3
100
AcDbSymbolTableRecord
100
AcDbTextStyleTableRecord
  2
Standard
 70
     0
 40
0.0
 41
1.0
 50
0.0
 71
     0
 42
0.2
  3
txt
  4

  0
ENDTAB
  0
TABLE
  2
VIEW
  5
6
330
0
100
AcDbSymbolTable
 70
     0
  0
ENDTAB
  0
TABLE
  2
UCS
  5
7
330
0
100
AcDbSymbolTable
 70
     0
  0
ENDTAB
  0
TABLE
  2
APPID
  5
9
330
0
100
AcDbSymbolTable
 70
     1
  0
APPID
  5
12
330
9
100
AcDbSymbolTableRecord
100
AcDbRegAppTableRecord
  2
ACAD
 70
     0
  0
ENDTAB
  0
TABLE
  2
DIMSTYLE
  5
A
330
0
100
AcDbSymbolTable
 70
     1
100
AcDbDimStyleTable
  0
DIMSTYLE
105
27
330
A
100
AcDbSymbolTableRecord
100
AcDbDimStyleTableRecord
  2
Standard
 70
     0
178
     0
340
11
  0
ENDTAB
  0
TABLE
  2
BLOCK_RECORD
  5
1
330
0
100
AcDbSymbolTable
 70
     7
  0
BLOCK_RECORD
  5
1F
330
1
100
AcDbSymbolTableRecord
100
AcDbBlockTableRecord
  2
*Model_Space
340
22
 70
     0
280
     1
281
     0
  0
BLOCK_RECORD
  5
1B
330
1
100
AcDbSymbolTableRecord
100
AcDbBlockTableRecord
  2
*Paper_Space
340
1E
 70
     0
280
     1
281
     0
  0
BLOCK_RECORD
  5
23
330
1
100
AcDbSymbolTableRecord
100
AcDbBlockTableRecord
  2
*Paper_Space0
340
26
 70
     0
280
     1
281
     0
  0
BLOCK_RECORD
  5
6E
330
1
100
AcDbSymbolTableRecord
100
AcDbBlockTableRecord
  2
1_070679_2
340
0
102
{BLKREFS
331
6F
102
}
 70
     0
280
     1
281
     0
  0
BLOCK_RECORD
  5
90
330
1
100
AcDbSymbolTableRecord
100
AcDbBlockTableRecord
  2
2_2_3_16_Disc_0_in_070679_2
340
0
102
{BLKREFS
331
91
102
}
 70
     0
280
     1
281
     0
  0
BLOCK_RECORD
  5
B4
330
1
100
AcDbSymbolTableRecord
100
AcDbBlockTableRecord
  2
3_2_3_16CS2i_0_in_070679_2
340
0
102
{BLKREFS
331
B5
102
}
 70
     0
280
     1
281
     0
  0
BLOCK_RECORD
  5
F9
330
1
100
AcDbSymbolTableRecord
100
AcDbBlockTableRecord
  2
4_070007i_0_in_070679_2
340
0
102
{BLKREFS
331
FA
102
}
 70
     0
280
     1
281
     0
  0
BLOCK_RECORD
  5
15D
330
1
100
AcDbSymbolTableRecord
100
AcDbBlockTableRecord
  2
5_405015E_Inch_0_in_070679_2
340
0
102
{BLKREFS
331
15E
102
}
 70
     0
280
     1
281
     0
  0
BLOCK_RECORD
  5
19A
330
1
100
AcDbSymbolTableRecord
100
AcDbBlockTableRecord
  2
6_070679H_0_in_070679_2
340
0
102
{BLKREFS
331
19B
102
}
 70
     0
280
     1
281
     0
  0
ENDTAB
  0
ENDSEC
  0
SECTION
  2
BLOCKS
  0
BLOCK
  5
20
330
1F
100
AcDbEntity
  8
0
100
AcDbBlockBegin
  2
*Model_Space
 70
     0
 10
0.0
 20
0.0
 30
0.0
  3
*Model_Space
  1

  0
ENDBLK
  5
21
330
1F
100
AcDbEntity
  8
0
100
AcDbBlockEnd
  0
BLOCK
  5
1C
330
1B
100
AcDbEntity
 67
     1
  8
0
100
AcDbBlockBegin
  2
*Paper_Space
 70
     0
 10
0.0
 20
0.0
 30
0.0
  3
*Paper_Space
  1

  0
ENDBLK
  5
1D
330
1B
100
AcDbEntity
 67
     1
  8
0
100
AcDbBlockEnd
  0
BLOCK
  5
24
330
23
100
AcDbEntity
  8
0
100
AcDbBlockBegin
  2
*Paper_Space0
 70
     0
 10
0.0
 20
0.0
 30
0.0
  3
*Paper_Space0
  1

  0
ENDBLK
  5
25
330
23
100
AcDbEntity
  8
0
100
AcDbBlockEnd
  0
BLOCK
  5
70
330
6E
100
AcDbEntity
  8
0
100
AcDbBlockBegin
  2
1_070679_2
 70
     2
 10
0.0
 20
0.0
 30
0.0
  3
1_070679_2
  1

  0
ATTDEF
  5
73
330
6E
100
AcDbEntity
  8
AM_6
100
AcDbText
 10
6.771875
 20
3.5625
 30
0.0
 40
0.5
  1
S-2000 Piloted Flange Trident Seal
100
AcDbAttributeDefinition
  3

  2
NN
 70
     8
280
     0
  0
ATTDEF
  5
74
330
6E
100
AcDbEntity
  8
AM_6
100
AcDbText
 10
6.771875
 20
3.0625
 30
0.0
 40
0.5
  1
S-2000 Piloted Flange Bearing -Inch
100
AcDbAttributeDefinition
  3

  2
NT
 70
     8
280
     0
  0
ATTDEF
  5
75
330
6E
100
AcDbEntity
  8
AM_6
100
AcDbText
 10
6.771875
 20
2.5625
 30
0.0
 40
0.5
  1
070679
100
AcDbAttributeDefinition
  3

  2
NB
 70
     8
280
     0
  0
ATTDEF
  5
76
330
6E
100
AcDbEntity
  8
AM_6
100
AcDbText
 10
6.771875
 20
2.0625
 30
0.0
 40
0.5
  1
$PN.
100
AcDbAttributeDefinition
  3

  2
NBSYN
 70
     8
280
     0
  0
ATTDEF
  5
77
330
6E
100
AcDbEntity
  8
AM_6
100
AcDbText
 10
6.771875
 20
1.5625
 30
0.0
 40
0.5
  1
070679
100
AcDbAttributeDefinition
  3

  2
LINA
 70
     8
280
     0
  0
ATTDEF
  5
78
330
6E
100
AcDbEntity
  8
AM_6
100
AcDbText
 10
6.771875
 20
1.0625
 30
0.0
 40
0.5
  1
2-3/16
100
AcDbAttributeDefinition
  3

  2
SS
 70
     8
280
     0
  0
ATTDEF
  5
79
330
6E
100
AcDbEntity
  8
AM_6
100
AcDbText
 10
6.771875
 20
0.5625
 30
0.0
 40
0.5
  1
070679
100
AcDbAttributeDefinition
  3

  2
PN
 70
     8
280
     0
  0
ATTDEF
  5
7A
330
6E
100
AcDbEntity
  8
AM_6
100
AcDbText
 10
6.771875
 20
0.0625
 30
0.0
 40
0.5
  1
FC-S2-203RE
100
AcDbAttributeDefinition
  3

  2
DESCRIPTION
 70
     8
280
     0
  0
ATTDEF
  5
7B
330
6E
100
AcDbEntity
  8
AM_6
100
AcDbText
 10
6.771875
 20
-0.4375
 30
0.0
 40
0.5
  1
Expansion Type
100
AcDbAttributeDefinition
  3

  2
EF
 70
     8
280
     0
  0
ATTDEF
  5
7C
330
6E
100
AcDbEntity
  8
AM_6
100
AcDbText
 10
6.771875
 20
-0.9375
 30
0.0
 40
0.5
  1
Contact Seal
100
AcDbAttributeDefinition
  3

  2
ST
 70
     8
280
     0
  0
ATTDEF
  5
7D
330
6E
100
AcDbEntity
  8
AM_6
100
AcDbText
 10
6.771875
 20
-1.4375
 30
0.0
 40
0.5
  1
2-15/16
100
AcDbAttributeDefinition
  3

  2
A
 70
     8
280
     0
  0
ATTDEF
  5
7E
330
6E
100
AcDbEntity
  8
AM_6
100
AcDbText
 10
6.771875
 20
-1.9375
 30
0.0
 40
0.5
  1
7-1/8
100
AcDbAttributeDefinition
  3

  2
B
 70
     8
280
     0
  0
ATTDEF
  5
7F
330
6E
100
AcDbEntity
  8
AM_6
100
AcDbText
 10
6.771875
 20
-2.4375
 30
0.0
 40
0.5
  1
2-3/16
100
AcDbAttributeDefinition
  3

  2
C
 70
     8
280
     0
  0
ATTDEF
  5
80
330
6E
100
AcDbEntity
  8
AM_6
100
AcDbText
 10
6.771875
 20
-2.9375
 30
0.0
 40
0.5
  1
4-1/4
100
AcDbAttributeDefinition
  3

  2
D
 70
     8
280
     0
  0
ATTDEF
  5
81
330
6E
100
AcDbEntity
  8
AM_6
100
AcDbText
 10
6.771875
 20
-3.4375
 30
0.0
 40
0.5
  1
6
100
AcDbAttributeDefinition
  3

  2
DD
 70
     8
280
     0
  0
ATTDEF
  5
82
330
6E
100
AcDbEntity
  8
AM_6
100
AcDbText
 10
6.771875
 20
-3.9375
 30
0.0
 40
0.5
  1
1
100
AcDbAttributeDefinition
  3

  2
E
 70
     8
280
     0
  0
ATTDEF
  5
83
330
6E
100
AcDbEntity
  8
AM_6
100
AcDbText
 10
6.771875
 20
-4.4375
 30
0.0
 40
0.5
  1
1/2
100
AcDbAttributeDefinition
  3

  2
F
 70
     8
280
     0
  0
ATTDEF
  5
84
330
6E
100
AcDbEntity
  8
AM_6
100
AcDbText
 10
6.771875
 20
-4.9375
 30
0.0
 40
0.5
  1
1-9/16
100
AcDbAttributeDefinition
  3

  2
G
 70
     8
280
     0
  0
ATTDEF
  5
85
330
6E
100
AcDbEntity
  8
AM_6
100
AcDbText
 10
6.771875
 20
-5.4375
 30
0.0
 40
0.5
  1
9/16
100
AcDbAttributeDefinition
  3

  2
H
 70
     8
280
     0
  0
ATTDEF
  5
86
330
6E
100
AcDbEntity
  8
AM_6
100
AcDbText
 10
6.771875
 20
-5.9375
 30
0.0
 40
0.5
  1
5.000
100
AcDbAttributeDefinition
  3

  2
K
 70
     8
280
     0
  0
ATTDEF
  5
87
330
6E
100
AcDbEntity
  8
AM_6
100
AcDbText
 10
6.771875
 20
-6.4375
 30
0.0
 40
0.5
  1
3-3/4
100
AcDbAttributeDefinition
  3

  2
L
 70
     8
280
     0
  0
ATTDEF
  5
88
330
6E
100
AcDbEntity
  8
AM_6
100
AcDbText
 10
6.771875
 20
-6.9375
 30
0.0
 40
0.5
  1
1/2-13
100
AcDbAttributeDefinition
  3

  2
M
 70
     8
280
     0
  0
ATTDEF
  5
89
330
6E
100
AcDbEntity
  8
AM_6
100
AcDbText
 10
6.771875
 20
-7.4375
 30
0.0
 40
0.5
  1
2-63/64
100
AcDbAttributeDefinition
  3

  2
N
 70
     8
280
     0
  0
ATTDEF
  5
8A
330
6E
100
AcDbEntity
  8
AM_6
100
AcDbText
 10
6.771875
 20
-7.9375
 30
0.0
 40
0.5
  1
1-3/8
100
AcDbAttributeDefinition
  3

  2
P
 70
     8
280
     0
  0
ATTDEF
  5
8B
330
6E
100
AcDbEntity
  8
AM_6
100
AcDbText
 10
6.771875
 20
-8.4375
 30
0.0
 40
0.5
  1
1-27/64
100
AcDbAttributeDefinition
  3

  2
Q
 70
     8
280
     0
  0
ATTDEF
  5
8C
330
6E
100
AcDbEntity
  8
AM_6
100
AcDbText
 10
6.771875
 20
-8.9375
 30
0.0
 40
0.5
  1
1/4
100
AcDbAttributeDefinition
  3

  2
X
 70
     8
280
     0
  0
ATTDEF
  5
8D
330
6E
100
AcDbEntity
  8
AM_6
100
AcDbText
 10
6.771875
 20
-9.4375
 30
0.0
 40
0.5
  1
0.025
100
AcDbAttributeDefinition
  3

  2
Y
 70
     8
280
     0
  0
ATTDEF
  5
8E
330
6E
100
AcDbEntity
  8
AM_6
100
AcDbText
 10
6.771875
 20
-9.9375
 30
0.0
 40
0.5
  1
2-19/32
100
AcDbAttributeDefinition
  3

  2
Z
 70
     8
280
     0
  0
ATTDEF
  5
8F
330
6E
100
AcDbEntity
  8
AM_6
100
AcDbText
 10
6.771875
 20
-10.4375
 30
0.0
 40
0.5
  1
baldor
100
AcDbAttributeDefinition
  3

  2
COMPANY
 70
     8
280
     0
  0
INSERT
  5
91
330
6E
100
AcDbEntity
  8
0
100
AcDbBlockReference
  2
2_2_3_16_Disc_0_in_070679_2
 10
0.0
 20
0.0
 30
0.0
  0
INSERT
  5
B5
330
6E
100
AcDbEntity
  8
0
100
AcDbBlockReference
  2
3_2_3_16CS2i_0_in_070679_2
 10
0.0
 20
0.0
 30
0.0
  0
INSERT
  5
FA
330
6E
100
AcDbEntity
  8
0
100
AcDbBlockReference
  2
4_070007i_0_in_070679_2
 10
0.0
 20
0.0
 30
0.0
  0
INSERT
  5
15E
330
6E
100
AcDbEntity
  8
0
100
AcDbBlockReference
  2
5_405015E_Inch_0_in_070679_2
 10
0.0
 20
0.0
 30
0.0
  0
INSERT
  5
19B
330
6E
100
AcDbEntity
  8
0
100
AcDbBlockReference
  2
6_070679H_0_in_070679_2
 10
0.0
 20
0.0
 30
0.0
  0
ENDBLK
  5
71
330
6E
100
AcDbEntity
  8
0
100
AcDbBlockEnd
  0
BLOCK
  5
92
330
90
100
AcDbEntity
  8
0
100
AcDbBlockBegin
  2
2_2_3_16_Disc_0_in_070679_2
 70
     2
 10
0.0
 20
0.0
 30
0.0
  3
2_2_3_16_Disc_0_in_070679_2
  1

  0
ATTDEF
  5
94
330
90
100
AcDbEntity
  8
AM_6
100
AcDbText
 10
6.375
 20
1.9685
 30
0.0
 40
0.5
  1
S-2000 -Disc -Inch
100
AcDbAttributeDefinition
  3

  2
NN
 70
     8
280
     0
  0
ATTDEF
  5
95
330
90
100
AcDbEntity
  8
AM_6
100
AcDbText
 10
6.375
 20
1.4685
 30
0.0
 40
0.5
  1
S-2000 Bearings
100
AcDbAttributeDefinition
  3

  2
NT
 70
     8
280
     0
  0
ATTDEF
  5
96
330
90
100
AcDbEntity
  8
AM_6
100
AcDbText
 10
6.375
 20
0.9684999999999997
 30
0.0
 40
0.5
  1
2-3/16-Disc
100
AcDbAttributeDefinition
  3

  2
NB
 70
     8
280
     0
  0
ATTDEF
  5
97
330
90
100
AcDbEntity
  8
AM_6
100
AcDbText
 10
6.375
 20
0.4684999999999997
 30
0.0
 40
0.5
  1
$SS.-Disc
100
AcDbAttributeDefinition
  3

  2
NBSYN
 70
     8
280
     0
  0
ATTDEF
  5
98
330
90
100
AcDbEntity
  8
AM_6
100
AcDbText
 10
6.375
 20
-0.0315000000000003
 30
0.0
 40
0.5
  1
2-3/16-Disc
100
AcDbAttributeDefinition
  3

  2
LINA
 70
     8
280
     0
  0
ATTDEF
  5
99
330
90
100
AcDbEntity
  8
AM_6
100
AcDbText
 10
6.375
 20
-0.5315000000000003
 30
0.0
 40
0.5
  1
2-3/16
100
AcDbAttributeDefinition
  3

  2
SS
 70
     8
280
     0
  0
ATTDEF
  5
9A
330
90
100
AcDbEntity
  8
AM_6
100
AcDbText
 10
6.375
 20
-1.0315
 30
0.0
 40
0.5
  1
2.62
100
AcDbAttributeDefinition
  3

  2
CC
 70
     8
280
     0
  0
ATTDEF
  5
9B
330
90
100
AcDbEntity
  8
AM_6
100
AcDbText
 10
6.375
 20
-1.5315
 30
0.0
 40
0.5
  1
0.41
100
AcDbAttributeDefinition
  3

  2
CSD
 70
     8
280
     0
  0
ATTDEF
  5
9C
330
90
100
AcDbEntity
  8
AM_6
100
AcDbText
 10
6.375
 20
-2.0315
 30
0.0
 40
0.5
  1
2.187500
100
AcDbAttributeDefinition
  3

  2
SS1
 70
     8
280
     0
  0
ATTDEF
  5
9D
330
90
100
AcDbEntity
  8
AM_6
100
AcDbText
 10
6.375
 20
-2.5315
 30
0.0
 40
0.5
  1
3.9370
100
AcDbAttributeDefinition
  3

  2
A
 70
     8
280
     0
  0
ATTDEF
  5
9E
330
90
100
AcDbEntity
  8
AM_6
100
AcDbText
 10
6.375
 20
-3.0315
 30
0.0
 40
0.5
  1
1-3/64
100
AcDbAttributeDefinition
  3

  2
B
 70
     8
280
     0
  0
ATTDEF
  5
9F
330
90
100
AcDbEntity
  8
AM_6
100
AcDbText
 10
6.375
 20
-3.5315
 30
0.0
 40
0.5
  1
1.046875
100
AcDbAttributeDefinition
  3

  2
B1
 70
     8
280
     0
  0
ATTDEF
  5
A0
330
90
100
AcDbEntity
  8
AM_6
100
AcDbText
 10
6.375
 20
-4.0315
 30
0.0
 40
0.5
  1
2-15/16
100
AcDbAttributeDefinition
  3

  2
C
 70
     8
280
     0
  0
ATTDEF
  5
A1
330
90
100
AcDbEntity
  8
AM_6
100
AcDbText
 10
6.375
 20
-4.5315
 30
0.0
 40
0.5
  1
2.937500
100
AcDbAttributeDefinition
  3

  2
C1
 70
     8
280
     0
  0
ATTDEF
  5
A2
330
90
100
AcDbEntity
  8
AM_6
100
AcDbText
 10
6.375
 20
-5.0315
 30
0.0
 40
0.5
  1
1.050
100
AcDbAttributeDefinition
  3

  2
D
 70
     8
280
     0
  0
ATTDEF
  5
A3
330
90
100
AcDbEntity
  8
AM_6
100
AcDbText
 10
6.375
 20
-5.5315
 30
0.0
 40
0.5
  1
3-21/32
100
AcDbAttributeDefinition
  3

  2
E
 70
     8
280
     0
  0
ATTDEF
  5
A4
330
90
100
AcDbEntity
  8
AM_6
100
AcDbText
 10
6.375
 20
-6.0315
 30
0.0
 40
0.5
  1
3.656250
100
AcDbAttributeDefinition
  3

  2
E1
 70
     8
280
     0
  0
ATTDEF
  5
A5
330
90
100
AcDbEntity
  8
AM_6
100
AcDbText
 10
6.375
 20
-6.5315
 30
0.0
 40
0.5
  1
0.317
100
AcDbAttributeDefinition
  3

  2
F
 70
     8
280
     0
  0
ATTDEF
  5
A6
330
90
100
AcDbEntity
  8
AM_6
100
AcDbText
 10
6.375
 20
-7.0315
 30
0.0
 40
0.5
  1
baldor
100
AcDbAttributeDefinition
  3

  2
COMPANY
 70
     8
280
     0
  0
LINE
  5
A9
330
90
100
AcDbEntity
  8
AM_9
100
AcDbLine
 10
1.28125
 20
-1.31
 30
0.0
 11
1.375
 21
-1.31
 31
0.0
  0
LINE
  5
AA
330
90
100
AcDbEntity
  8
AM_9
100
AcDbLine
 10
1.375
 20
1.31
 30
0.0
 11
1.28125
 21
1.31
 31
0.0
  0
LINE
  5
AB
330
90
100
AcDbEntity
  8
AM_9
100
AcDbLine
 10
0.9749999999999999
 20
-1.87475
 30
0.0
 11
1.28125
 21
-1.87475
 31
0.0
  0
LINE
  5
AC
330
90
100
AcDbEntity
  8
AM_9
100
AcDbLine
 10
1.28125
 20
1.87475
 30
0.0
 11
0.9749999999999999
 21
1.87475
 31
0.0
  0
LINE
  5
AD
330
90
100
AcDbEntity
  8
AM_9
100
AcDbLine
 10
0.9749999999999999
 20
-1.9685
 30
0.0
 11
1.28125
 21
-1.9685
 31
0.0
  0
LINE
  5
AE
330
90
100
AcDbEntity
  8
AM_9
100
AcDbLine
 10
1.28125
 20
1.9685
 30
0.0
 11
0.9749999999999999
 21
1.9685
 31
0.0
  0
LINE
  5
AF
330
90
100
AcDbEntity
  8
AM_9
100
AcDbLine
 10
0.9749999999999999
 20
1.9685
 30
0.0
 11
0.9749999999999999
 21
-1.9685
 31
0.0
  0
LINE
  5
B0
330
90
100
AcDbEntity
  8
AM_9
100
AcDbLine
 10
1.375
 20
1.87475
 30
0.0
 11
1.375
 21
-1.87475
 31
0.0
  0
ARC
  5
B1
330
90
100
AcDbEntity
  8
AM_9
100
AcDbCircle
 10
1.28125
 20
-1.87475
 30
0.0
 40
0.09375
100
AcDbArc
 50
270.0
 51
0.0
  0
ARC
  5
B2
330
90
100
AcDbEntity
  8
AM_9
100
AcDbCircle
 10
1.28125
 20
1.87475
 30
0.0
 40
0.09375
100
AcDbArc
 50
0.0
 51
90.0
  0
LINE
  5
B3
330
90
100
AcDbEntity
  8
AM_9
100
AcDbLine
 10
1.28125
 20
1.9685
 30
0.0
 11
1.28125
 21
-1.9685
 31
0.0
  0
ENDBLK
  5
93
330
90
100
AcDbEntity
  8
0
100
AcDbBlockEnd
  0
BLOCK
  5
B6
330
B4
100
AcDbEntity
  8
0
100
AcDbBlockBegin
  2
3_2_3_16CS2i_0_in_070679_2
 70
     2
 10
0.0
 20
0.0
 30
0.0
  3
3_2_3_16CS2i_0_in_070679_2
  1

  0
ATTDEF
  5
B8
330
B4
100
AcDbEntity
  8
AM_6
100
AcDbText
 10
4.3215
 20
1.875
 30
0.0
 40
0.5
  1
S-2000 Collar -Inch
100
AcDbAttributeDefinition
  3

  2
NN
 70
     8
280
     0
  0
ATTDEF
  5
B9
330
B4
100
AcDbEntity
  8
AM_6
100
AcDbText
 10
4.3215
 20
1.375
 30
0.0
 40
0.5
  1
S-2000 Bearings
100
AcDbAttributeDefinition
  3

  2
NT
 70
     8
280
     0
  0
ATTDEF
  5
BA
330
B4
100
AcDbEntity
  8
AM_6
100
AcDbText
 10
4.3215
 20
0.875
 30
0.0
 40
0.5
  1
2-3/16CS2i
100
AcDbAttributeDefinition
  3

  2
NB
 70
     8
280
     0
  0
ATTDEF
  5
BB
330
B4
100
AcDbEntity
  8
AM_6
100
AcDbText
 10
4.3215
 20
0.375
 30
0.0
 40
0.5
  1
$BORE.CS2i
100
AcDbAttributeDefinition
  3

  2
NBSYN
 70
     8
280
     0
  0
ATTDEF
  5
BC
330
B4
100
AcDbEntity
  8
AM_6
100
AcDbText
 10
4.3215
 20
-0.125
 30
0.0
 40
0.5
  1
2-3/16CS2i
100
AcDbAttributeDefinition
  3

  2
LINA
 70
     8
280
     0
  0
ATTDEF
  5
BD
330
B4
100
AcDbEntity
  8
AM_6
100
AcDbText
 10
4.3215
 20
-0.625
 30
0.0
 40
0.5
  1
2-3/16
100
AcDbAttributeDefinition
  3

  2
BORE
 70
     8
280
     0
  0
ATTDEF
  5
BE
330
B4
100
AcDbEntity
  8
AM_6
100
AcDbText
 10
4.3215
 20
-1.125
 30
0.0
 40
0.5
  1
2.187500
100
AcDbAttributeDefinition
  3

  2
BORE1
 70
     8
280
     0
  0
ATTDEF
  5
BF
330
B4
100
AcDbEntity
  8
AM_6
100
AcDbText
 10
4.3215
 20
-1.625
 30
0.0
 40
0.5
  1
3-3/4
100
AcDbAttributeDefinition
  3

  2
L1
 70
     8
280
     0
  0
ATTDEF
  5
C0
330
B4
100
AcDbEntity
  8
AM_6
100
AcDbText
 10
4.3215
 20
-2.125
 30
0.0
 40
0.5
  1
3.75000
100
AcDbAttributeDefinition
  3

  2
L
 70
     8
280
     0
  0
ATTDEF
  5
C1
330
B4
100
AcDbEntity
  8
AM_6
100
AcDbText
 10
4.3215
 20
-2.625
 30
0.0
 40
0.5
  1
3.65625
100
AcDbAttributeDefinition
  3

  2
L2
 70
     8
280
     0
  0
ATTDEF
  5
C2
330
B4
100
AcDbEntity
  8
AM_6
100
AcDbText
 10
4.3215
 20
-3.125
 30
0.0
 40
0.5
  1
3.75
100
AcDbAttributeDefinition
  3

  2
A
 70
     8
280
     0
  0
ATTDEF
  5
C3
330
B4
100
AcDbEntity
  8
AM_6
100
AcDbText
 10
4.3215
 20
-3.625
 30
0.0
 40
0.5
  1
1.66
100
AcDbAttributeDefinition
  3

  2
B
 70
     8
280
     0
  0
ATTDEF
  5
C4
330
B4
100
AcDbEntity
  8
AM_6
100
AcDbText
 10
4.3215
 20
-4.125
 30
0.0
 40
0.5
  1
2.62
100
AcDbAttributeDefinition
  3

  2
C
 70
     8
280
     0
  0
ATTDEF
  5
C5
330
B4
100
AcDbEntity
  8
AM_6
100
AcDbText
 10
4.3215
 20
-4.625
 30
0.0
 40
0.5
  1
3.81
100
AcDbAttributeDefinition
  3

  2
D
 70
     8
280
     0
  0
ATTDEF
  5
C6
330
B4
100
AcDbEntity
  8
AM_6
100
AcDbText
 10
4.3215
 20
-5.125
 30
0.0
 40
0.5
  1
0.41
100
AcDbAttributeDefinition
  3

  2
E
 70
     8
280
     0
  0
ATTDEF
  5
C7
330
B4
100
AcDbEntity
  8
AM_6
100
AcDbText
 10
4.3215
 20
-5.625
 30
0.0
 40
0.5
  1
0.317
100
AcDbAttributeDefinition
  3

  2
F
 70
     8
280
     0
  0
ATTDEF
  5
C8
330
B4
100
AcDbEntity
  8
AM_6
100
AcDbText
 10
4.3215
 20
-6.125
 30
0.0
 40
0.5
  1
3/8-16
100
AcDbAttributeDefinition
  3

  2
CS
 70
     8
280
     0
  0
ATTDEF
  5
C9
330
B4
100
AcDbEntity
  8
AM_6
100
AcDbText
 10
4.3215
 20
-6.625
 30
0.0
 40
0.5
  1
0.3750
100
AcDbAttributeDefinition
  3

  2
NDM
 70
     8
280
     0
  0
ATTDEF
  5
CA
330
B4
100
AcDbEntity
  8
AM_6
100
AcDbText
 10
4.3215
 20
-7.125
 30
0.0
 40
0.5
  1
0.3070
100
AcDbAttributeDefinition
  3

  2
KDM
 70
     8
280
     0
  0
ATTDEF
  5
CB
330
B4
100
AcDbEntity
  8
AM_6
100
AcDbText
 10
4.3215
 20
-7.625
 30
0.0
 40
0.5
  1
1
100
AcDbAttributeDefinition
  3

  2
DD
 70
     8
280
     0
  0
ATTDEF
  5
CC
330
B4
100
AcDbEntity
  8
AM_6
100
AcDbText
 10
4.3215
 20
-8.125
 30
0.0
 40
0.5
  1
baldor
100
AcDbAttributeDefinition
  3

  2
COMPANY
 70
     8
280
     0
  0
LINE
  5
CD
330
B4
100
AcDbEntity
  8
AM_9
100
AcDbLine
 10
-0.8418499999999998
 20
1.318849999999998
 30
0.0
 11
-0.8418499999999998
 21
1.84115
 31
0.0
  0
LINE
  5
CE
330
B4
100
AcDbEntity
  8
AM_9
100
AcDbLine
 10
-1.14915
 20
1.828083329217944
 30
0.0
 11
-1.14915
 21
1.318849999999998
 31
0.0
  0
LINE
  5
CF
330
B4
100
AcDbEntity
  8
AM_9
100
AcDbLine
 10
-1.14915
 20
1.318849999999998
 30
0.0
 11
-0.8418499999999998
 21
1.318849999999998
 31
0.0
  0
LINE
  5
D0
330
B4
100
AcDbEntity
  8
AM_9
100
AcDbLine
 10
-1.14915
 20
1.318849999999998
 30
0.0
 11
-1.15778557603507
 21
1.310214423964929
 31
0.0
  0
LINE
  5
D1
330
B4
100
AcDbEntity
  8
AM_9
100
AcDbLine
 10
-0.833257778627882
 20
1.310257778627881
 30
0.0
 11
-0.8418499999999998
 21
1.318849999999998
 31
0.0
  0
LINE
  5
D2
330
B4
100
AcDbEntity
  8
AM_9
100
AcDbLine
 10
-0.9954999999999998
 20
1.84115
 30
0.0
 11
-0.8418499999999998
 21
1.84115
 31
0.0
  0
LINE
  5
D3
330
B4
100
AcDbEntity
  8
AM_9
100
AcDbLine
 10
-0.8418499999999998
 20
1.84115
 30
0.0
 11
-0.8079999999999998
 21
1.875
 31
0.0
  0
LWPOLYLINE
  5
D4
330
B4
100
AcDbEntity
  8
AM_9
100
AcDbPolyline
 90
       39
 70
     0
 43
0.0
 10
-0.8752397954003344
 20
0.4454553340870209
 10
-0.8606021573955065
 20
0.4643138121682407
 10
-0.8489096928570703
 20
0.4847808473524228
 10
-0.8390817706221803
 20
0.5106664144202897
 10
-0.8338579159082086
 20
0.5374299934606555
 10
-0.833461035959137
 20
0.5652383606843941
 10
-0.8380944244189178
 20
0.5924289346763261
 10
-0.8478302234453635
 20
0.6184493365590064
 10
-0.8623821778929859
 20
0.642358272311616
 10
-0.8811114805471887
 20
0.663065224660515
 10
-0.9037406006762146
 20
0.6804170158894296
 10
-0.928299513172281
 20
0.6931552315099777
 10
-0.9551405960750726
 20
0.7018609413282767
 10
-0.9813068790595092
 20
0.705941141979617
 10
-1.007913312255015
 20
0.7060923853880126
 10
-1.032858590402661
 20
0.7025249528871632
 10
-1.056772864413716
 20
0.6955229844667069
 10
-1.079271781918626
 20
0.6851391771507512
 10
-1.099580400446549
 20
0.6717929184556499
 10
-1.118228298023222
 20
0.6547784583698778
 10
-1.133588966392302
 20
0.6352898679140677
 10
-1.146024895961858
 20
0.6122153586641237
 10
-1.154155558172997
 20
0.5874328238680538
 10
-1.15783772390218
 20
0.560305729893561
 10
-1.156568765370067
 20
0.5327047496794325
 10
-1.150161891818041
 20
0.5049295051250278
 10
-1.138792117539707
 20
0.478284828221489
 10
-1.12279549681806
 20
0.4538558976382238
 10
-1.102513127851825
 20
0.4322506495427493
 10
-1.079424217417115
 20
0.4150329933045249
 10
-1.053454832298562
 20
0.4019704520501974
 10
-1.027398493763943
 20
0.3942096675082308
 10
-1.000314561680349
 20
0.3909818634271393
 10
-0.9747840041108466
 20
0.3923016508464801
 10
-0.9498454899562547
 20
0.3976903300900806
 10
-0.926420787962261
 20
0.4068619817596912
 10
-0.9048175490326126
 20
0.419424355920897
 10
-0.8892005411986185
 20
0.4316234110462981
 10
-0.8752397954003345
 20
0.4454553340870212
  0
LINE
  5
D5
330
B4
100
AcDbEntity
  8
AM_9
100
AcDbLine
 10
-1.3125
 20
-1.31
 30
0.0
 11
-0.6784999999999999
 21
-1.31
 31
0.0
  0
LINE
  5
D6
330
B4
100
AcDbEntity
  8
AM_9
100
AcDbLine
 10
-0.6784999999999999
 20
1.31
 30
0.0
 11
-0.8336005471418501
 21
1.31
 31
0.0
  0
LINE
  5
D7
330
B4
100
AcDbEntity
  8
AM_9
100
AcDbLine
 10
-1.157500242803868
 20
1.31
 30
0.0
 11
-1.3125
 21
1.31
 31
0.0
  0
LWPOLYLINE
  5
D8
330
B4
100
AcDbEntity
  8
AM_9
100
AcDbPolyline
 90
       21
 70
     0
 43
0.0
 10
-1.157999999999663
 20
1.309999999999953
 10
-1.15780277892769
 20
1.309972087359224
 10
-1.15377641594891
 20
1.309409357790498
 10
-1.14485444446062
 20
1.308210936201127
 10
-1.130707843527011
 20
1.306448665357621
 10
-1.112812488178497
 20
1.304463909932972
 10
-1.090260408416192
 20
1.302355736591321
 10
-1.066384898216064
 20
1.300606511345046
 10
-1.039227222146959
 20
1.29922599636072
 10
-1.013482440638728
 20
1.298520061078894
 10
-0.9863344290798584
 20
1.298413625064043
 10
-0.9616116484080387
 20
1.298886781313496
 10
-0.937152034726319
 20
1.299888341515009
 10
-0.9147359880339715
 20
1.301269778693122
 10
-0.8939016015487252
 20
1.302948380784639
 10
-0.8751573910766544
 20
1.304780658154192
 10
-0.8592160685789437
 20
1.306576741861005
 10
-0.8464358508653559
 20
1.30817306980801
 10
-0.8376464882929125
 20
1.309351040898662
 10
-0.8333644462037706
 20
1.309948445529012
 10
-0.8330000000001614
 20
1.309999999999977
  0
ELLIPSE
  5
D9
330
B4
100
AcDbEntity
  8
AM_9
100
AcDbEllipse
 10
-0.9954999999999993
 20
0.5573700944967205
 30
0.0
 11
0.1536500000000004
 21
0.0
 31
0.0
210
0.0
220
0.0
230
1.0
 40
0.90630778703665
 41
2.264932441922299
 42
3.141592653589793
  0
LINE
  5
DA
330
B4
100
AcDbEntity
  8
AM_9
100
AcDbLine
 10
-0.8418499999999997
 20
0.5573700944967208
 30
0.0
 11
-0.8418499999999997
 21
0.7781036126038889
 31
0.0
  0
LINE
  5
DB
330
B4
100
AcDbEntity
  8
AM_9
100
AcDbLine
 10
-1.14915
 20
0.7725814182623202
 30
0.0
 11
-1.14915
 21
0.5573700944967208
 31
0.0
  0
ELLIPSE
  5
DC
330
B4
100
AcDbEntity
  8
AM_9
100
AcDbEllipse
 10
-0.9954999999999997
 20
0.5573700944967208
 30
0.0
 11
0.1536499999999999
 21
2.289563417434692E-9
 31
0.0
210
0.0
220
0.0
230
1.0
 40
0.9063077870366504
 41
3.141592653589793
 42
7.198174656513755
  0
LINE
  5
DD
330
B4
100
AcDbEntity
  8
AM_9
100
AcDbLine
 10
-0.9954999999999998
 20
0.6388494211257076
 30
0.0
 11
-0.9954999999999998
 21
0.9091195285357462
 31
0.0
  0
LINE
  5
DE
330
B4
100
AcDbEntity
  8
AM_9
100
AcDbLine
 10
-0.7656250000000001
 20
-1.875
 30
0.0
 11
-0.6784999999999999
 21
-1.875
 31
0.0
  0
LINE
  5
DF
330
B4
100
AcDbEntity
  8
AM_9
100
AcDbLine
 10
-0.6784999999999999
 20
1.875
 30
0.0
 11
-0.7656250000000001
 21
1.875
 31
0.0
  0
LINE
  5
E0
330
B4
100
AcDbEntity
  8
AM_9
100
AcDbLine
 10
-0.6784999999999999
 20
1.875
 30
0.0
 11
-0.6784999999999999
 21
-1.875
 31
0.0
  0
LINE
  5
E2
330
B4
100
AcDbEntity
  8
AM_5
100
AcDbLine
 10
-1.183
 20
1.828125
 30
0.0
 11
-1.183
 21
1.31
 31
0.0
  0
LINE
  5
E3
330
B4
100
AcDbEntity
  8
AM_5
100
AcDbLine
 10
-1.08925
 20
1.285
 30
0.0
 11
-1.183
 21
1.285
 31
0.0
  0
LINE
  5
E4
330
B4
100
AcDbEntity
  8
AM_5
100
AcDbLine
 10
-0.8079999999999998
 20
1.875
 30
0.0
 11
-0.8079999999999998
 21
1.31
 31
0.0
  0
LINE
  5
E5
330
B4
100
AcDbEntity
  8
AM_5
100
AcDbLine
 10
-0.9017499999999997
 20
1.285
 30
0.0
 11
-0.8079999999999998
 21
1.285
 31
0.0
  0
ELLIPSE
  5
E7
330
B4
100
AcDbEntity
  8
AM_4
100
AcDbEllipse
 10
-0.9954999999999996
 20
0.5573700944967203
 30
0.0
 11
0.1536500000000003
 21
0.0
 31
0.0
210
0.0
220
0.0
230
1.0
 40
0.9063077870366516
 41
1.570796326794897
 42
2.264932441922297
  0
LWPOLYLINE
  5
E8
330
B4
100
AcDbEntity
  8
AM_4
100
AcDbPolyline
 90
       11
 70
     0
 43
0.0
 10
-1.149149999327498
 20
0.7725859809452943
 10
-1.148146716688784
 20
0.7884511023625607
 10
-1.143047203614805
 20
0.8111928557821327
 10
-1.133819800313571
 20
0.8327158002328813
 10
-1.120653009545071
 20
0.8524401189313028
 10
-1.103980178782845
 20
0.8698476952719474
 10
-1.084158694300662
 20
0.884493413076928
 10
-1.061832860650557
 20
0.8959843133612968
 10
-1.037598999109214
 20
0.9039823090238623
 10
-1.012170305966225
 20
0.908329740602742
 10
-0.9954999999999997
 20
0.9091195285357462
  0
ELLIPSE
  5
E9
330
B4
100
AcDbEntity
  8
AM_4
100
AcDbEllipse
 10
-0.9954999999999993
 20
0.7781036126038892
 30
0.0
 11
0.1536499999999996
 21
0.0
 31
0.0
210
0.0
220
0.0
230
1.0
 40
0.9063077870366495
 41
4.71238898038469
 42
7.853981633974483
  0
ELLIPSE
  5
EA
330
B4
100
AcDbEntity
  8
AM_4
100
AcDbEllipse
 10
-0.9954999999999997
 20
0.5573700944967204
 30
0.0
 11
0.1536499999999998
 21
0.0
 31
0.0
210
0.0
220
0.0
230
1.0
 40
0.9063077870366533
 41
0.9149893639311877
 42
1.570796326794897
  0
LINE
  5
EB
330
B4
100
AcDbEntity
  8
AM_4
100
AcDbLine
 10
-0.9954999999999998
 20
-1.875
 30
0.0
 11
-0.9954999999999997
 21
0.6388494211257076
 31
0.0
  0
LINE
  5
EC
330
B4
100
AcDbEntity
  8
AM_4
100
AcDbLine
 10
-1.3125
 20
1.722458333333333
 30
0.0
 11
-1.3125
 21
-1.722458333333333
 31
0.0
  0
ARC
  5
ED
330
B4
100
AcDbEntity
  8
AM_4
100
AcDbCircle
 10
-1.206833333333334
 20
-1.722458333333334
 30
0.0
 40
0.1056666666666657
100
AcDbArc
 50
180.0
 51
270.0
  0
ARC
  5
EE
330
B4
100
AcDbEntity
  8
AM_4
100
AcDbCircle
 10
-1.206833333333334
 20
1.722458333333334
 30
0.0
 40
0.1056666666666657
100
AcDbArc
 50
90.0
 51
180.0
  0
LWPOLYLINE
  5
EF
330
B4
100
AcDbEntity
  8
AM_4
100
AcDbPolyline
 90
       11
 70
     0
 43
0.0
 10
-0.9954999999999997
 20
0.6306111455793838
 10
-1.021242001669665
 20
0.6326715615160058
 10
-1.04625716217025
 20
0.6387275175994213
 10
-1.069818464068364
 20
0.6486412483761171
 10
-1.091290533406881
 20
0.6620494027104202
 10
-1.110076072959489
 20
0.678624305216736
 10
-1.125637133692954
 20
0.6977944319457977
 10
-1.13750015575863
 20
0.7190480958209339
 10
-1.145353561651678
 20
0.7417016029853343
 10
-1.148908641025081
 20
0.7650447766126816
 10
-1.149149999327498
 20
0.7725859809452943
  0
LWPOLYLINE
  5
F0
330
B4
100
AcDbEntity
  8
AM_4
100
AcDbPolyline
 90
       11
 70
     0
 43
0.0
 10
-0.9954999999999998
 20
1.821656579359842
 10
-1.020878581085125
 20
1.821833352835241
 10
-1.046257162170251
 20
1.822363570376827
 10
-1.069503068523618
 20
1.823159111892298
 10
-1.091290533406881
 20
1.824173379757356
 10
-1.109840658393714
 20
1.825241485197755
 10
-1.125637133692954
 20
1.826299090152218
 10
-1.137371482833742
 20
1.827172736980947
 10
-1.145353561651678
 20
1.827809832303321
 10
-1.148903588022121
 20
1.828104306089524
 10
-1.149149999999967
 20
1.828124999999997
  0
LINE
  5
F1
330
B4
100
AcDbEntity
  8
AM_4
100
AcDbLine
 10
-1.206833333333333
 20
-1.828125
 30
0.0
 11
-0.9954999999999998
 21
-1.828125
 31
0.0
  0
LINE
  5
F2
330
B4
100
AcDbEntity
  8
AM_4
100
AcDbLine
 10
-1.148652582670805
 20
1.828125
 30
0.0
 11
-1.206833333333333
 21
1.828125
 31
0.0
  0
LINE
  5
F3
330
B4
100
AcDbEntity
  8
AM_4
100
AcDbLine
 10
-1.206833333333333
 20
1.828125
 30
0.0
 11
-1.206833333333333
 21
-1.828125
 31
0.0
  0
LINE
  5
F4
330
B4
100
AcDbEntity
  8
AM_4
100
AcDbLine
 10
-0.9954999999999998
 20
1.866441760747098
 30
0.0
 11
-0.9954999999999997
 21
0.9091195285357462
 31
0.0
  0
LWPOLYLINE
  5
F5
330
B4
100
AcDbEntity
  8
AM_4
100
AcDbPolyline
 90
       20
 70
     0
 43
0.0
 10
-0.9954999999999997
 20
0.9509686837583332
 10
-0.9720487476728941
 20
0.9497457225902538
 10
-0.9489373211729832
 20
0.9461032026400715
 10
-0.9182606613516437
 20
0.9371612471520933
 10
-0.888948797452761
 20
0.9233682836411279
 10
-0.8639885404485015
 20
0.9061169709416094
 10
-0.842202054368457
 20
0.8845362938933454
 10
-0.8262241322608319
 20
0.861433367201112
 10
-0.8147361158495088
 20
0.8351969922119378
 10
-0.8090221591861
 20
0.8090871796794104
 10
-0.808365128966385
 20
0.7822885537201293
 10
-0.8126583221718021
 20
0.7564098740115107
 10
-0.8215760161023742
 20
0.7313679146634914
 10
-0.8349543477953042
 20
0.7077554413852051
 10
-0.852262372346376
 20
0.6863127232992426
 10
-0.8738371609930761
 20
0.6669855299075292
 10
-0.8984396499179718
 20
0.6510432254022286
 10
-0.926719315209771
 20
0.6384454793256094
 10
-0.9567938762564702
 20
0.6302703343762718
 10
-0.9954999999999997
 20
0.626616061376045
  0
LINE
  5
F6
330
B4
100
AcDbEntity
  8
AM_4
100
AcDbLine
 10
-0.9954999999999998
 20
-1.875
 30
0.0
 11
-0.7656250000000001
 21
-1.875
 31
0.0
  0
LINE
  5
F7
330
B4
100
AcDbEntity
  8
AM_4
100
AcDbLine
 10
-0.7656250000000001
 20
1.875
 30
0.0
 11
-0.8079999999999998
 21
1.875
 31
0.0
  0
LWPOLYLINE
  5
F8
330
B4
100
AcDbEntity
  8
AM_4
100
AcDbPolyline
 90
       11
 70
     0
 43
0.0
 10
-0.8080000000000396
 20
1.874999999999996
 10
-0.8083651289663851
 20
1.87496683824421
 10
-0.8125470779743987
 20
1.874591560735137
 10
-0.8215760161023741
 20
1.873809810684511
 10
-0.8347365016852815
 20
1.872740227696645
 10
-0.852262372346376
 20
1.871444967628002
 10
-0.8735254389910172
 20
1.870072237051632
 10
-0.8984396499179719
 20
1.868742094251962
 10
-0.9263227844304371
 20
1.867610918815138
 10
-0.9567938762564702
 20
1.866807925783103
 10
-0.9954999999999998
 20
1.866441760747098
  0
ENDBLK
  5
B7
330
B4
100
AcDbEntity
  8
0
100
AcDbBlockEnd
  0
BLOCK
  5
FB
330
F9
100
AcDbEntity
  8
0
100
AcDbBlockBegin
  2
4_070007i_0_in_070679_2
 70
     2
 10
0.0
 20
0.0
 30
0.0
  3
4_070007i_0_in_070679_2
  1

  0
ATTDEF
  5
FD
330
F9
100
AcDbEntity
  8
AM_6
100
AcDbText
 10
6.771875
 20
1.9685
 30
0.0
 40
0.5
  1
S-2000 Insert -Inch
100
AcDbAttributeDefinition
  3

  2
NN
 70
     8
280
     0
  0
ATTDEF
  5
FE
330
F9
100
AcDbEntity
  8
AM_6
100
AcDbText
 10
6.771875
 20
1.4685
 30
0.0
 40
0.5
  1
S-2000 Bearings
100
AcDbAttributeDefinition
  3

  2
NT
 70
     8
280
     0
  0
ATTDEF
  5
FF
330
F9
100
AcDbEntity
  8
AM_6
100
AcDbText
 10
6.771875
 20
0.9684999999999997
 30
0.0
 40
0.5
  1
070007i
100
AcDbAttributeDefinition
  3

  2
NB
 70
     8
280
     0
  0
ATTDEF
  5
100
330
F9
100
AcDbEntity
  8
AM_6
100
AcDbText
 10
6.771875
 20
0.4684999999999997
 30
0.0
 40
0.5
  1
$PN.i
100
AcDbAttributeDefinition
  3

  2
NBSYN
 70
     8
280
     0
  0
ATTDEF
  5
101
330
F9
100
AcDbEntity
  8
AM_6
100
AcDbText
 10
6.771875
 20
-0.0315000000000003
 30
0.0
 40
0.5
  1
070007i
100
AcDbAttributeDefinition
  3

  2
LINA
 70
     8
280
     0
  0
ATTDEF
  5
102
330
F9
100
AcDbEntity
  8
AM_6
100
AcDbText
 10
6.771875
 20
-0.5315000000000003
 30
0.0
 40
0.5
  1
2-3/16
100
AcDbAttributeDefinition
  3

  2
SS
 70
     8
280
     0
  0
ATTDEF
  5
103
330
F9
100
AcDbEntity
  8
AM_6
100
AcDbText
 10
6.771875
 20
-1.0315
 30
0.0
 40
0.5
  1
2.62
100
AcDbAttributeDefinition
  3

  2
CC
 70
     8
280
     0
  0
ATTDEF
  5
104
330
F9
100
AcDbEntity
  8
AM_6
100
AcDbText
 10
6.771875
 20
-1.5315
 30
0.0
 40
0.5
  1
2.187500
100
AcDbAttributeDefinition
  3

  2
SS1
 70
     8
280
     0
  0
ATTDEF
  5
105
330
F9
100
AcDbEntity
  8
AM_6
100
AcDbText
 10
6.771875
 20
-2.0315
 30
0.0
 40
0.5
  1
070007
100
AcDbAttributeDefinition
  3

  2
PN
 70
     8
280
     0
  0
ATTDEF
  5
106
330
F9
100
AcDbEntity
  8
AM_6
100
AcDbText
 10
6.771875
 20
-2.5315
 30
0.0
 40
0.5
  1
INS-S2-203R
100
AcDbAttributeDefinition
  3

  2
DESCRIPTION
 70
     8
280
     0
  0
ATTDEF
  5
107
330
F9
100
AcDbEntity
  8
AM_6
100
AcDbText
 10
6.771875
 20
-3.0315
 30
0.0
 40
0.5
  1
Contact Seal
100
AcDbAttributeDefinition
  3

  2
ST
 70
     8
280
     0
  0
ATTDEF
  5
108
330
F9
100
AcDbEntity
  8
AM_6
100
AcDbText
 10
6.771875
 20
-3.5315
 30
0.0
 40
0.5
  1
1
100
AcDbAttributeDefinition
  3

  2
ST1
 70
     8
280
     0
  0
ATTDEF
  5
109
330
F9
100
AcDbEntity
  8
AM_6
100
AcDbText
 10
6.771875
 20
-4.0315
 30
0.0
 40
0.5
  1
3.9370
100
AcDbAttributeDefinition
  3

  2
A
 70
     8
280
     0
  0
ATTDEF
  5
10A
330
F9
100
AcDbEntity
  8
AM_6
100
AcDbText
 10
6.771875
 20
-4.5315
 30
0.0
 40
0.5
  1
1-3/64
100
AcDbAttributeDefinition
  3

  2
B
 70
     8
280
     0
  0
ATTDEF
  5
10B
330
F9
100
AcDbEntity
  8
AM_6
100
AcDbText
 10
6.771875
 20
-5.0315
 30
0.0
 40
0.5
  1
2-15/16
100
AcDbAttributeDefinition
  3

  2
C
 70
     8
280
     0
  0
ATTDEF
  5
10C
330
F9
100
AcDbEntity
  8
AM_6
100
AcDbText
 10
6.771875
 20
-5.5315
 30
0.0
 40
0.5
  1
1.050
100
AcDbAttributeDefinition
  3

  2
D
 70
     8
280
     0
  0
ATTDEF
  5
10D
330
F9
100
AcDbEntity
  8
AM_6
100
AcDbText
 10
6.771875
 20
-6.0315
 30
0.0
 40
0.5
  1
3-21/32
100
AcDbAttributeDefinition
  3

  2
E
 70
     8
280
     0
  0
ATTDEF
  5
10E
330
F9
100
AcDbEntity
  8
AM_6
100
AcDbText
 10
6.771875
 20
-6.5315
 30
0.0
 40
0.5
  1
0.40625
100
AcDbAttributeDefinition
  3

  2
F
 70
     8
280
     0
  0
ATTDEF
  5
10F
330
F9
100
AcDbEntity
  8
AM_6
100
AcDbText
 10
6.771875
 20
-7.0315
 30
0.0
 40
0.5
  1
1
100
AcDbAttributeDefinition
  3

  2
DD
 70
     8
280
     0
  0
ATTDEF
  5
110
330
F9
100
AcDbEntity
  8
AM_6
100
AcDbText
 10
6.771875
 20
-7.5315
 30
0.0
 40
0.5
  1
baldor
100
AcDbAttributeDefinition
  3

  2
COMPANY
 70
     8
280
     0
  0
LINE
  5
111
330
F9
100
AcDbEntity
  8
AM_9
100
AcDbLine
 10
-1.2005
 20
1.309893343729898
 30
0.0
 11
-1.2005
 21
1.09375
 31
0.0
  0
LINE
  5
112
330
F9
100
AcDbEntity
  8
AM_9
100
AcDbLine
 10
-0.7905
 20
1.09375
 30
0.0
 11
-0.7905
 21
1.309979004003506
 31
0.0
  0
LINE
  5
113
330
F9
100
AcDbEntity
  8
AM_9
100
AcDbLine
 10
-1.2005
 20
0.5536299228803162
 30
0.0
 11
-1.2005
 21
0.4622182288331491
 31
0.0
  0
LINE
  5
114
330
F9
100
AcDbEntity
  8
AM_9
100
AcDbLine
 10
-0.7905
 20
0.4621839774865027
 30
0.0
 11
-0.7905
 21
0.5536299228803162
 31
0.0
  0
LWPOLYLINE
  5
115
330
F9
100
AcDbEntity
  8
AM_9
100
AcDbPolyline
 90
        4
 70
     0
 43
0.0
 10
-1.194301377757419
 20
0.5070975772719793
 10
-1.196949829596604
 20
0.4962786578354733
 10
-1.200471255466082
 20
0.4653476622504734
 10
-1.200499999263455
 20
0.4622544732447242
  0
LWPOLYLINE
  5
116
330
F9
100
AcDbEntity
  8
AM_9
100
AcDbPolyline
 90
        5
 70
     0
 43
0.0
 10
-1.145434156018682
 20
0.5851513147116978
 10
-1.15313019505583
 20
0.577692190416864
 10
-1.17294781651697
 20
0.5531943244937183
 10
-1.187737562367084
 20
0.525789123689773
 10
-1.194301377757419
 20
0.5070975772719793
  0
LWPOLYLINE
  5
117
330
F9
100
AcDbEntity
  8
AM_9
100
AcDbPolyline
 90
        6
 70
     0
 43
0.0
 10
-1.036271134865254
 20
0.6364553927909335
 10
-1.038656960913158
 20
0.6360425348356541
 10
-1.071092788977798
 20
0.6278534448373143
 10
-1.101435554185032
 20
0.6153121716665402
 10
-1.129135862579423
 20
0.5984150989118975
 10
-1.145434156018682
 20
0.5851513147116978
  0
LWPOLYLINE
  5
118
330
F9
100
AcDbEntity
  8
AM_9
100
AcDbPolyline
 90
        7
 70
     0
 43
0.0
 10
-0.8452105596868356
 20
0.5848258774671504
 10
-0.8485818481375225
 20
0.587846423751119
 10
-0.8746960509860255
 20
0.6069940469390253
 10
-0.9042440824655769
 20
0.6220514658817197
 10
-0.936511661326747
 20
0.6326485166386171
 10
-0.9705002721646956
 20
0.6385763295462018
 10
-0.9919242321241402
 20
0.6398143828558794
  0
LWPOLYLINE
  5
119
330
F9
100
AcDbEntity
  8
AM_9
100
AcDbPolyline
 90
        5
 70
     0
 43
0.0
 10
-0.7970403719877681
 20
0.5082847803023045
 10
-0.7981382279818148
 20
0.5118200844270712
 10
-0.8099533828574725
 20
0.539765421327479
 10
-0.8269663117474236
 20
0.5653453642049191
 10
-0.8452105596868356
 20
0.5848258774671504
  0
LWPOLYLINE
  5
11A
330
F9
100
AcDbEntity
  8
AM_9
100
AcDbPolyline
 90
        3
 70
     0
 43
0.0
 10
-0.7905000005984847
 20
0.4622245268108323
 10
-0.7916859199922381
 20
0.4821007191227428
 10
-0.7970403719877681
 20
0.5082847803023045
  0
LWPOLYLINE
  5
11B
330
F9
100
AcDbEntity
  8
AM_9
100
AcDbPolyline
 90
       11
 70
     0
 43
0.0
 10
-1.200499999263455
 20
0.4622544732447242
 10
-1.198185776092236
 20
0.4343422182949456
 10
-1.19034402015236
 20
0.4036995398140625
 10
-1.177135464307554
 20
0.3743867523214272
 10
-1.159002689581855
 20
0.3472005841005791
 10
-1.136027891358673
 20
0.3226689183680379
 10
-1.109123733254016
 20
0.3019357855998276
 10
-1.078687443334288
 20
0.2856211346975015
 10
-1.045835312723606
 20
0.2744396870130477
 10
-1.02086813203633
 20
0.2698154075035102
 10
-0.9955
 20
0.2682539413190878
  0
LWPOLYLINE
  5
11C
330
F9
100
AcDbEntity
  8
AM_9
100
AcDbPolyline
 90
        8
 70
     0
 43
0.0
 10
-0.8713357956758518
 20
0.6971583686237424
 10
-0.860557946768477
 20
0.6896166789525782
 10
-0.8366990306221197
 20
0.6684084307928593
 10
-0.8171567660265918
 20
0.6435572250935263
 10
-0.8026609173794466
 20
0.6158884430004011
 10
-0.7937372377154547
 20
0.5861937140470106
 10
-0.7905073301942238
 20
0.5552006020308803
 10
-0.7905000002675812
 20
0.5536394156829167
  0
LWPOLYLINE
  5
11D
330
F9
100
AcDbEntity
  8
AM_9
100
AcDbPolyline
 90
       10
 70
     0
 43
0.0
 10
-1.123232271223129
 20
0.6947861646093846
 10
-1.115355437236501
 20
0.6998587553742849
 10
-1.085712331163461
 20
0.7149728906240802
 10
-1.053421540617336
 20
0.7255617860156123
 10
-1.019458571218725
 20
0.7314226882240419
 10
-0.985156547522722
 20
0.7323666324403301
 10
-0.9511487838366424
 20
0.7285230869284877
 10
-0.9185933848840413
 20
0.7199801600845697
 10
-0.8881786009262109
 20
0.7069852325773576
 10
-0.8713357956758518
 20
0.6971583686237424
  0
LWPOLYLINE
  5
11E
330
F9
100
AcDbEntity
  8
AM_9
100
AcDbPolyline
 90
        7
 70
     0
 43
0.0
 10
-1.200499999289625
 20
0.553614455644713
 10
-1.199257559447961
 20
0.5739722612883434
 10
-1.192673984341719
 20
0.6038998236435441
 10
-1.180673897281876
 20
0.6320926815568071
 10
-1.1634521331698
 20
0.6578989426016884
 10
-1.14159848665385
 20
0.6806167012475527
 10
-1.123232271223129
 20
0.6947861646093846
  0
LWPOLYLINE
  5
11F
330
F9
100
AcDbEntity
  8
AM_9
100
AcDbPolyline
 90
       11
 70
     0
 43
0.0
 10
-0.7905000002675812
 20
0.5536394156829167
 10
-0.7930947362227
 20
0.5241094091564467
 10
-0.8012745437757589
 20
0.4934948914797351
 10
-0.8148664910309431
 20
0.4642954315170981
 10
-0.8334143954151157
 20
0.4373305067264196
 10
-0.8567244823830545
 20
0.4132219087172119
 10
-0.883928635743626
 20
0.3929722563492812
 10
-0.9145119095218577
 20
0.3772226223025424
 10
-0.9474270540677914
 20
0.3665740063789005
 10
-0.9712909284356943
 20
0.3624172260917353
 10
-0.9955
 20
0.3610159801704899
  0
LWPOLYLINE
  5
120
330
F9
100
AcDbEntity
  8
AM_9
100
AcDbPolyline
 90
       11
 70
     0
 43
0.0
 10
-0.9955
 20
0.2682539413190878
 10
-0.9614268099521176
 20
0.2710889446686107
 10
-0.9283223779707325
 20
0.2793995490425911
 10
-0.8971580661710177
 20
0.2929478083981996
 10
-0.8687289046335933
 20
0.3111883198535711
 10
-0.8435816476045254
 20
0.33384279718671
 10
-0.8226814809167172
 20
0.3599480618745632
 10
-0.8065695613029021
 20
0.3889543411791222
 10
-0.7958290801845066
 20
0.4197344304079162
 10
-0.7908963995904186
 20
0.4509779725123085
 10
-0.7905000005984847
 20
0.4622245268108323
  0
LWPOLYLINE
  5
121
330
F9
100
AcDbEntity
  8
AM_9
100
AcDbPolyline
 90
       11
 70
     0
 43
0.0
 10
-0.9955
 20
1.074366819340583
 10
-0.9619111889853662
 20
1.074891748375331
 10
-0.9283223779707322
 20
1.076464999617501
 10
-0.897567842799307
 20
1.078821009210509
 10
-0.8687289046335931
 20
1.081820212937621
 10
-0.8438941932207188
 20
1.085010775591283
 10
-0.822681480916717
 20
1.088177514488394
 10
-0.8067487888776665
 20
1.090821287929488
 10
-0.7958290801845066
 20
1.092763715869064
 10
-0.7909059965415892
 20
1.09367397735849
 10
-0.7905000000007201
 20
1.093749999999865
  0
LINE
  5
122
330
F9
100
AcDbEntity
  8
AM_9
100
AcDbLine
 10
1.625
 20
1.09375
 30
0.0
 11
-0.7905
 21
1.09375
 31
0.0
  0
LINE
  5
123
330
F9
100
AcDbEntity
  8
AM_9
100
AcDbLine
 10
-1.2005
 20
1.09375
 30
0.0
 11
-1.3125
 21
1.09375
 31
0.0
  0
LINE
  5
124
330
F9
100
AcDbEntity
  8
AM_9
100
AcDbLine
 10
-1.3125
 20
-1.09375
 30
0.0
 11
1.625
 21
-1.09375
 31
0.0
  0
LINE
  5
125
330
F9
100
AcDbEntity
  8
AM_9
100
AcDbLine
 10
-1.189725405170498
 20
1.091781832837332
 30
0.0
 11
-1.200499999999189
 21
1.093749999999848
 31
0.0
  0
LINE
  5
126
330
F9
100
AcDbEntity
  8
AM_9
100
AcDbLine
 10
-0.982866823913492
 20
1.074441091748643
 30
0.0
 11
-1.000710646843653
 21
1.074379455006717
 31
0.0
  0
LWPOLYLINE
  5
127
330
F9
100
AcDbEntity
  8
AM_9
100
AcDbPolyline
 90
       11
 70
     0
 43
0.0
 10
-1.200499999999189
 20
1.093749999999848
 10
-1.198278757985553
 20
1.093335852878777
 10
-1.19034402015236
 20
1.091892052672394
 10
-1.177370646114056
 20
1.089651776678194
 10
-1.159002689581855
 20
1.086736947011787
 10
-1.136393327383059
 20
1.083565868879723
 10
-1.109123733254016
 20
1.080358466092889
 10
-1.079162079714042
 20
1.077619323361491
 10
-1.045835312723606
 20
1.075545306440869
 10
-1.021070268450788
 20
1.074671066479714
 10
-0.9955
 20
1.074366819340583
  0
LWPOLYLINE
  5
128
330
F9
100
AcDbEntity
  8
AM_9
100
AcDbPolyline
 90
       11
 70
     0
 43
0.0
 10
-0.9955
 20
0.3610159801704899
 10
-1.029676491401275
 20
0.3638286216734344
 10
-1.062883885282032
 20
0.3720808611847762
 10
-1.094151355867768
 20
0.3855525929836366
 10
-1.122663968963368
 20
0.4037159041225188
 10
-1.147780176973312
 20
0.4262256408506708
 10
-1.168628295183939
 20
0.4521882775907386
 10
-1.184631762130507
 20
0.4809951964714891
 10
-1.19527206533389
 20
0.5115971180560214
 10
-1.200132720287751
 20
0.5428162977041567
 10
-1.200499999289625
 20
0.553614455644713
  0
LWPOLYLINE
  5
129
330
F9
100
AcDbEntity
  8
AM_9
100
AcDbPolyline
 90
       11
 70
     0
 43
0.0
 10
-0.9955
 20
1.293860502527224
 10
-1.029191942641016
 20
1.294299094876808
 10
-1.062883885282032
 20
1.295613981089932
 10
-1.093737424949583
 20
1.297584521971777
 10
-1.122663968963368
 20
1.30009448695182
 10
-1.147467013607561
 20
1.30275437946867
 10
-1.168628295183939
 20
1.30539205091547
 10
-1.184455425548667
 20
1.307585237315058
 10
-1.19527206533389
 20
1.309192070739724
 10
-1.200124220358585
 20
1.309941247368506
 10
-1.200499999999582
 20
1.309999999999934
  0
LINE
  5
12A
330
F9
100
AcDbEntity
  8
AM_9
100
AcDbLine
 10
-0.27225
 20
1.31
 30
0.0
 11
-0.7906356518122193
 21
1.31
 31
0.0
  0
LINE
  5
12B
330
F9
100
AcDbEntity
  8
AM_9
100
AcDbLine
 10
-1.199816511093212
 20
1.31
 30
0.0
 11
-1.3125
 21
1.31
 31
0.0
  0
LINE
  5
12C
330
F9
100
AcDbEntity
  8
AM_9
100
AcDbLine
 10
-1.3125
 20
-1.31
 30
0.0
 11
-0.27225
 21
-1.31
 31
0.0
  0
LINE
  5
12D
330
F9
100
AcDbEntity
  8
AM_9
100
AcDbLine
 10
-0.8015736896643466
 20
1.308312811922439
 30
0.0
 11
-0.7905000000001444
 21
1.309999999999977
 31
0.0
  0
LINE
  5
12E
330
F9
100
AcDbEntity
  8
AM_9
100
AcDbLine
 10
-1.007589482086713
 20
1.293916981717573
 30
0.0
 11
-0.9893624216562098
 21
1.293875059605032
 31
0.0
  0
LWPOLYLINE
  5
12F
330
F9
100
AcDbEntity
  8
AM_9
100
AcDbPolyline
 90
       11
 70
     0
 43
0.0
 10
-0.7905000000001444
 20
1.309999999999977
 10
-0.7929973374658196
 20
1.309611518097421
 10
-0.8012745437757591
 20
1.30835718664496
 10
-0.8146234659825908
 20
1.306442237742699
 10
-0.8334143954151157
 20
1.303973444213358
 10
-0.8563521404147475
 20
1.301321300381715
 10
-0.8839286357436263
 20
1.298662068947125
 10
-0.9140389395517934
 20
1.296422347990556
 10
-0.9474270540677914
 20
1.294753261486759
 10
-0.9711170588094115
 20
1.294090231715356
 10
-0.9955
 20
1.293860502527224
  0
ARC
  5
130
330
F9
100
AcDbEntity
  8
AM_9
100
AcDbCircle
 10
1.317562500000001
 20
1.470112500000001
 30
0.0
 40
0.104687499999999
100
AcDbArc
 50
4.851048035970779
 51
90.0
  0
ARC
  5
131
330
F9
100
AcDbEntity
  8
AM_9
100
AcDbCircle
 10
1.317562500000001
 20
-1.4701125
 30
0.0
 40
0.1046874999999994
100
AcDbArc
 50
270.0
 51
355.148951964029
  0
LINE
  5
132
330
F9
100
AcDbEntity
  8
AM_9
100
AcDbLine
 10
-0.2722500000000002
 20
-1.4701125
 30
0.0
 11
-0.2722500000000002
 21
1.4701125
 31
0.0
  0
ARC
  5
133
330
F9
100
AcDbEntity
  8
AM_9
100
AcDbCircle
 10
-0.1675624999999998
 20
1.470112499999999
 30
0.0
 40
0.1046875000000005
100
AcDbArc
 50
90.0
 51
180.0
  0
ARC
  5
134
330
F9
100
AcDbEntity
  8
AM_9
100
AcDbCircle
 10
-0.1675625000000001
 20
-1.470112499999999
 30
0.0
 40
0.1046875000000001
100
AcDbArc
 50
179.9999991462263
 51
270.0
  0
LINE
  5
135
330
F9
100
AcDbEntity
  8
AM_9
100
AcDbLine
 10
1.3175625
 20
-1.5748
 30
0.0
 11
1.3175625
 21
1.5748
 31
0.0
  0
LINE
  5
136
330
F9
100
AcDbEntity
  8
AM_9
100
AcDbLine
 10
1.3175625
 20
1.5748
 30
0.0
 11
1.0984375
 21
1.5748
 31
0.0
  0
LINE
  5
137
330
F9
100
AcDbEntity
  8
AM_9
100
AcDbLine
 10
1.0984375
 20
-1.5748
 30
0.0
 11
1.3175625
 21
-1.5748
 31
0.0
  0
LINE
  5
138
330
F9
100
AcDbEntity
  8
AM_9
100
AcDbLine
 10
-0.1675625000000001
 20
-1.5748
 30
0.0
 11
-0.1675625000000001
 21
1.5748
 31
0.0
  0
LINE
  5
139
330
F9
100
AcDbEntity
  8
AM_9
100
AcDbLine
 10
0.0515624999999998
 20
1.5748
 30
0.0
 11
-0.1675625000000001
 21
1.5748
 31
0.0
  0
LINE
  5
13A
330
F9
100
AcDbEntity
  8
AM_9
100
AcDbLine
 10
-0.1675625000000001
 20
-1.5748
 30
0.0
 11
0.0515624999999998
 21
-1.5748
 31
0.0
  0
LINE
  5
13B
330
F9
100
AcDbEntity
  8
AM_9
100
AcDbLine
 10
0.6273437500000025
 20
1.88976
 30
0.0
 11
0.5226562499999974
 21
1.88976
 31
0.0
  0
LINE
  5
13C
330
F9
100
AcDbEntity
  8
AM_9
100
AcDbLine
 10
0.5226562499999974
 20
-1.88976
 30
0.0
 11
0.6273437500000025
 21
-1.88976
 31
0.0
  0
LINE
  5
13D
330
F9
100
AcDbEntity
  8
AM_9
100
AcDbLine
 10
0.5226562499999974
 20
-1.88976
 30
0.0
 11
0.5226562499999974
 21
1.88976
 31
0.0
  0
LINE
  5
13E
330
F9
100
AcDbEntity
  8
AM_9
100
AcDbLine
 10
0.5226562499999974
 20
1.88976
 30
0.0
 11
0.4771956898040064
 21
1.9685
 31
0.0
  0
LINE
  5
13F
330
F9
100
AcDbEntity
  8
AM_9
100
AcDbLine
 10
0.4771956898040064
 20
-1.968499999999999
 30
0.0
 11
0.5226562499999974
 21
-1.88976
 31
0.0
  0
LINE
  5
140
330
F9
100
AcDbEntity
  8
AM_9
100
AcDbLine
 10
0.6273437500000025
 20
-1.88976
 30
0.0
 11
0.6273437500000025
 21
1.88976
 31
0.0
  0
LINE
  5
141
330
F9
100
AcDbEntity
  8
AM_9
100
AcDbLine
 10
0.6273437500000025
 20
-1.88976
 30
0.0
 11
0.6728043101959936
 21
-1.9685
 31
0.0
  0
LINE
  5
142
330
F9
100
AcDbEntity
  8
AM_9
100
AcDbLine
 10
0.6728043101959936
 20
1.968499999999999
 30
0.0
 11
0.6273437500000025
 21
1.88976
 31
0.0
  0
LINE
  5
143
330
F9
100
AcDbEntity
  8
AM_9
100
AcDbLine
 10
1.0984375
 20
-1.863812501559965
 30
0.0
 11
1.0984375
 21
1.863812501559965
 31
0.0
  0
ARC
  5
144
330
F9
100
AcDbEntity
  8
AM_9
100
AcDbCircle
 10
0.9937500000000502
 20
1.86381250000005
 30
0.0
 40
0.1046874999999498
100
AcDbArc
 50
0.0
 51
90.0
  0
ARC
  5
145
330
F9
100
AcDbEntity
  8
AM_9
100
AcDbCircle
 10
0.9937500000002
 20
-1.8638125000002
 30
0.0
 40
0.1046874999998
100
AcDbArc
 50
270.0
 51
0.0
  0
LINE
  5
146
330
F9
100
AcDbEntity
  8
AM_9
100
AcDbLine
 10
0.0515624999999998
 20
-1.8638125
 30
0.0
 11
0.0515624999999998
 21
1.8638125
 31
0.0
  0
ARC
  5
147
330
F9
100
AcDbEntity
  8
AM_9
100
AcDbCircle
 10
0.1562499999999991
 20
1.8638125
 30
0.0
 40
0.1046874999999994
100
AcDbArc
 50
90.0
 51
180.0
  0
ARC
  5
148
330
F9
100
AcDbEntity
  8
AM_9
100
AcDbCircle
 10
0.1562499999999991
 20
-1.8638125
 30
0.0
 40
0.1046874999999993
100
AcDbArc
 50
180.0
 51
270.0
  0
LINE
  5
149
330
F9
100
AcDbEntity
  8
AM_9
100
AcDbLine
 10
0.99375
 20
-1.9685
 30
0.0
 11
0.99375
 21
1.9685
 31
0.0
  0
LINE
  5
14A
330
F9
100
AcDbEntity
  8
AM_9
100
AcDbLine
 10
0.6728043101959936
 20
-1.9685
 30
0.0
 11
0.6728043101959936
 21
1.9685
 31
0.0
  0
LINE
  5
14B
330
F9
100
AcDbEntity
  8
AM_9
100
AcDbLine
 10
0.99375
 20
1.9685
 30
0.0
 11
0.6728043101959936
 21
1.9685
 31
0.0
  0
LINE
  5
14C
330
F9
100
AcDbEntity
  8
AM_9
100
AcDbLine
 10
0.6728043101959936
 20
-1.9685
 30
0.0
 11
0.99375
 21
-1.9685
 31
0.0
  0
LINE
  5
14D
330
F9
100
AcDbEntity
  8
AM_9
100
AcDbLine
 10
0.4771956898040064
 20
-1.9685
 30
0.0
 11
0.4771956898040064
 21
1.9685
 31
0.0
  0
LINE
  5
14E
330
F9
100
AcDbEntity
  8
AM_9
100
AcDbLine
 10
0.1562499999999994
 20
-1.9685
 30
0.0
 11
0.1562499999999994
 21
1.9685
 31
0.0
  0
LINE
  5
14F
330
F9
100
AcDbEntity
  8
AM_9
100
AcDbLine
 10
0.4771956898040064
 20
1.9685
 30
0.0
 11
0.1562499999999994
 21
1.9685
 31
0.0
  0
LINE
  5
150
330
F9
100
AcDbEntity
  8
AM_9
100
AcDbLine
 10
0.1562499999999994
 20
-1.9685
 30
0.0
 11
0.4771956898040064
 21
-1.9685
 31
0.0
  0
LINE
  5
153
330
F9
100
AcDbEntity
  8
AM_7
100
AcDbLine
 10
1.771875
 20
0.0
 30
0.0
 11
-1.459375
 21
0.0
 31
0.0
  0
LINE
  5
154
330
F9
100
AcDbEntity
  8
AM_7
100
AcDbLine
 10
-0.9955
 20
-0.0671794871794872
 30
0.0
 11
-0.9954999999999998
 21
1.9045
 31
0.0
  0
LWPOLYLINE
  5
155
330
F9
100
AcDbEntity
  8
AM_4
100
AcDbPolyline
 90
        3
 70
     0
 43
0.0
 10
-0.9946528783036308
 20
0.6398386888464437
 10
-1.004710247936746
 20
0.6396532354069758
 10
-1.036271134865254
 20
0.6364553927909335
  0
LINE
  5
156
330
F9
100
AcDbEntity
  8
AM_4
100
AcDbLine
 10
-0.9919242321241402
 20
0.6398143828558794
 30
0.0
 11
-0.9946528783036308
 21
0.6398386888464437
 31
0.0
  0
LINE
  5
157
330
F9
100
AcDbEntity
  8
AM_4
100
AcDbLine
 10
1.625
 20
-1.31
 30
0.0
 11
1.625
 21
1.31
 31
0.0
  0
LINE
  5
158
330
F9
100
AcDbEntity
  8
AM_4
100
AcDbLine
 10
1.625
 20
1.31
 30
0.0
 11
1.42225
 21
1.31
 31
0.0
  0
LINE
  5
159
330
F9
100
AcDbEntity
  8
AM_4
100
AcDbLine
 10
1.42225
 20
-1.31
 30
0.0
 11
1.625
 21
-1.31
 31
0.0
  0
LINE
  5
15A
330
F9
100
AcDbEntity
  8
AM_4
100
AcDbLine
 10
1.42225
 20
-1.470112500000001
 30
0.0
 11
1.42225
 21
1.470112500000001
 31
0.0
  0
ARC
  5
15B
330
F9
100
AcDbEntity
  8
AM_4
100
AcDbCircle
 10
1.317562500000069
 20
1.470112500000001
 30
0.0
 40
0.104687499999931
100
AcDbArc
 50
0.0000008537736463
 51
4.851048035973562
  0
ARC
  5
15C
330
F9
100
AcDbEntity
  8
AM_4
100
AcDbCircle
 10
1.317562500000085
 20
-1.470112500000002
 30
0.0
 40
0.1046874999999152
100
AcDbArc
 50
355.1489519640259
 51
0.0
  0
ENDBLK
  5
FC
330
F9
100
AcDbEntity
  8
0
100
AcDbBlockEnd
  0
BLOCK
  5
15F
330
15D
100
AcDbEntity
  8
0
100
AcDbBlockBegin
  2
5_405015E_Inch_0_in_070679_2
 70
     2
 10
0.0
 20
0.0
 30
0.0
  3
5_405015E_Inch_0_in_070679_2
  1

  0
ATTDEF
  5
161
330
15D
100
AcDbEntity
  8
AM_6
100
AcDbText
 10
4.663179973422884
 20
2.874755004814762
 30
0.0
 40
0.5
  1
405015E -Inch
100
AcDbAttributeDefinition
  3

  2
NN
 70
     8
280
     0
  0
ATTDEF
  5
162
330
15D
100
AcDbEntity
  8
AM_6
100
AcDbText
 10
4.663179973422884
 20
2.374755004814762
 30
0.0
 40
0.5
  1
Grease Fitting
100
AcDbAttributeDefinition
  3

  2
NT
 70
     8
280
     0
  0
ATTDEF
  5
163
330
15D
100
AcDbEntity
  8
AM_6
100
AcDbText
 10
4.663179973422884
 20
1.874755004814762
 30
0.0
 40
0.5
  1
405015E-Inch
100
AcDbAttributeDefinition
  3

  2
NB
 70
     8
280
     0
  0
ATTDEF
  5
164
330
15D
100
AcDbEntity
  8
AM_6
100
AcDbText
 10
4.663179973422884
 20
1.374755004814762
 30
0.0
 40
0.5
  1
$MN.-Inch
100
AcDbAttributeDefinition
  3

  2
NBSYN
 70
     8
280
     0
  0
ATTDEF
  5
165
330
15D
100
AcDbEntity
  8
AM_6
100
AcDbText
 10
4.663179973422884
 20
0.8747550048147619
 30
0.0
 40
0.5
  1
405015E
100
AcDbAttributeDefinition
  3

  2
LINA
 70
     8
280
     0
  0
ATTDEF
  5
166
330
15D
100
AcDbEntity
  8
AM_6
100
AcDbText
 10
4.663179973422884
 20
0.3747550048147619
 30
0.0
 40
0.5
  1
405015E
100
AcDbAttributeDefinition
  3

  2
MN
 70
     8
280
     0
  0
ATTDEF
  5
167
330
15D
100
AcDbEntity
  8
AM_6
100
AcDbText
 10
4.663179973422884
 20
-0.1252449951852381
 30
0.0
 40
0.5
  1
1/8 x 27PTF
100
AcDbAttributeDefinition
  3

  2
T
 70
     8
280
     0
  0
ATTDEF
  5
168
330
15D
100
AcDbEntity
  8
AM_6
100
AcDbText
 10
4.663179973422884
 20
-0.6252449951852381
 30
0.0
 40
0.5
  1
baldor
100
AcDbAttributeDefinition
  3

  2
COMPANY
 70
     8
280
     0
  0
LINE
  5
169
330
15D
100
AcDbEntity
  8
AM_9
100
AcDbLine
 10
-0.5625000000000001
 20
2.745156153620762
 30
0.0
 11
-0.5378931948161269
 21
2.78777639041118
 31
0.0
  0
LINE
  5
16A
330
15D
100
AcDbEntity
  8
AM_9
100
AcDbLine
 10
-0.5378931948161269
 20
2.78777639041118
 30
0.0
 11
-0.5625000000000001
 21
2.801983136007985
 31
0.0
  0
LINE
  5
16B
330
15D
100
AcDbEntity
  8
AM_9
100
AcDbLine
 10
-0.7566431948161267
 20
2.408890276255488
 30
0.0
 11
-0.7332030818874096
 21
2.449489742783178
 31
0.0
  0
LINE
  5
16C
330
15D
100
AcDbEntity
  8
AM_9
100
AcDbLine
 10
-0.7656250000000001
 20
2.414075923896206
 30
0.0
 11
-0.7566431948161267
 21
2.408890276255488
 31
0.0
  0
LINE
  5
16D
330
15D
100
AcDbEntity
  8
AM_9
100
AcDbLine
 10
-0.498722899049385
 20
2.325621332826677
 30
0.0
 11
-0.336820026577116
 21
2.606045333839991
 31
0.0
  0
LINE
  5
16E
330
15D
100
AcDbEntity
  8
AM_9
100
AcDbLine
 10
-0.336820026577116
 20
2.606045333839991
 30
0.0
 11
-0.3502585593478946
 21
2.656198620919716
 31
0.0
  0
LINE
  5
16F
330
15D
100
AcDbEntity
  8
AM_9
100
AcDbLine
 10
-0.54887618612911
 20
2.312182800055898
 30
0.0
 11
-0.498722899049385
 21
2.325621332826677
 31
0.0
  0
LINE
  5
170
330
15D
100
AcDbEntity
  8
AM_9
100
AcDbLine
 10
-0.54887618612911
 20
2.312182800055898
 30
0.0
 11
-0.3502585593478946
 21
2.656198620919716
 31
0.0
  0
LINE
  5
171
330
15D
100
AcDbEntity
  8
AM_9
100
AcDbLine
 10
-0.3502585593478946
 20
2.656198620919716
 30
0.0
 11
-0.5443922462045919
 21
2.776519703205357
 31
0.0
  0
LINE
  5
172
330
15D
100
AcDbEntity
  8
AM_9
100
AcDbLine
 10
-0.7501441434276616
 20
2.420146963461311
 30
0.0
 11
-0.54887618612911
 21
2.312182800055898
 31
0.0
  0
LINE
  5
173
330
15D
100
AcDbEntity
  8
AM_9
100
AcDbLine
 10
-0.5457459665047429
 20
2.792310190259486
 30
0.0
 11
-0.5622048304662074
 21
2.752761356029948
 31
0.0
  0
LINE
  5
174
330
15D
100
AcDbEntity
  8
AM_9
100
AcDbLine
 10
-0.737122648732602
 20
2.449328049379464
 30
0.0
 11
-0.764495966504743
 21
2.413424076103795
 31
0.0
  0
LINE
  5
175
330
15D
100
AcDbEntity
  8
AM_5
100
AcDbLine
 10
-0.6749385986862183
 20
2.420146963461311
 30
0.0
 11
-0.498722899049385
 21
2.325621332826677
 31
0.0
  0
LINE
  5
176
330
15D
100
AcDbEntity
  8
AM_5
100
AcDbLine
 10
-0.7155031272762838
 20
2.420146963461311
 30
0.0
 11
-0.6749385986862184
 21
2.420146963461311
 31
0.0
  0
LINE
  5
177
330
15D
100
AcDbEntity
  8
AM_5
100
AcDbLine
 10
-0.5062500000000006
 20
2.71105543334383
 30
0.0
 11
-0.3368200265771161
 21
2.606045333839991
 31
0.0
  0
LINE
  5
178
330
15D
100
AcDbEntity
  8
AM_5
100
AcDbLine
 10
-0.5270717381289031
 20
2.746519703205356
 30
0.0
 11
-0.5067894738338704
 21
2.71138979095382
 31
0.0
  0
LINE
  5
179
330
15D
100
AcDbEntity
  8
AM_5
100
AcDbLine
 10
-0.6927222791358227
 20
2.389344725377026
 30
0.0
 11
-0.489005793384266
 21
2.742192029038104
 31
0.0
  0
LINE
  5
17A
330
15D
100
AcDbEntity
  8
AM_7
100
AcDbLine
 10
-0.9997405341563932
 20
2.801833333333334
 30
0.0
 11
-0.3900586498921486
 21
2.449833333333333
 31
0.0
  0
LINE
  5
17B
330
15D
100
AcDbEntity
  8
AM_4
100
AcDbLine
 10
-0.7723034025919367
 20
2.7917660007307
 30
0.0
 11
-0.7982841647054698
 21
2.8067660007307
 31
0.0
  0
LINE
  5
17C
330
15D
100
AcDbEntity
  8
AM_4
100
AcDbLine
 10
-0.9032841647054699
 20
2.624900665935968
 30
0.0
 11
-0.8773034025919367
 21
2.609900665935968
 31
0.0
  0
LINE
  5
17D
330
15D
100
AcDbEntity
  8
AM_4
100
AcDbLine
 10
-0.8773034025919367
 20
2.609900665935968
 30
0.0
 11
-0.7723034025919367
 21
2.7917660007307
 31
0.0
  0
LINE
  5
17E
330
15D
100
AcDbEntity
  8
AM_4
100
AcDbLine
 10
-0.8773034025919367
 20
2.609900665935968
 30
0.0
 11
-0.856286832088322
 21
2.581808677086227
 31
0.0
  0
LINE
  5
17F
330
15D
100
AcDbEntity
  8
AM_4
100
AcDbLine
 10
-0.7374667413534245
 20
2.787611111199013
 30
0.0
 11
-0.7723034025919367
 21
2.7917660007307
 31
0.0
  0
LINE
  5
180
330
15D
100
AcDbEntity
  8
AM_4
100
AcDbLine
 10
-0.9032841647054699
 20
2.624900665935968
 30
0.0
 11
-0.7982841647054698
 21
2.8067660007307
 31
0.0
  0
LINE
  5
181
330
15D
100
AcDbEntity
  8
AM_4
100
AcDbLine
 10
-0.7982841647054698
 20
2.8067660007307
 30
0.0
 11
-0.8352456889325361
 21
2.862746762844233
 31
0.0
  0
LINE
  5
182
330
15D
100
AcDbEntity
  8
AM_4
100
AcDbLine
 10
-0.970245688932536
 20
2.628919903822435
 30
0.0
 11
-0.9032841647054699
 21
2.624900665935968
 31
0.0
  0
LINE
  5
183
330
15D
100
AcDbEntity
  8
AM_4
100
AcDbLine
 10
-1.023366672201885
 20
2.696911661851906
 30
0.0
 11
-0.9206887702686974
 21
2.874755004814762
 31
0.0
  0
LINE
  5
184
330
15D
100
AcDbEntity
  8
AM_4
100
AcDbLine
 10
-0.970245688932536
 20
2.628919903822435
 30
0.0
 11
-0.8352456889325361
 21
2.862746762844233
 31
0.0
  0
LINE
  5
185
330
15D
100
AcDbEntity
  8
AM_4
100
AcDbLine
 10
-1.023366672201885
 20
2.696911661851906
 30
0.0
 11
-0.970245688932536
 21
2.628919903822435
 31
0.0
  0
LINE
  5
186
330
15D
100
AcDbEntity
  8
AM_4
100
AcDbLine
 10
-0.8352456889325361
 20
2.862746762844233
 30
0.0
 11
-0.9206887702686974
 21
2.874755004814762
 31
0.0
  0
LINE
  5
187
330
15D
100
AcDbEntity
  8
AM_4
100
AcDbLine
 10
-0.856286832088322
 20
2.581808677086227
 30
0.0
 11
-0.7374667413534245
 21
2.787611111199013
 31
0.0
  0
LINE
  5
188
330
15D
100
AcDbEntity
  8
AM_4
100
AcDbLine
 10
-0.856286832088322
 20
2.581808677086227
 30
0.0
 11
-0.8360017871240493
 21
2.508073559442786
 31
0.0
  0
LINE
  5
189
330
15D
100
AcDbEntity
  8
AM_4
100
AcDbLine
 10
-0.6634677338410337
 20
2.806911305764764
 30
0.0
 11
-0.7374667413534245
 21
2.787611111199013
 31
0.0
  0
LINE
  5
18A
330
15D
100
AcDbEntity
  8
AM_4
100
AcDbLine
 10
-0.8432457351945706
 20
2.458890276255488
 30
0.0
 11
-0.7656250000000001
 21
2.414075923896206
 31
0.0
  0
LINE
  5
18B
330
15D
100
AcDbEntity
  8
AM_4
100
AcDbLine
 10
-0.8432457351945706
 20
2.458890276255488
 30
0.0
 11
-0.6244957351945707
 21
2.83777639041118
 31
0.0
  0
LINE
  5
18C
330
15D
100
AcDbEntity
  8
AM_4
100
AcDbLine
 10
-0.5625000000000001
 20
2.801983136007985
 30
0.0
 11
-0.6244957351945707
 21
2.83777639041118
 31
0.0
  0
LINE
  5
18D
330
15D
100
AcDbEntity
  8
AM_4
100
AcDbLine
 10
-0.7332030818874096
 20
2.449489742783178
 30
0.0
 11
-0.5625000000000001
 21
2.745156153620762
 31
0.0
  0
LINE
  5
18E
330
15D
100
AcDbEntity
  8
AM_4
100
AcDbLine
 10
-0.8360017871240493
 20
2.508073559442786
 30
0.0
 11
-0.6634677338410337
 21
2.806911305764764
 31
0.0
  0
LINE
  5
18F
330
15D
100
AcDbEntity
  8
AM_4
100
AcDbLine
 10
-0.8360017871240493
 20
2.508073559442786
 30
0.0
 11
-0.8407457351945705
 21
2.46322040327441
 31
0.0
  0
LINE
  5
190
330
15D
100
AcDbEntity
  8
AM_4
100
AcDbLine
 10
-0.6269957351945705
 20
2.833446263392257
 30
0.0
 11
-0.6634677338410337
 21
2.806911305764764
 31
0.0
  0
LWPOLYLINE
  5
191
330
15D
100
AcDbEntity
  8
AM_4
100
AcDbPolyline
 90
        3
 70
     0
 43
0.0
 10
-0.6791832351945707
 20
2.743054861872257
 10
-0.6497667566338011
 20
2.789218935749201
 10
-0.6166429635059544
 20
2.833242590562873
  0
LWPOLYLINE
  5
192
330
15D
100
AcDbEntity
  8
AM_4
100
AcDbPolyline
 90
        3
 70
     0
 43
0.0
 10
-0.7260179635059545
 20
2.643799533485027
 10
-0.7045588901130535
 20
2.694273888378869
 10
-0.6791832351945707
 20
2.743054861872257
  0
LWPOLYLINE
  5
193
330
15D
100
AcDbEntity
  8
AM_4
100
AcDbPolyline
 90
        3
 70
     0
 43
0.0
 10
-0.5622048304662074
 20
2.752761356029948
 10
-0.5672050398976438
 20
2.741835835365644
 10
-0.5925806948161267
 20
2.693054861872257
  0
LINE
  5
194
330
15D
100
AcDbEntity
  8
AM_4
100
AcDbLine
 10
-0.7260179635059545
 20
2.643799533485027
 30
0.0
 11
-0.6551209665047429
 21
2.602867133181641
 31
0.0
  0
LWPOLYLINE
  5
195
330
15D
100
AcDbEntity
  8
AM_4
100
AcDbPolyline
 90
        3
 70
     0
 43
0.0
 10
-0.7885582351945706
 20
2.553611804794411
 10
-0.7591417566338011
 20
2.599775878671355
 10
-0.7260179635059545
 20
2.643799533485027
  0
LWPOLYLINE
  5
196
330
15D
100
AcDbEntity
  8
AM_4
100
AcDbPolyline
 90
        3
 70
     0
 43
0.0
 10
-0.8353929635059545
 20
2.454356476407181
 10
-0.8139338901130535
 20
2.504830831301023
 10
-0.7885582351945706
 20
2.553611804794411
  0
LWPOLYLINE
  5
197
330
15D
100
AcDbEntity
  8
AM_4
100
AcDbPolyline
 90
        3
 70
     0
 43
0.0
 10
-0.7019556948161267
 20
2.503611804794411
 10
-0.7313721733768963
 20
2.457447730917467
 10
-0.737122648732602
 20
2.449328049379464
  0
LWPOLYLINE
  5
198
330
15D
100
AcDbEntity
  8
AM_4
100
AcDbPolyline
 90
        3
 70
     0
 43
0.0
 10
-0.5925806948161267
 20
2.693054861872257
 10
-0.6219971733768963
 20
2.646890787995313
 10
-0.6551209665047429
 20
2.602867133181641
  0
LWPOLYLINE
  5
199
330
15D
100
AcDbEntity
  8
AM_4
100
AcDbPolyline
 90
        3
 70
     0
 43
0.0
 10
-0.6551209665047429
 20
2.602867133181641
 10
-0.6765800398976437
 20
2.552392778287798
 10
-0.7019556948161267
 20
2.503611804794411
  0
ENDBLK
  5
160
330
15D
100
AcDbEntity
  8
0
100
AcDbBlockEnd
  0
BLOCK
  5
19C
330
19A
100
AcDbEntity
  8
0
100
AcDbBlockBegin
  2
6_070679H_0_in_070679_2
 70
     2
 10
0.0
 20
0.0
 30
0.0
  3
6_070679H_0_in_070679_2
  1

  0
ATTDEF
  5
19E
330
19A
100
AcDbEntity
  8
AM_6
100
AcDbText
 10
6.421875
 20
3.5625
 30
0.0
 40
0.5
  1
FC-S2 -(Contact Seal)-Housing
100
AcDbAttributeDefinition
  3

  2
NN
 70
     8
280
     0
  0
ATTDEF
  5
19F
330
19A
100
AcDbEntity
  8
AM_6
100
AcDbText
 10
6.421875
 20
3.0625
 30
0.0
 40
0.5
  1
S-2000 Piloted Flange Bearing -Inch
100
AcDbAttributeDefinition
  3

  2
NT
 70
     8
280
     0
  0
ATTDEF
  5
1A0
330
19A
100
AcDbEntity
  8
AM_6
100
AcDbText
 10
6.421875
 20
2.5625
 30
0.0
 40
0.5
  1
070679H
100
AcDbAttributeDefinition
  3

  2
NB
 70
     8
280
     0
  0
ATTDEF
  5
1A1
330
19A
100
AcDbEntity
  8
AM_6
100
AcDbText
 10
6.421875
 20
2.0625
 30
0.0
 40
0.5
  1
$PN.H
100
AcDbAttributeDefinition
  3

  2
NBSYN
 70
     8
280
     0
  0
ATTDEF
  5
1A2
330
19A
100
AcDbEntity
  8
AM_6
100
AcDbText
 10
6.421875
 20
1.5625
 30
0.0
 40
0.5
  1
070679
100
AcDbAttributeDefinition
  3

  2
LINA
 70
     8
280
     0
  0
ATTDEF
  5
1A3
330
19A
100
AcDbEntity
  8
AM_6
100
AcDbText
 10
6.421875
 20
1.0625
 30
0.0
 40
0.5
  1
2-3/16
100
AcDbAttributeDefinition
  3

  2
SS
 70
     8
280
     0
  0
ATTDEF
  5
1A4
330
19A
100
AcDbEntity
  8
AM_6
100
AcDbText
 10
6.421875
 20
0.5625
 30
0.0
 40
0.5
  1
070679
100
AcDbAttributeDefinition
  3

  2
PN
 70
     8
280
     0
  0
ATTDEF
  5
1A5
330
19A
100
AcDbEntity
  8
AM_6
100
AcDbText
 10
6.421875
 20
0.0625
 30
0.0
 40
0.5
  1
FC-S2-203RE
100
AcDbAttributeDefinition
  3

  2
DESCRIPTION
 70
     8
280
     0
  0
ATTDEF
  5
1A6
330
19A
100
AcDbEntity
  8
AM_6
100
AcDbText
 10
6.421875
 20
-0.4375
 30
0.0
 40
0.5
  1
Expansion Type
100
AcDbAttributeDefinition
  3

  2
EF
 70
     8
280
     0
  0
ATTDEF
  5
1A7
330
19A
100
AcDbEntity
  8
AM_6
100
AcDbText
 10
6.421875
 20
-0.9375
 30
0.0
 40
0.5
  1
2-15/16
100
AcDbAttributeDefinition
  3

  2
A
 70
     8
280
     0
  0
ATTDEF
  5
1A8
330
19A
100
AcDbEntity
  8
AM_6
100
AcDbText
 10
6.421875
 20
-1.4375
 30
0.0
 40
0.5
  1
7-1/8
100
AcDbAttributeDefinition
  3

  2
B
 70
     8
280
     0
  0
ATTDEF
  5
1A9
330
19A
100
AcDbEntity
  8
AM_6
100
AcDbText
 10
6.421875
 20
-1.9375
 30
0.0
 40
0.5
  1
2-3/16
100
AcDbAttributeDefinition
  3

  2
C
 70
     8
280
     0
  0
ATTDEF
  5
1AA
330
19A
100
AcDbEntity
  8
AM_6
100
AcDbText
 10
6.421875
 20
-2.4375
 30
0.0
 40
0.5
  1
6
100
AcDbAttributeDefinition
  3

  2
DD
 70
     8
280
     0
  0
ATTDEF
  5
1AB
330
19A
100
AcDbEntity
  8
AM_6
100
AcDbText
 10
6.421875
 20
-2.9375
 30
0.0
 40
0.5
  1
1
100
AcDbAttributeDefinition
  3

  2
E
 70
     8
280
     0
  0
ATTDEF
  5
1AC
330
19A
100
AcDbEntity
  8
AM_6
100
AcDbText
 10
6.421875
 20
-3.4375
 30
0.0
 40
0.5
  1
1/2
100
AcDbAttributeDefinition
  3

  2
F
 70
     8
280
     0
  0
ATTDEF
  5
1AD
330
19A
100
AcDbEntity
  8
AM_6
100
AcDbText
 10
6.421875
 20
-3.9375
 30
0.0
 40
0.5
  1
1-9/16
100
AcDbAttributeDefinition
  3

  2
G
 70
     8
280
     0
  0
ATTDEF
  5
1AE
330
19A
100
AcDbEntity
  8
AM_6
100
AcDbText
 10
6.421875
 20
-4.4375
 30
0.0
 40
0.5
  1
9/16
100
AcDbAttributeDefinition
  3

  2
H
 70
     8
280
     0
  0
ATTDEF
  5
1AF
330
19A
100
AcDbEntity
  8
AM_6
100
AcDbText
 10
6.421875
 20
-4.9375
 30
0.0
 40
0.5
  1
5.000
100
AcDbAttributeDefinition
  3

  2
K
 70
     8
280
     0
  0
ATTDEF
  5
1B0
330
19A
100
AcDbEntity
  8
AM_6
100
AcDbText
 10
6.421875
 20
-5.4375
 30
0.0
 40
0.5
  1
3-3/4
100
AcDbAttributeDefinition
  3

  2
L
 70
     8
280
     0
  0
ATTDEF
  5
1B1
330
19A
100
AcDbEntity
  8
AM_6
100
AcDbText
 10
6.421875
 20
-5.9375
 30
0.0
 40
0.5
  1
1/2-13
100
AcDbAttributeDefinition
  3

  2
M
 70
     8
280
     0
  0
ATTDEF
  5
1B2
330
19A
100
AcDbEntity
  8
AM_6
100
AcDbText
 10
6.421875
 20
-6.4375
 30
0.0
 40
0.5
  1
0.5000
100
AcDbAttributeDefinition
  3

  2
MNDM
 70
     8
280
     0
  0
ATTDEF
  5
1B3
330
19A
100
AcDbEntity
  8
AM_6
100
AcDbText
 10
6.421875
 20
-6.9375
 30
0.0
 40
0.5
  1
0.4167
100
AcDbAttributeDefinition
  3

  2
MKDM
 70
     8
280
     0
  0
ATTDEF
  5
1B4
330
19A
100
AcDbEntity
  8
AM_6
100
AcDbText
 10
6.421875
 20
-7.4375
 30
0.0
 40
0.5
  1
2-63/64
100
AcDbAttributeDefinition
  3

  2
N
 70
     8
280
     0
  0
ATTDEF
  5
1B5
330
19A
100
AcDbEntity
  8
AM_6
100
AcDbText
 10
6.421875
 20
-7.9375
 30
0.0
 40
0.5
  1
2.984375
100
AcDbAttributeDefinition
  3

  2
N1
 70
     8
280
     0
  0
ATTDEF
  5
1B6
330
19A
100
AcDbEntity
  8
AM_6
100
AcDbText
 10
6.421875
 20
-8.4375
 30
0.0
 40
0.5
  1
1-3/8
100
AcDbAttributeDefinition
  3

  2
P
 70
     8
280
     0
  0
ATTDEF
  5
1B7
330
19A
100
AcDbEntity
  8
AM_6
100
AcDbText
 10
6.421875
 20
-8.9375
 30
0.0
 40
0.5
  1
1-27/64
100
AcDbAttributeDefinition
  3

  2
Q
 70
     8
280
     0
  0
ATTDEF
  5
1B8
330
19A
100
AcDbEntity
  8
AM_6
100
AcDbText
 10
6.421875
 20
-9.4375
 30
0.0
 40
0.5
  1
1.421875
100
AcDbAttributeDefinition
  3

  2
Q1
 70
     8
280
     0
  0
ATTDEF
  5
1B9
330
19A
100
AcDbEntity
  8
AM_6
100
AcDbText
 10
6.421875
 20
-9.9375
 30
0.0
 40
0.5
  1
1/4
100
AcDbAttributeDefinition
  3

  2
X
 70
     8
280
     0
  0
ATTDEF
  5
1BA
330
19A
100
AcDbEntity
  8
AM_6
100
AcDbText
 10
6.421875
 20
-10.4375
 30
0.0
 40
0.5
  1
0.025
100
AcDbAttributeDefinition
  3

  2
Y
 70
     8
280
     0
  0
ATTDEF
  5
1BB
330
19A
100
AcDbEntity
  8
AM_6
100
AcDbText
 10
6.421875
 20
-10.9375
 30
0.0
 40
0.5
  1
2-19/32
100
AcDbAttributeDefinition
  3

  2
Z
 70
     8
280
     0
  0
ATTDEF
  5
1BC
330
19A
100
AcDbEntity
  8
AM_6
100
AcDbText
 10
6.421875
 20
-11.4375
 30
0.0
 40
0.5
  1
baldor
100
AcDbAttributeDefinition
  3

  2
COMPANY
 70
     8
280
     0
  0
LINE
  5
1BD
330
19A
100
AcDbEntity
  8
AM_9
100
AcDbLine
 10
0.0
 20
-3.410000000000009
 30
0.0
 11
-0.5062500000000001
 21
-3.410000000000009
 31
0.0
  0
LINE
  5
1BE
330
19A
100
AcDbEntity
  8
AM_9
100
AcDbLine
 10
-0.7656250000000001
 20
2.333333333333333
 30
0.0
 11
-0.6985620657360321
 21
2.449489742783177
 31
0.0
  0
LINE
  5
1BF
330
19A
100
AcDbEntity
  8
AM_9
100
AcDbLine
 10
-0.5062500000000001
 20
2.782584011546511
 30
0.0
 11
-0.5624999999999997
 21
2.685156153620762
 31
0.0
  0
LINE
  5
1C0
330
19A
100
AcDbEntity
  8
AM_9
100
AcDbLine
 10
-0.5062500000000001
 20
-2.315839560933757
 30
0.0
 11
-0.5625000000000001
 21
-2.315839560933757
 31
0.0
  0
LINE
  5
1C1
330
19A
100
AcDbEntity
  8
AM_9
100
AcDbLine
 10
-0.5062500000000001
 20
-2.270627572006005
 30
0.0
 11
-0.5625000000000001
 21
-2.270627572006005
 31
0.0
  0
LINE
  5
1C2
330
19A
100
AcDbEntity
  8
AM_9
100
AcDbLine
 10
-0.5062500000000001
 20
2.315839560933757
 30
0.0
 11
-0.5625000000000001
 21
2.315839560933757
 31
0.0
  0
LINE
  5
1C3
330
19A
100
AcDbEntity
  8
AM_9
100
AcDbLine
 10
-0.5625000000000001
 20
2.270627572006005
 30
0.0
 11
-0.5062500000000001
 21
2.270627572006005
 31
0.0
  0
LINE
  5
1C4
330
19A
100
AcDbEntity
  8
AM_9
100
AcDbLine
 10
-0.5062500000000001
 20
-2.291479610914551
 30
0.0
 11
-0.5625000000000001
 21
-2.291479610914551
 31
0.0
  0
LINE
  5
1C5
330
19A
100
AcDbEntity
  8
AM_9
100
AcDbLine
 10
-0.5624999999999999
 20
-2.5
 30
0.0
 11
-0.5062500000000001
 21
-2.5
 31
0.0
  0
LINE
  5
1C6
330
19A
100
AcDbEntity
  8
AM_9
100
AcDbLine
 10
-0.5062500000000001
 20
2.449489742783178
 30
0.0
 11
-0.5624999999999999
 21
2.449489742783178
 31
0.0
  0
LINE
  5
1C7
330
19A
100
AcDbEntity
  8
AM_9
100
AcDbLine
 10
-0.5062500000000001
 20
2.29147961091455
 30
0.0
 11
-0.5625000000000001
 21
2.29147961091455
 31
0.0
  0
LINE
  5
1C8
330
19A
100
AcDbEntity
  8
AM_9
100
AcDbLine
 10
-0.5432565789473686
 20
-1.9685
 30
0.0
 11
1.421875
 21
-1.9685
 31
0.0
  0
LINE
  5
1C9
330
19A
100
AcDbEntity
  8
AM_9
100
AcDbLine
 10
1.421875
 20
1.9685
 30
0.0
 11
-0.5432565789473686
 21
1.9685
 31
0.0
  0
LINE
  5
1CA
330
19A
100
AcDbEntity
  8
AM_9
100
AcDbLine
 10
-0.5432565789473686
 20
1.9685
 30
0.0
 11
-0.7656250000000001
 21
2.049435486303932
 31
0.0
  0
LINE
  5
1CB
330
19A
100
AcDbEntity
  8
AM_9
100
AcDbLine
 10
-0.7656250000000001
 20
-2.049435486303932
 30
0.0
 11
-0.5432565789473686
 21
-1.9685
 31
0.0
  0
LINE
  5
1CC
330
19A
100
AcDbEntity
  8
AM_9
100
AcDbLine
 10
-0.5432565789473686
 20
1.9685
 30
0.0
 11
-0.5432565789473686
 21
-1.9685
 31
0.0
  0
LINE
  5
1CD
330
19A
100
AcDbEntity
  8
AM_9
100
AcDbLine
 10
-0.5062500000000001
 20
-2.270627572006005
 30
0.0
 11
-0.5062500000000001
 21
-2.897162917006606
 31
0.0
  0
LINE
  5
1CE
330
19A
100
AcDbEntity
  8
AM_9
100
AcDbLine
 10
-0.5062500000000001
 20
2.897162917006605
 30
0.0
 11
-0.5062500000000001
 21
2.270627572006005
 31
0.0
  0
LINE
  5
1CF
330
19A
100
AcDbEntity
  8
AM_9
100
AcDbLine
 10
0.0
 20
2.371320343559643
 30
0.0
 11
-0.5625000000000001
 21
2.371320343559643
 31
0.0
  0
LINE
  5
1D0
330
19A
100
AcDbEntity
  8
AM_9
100
AcDbLine
 10
-0.5625000000000001
 20
1.871320343559643
 30
0.0
 11
0.0
 21
1.871320343559643
 31
0.0
  0
LINE
  5
1D1
330
19A
100
AcDbEntity
  8
AM_9
100
AcDbLine
 10
0.0
 20
-1.871320343559643
 30
0.0
 11
-0.5625000000000001
 21
-1.871320343559643
 31
0.0
  0
LINE
  5
1D2
330
19A
100
AcDbEntity
  8
AM_9
100
AcDbLine
 10
-0.5625000000000001
 20
-2.371320343559643
 30
0.0
 11
0.0
 21
-2.371320343559643
 31
0.0
  0
LINE
  5
1D3
330
19A
100
AcDbEntity
  8
AM_9
100
AcDbLine
 10
-0.0416499999999998
 20
0.20835
 30
0.0
 11
-0.4645999999999997
 21
0.20835
 31
0.0
  0
LINE
  5
1D4
330
19A
100
AcDbEntity
  8
AM_9
100
AcDbLine
 10
-0.4645999999999997
 20
-0.20835
 30
0.0
 11
-0.0416499999999998
 21
-0.20835
 31
0.0
  0
LINE
  5
1D5
330
19A
100
AcDbEntity
  8
AM_9
100
AcDbLine
 10
-0.0416499999999998
 20
-0.20835
 30
0.0
 11
-0.0416499999999998
 21
0.20835
 31
0.0
  0
LINE
  5
1D6
330
19A
100
AcDbEntity
  8
AM_9
100
AcDbLine
 10
-0.0416499999999998
 20
-0.20835
 30
0.0
 11
0.0000000000000003
 21
-0.2500000000000003
 31
0.0
  0
LINE
  5
1D7
330
19A
100
AcDbEntity
  8
AM_9
100
AcDbLine
 10
0.0000000000000003
 20
0.2500000000000003
 30
0.0
 11
-0.0416499999999998
 21
0.20835
 31
0.0
  0
LINE
  5
1D8
330
19A
100
AcDbEntity
  8
AM_9
100
AcDbLine
 10
-0.4645999999999997
 20
-0.20835
 30
0.0
 11
-0.4645999999999997
 21
0.20835
 31
0.0
  0
LINE
  5
1D9
330
19A
100
AcDbEntity
  8
AM_9
100
AcDbLine
 10
-0.4645999999999997
 20
0.20835
 30
0.0
 11
-0.5062499999999999
 21
0.2500000000000003
 31
0.0
  0
LINE
  5
1DA
330
19A
100
AcDbEntity
  8
AM_9
100
AcDbLine
 10
-0.5062499999999999
 20
-0.2500000000000003
 30
0.0
 11
-0.4645999999999997
 21
-0.20835
 31
0.0
  0
LINE
  5
1DB
330
19A
100
AcDbEntity
  8
AM_5
100
AcDbLine
 10
0.0000000000000003
 20
-0.2500000000000003
 30
0.0
 11
-0.5062499999999999
 21
-0.2500000000000003
 31
0.0
  0
LINE
  5
1DC
330
19A
100
AcDbEntity
  8
AM_5
100
AcDbLine
 10
-0.0000000000000003
 20
0.2499999999999998
 30
0.0
 11
-0.5062499999999993
 21
0.2499999999999998
 31
0.0
  0
LINE
  5
1DD
330
19A
100
AcDbEntity
  8
AM_7
100
AcDbLine
 10
-0.5906250000000002
 20
2.121320343559643
 30
0.0
 11
0.0281249999999999
 21
2.121320343559643
 31
0.0
  0
LINE
  5
1DE
330
19A
100
AcDbEntity
  8
AM_7
100
AcDbLine
 10
-0.5906250000000002
 20
-2.121320343559643
 30
0.0
 11
0.0281249999999999
 21
-2.121320343559643
 31
0.0
  0
LINE
  5
1DF
330
19A
100
AcDbEntity
  8
AM_4
100
AcDbLine
 10
-0.5624999999999997
 20
2.685156153620762
 30
0.0
 11
-0.6985620657360321
 21
2.449489742783177
 31
0.0
  0
LINE
  5
1E0
330
19A
100
AcDbEntity
  8
AM_4
100
AcDbLine
 10
-0.7656250000000001
 20
-2.5
 30
0.0
 11
-0.5624999999999999
 21
-2.5
 31
0.0
  0
LINE
  5
1E1
330
19A
100
AcDbEntity
  8
AM_4
100
AcDbLine
 10
-0.7656250000000001
 20
-2.5
 30
0.0
 11
-0.7656250000000001
 21
2.449489742783178
 31
0.0
  0
LINE
  5
1E2
330
19A
100
AcDbEntity
  8
AM_4
100
AcDbLine
 10
-0.5624999999999999
 20
2.449489742783178
 30
0.0
 11
-0.7656250000000001
 21
2.449489742783178
 31
0.0
  0
LINE
  5
1E3
330
19A
100
AcDbEntity
  8
AM_4
100
AcDbLine
 10
-0.7656250000000001
 20
1.988614073085037
 30
0.0
 11
-0.5625000000000001
 21
1.988614073085037
 31
0.0
  0
LINE
  5
1E4
330
19A
100
AcDbEntity
  8
AM_4
100
AcDbLine
 10
-0.7656250000000001
 20
-1.988614073085038
 30
0.0
 11
-0.5625000000000001
 21
-1.988614073085038
 31
0.0
  0
LINE
  5
1E5
330
19A
100
AcDbEntity
  8
AM_4
100
AcDbLine
 10
1.421875
 20
-2.380952380952381
 30
0.0
 11
1.421875
 21
2.380952380952381
 31
0.0
  0
LINE
  5
1E6
330
19A
100
AcDbEntity
  8
AM_4
100
AcDbLine
 10
1.0
 20
-2.380952380952381
 30
0.0
 11
1.421875
 21
-2.380952380952381
 31
0.0
  0
LINE
  5
1E7
330
19A
100
AcDbEntity
  8
AM_4
100
AcDbLine
 10
1.421875
 20
2.380952380952381
 30
0.0
 11
1.0
 21
2.380952380952381
 31
0.0
  0
LINE
  5
1E8
330
19A
100
AcDbEntity
  8
AM_4
100
AcDbLine
 10
-0.7656250000000001
 20
-1.515062397503198
 30
0.0
 11
-0.5625000000000001
 21
-1.515062397503198
 31
0.0
  0
LINE
  5
1E9
330
19A
100
AcDbEntity
  8
AM_4
100
AcDbLine
 10
-0.5062499999999999
 20
-0.9995604998012393
 30
0.0
 11
-0.5624999999999998
 21
-0.9995604998012393
 31
0.0
  0
LINE
  5
1EA
330
19A
100
AcDbEntity
  8
AM_4
100
AcDbLine
 10
-0.5062499999999999
 20
0.9995604998012384
 30
0.0
 11
-0.5624999999999998
 21
0.9995604998012378
 31
0.0
  0
LINE
  5
1EB
330
19A
100
AcDbEntity
  8
AM_4
100
AcDbLine
 10
-0.7656250000000001
 20
1.515062397503198
 30
0.0
 11
-0.5625000000000001
 21
1.515062397503198
 31
0.0
  0
LINE
  5
1EC
330
19A
100
AcDbEntity
  8
AM_4
100
AcDbLine
 10
1.0
 20
-2.5
 30
0.0
 11
1.0
 21
2.5
 31
0.0
  0
LINE
  5
1ED
330
19A
100
AcDbEntity
  8
AM_4
100
AcDbLine
 10
0.0
 20
-2.5
 30
0.0
 11
1.0
 21
-2.5
 31
0.0
  0
LINE
  5
1EE
330
19A
100
AcDbEntity
  8
AM_4
100
AcDbLine
 10
1.0
 20
2.5
 30
0.0
 11
0.0
 21
2.5
 31
0.0
  0
LINE
  5
1EF
330
19A
100
AcDbEntity
  8
AM_4
100
AcDbLine
 10
-0.5062499999999999
 20
1.242910658869124
 30
0.0
 11
-0.5624999999999998
 21
1.242910658869124
 31
0.0
  0
LINE
  5
1F0
330
19A
100
AcDbEntity
  8
AM_4
100
AcDbLine
 10
-0.5062499999999999
 20
-1.242910658869124
 30
0.0
 11
-0.5624999999999998
 21
-1.242910658869124
 31
0.0
  0
LINE
  5
1F1
330
19A
100
AcDbEntity
  8
AM_4
100
AcDbLine
 10
-0.5625000000000001
 20
-2.897162917006605
 30
0.0
 11
-0.5624999999999998
 21
-0.9995604998012393
 31
0.0
  0
LINE
  5
1F2
330
19A
100
AcDbEntity
  8
AM_4
100
AcDbLine
 10
-0.5625000000000001
 20
-2.897162917006605
 30
0.0
 11
-0.5062500000000001
 21
-2.897162917006606
 31
0.0
  0
LINE
  5
1F3
330
19A
100
AcDbEntity
  8
AM_4
100
AcDbLine
 10
-0.5062500000000001
 20
-2.897162917006606
 30
0.0
 11
-0.5062500000000001
 21
-3.557272333795015
 31
0.0
  0
LINE
  5
1F4
330
19A
100
AcDbEntity
  8
AM_4
100
AcDbLine
 10
0.0
 20
-3.557272333795015
 30
0.0
 11
-0.5062500000000001
 21
-3.557272333795015
 31
0.0
  0
LINE
  5
1F5
330
19A
100
AcDbEntity
  8
AM_4
100
AcDbLine
 10
0.0
 20
-3.557272333795015
 30
0.0
 11
0.0
 21
3.5625
 31
0.0
  0
LINE
  5
1F6
330
19A
100
AcDbEntity
  8
AM_4
100
AcDbLine
 10
-0.5062500000000001
 20
2.897162917006605
 30
0.0
 11
-0.5625000000000001
 21
2.897162917006605
 31
0.0
  0
LINE
  5
1F7
330
19A
100
AcDbEntity
  8
AM_4
100
AcDbLine
 10
-0.5624999999999998
 20
0.9995604998012378
 30
0.0
 11
-0.5625000000000001
 21
2.897162917006605
 31
0.0
  0
LINE
  5
1F8
330
19A
100
AcDbEntity
  8
AM_4
100
AcDbLine
 10
-0.5624999999999998
 20
2.073126451117198
 30
0.0
 11
-0.5062499999999999
 21
2.073126451117198
 31
0.0
  0
LINE
  5
1F9
330
19A
100
AcDbEntity
  8
AM_4
100
AcDbLine
 10
-0.5062499999999999
 20
2.073126451117198
 30
0.0
 11
-0.5062499999999999
 21
-2.073126451117199
 31
0.0
  0
LINE
  5
1FA
330
19A
100
AcDbEntity
  8
AM_4
100
AcDbLine
 10
-0.5062499999999999
 20
-2.073126451117199
 30
0.0
 11
-0.5624999999999998
 21
-2.073126451117201
 31
0.0
  0
LINE
  5
1FB
330
19A
100
AcDbEntity
  8
AM_4
100
AcDbLine
 10
0.0
 20
3.5625
 30
0.0
 11
-0.5062500000000001
 21
3.5625
 31
0.0
  0
LINE
  5
1FC
330
19A
100
AcDbEntity
  8
AM_4
100
AcDbLine
 10
-0.5062500000000001
 20
3.5625
 30
0.0
 11
-0.5062500000000001
 21
2.897162917006605
 31
0.0
  0
ENDBLK
  5
19D
330
19A
100
AcDbEntity
  8
0
100
AcDbBlockEnd
  0
ENDSEC
  0
SECTION
  2
ENTITIES
  0
INSERT
  5
6F
330
1F
100
AcDbEntity
  8
0
100
AcDbBlockReference
  2
1_070679_2
 10
0.0
 20
0.0
 30
0.0
  0
POINT
  5
1FE
330
1F
100
AcDbEntity
  8
ConnectionPoints
100
AcDbPoint
 10
-1.3125
 20
0.0
 30
0.0000000000000001
  0
POINT
  5
1FF
330
1F
100
AcDbEntity
  8
ConnectionPoints
100
AcDbPoint
 10
-1.3125
 20
0.0
 30
0.0000000000000001
  0
POINT
  5
200
330
1F
100
AcDbEntity
  8
ConnectionPoints
100
AcDbPoint
 10
2.4625
 20
0.0
 30
-0.0000000000000002
  0
POINT
  5
201
330
1F
100
AcDbEntity
  8
ConnectionPoints
100
AcDbPoint
 10
-1.3125
 20
0.0
 30
0.0000000000000001
  0
POINT
  5
202
330
1F
100
AcDbEntity
  8
ConnectionPoints
100
AcDbPoint
 10
-0.6472681948161267
 20
2.598333333333334
 30
0.0
  0
POINT
  5
203
330
1F
100
AcDbEntity
  8
ConnectionPoints
100
AcDbPoint
 10
1.375
 20
0.0
 30
-0.0000000000000001
  0
POINT
  5
204
330
1F
100
AcDbEntity
  8
ConnectionPoints
100
AcDbPoint
 10
-0.6472681948161267
 20
2.598333333333334
 30
0.0
  0
POINT
  5
205
330
1F
100
AcDbEntity
  8
ConnectionPoints
100
AcDbPoint
 10
-0.6111838029917749
 20
2.9525
 30
0.0
  0
POINT
  5
206
330
1F
100
AcDbEntity
  8
ConnectionPoints
100
AcDbPoint
 10
-1.3125
 20
0.0
 30
0.0000000000000001
  0
POINT
  5
207
330
1F
100
AcDbEntity
  8
ConnectionPoints
100
AcDbPoint
 10
-1.5625
 20
0.0
 30
0.0000000000000001
  0
ENDSEC
  0
SECTION
  2
OBJECTS
  0
DICTIONARY
  5
C
330
0
100
AcDbDictionary
281
     1
  3
ACAD_DETAILVIEWSTYLE
350
20F
  3
ACAD_GROUP
350
D
  3
ACAD_LAYOUT
350
1A
  3
ACAD_MATERIAL
350
43
  3
ACAD_MLEADERSTYLE
350
6B
  3
ACAD_MLINESTYLE
350
17
  3
ACAD_PLOTSETTINGS
350
19
  3
ACAD_PLOTSTYLENAME
350
E
  3
ACAD_SCALELIST
350
47
  3
ACAD_SECTIONVIEWSTYLE
350
210
  3
ACAD_TABLESTYLE
350
69
  3
ACAD_VISUALSTYLE
350
2A
  3
ACDB_RECOMPOSE_DATA
350
20C
  3
AcDbVariableDictionary
350
208
  0
SUN
  5
6D
330
29
100
AcDbSun
 90
        1
290
     0
 63
     7
421
 16777215
 40
1.0
291
     1
 91
  2455826
 92
 54000000
292
     0
 70
     2
 71
   256
280
     1
  0
DICTIONARY
  5
20F
102
{ACAD_REACTORS
330
C
102
}
330
C
100
AcDbDictionary
281
     1
  0
DICTIONARY
  5
D
102
{ACAD_REACTORS
330
C
102
}
330
C
100
AcDbDictionary
281
     1
  0
DICTIONARY
  5
1A
102
{ACAD_REACTORS
330
C
102
}
330
C
100
AcDbDictionary
281
     1
  3
Layout1
350
1E
  3
Layout2
350
26
  3
Model
350
22
  0
DICTIONARY
  5
43
102
{ACAD_REACTORS
330
C
102
}
330
C
100
AcDbDictionary
281
     1
  3
ByBlock
350
45
  3
ByLayer
350
44
  3
Global
350
46
  0
DICTIONARY
  5
6B
102
{ACAD_REACTORS
330
C
102
}
330
C
100
AcDbDictionary
281
     1
  3
Standard
350
6C
  0
DICTIONARY
  5
17
102
{ACAD_REACTORS
330
C
102
}
330
C
100
AcDbDictionary
281
     1
  3
Standard
350
18
  0
DICTIONARY
  5
19
102
{ACAD_REACTORS
330
C
102
}
330
C
100
AcDbDictionary
281
     1
  0
ACDBDICTIONARYWDFLT
  5
E
102
{ACAD_REACTORS
330
C
102
}
330
C
100
AcDbDictionary
281
     1
  3
Normal
350
F
100
AcDbDictionaryWithDefault
340
F
  0
DICTIONARY
  5
47
102
{ACAD_REACTORS
330
C
102
}
330
C
100
AcDbDictionary
281
     1
  3
A0
350
48
  3
A1
350
49
  3
A2
350
4A
  3
A3
350
4B
  3
A4
350
4C
  3
A5
350
4D
  3
A6
350
4E
  3
A7
350
4F
  3
A8
350
50
  3
A9
350
51
  3
B0
350
52
  3
B1
350
53
  3
B2
350
54
  3
B3
350
55
  3
B4
350
56
  3
B5
350
57
  3
B6
350
58
  3
B7
350
59
  3
B8
350
5A
  3
B9
350
5B
  3
C0
350
5C
  3
C1
350
5D
  3
C2
350
5E
  3
C3
350
5F
  3
C4
350
60
  3
C5
350
61
  3
C6
350
62
  3
C7
350
63
  3
C8
350
64
  3
C9
350
65
  3
D0
350
66
  3
D1
350
67
  3
D2
350
68
  0
DICTIONARY
  5
210
102
{ACAD_REACTORS
330
C
102
}
330
C
100
AcDbDictionary
281
     1
  0
DICTIONARY
  5
69
102
{ACAD_REACTORS
330
C
102
}
330
C
100
AcDbDictionary
281
     1
  3
Standard
350
6A
  0
DICTIONARY
  5
2A
102
{ACAD_REACTORS
330
C
102
}
330
C
100
AcDbDictionary
281
     1
  3
2dWireframe
350
2F
  3
Basic
350
32
  3
Brighten
350
36
  3
ColorChange
350
3A
  3
Conceptual
350
34
  3
Dim
350
35
  3
EdgeColorOff
350
3D
  3
Facepattern
350
39
  3
Flat
350
2B
  3
FlatWithEdges
350
2C
  3
Gouraud
350
2D
  3
GouraudWithEdges
350
2E
  3
Hidden
350
31
  3
JitterOff
350
3B
  3
Linepattern
350
38
  3
OverhangOff
350
3C
  3
Realistic
350
33
  3
Shaded
350
42
  3
Shaded with edges
350
41
  3
Shades of Gray
350
3E
  3
Sketchy
350
3F
  3
Thicken
350
37
  3
Wireframe
350
30
  3
X-Ray
350
40
  0
XRECORD
  5
20C
102
{ACAD_REACTORS
330
C
102
}
330
C
100
AcDbXrecord
280
     1
 90
        1
330
6A
  0
DICTIONARY
  5
208
102
{ACAD_REACTORS
330
C
102
}
330
C
100
AcDbDictionary
281
     1
  3
CANNOSCALE
350
209
  3
CMLEADERSTYLE
350
20E
  3
CTABLESTYLE
350
20D
  0
LAYOUT
  5
1E
102
{ACAD_REACTORS
330
1A
102
}
330
1A
100
AcDbPlotSettings
  1

  2
none_device
  4

  6

 40
0.0
 41
0.0
 42
0.0
 43
0.0
 44
0.0
 45
0.0
 46
0.0
 47
0.0
 48
0.0
 49
0.0
140
0.0
141
0.0
142
1.0
143
1.0
 70
   688
 72
     0
 73
     0
 74
     5
  7

 75
    16
 76
     0
 77
     2
 78
   300
147
1.0
148
0.0
149
0.0
100
AcDbLayout
  1
Layout1
 70
     1
 71
     1
 10
0.0
 20
0.0
 11
12.0
 21
9.0
 12
0.0
 22
0.0
 32
0.0
 14
1.000000000000000E+20
 24
1.000000000000000E+20
 34
1.000000000000000E+20
 15
-1.000000000000000E+20
 25
-1.000000000000000E+20
 35
-1.000000000000000E+20
146
0.0
 13
0.0
 23
0.0
 33
0.0
 16
1.0
 26
0.0
 36
0.0
 17
0.0
 27
1.0
 37
0.0
 76
     0
330
1B
  0
LAYOUT
  5
26
102
{ACAD_REACTORS
330
1A
102
}
330
1A
100
AcDbPlotSettings
  1

  2
none_device
  4

  6

 40
0.0
 41
0.0
 42
0.0
 43
0.0
 44
0.0
 45
0.0
 46
0.0
 47
0.0
 48
0.0
 49
0.0
140
0.0
141
0.0
142
1.0
143
1.0
 70
   688
 72
     0
 73
     0
 74
     5
  7

 75
    16
 76
     0
 77
     2
 78
   300
147
1.0
148
0.0
149
0.0
100
AcDbLayout
  1
Layout2
 70
     1
 71
     2
 10
0.0
 20
0.0
 11
0.0
 21
0.0
 12
0.0
 22
0.0
 32
0.0
 14
0.0
 24
0.0
 34
0.0
 15
0.0
 25
0.0
 35
0.0
146
0.0
 13
0.0
 23
0.0
 33
0.0
 16
1.0
 26
0.0
 36
0.0
 17
0.0
 27
1.0
 37
0.0
 76
     0
330
23
  0
LAYOUT
  5
22
102
{ACAD_REACTORS
330
1A
102
}
330
1A
100
AcDbPlotSettings
  1

  2
none_device
  4
Letter_(8.50_x_11.00_Inches)
  6

 40
6.35
 41
6.35
 42
6.35000508
 43
6.35000508
 44
215.9
 45
279.4
 46
0.0
 47
0.0
 48
0.0
 49
0.0
140
0.0
141
0.0
142
1.0
143
1.0
 70
  1712
 72
     0
 73
     0
 74
     0
  7

 75
     0
 76
     0
 77
     2
 78
   300
147
1.0
148
0.0
149
0.0
100
AcDbLayout
  1
Model
 70
     1
 71
     0
 10
0.0
 20
0.0
 11
12.0
 21
9.0
 12
0.0
 22
0.0
 32
0.0
 14
1.000000000000000E+20
 24
1.000000000000000E+20
 34
1.000000000000000E+20
 15
-1.000000000000000E+20
 25
-1.000000000000000E+20
 35
-1.000000000000000E+20
146
0.0
 13
0.0
 23
0.0
 33
0.0
 16
1.0
 26
0.0
 36
0.0
 17
0.0
 27
1.0
 37
0.0
 76
     0
330
1F
331
29
  0
MATERIAL
  5
45
102
{ACAD_REACTORS
330
43
102
}
330
43
100
AcDbMaterial
  1
ByBlock
 72
     1
 94
      127
  0
MATERIAL
  5
44
102
{ACAD_REACTORS
330
43
102
}
330
43
100
AcDbMaterial
  1
ByLayer
 72
     1
 94
      127
  0
MATERIAL
  5
46
102
{ACAD_REACTORS
330
43
102
}
330
43
100
AcDbMaterial
  1
Global
 72
     1
 94
      127
  0
MLEADERSTYLE
  5
6C
102
{ACAD_REACTORS
330
6B
102
}
330
6B
100
AcDbMLeaderStyle
179
     2
170
     2
171
     1
172
     0
 90
        2
 40
0.0
 41
0.0
173
     1
 91
-1056964608
340
14
 92
       -2
290
     1
 42
0.09
291
     1
 43
0.36
  3
Standard
341
0
 44
0.18
300

342
11
174
     1
178
     6
175
     1
176
     0
 93
-1056964608
 45
0.18
292
     0
297
     0
 46
0.18
343
0
 94
-1056964608
 47
1.0
 49
1.0
140
1.0
293
     1
141
0.0
294
     1
177
     0
142
1.0
295
     0
296
     0
143
0.125
271
     0
272
     9
273
     9
298
     0
  0
MLINESTYLE
  5
18
102
{ACAD_REACTORS
330
17
102
}
330
17
100
AcDbMlineStyle
  2
Standard
 70
     0
  3

 62
   256
 51
90.0
 52
90.0
 71
     2
 49
0.5
 62
   256
  6
BYLAYER
 49
-0.5
 62
   256
  6
BYLAYER
  0
ACDBPLACEHOLDER
  5
F
102
{ACAD_REACTORS
330
E
102
}
330
E
  0
SCALE
  5
48
102
{ACAD_REACTORS
330
47
102
}
330
47
100
AcDbScale
 70
     0
300
1:1
140
1.0
141
1.0
290
     1
  0
SCALE
  5
49
102
{ACAD_REACTORS
330
47
102
}
330
47
100
AcDbScale
 70
     0
300
1:2
140
1.0
141
2.0
290
     0
  0
SCALE
  5
4A
102
{ACAD_REACTORS
330
47
102
}
330
47
100
AcDbScale
 70
     0
300
1:4
140
1.0
141
4.0
290
     0
  0
SCALE
  5
4B
102
{ACAD_REACTORS
330
47
102
}
330
47
100
AcDbScale
 70
     0
300
1:5
140
1.0
141
5.0
290
     0
  0
SCALE
  5
4C
102
{ACAD_REACTORS
330
47
102
}
330
47
100
AcDbScale
 70
     0
300
1:8
140
1.0
141
8.0
290
     0
  0
SCALE
  5
4D
102
{ACAD_REACTORS
330
47
102
}
330
47
100
AcDbScale
 70
     0
300
1:10
140
1.0
141
10.0
290
     0
  0
SCALE
  5
4E
102
{ACAD_REACTORS
330
47
102
}
330
47
100
AcDbScale
 70
     0
300
1:16
140
1.0
141
16.0
290
     0
  0
SCALE
  5
4F
102
{ACAD_REACTORS
330
47
102
}
330
47
100
AcDbScale
 70
     0
300
1:20
140
1.0
141
20.0
290
     0
  0
SCALE
  5
50
102
{ACAD_REACTORS
330
47
102
}
330
47
100
AcDbScale
 70
     0
300
1:30
140
1.0
141
30.0
290
     0
  0
SCALE
  5
51
102
{ACAD_REACTORS
330
47
102
}
330
47
100
AcDbScale
 70
     0
300
1:40
140
1.0
141
40.0
290
     0
  0
SCALE
  5
52
102
{ACAD_REACTORS
330
47
102
}
330
47
100
AcDbScale
 70
     0
300
1:50
140
1.0
141
50.0
290
     0
  0
SCALE
  5
53
102
{ACAD_REACTORS
330
47
102
}
330
47
100
AcDbScale
 70
     0
300
1:100
140
1.0
141
100.0
290
     0
  0
SCALE
  5
54
102
{ACAD_REACTORS
330
47
102
}
330
47
100
AcDbScale
 70
     0
300
2:1
140
2.0
141
1.0
290
     0
  0
SCALE
  5
55
102
{ACAD_REACTORS
330
47
102
}
330
47
100
AcDbScale
 70
     0
300
4:1
140
4.0
141
1.0
290
     0
  0
SCALE
  5
56
102
{ACAD_REACTORS
330
47
102
}
330
47
100
AcDbScale
 70
     0
300
8:1
140
8.0
141
1.0
290
     0
  0
SCALE
  5
57
102
{ACAD_REACTORS
330
47
102
}
330
47
100
AcDbScale
 70
     0
300
10:1
140
10.0
141
1.0
290
     0
  0
SCALE
  5
58
102
{ACAD_REACTORS
330
47
102
}
330
47
100
AcDbScale
 70
     0
300
100:1
140
100.0
141
1.0
290
     0
  0
SCALE
  5
59
102
{ACAD_REACTORS
330
47
102
}
330
47
100
AcDbScale
 70
     0
300
1/128" = 1'-0"
140
0.0078125
141
12.0
290
     0
  0
SCALE
  5
5A
102
{ACAD_REACTORS
330
47
102
}
330
47
100
AcDbScale
 70
     0
300
1/64" = 1'-0"
140
0.015625
141
12.0
290
     0
  0
SCALE
  5
5B
102
{ACAD_REACTORS
330
47
102
}
330
47
100
AcDbScale
 70
     0
300
1/32" = 1'-0"
140
0.03125
141
12.0
290
     0
  0
SCALE
  5
5C
102
{ACAD_REACTORS
330
47
102
}
330
47
100
AcDbScale
 70
     0
300
1/16" = 1'-0"
140
0.0625
141
12.0
290
     0
  0
SCALE
  5
5D
102
{ACAD_REACTORS
330
47
102
}
330
47
100
AcDbScale
 70
     0
300
3/32" = 1'-0"
140
0.09375
141
12.0
290
     0
  0
SCALE
  5
5E
102
{ACAD_REACTORS
330
47
102
}
330
47
100
AcDbScale
 70
     0
300
1/8" = 1'-0"
140
0.125
141
12.0
290
     0
  0
SCALE
  5
5F
102
{ACAD_REACTORS
330
47
102
}
330
47
100
AcDbScale
 70
     0
300
3/16" = 1'-0"
140
0.1875
141
12.0
290
     0
  0
SCALE
  5
60
102
{ACAD_REACTORS
330
47
102
}
330
47
100
AcDbScale
 70
     0
300
1/4" = 1'-0"
140
0.25
141
12.0
290
     0
  0
SCALE
  5
61
102
{ACAD_REACTORS
330
47
102
}
330
47
100
AcDbScale
 70
     0
300
3/8" = 1'-0"
140
0.375
141
12.0
290
     0
  0
SCALE
  5
62
102
{ACAD_REACTORS
330
47
102
}
330
47
100
AcDbScale
 70
     0
300
1/2" = 1'-0"
140
0.5
141
12.0
290
     0
  0
SCALE
  5
63
102
{ACAD_REACTORS
330
47
102
}
330
47
100
AcDbScale
 70
     0
300
3/4" = 1'-0"
140
0.75
141
12.0
290
     0
  0
SCALE
  5
64
102
{ACAD_REACTORS
330
47
102
}
330
47
100
AcDbScale
 70
     0
300
1" = 1'-0"
140
1.0
141
12.0
290
     0
  0
SCALE
  5
65
102
{ACAD_REACTORS
330
47
102
}
330
47
100
AcDbScale
 70
     0
300
1-1/2" = 1'-0"
140
1.5
141
12.0
290
     0
  0
SCALE
  5
66
102
{ACAD_REACTORS
330
47
102
}
330
47
100
AcDbScale
 70
     0
300
3" = 1'-0"
140
3.0
141
12.0
290
     0
  0
SCALE
  5
67
102
{ACAD_REACTORS
330
47
102
}
330
47
100
AcDbScale
 70
     0
300
6" = 1'-0"
140
6.0
141
12.0
290
     0
  0
SCALE
  5
68
102
{ACAD_REACTORS
330
47
102
}
330
47
100
AcDbScale
 70
     0
300
1'-0" = 1'-0"
140
12.0
141
12.0
290
     0
  0
TABLESTYLE
  5
6A
102
{ACAD_REACTORS
330
69
102
}
102
{ACAD_XDICTIONARY
360
20A
102
}
330
69
100
AcDbTableStyle
  3
Standard
 70
     0
 71
     0
 40
0.06
 41
0.06
280
     0
281
     0
  7
Standard
140
0.18
170
     2
 62
     0
 63
   257
283
     0
 90
        4
 91
        0
  1

274
    -2
284
     1
 64
     0
275
    -2
285
     1
 65
     0
276
    -2
286
     1
 66
     0
277
    -2
287
     1
 67
     0
278
    -2
288
     1
 68
     0
279
    -2
289
     1
 69
     0
  7
Standard
140
0.25
170
     5
 62
     0
 63
   257
283
     0
 90
        4
 91
        0
  1

274
    -2
284
     1
 64
     0
275
    -2
285
     1
 65
     0
276
    -2
286
     1
 66
     0
277
    -2
287
     1
 67
     0
278
    -2
288
     1
 68
     0
279
    -2
289
     1
 69
     0
  7
Standard
140
0.18
170
     5
 62
     0
 63
   257
283
     0
 90
        4
 91
        0
  1

274
    -2
284
     1
 64
     0
275
    -2
285
     1
 65
     0
276
    -2
286
     1
 66
     0
277
    -2
287
     1
 67
     0
278
    -2
288
     1
 68
     0
279
    -2
289
     1
 69
     0
  0
VISUALSTYLE
  5
2F
102
{ACAD_REACTORS
330
2A
102
}
330
2A
100
AcDbVisualStyle
  2
2dWireframe
 70
     4
177
     3
291
     0
 70
    58
 90
        0
176
     1
 90
        2
176
     1
 90
        0
176
     1
 90
        0
176
     1
 40
0.6
176
     1
 40
30.0
176
     1
 62
     7
420
 16777215
176
     1
 90
        1
176
     1
 90
        4
176
     1
 62
     7
176
     1
 62
   257
176
     1
 90
        1
176
     1
 90
        1
176
     1
 40
1.0
176
     1
 90
        0
176
     1
 62
   257
176
     1
 40
1.0
176
     1
 90
        1
176
     1
 90
        6
176
     1
 90
        2
176
     1
 62
     7
176
     1
 90
        5
176
     1
 90
        0
176
     1
 90
        0
176
     1
290
     0
176
     1
 90
        1
176
     1
 40
0.0
176
     1
 90
        0
176
     1
290
     1
176
     1
290
     1
176
     1
290
     0
176
     1
290
     0
176
     1
290
     0
176
     1
290
     0
176
     1
290
     0
176
     1
290
     0
176
     1
290
     0
176
     1
 90
       50
176
     1
 40
0.0
176
     1
 40
1.0
176
     1
 90
        0
176
     1
 62
    18
420
        0
176
     1
 90
       50
176
     1
 90
        3
176
     1
 62
     5
420
      255
176
     1
290
     0
176
     1
 90
       50
176
     1
 90
       50
176
     1
 90
       50
176
     1
290
     0
176
     1
 90
       50
176
     1
 62
   256
176
     0
 40
1.0
176
     0
 90
        2
176
     1
  1
strokes_ogs.tif
176
     1
290
     0
176
     1
 40
1.0
176
     1
 40
1.0
176
     1
  0
VISUALSTYLE
  5
32
102
{ACAD_REACTORS
330
2A
102
}
330
2A
100
AcDbVisualStyle
  2
Basic
 70
     7
177
     3
291
     1
 70
    58
 90
        1
176
     1
 90
        0
176
     1
 90
        1
176
     1
 90
        0
176
     1
 40
0.6
176
     1
 40
30.0
176
     1
 62
     7
420
 16777215
176
     1
 90
        0
176
     1
 90
        4
176
     1
 62
     7
176
     1
 62
   257
176
     1
 90
        1
176
     1
 90
        1
176
     1
 40
1.0
176
     1
 90
        8
176
     1
 62
     7
176
     1
 40
1.0
176
     1
 90
        1
176
     1
 90
        6
176
     1
 90
        2
176
     1
 62
     7
176
     1
 90
        5
176
     1
 90
        0
176
     1
 90
        0
176
     1
290
     0
176
     1
 90
        1
176
     1
 40
0.0
176
     1
 90
        0
176
     1
290
     0
176
     1
290
     1
176
     1
290
     1
176
     1
290
     0
176
     1
290
     0
176
     1
290
     0
176
     1
290
     0
176
     1
290
     0
176
     1
290
     0
176
     1
 90
       50
176
     1
 40
0.0
176
     1
 40
1.0
176
     1
 90
        0
176
     1
 62
    18
420
        0
176
     1
 90
       50
176
     1
 90
        3
176
     1
 62
     5
420
      255
176
     1
290
     0
176
     1
 90
       50
176
     1
 90
       50
176
     1
 90
       50
176
     1
290
     0
176
     1
 90
       50
176
     1
 62
   256
176
     0
 40
1.0
176
     0
 90
        2
176
     1
  1
strokes_ogs.tif
176
     1
290
     0
176
     1
 40
1.0
176
     1
 40
1.0
176
     1
  0
VISUALSTYLE
  5
36
102
{ACAD_REACTORS
330
2A
102
}
330
2A
100
AcDbVisualStyle
  2
Brighten
 70
    12
177
     3
291
     1
 70
    58
 90
        2
176
     1
 90
        2
176
     1
 90
        0
176
     1
 90
        0
176
     1
 40
0.6
176
     1
 40
30.0
176
     1
 62
     7
420
 16777215
176
     1
 90
        1
176
     1
 90
        4
176
     1
 62
     7
176
     1
 62
   257
176
     1
 90
        1
176
     1
 90
        1
176
     1
 40
1.0
176
     1
 90
        8
176
     1
 62
     7
176
     1
 40
1.0
176
     1
 90
        1
176
     1
 90
        6
176
     1
 90
        2
176
     1
 62
     7
176
     1
 90
        5
176
     1
 90
        0
176
     1
 90
        0
176
     1
290
     0
176
     1
 90
        1
176
     1
 40
50.0
176
     1
 90
        0
176
     1
290
     0
176
     1
290
     1
176
     1
290
     1
176
     1
290
     0
176
     1
290
     0
176
     1
290
     0
176
     1
290
     0
176
     1
290
     0
176
     1
290
     0
176
     1
 90
       50
176
     1
 40
0.0
176
     1
 40
1.0
176
     1
 90
        0
176
     1
 62
    18
420
        0
176
     1
 90
       50
176
     1
 90
        3
176
     1
 62
     5
420
      255
176
     1
290
     0
176
     1
 90
       50
176
     1
 90
       50
176
     1
 90
       50
176
     1
290
     0
176
     1
 90
       50
176
     1
 62
   256
176
     0
 40
1.0
176
     0
 90
        2
176
     1
  1
strokes_ogs.tif
176
     1
290
     0
176
     1
 40
1.0
176
     1
 40
1.0
176
     1
  0
VISUALSTYLE
  5
3A
102
{ACAD_REACTORS
330
2A
102
}
330
2A
100
AcDbVisualStyle
  2
ColorChange
 70
    16
177
     3
291
     1
 70
    58
 90
        2
176
     1
 90
        2
176
     1
 90
        3
176
     1
 90
        0
176
     1
 40
0.6
176
     1
 40
30.0
176
     1
 62
     8
420
  8421504
176
     1
 90
        1
176
     1
 90
        4
176
     1
 62
     7
176
     1
 62
   257
176
     1
 90
        1
176
     1
 90
        1
176
     1
 40
1.0
176
     1
 90
        8
176
     1
 62
     8
420
  8421504
176
     1
 40
1.0
176
     1
 90
        1
176
     1
 90
        6
176
     1
 90
        2
176
     1
 62
     7
176
     1
 90
        5
176
     1
 90
        0
176
     1
 90
        0
176
     1
290
     0
176
     1
 90
        1
176
     1
 40
0.0
176
     1
 90
        0
176
     1
290
     0
176
     1
290
     1
176
     1
290
     1
176
     1
290
     0
176
     1
290
     0
176
     1
290
     0
176
     1
290
     0
176
     1
290
     0
176
     1
290
     0
176
     1
 90
       50
176
     1
 40
0.0
176
     1
 40
1.0
176
     1
 90
        0
176
     1
 62
    18
420
        0
176
     1
 90
       50
176
     1
 90
        3
176
     1
 62
     5
420
      255
176
     1
290
     0
176
     1
 90
       50
176
     1
 90
       50
176
     1
 90
       50
176
     1
290
     0
176
     1
 90
       50
176
     1
 62
   256
176
     0
 40
1.0
176
     0
 90
        2
176
     1
  1
strokes_ogs.tif
176
     1
290
     0
176
     1
 40
1.0
176
     1
 40
1.0
176
     1
  0
VISUALSTYLE
  5
34
102
{ACAD_REACTORS
330
2A
102
}
330
2A
100
AcDbVisualStyle
  2
Conceptual
 70
     9
177
     3
291
     0
 70
    58
 90
        3
176
     1
 90
        2
176
     1
 90
        0
176
     1
 90
        0
176
     1
 40
0.6
176
     1
 40
30.0
176
     1
 62
     7
420
 16777215
176
     1
 90
        2
176
     1
 90
        2
176
     1
 62
     7
176
     1
 62
   257
176
     1
 90
        1
176
     1
 90
        1
176
     1
 40
179.0
176
     1
 90
        8
176
     1
 62
     7
176
     1
 40
1.0
176
     1
 90
        1
176
     1
 90
        6
176
     1
 90
        2
176
     1
 62
     7
176
     1
 90
        3
176
     1
 90
        0
176
     1
 90
        0
176
     1
290
     0
176
     1
 90
        1
176
     1
 40
0.0
176
     1
 90
        0
176
     1
290
     0
176
     1
290
     1
176
     1
290
     1
176
     1
290
     0
176
     1
290
     0
176
     1
290
     0
176
     1
290
     0
176
     1
290
     0
176
     1
290
     0
176
     1
 90
       50
176
     1
 40
0.0
176
     1
 40
1.0
176
     1
 90
        0
176
     1
 62
    18
420
        0
176
     1
 90
       50
176
     1
 90
        3
176
     1
 62
     5
420
      255
176
     1
290
     0
176
     1
 90
       50
176
     1
 90
       50
176
     1
 90
       50
176
     1
290
     0
176
     1
 90
       50
176
     1
 62
   256
176
     0
 40
1.0
176
     0
 90
        2
176
     1
  1
strokes_ogs.tif
176
     1
290
     0
176
     1
 40
1.0
176
     1
 40
1.0
176
     1
  0
VISUALSTYLE
  5
35
102
{ACAD_REACTORS
330
2A
102
}
330
2A
100
AcDbVisualStyle
  2
Dim
 70
    11
177
     3
291
     1
 70
    58
 90
        2
176
     1
 90
        2
176
     1
 90
        0
176
     1
 90
        0
176
     1
 40
0.6
176
     1
 40
30.0
176
     1
 62
     7
420
 16777215
176
     1
 90
        1
176
     1
 90
        4
176
     1
 62
     7
176
     1
 62
   257
176
     1
 90
        1
176
     1
 90
        1
176
     1
 40
1.0
176
     1
 90
        8
176
     1
 62
     7
176
     1
 40
1.0
176
     1
 90
        1
176
     1
 90
        6
176
     1
 90
        2
176
     1
 62
     7
176
     1
 90
        5
176
     1
 90
        0
176
     1
 90
        0
176
     1
290
     0
176
     1
 90
        1
176
     1
 40
-50.0
176
     1
 90
        0
176
     1
290
     0
176
     1
290
     1
176
     1
290
     1
176
     1
290
     0
176
     1
290
     0
176
     1
290
     0
176
     1
290
     0
176
     1
290
     0
176
     1
290
     0
176
     1
 90
       50
176
     1
 40
0.0
176
     1
 40
1.0
176
     1
 90
        0
176
     1
 62
    18
420
        0
176
     1
 90
       50
176
     1
 90
        3
176
     1
 62
     5
420
      255
176
     1
290
     0
176
     1
 90
       50
176
     1
 90
       50
176
     1
 90
       50
176
     1
290
     0
176
     1
 90
       50
176
     1
 62
   256
176
     0
 40
1.0
176
     0
 90
        2
176
     1
  1
strokes_ogs.tif
176
     1
290
     0
176
     1
 40
1.0
176
     1
 40
1.0
176
     1
  0
VISUALSTYLE
  5
3D
102
{ACAD_REACTORS
330
2A
102
}
330
2A
100
AcDbVisualStyle
  2
EdgeColorOff
 70
    22
177
     3
291
     1
 70
    58
 90
        2
176
     0
 90
        2
176
     0
 90
        0
176
     0
 90
        0
176
     0
 40
0.6
176
     0
 40
30.0
176
     0
 62
     7
420
 16777215
176
     0
 90
        1
176
     0
 90
        4
176
     0
 62
     7
176
     0
 62
   257
176
     0
 90
        1
176
     0
 90
        1
176
     0
 40
1.0
176
     0
 90
        8
176
     2
 62
     7
176
     0
 40
1.0
176
     0
 90
        1
176
     0
 90
        6
176
     0
 90
        2
176
     0
 62
     7
176
     0
 90
        5
176
     0
 90
        0
176
     0
 90
        0
176
     0
290
     0
176
     0
 90
        1
176
     0
 40
0.0
176
     0
 90
        0
176
     0
290
     0
176
     0
290
     1
176
     0
290
     1
176
     0
290
     0
176
     0
290
     0
176
     0
290
     0
176
     0
290
     0
176
     0
290
     0
176
     0
290
     0
176
     0
 90
       50
176
     0
 40
0.0
176
     0
 40
1.0
176
     0
 90
        0
176
     0
 62
    18
420
        0
176
     0
 90
       50
176
     0
 90
        3
176
     0
 62
     5
420
      255
176
     0
290
     0
176
     0
 90
       50
176
     0
 90
       50
176
     0
 90
       50
176
     0
290
     0
176
     0
 90
       50
176
     0
 62
   256
176
     0
 40
1.0
176
     0
 90
        2
176
     0
  1
strokes_ogs.tif
176
     0
290
     0
176
     0
 40
1.0
176
     0
 40
1.0
176
     0
  0
VISUALSTYLE
  5
39
102
{ACAD_REACTORS
330
2A
102
}
330
2A
100
AcDbVisualStyle
  2
Facepattern
 70
    15
177
     3
291
     1
 70
    58
 90
        2
176
     1
 90
        2
176
     1
 90
        0
176
     1
 90
        0
176
     1
 40
0.6
176
     1
 40
30.0
176
     1
 62
     7
420
 16777215
176
     1
 90
        1
176
     1
 90
        4
176
     1
 62
     7
176
     1
 62
   257
176
     1
 90
        1
176
     1
 90
        1
176
     1
 40
1.0
176
     1
 90
        8
176
     1
 62
     7
176
     1
 40
1.0
176
     1
 90
        1
176
     1
 90
        6
176
     1
 90
        2
176
     1
 62
     7
176
     1
 90
        5
176
     1
 90
        0
176
     1
 90
        0
176
     1
290
     0
176
     1
 90
        1
176
     1
 40
0.0
176
     1
 90
        0
176
     1
290
     0
176
     1
290
     1
176
     1
290
     1
176
     1
290
     0
176
     1
290
     0
176
     1
290
     0
176
     1
290
     0
176
     1
290
     0
176
     1
290
     0
176
     1
 90
       50
176
     1
 40
0.0
176
     1
 40
1.0
176
     1
 90
        0
176
     1
 62
    18
420
        0
176
     1
 90
       50
176
     1
 90
        3
176
     1
 62
     5
420
      255
176
     1
290
     0
176
     1
 90
       50
176
     1
 90
       50
176
     1
 90
       50
176
     1
290
     0
176
     1
 90
       50
176
     1
 62
   256
176
     0
 40
1.0
176
     0
 90
        2
176
     1
  1
strokes_ogs.tif
176
     1
290
     0
176
     1
 40
1.0
176
     1
 40
1.0
176
     1
  0
VISUALSTYLE
  5
2B
102
{ACAD_REACTORS
330
2A
102
}
330
2A
100
AcDbVisualStyle
  2
Flat
 70
     0
177
     3
291
     1
 70
    58
 90
        2
176
     1
 90
        1
176
     1
 90
        1
176
     1
 90
        2
176
     1
 40
0.6
176
     1
 40
30.0
176
     1
 62
     7
420
 16777215
176
     1
 90
        0
176
     1
 90
        0
176
     1
 62
     7
176
     1
 62
   257
176
     1
 90
        1
176
     1
 90
        1
176
     1
 40
1.0
176
     1
 90
        8
176
     1
 62
     7
176
     1
 40
1.0
176
     1
 90
        1
176
     1
 90
        6
176
     1
 90
        2
176
     1
 62
     7
176
     1
 90
        5
176
     1
 90
        0
176
     1
 90
        0
176
     1
290
     0
176
     1
 90
       13
176
     1
 40
0.0
176
     1
 90
        0
176
     1
290
     0
176
     1
290
     1
176
     1
290
     1
176
     1
290
     0
176
     1
290
     0
176
     1
290
     0
176
     1
290
     0
176
     1
290
     0
176
     1
290
     0
176
     1
 90
       50
176
     1
 40
0.0
176
     1
 40
1.0
176
     1
 90
        0
176
     1
 62
    18
420
        0
176
     1
 90
       50
176
     1
 90
        3
176
     1
 62
     5
420
      255
176
     1
290
     0
176
     1
 90
       50
176
     1
 90
       50
176
     1
 90
       50
176
     1
290
     0
176
     1
 90
       50
176
     1
 62
   256
176
     0
 40
1.0
176
     0
 90
        2
176
     1
  1
strokes_ogs.tif
176
     1
290
     0
176
     1
 40
1.0
176
     1
 40
1.0
176
     1
  0
VISUALSTYLE
  5
2C
102
{ACAD_REACTORS
330
2A
102
}
330
2A
100
AcDbVisualStyle
  2
FlatWithEdges
 70
     1
177
     3
291
     1
 70
    58
 90
        2
176
     1
 90
        1
176
     1
 90
        1
176
     1
 90
        2
176
     1
 40
0.6
176
     1
 40
30.0
176
     1
 62
     7
420
 16777215
176
     1
 90
        1
176
     1
 90
        0
176
     1
 62
     7
176
     1
 62
   257
176
     1
 90
        1
176
     1
 90
        1
176
     1
 40
1.0
176
     1
 90
        0
176
     1
 62
   257
176
     1
 40
1.0
176
     1
 90
        1
176
     1
 90
        6
176
     1
 90
        2
176
     1
 62
     7
176
     1
 90
        5
176
     1
 90
        0
176
     1
 90
        0
176
     1
290
     0
176
     1
 90
       13
176
     1
 40
0.0
176
     1
 90
        0
176
     1
290
     0
176
     1
290
     1
176
     1
290
     1
176
     1
290
     0
176
     1
290
     0
176
     1
290
     0
176
     1
290
     0
176
     1
290
     0
176
     1
290
     0
176
     1
 90
       50
176
     1
 40
0.0
176
     1
 40
1.0
176
     1
 90
        0
176
     1
 62
    18
420
        0
176
     1
 90
       50
176
     1
 90
        3
176
     1
 62
     5
420
      255
176
     1
290
     0
176
     1
 90
       50
176
     1
 90
       50
176
     1
 90
       50
176
     1
290
     0
176
     1
 90
       50
176
     1
 62
   256
176
     0
 40
1.0
176
     0
 90
        2
176
     1
  1
strokes_ogs.tif
176
     1
290
     0
176
     1
 40
1.0
176
     1
 40
1.0
176
     1
  0
VISUALSTYLE
  5
2D
102
{ACAD_REACTORS
330
2A
102
}
330
2A
100
AcDbVisualStyle
  2
Gouraud
 70
     2
177
     3
291
     1
 70
    58
 90
        2
176
     1
 90
        2
176
     1
 90
        1
176
     1
 90
        2
176
     1
 40
0.6
176
     1
 40
30.0
176
     1
 62
     7
420
 16777215
176
     1
 90
        0
176
     1
 90
        0
176
     1
 62
     7
176
     1
 62
   257
176
     1
 90
        1
176
     1
 90
        1
176
     1
 40
1.0
176
     1
 90
        0
176
     1
 62
     7
176
     1
 40
1.0
176
     1
 90
        1
176
     1
 90
        6
176
     1
 90
        2
176
     1
 62
     7
176
     1
 90
        5
176
     1
 90
        0
176
     1
 90
        0
176
     1
290
     0
176
     1
 90
       13
176
     1
 40
0.0
176
     1
 90
        0
176
     1
290
     0
176
     1
290
     1
176
     1
290
     1
176
     1
290
     0
176
     1
290
     0
176
     1
290
     0
176
     1
290
     0
176
     1
290
     0
176
     1
290
     0
176
     1
 90
       50
176
     1
 40
0.0
176
     1
 40
1.0
176
     1
 90
        0
176
     1
 62
    18
420
        0
176
     1
 90
       50
176
     1
 90
        3
176
     1
 62
     5
420
      255
176
     1
290
     0
176
     1
 90
       50
176
     1
 90
       50
176
     1
 90
       50
176
     1
290
     0
176
     1
 90
       50
176
     1
 62
   256
176
     0
 40
1.0
176
     0
 90
        2
176
     1
  1
strokes_ogs.tif
176
     1
290
     0
176
     1
 40
1.0
176
     1
 40
1.0
176
     1
  0
VISUALSTYLE
  5
2E
102
{ACAD_REACTORS
330
2A
102
}
330
2A
100
AcDbVisualStyle
  2
GouraudWithEdges
 70
     3
177
     3
291
     1
 70
    58
 90
        2
176
     1
 90
        2
176
     1
 90
        1
176
     1
 90
        2
176
     1
 40
0.6
176
     1
 40
30.0
176
     1
 62
     7
420
 16777215
176
     1
 90
        1
176
     1
 90
        0
176
     1
 62
     7
176
     1
 62
   257
176
     1
 90
        1
176
     1
 90
        1
176
     1
 40
1.0
176
     1
 90
        0
176
     1
 62
   257
176
     1
 40
1.0
176
     1
 90
        1
176
     1
 90
        6
176
     1
 90
        2
176
     1
 62
     7
176
     1
 90
        5
176
     1
 90
        0
176
     1
 90
        0
176
     1
290
     0
176
     1
 90
       13
176
     1
 40
0.0
176
     1
 90
        0
176
     1
290
     0
176
     1
290
     1
176
     1
290
     1
176
     1
290
     0
176
     1
290
     0
176
     1
290
     0
176
     1
290
     0
176
     1
290
     0
176
     1
290
     0
176
     1
 90
       50
176
     1
 40
0.0
176
     1
 40
1.0
176
     1
 90
        0
176
     1
 62
    18
420
        0
176
     1
 90
       50
176
     1
 90
        3
176
     1
 62
     5
420
      255
176
     1
290
     0
176
     1
 90
       50
176
     1
 90
       50
176
     1
 90
       50
176
     1
290
     0
176
     1
 90
       50
176
     1
 62
   256
176
     0
 40
1.0
176
     0
 90
        2
176
     1
  1
strokes_ogs.tif
176
     1
290
     0
176
     1
 40
1.0
176
     1
 40
1.0
176
     1
  0
VISUALSTYLE
  5
31
102
{ACAD_REACTORS
330
2A
102
}
330
2A
100
AcDbVisualStyle
  2
Hidden
 70
     6
177
     3
291
     0
 70
    58
 90
        1
176
     1
 90
        2
176
     1
 90
        2
176
     1
 90
        0
176
     1
 40
0.6
176
     1
 40
30.0
176
     1
 62
     7
420
 16777215
176
     1
 90
        2
176
     1
 90
        2
176
     1
 62
     7
176
     1
 62
   257
176
     1
 90
        2
176
     1
 90
        1
176
     1
 40
40.0
176
     1
 90
        0
176
     1
 62
   257
176
     1
 40
1.0
176
     1
 90
        1
176
     1
 90
        6
176
     1
 90
        2
176
     1
 62
     7
176
     1
 90
        3
176
     1
 90
        0
176
     1
 90
        0
176
     1
290
     0
176
     1
 90
        1
176
     1
 40
0.0
176
     1
 90
        0
176
     1
290
     0
176
     1
290
     1
176
     1
290
     1
176
     1
290
     0
176
     1
290
     0
176
     1
290
     0
176
     1
290
     0
176
     1
290
     0
176
     1
290
     0
176
     1
 90
       50
176
     1
 40
0.0
176
     1
 40
1.0
176
     1
 90
        0
176
     1
 62
    18
420
        0
176
     1
 90
       50
176
     1
 90
        3
176
     1
 62
     5
420
      255
176
     1
290
     0
176
     1
 90
       50
176
     1
 90
       50
176
     1
 90
       50
176
     1
290
     0
176
     1
 90
       50
176
     1
 62
   256
176
     0
 40
1.0
176
     0
 90
        2
176
     1
  1
strokes_ogs.tif
176
     1
290
     0
176
     1
 40
1.0
176
     1
 40
1.0
176
     1
  0
VISUALSTYLE
  5
3B
102
{ACAD_REACTORS
330
2A
102
}
330
2A
100
AcDbVisualStyle
  2
JitterOff
 70
    20
177
     3
291
     1
 70
    58
 90
        2
176
     0
 90
        2
176
     0
 90
        0
176
     0
 90
        0
176
     0
 40
0.6
176
     0
 40
30.0
176
     0
 62
     7
420
 16777215
176
     0
 90
        1
176
     0
 90
        4
176
     0
 62
     7
176
     0
 62
   257
176
     0
 90
        1
176
     0
 90
        1
176
     0
 40
1.0
176
     0
 90
       10
176
     2
 62
     7
176
     0
 40
1.0
176
     0
 90
        1
176
     0
 90
        6
176
     0
 90
        2
176
     0
 62
     7
176
     0
 90
        5
176
     0
 90
        0
176
     0
 90
        0
176
     0
290
     0
176
     0
 90
        1
176
     0
 40
0.0
176
     0
 90
        0
176
     0
290
     0
176
     0
290
     1
176
     0
290
     1
176
     0
290
     0
176
     0
290
     0
176
     0
290
     0
176
     0
290
     0
176
     0
290
     0
176
     0
290
     0
176
     0
 90
       50
176
     0
 40
0.0
176
     0
 40
1.0
176
     0
 90
        0
176
     0
 62
    18
420
        0
176
     0
 90
       50
176
     0
 90
        3
176
     0
 62
     5
420
      255
176
     0
290
     0
176
     0
 90
       50
176
     0
 90
       50
176
     0
 90
       50
176
     0
290
     0
176
     0
 90
       50
176
     0
 62
   256
176
     0
 40
1.0
176
     0
 90
        2
176
     0
  1
strokes_ogs.tif
176
     0
290
     0
176
     0
 40
1.0
176
     0
 40
1.0
176
     0
  0
VISUALSTYLE
  5
38
102
{ACAD_REACTORS
330
2A
102
}
330
2A
100
AcDbVisualStyle
  2
Linepattern
 70
    14
177
     3
291
     1
 70
    58
 90
        2
176
     1
 90
        2
176
     1
 90
        0
176
     1
 90
        0
176
     1
 40
0.6
176
     1
 40
30.0
176
     1
 62
     7
420
 16777215
176
     1
 90
        1
176
     1
 90
        4
176
     1
 62
     7
176
     1
 62
   257
176
     1
 90
        7
176
     1
 90
        7
176
     1
 40
1.0
176
     1
 90
        8
176
     1
 62
     7
176
     1
 40
1.0
176
     1
 90
        1
176
     1
 90
        6
176
     1
 90
        2
176
     1
 62
     7
176
     1
 90
        5
176
     1
 90
        0
176
     1
 90
        0
176
     1
290
     0
176
     1
 90
        1
176
     1
 40
0.0
176
     1
 90
        0
176
     1
290
     0
176
     1
290
     1
176
     1
290
     1
176
     1
290
     0
176
     1
290
     0
176
     1
290
     0
176
     1
290
     0
176
     1
290
     0
176
     1
290
     0
176
     1
 90
       50
176
     1
 40
0.0
176
     1
 40
1.0
176
     1
 90
        0
176
     1
 62
    18
420
        0
176
     1
 90
       50
176
     1
 90
        3
176
     1
 62
     5
420
      255
176
     1
290
     0
176
     1
 90
       50
176
     1
 90
       50
176
     1
 90
       50
176
     1
290
     0
176
     1
 90
       50
176
     1
 62
   256
176
     0
 40
1.0
176
     0
 90
        2
176
     1
  1
strokes_ogs.tif
176
     1
290
     0
176
     1
 40
1.0
176
     1
 40
1.0
176
     1
  0
VISUALSTYLE
  5
3C
102
{ACAD_REACTORS
330
2A
102
}
330
2A
100
AcDbVisualStyle
  2
OverhangOff
 70
    21
177
     3
291
     1
 70
    58
 90
        2
176
     0
 90
        2
176
     0
 90
        0
176
     0
 90
        0
176
     0
 40
0.6
176
     0
 40
30.0
176
     0
 62
     7
420
 16777215
176
     0
 90
        1
176
     0
 90
        4
176
     0
 62
     7
176
     0
 62
   257
176
     0
 90
        1
176
     0
 90
        1
176
     0
 40
1.0
176
     0
 90
        9
176
     2
 62
     7
176
     0
 40
1.0
176
     0
 90
        1
176
     0
 90
        6
176
     0
 90
        2
176
     0
 62
     7
176
     0
 90
        5
176
     0
 90
        0
176
     0
 90
        0
176
     0
290
     0
176
     0
 90
        1
176
     0
 40
0.0
176
     0
 90
        0
176
     0
290
     0
176
     0
290
     1
176
     0
290
     1
176
     0
290
     0
176
     0
290
     0
176
     0
290
     0
176
     0
290
     0
176
     0
290
     0
176
     0
290
     0
176
     0
 90
       50
176
     0
 40
0.0
176
     0
 40
1.0
176
     0
 90
        0
176
     0
 62
    18
420
        0
176
     0
 90
       50
176
     0
 90
        3
176
     0
 62
     5
420
      255
176
     0
290
     0
176
     0
 90
       50
176
     0
 90
       50
176
     0
 90
       50
176
     0
290
     0
176
     0
 90
       50
176
     0
 62
   256
176
     0
 40
1.0
176
     0
 90
        2
176
     0
  1
strokes_ogs.tif
176
     0
290
     0
176
     0
 40
1.0
176
     0
 40
1.0
176
     0
  0
VISUALSTYLE
  5
33
102
{ACAD_REACTORS
330
2A
102
}
330
2A
100
AcDbVisualStyle
  2
Realistic
 70
     8
177
     3
291
     0
 70
    58
 90
        2
176
     1
 90
        3
176
     1
 90
        0
176
     1
 90
        2
176
     1
 40
0.6
176
     1
 40
30.0
176
     1
 62
     7
420
 16777215
176
     1
 90
        0
176
     1
 90
        0
176
     1
 62
     7
176
     1
 62
   257
176
     1
 90
        1
176
     1
 90
        1
176
     1
 40
1.0
176
     1
 90
        8
176
     1
 62
   257
176
     1
 40
1.0
176
     1
 90
        1
176
     1
 90
        6
176
     1
 90
        2
176
     1
 62
     7
176
     1
 90
        3
176
     1
 90
        0
176
     1
 90
        0
176
     1
290
     0
176
     1
 90
       13
176
     1
 40
0.0
176
     1
 90
        0
176
     1
290
     0
176
     1
290
     1
176
     1
290
     1
176
     1
290
     0
176
     1
290
     0
176
     1
290
     0
176
     1
290
     0
176
     1
290
     0
176
     1
290
     0
176
     1
 90
       50
176
     1
 40
0.0
176
     1
 40
1.0
176
     1
 90
        0
176
     1
 62
    18
420
        0
176
     1
 90
       50
176
     1
 90
        3
176
     1
 62
     5
420
      255
176
     1
290
     0
176
     1
 90
       50
176
     1
 90
       50
176
     1
 90
       50
176
     1
290
     0
176
     1
 90
       50
176
     1
 62
   256
176
     0
 40
1.0
176
     0
 90
        2
176
     1
  1
strokes_ogs.tif
176
     1
290
     0
176
     1
 40
1.0
176
     1
 40
1.0
176
     1
  0
VISUALSTYLE
  5
42
102
{ACAD_REACTORS
330
2A
102
}
330
2A
100
AcDbVisualStyle
  2
Shaded
 70
    27
177
     3
291
     0
 70
    58
 90
        2
176
     1
 90
        2
176
     1
 90
        1
176
     1
 90
        2
176
     1
 40
0.6
176
     1
 40
30.0
176
     1
 62
     7
420
 16777215
176
     1
 90
        0
176
     1
 90
        4
176
     1
 62
     7
176
     1
 62
   257
176
     1
 90
        1
176
     1
 90
        1
176
     1
 40
1.0
176
     1
 90
        8
176
     1
 62
   257
176
     1
 40
1.0
176
     1
 90
        1
176
     1
 90
        6
176
     1
 90
        2
176
     1
 62
     8
420
  7895160
176
     1
 90
        3
176
     1
 90
        0
176
     1
 90
        0
176
     1
290
     0
176
     1
 90
        5
176
     1
 40
0.0
176
     1
 90
        0
176
     1
290
     0
176
     1
290
     1
176
     1
290
     1
176
     1
290
     0
176
     1
290
     0
176
     1
290
     0
176
     1
290
     0
176
     1
290
     0
176
     1
290
     0
176
     1
 90
       50
176
     1
 40
0.0
176
     1
 40
1.0
176
     1
 90
        0
176
     1
 62
    18
420
        0
176
     1
 90
       50
176
     1
 90
        3
176
     1
 62
     5
420
      255
176
     1
290
     0
176
     1
 90
       50
176
     1
 90
       50
176
     1
 90
       50
176
     1
290
     0
176
     1
 90
       50
176
     1
 62
   256
176
     0
 40
1.0
176
     0
 90
        2
176
     1
  1
strokes_ogs.tif
176
     1
290
     0
176
     1
 40
1.0
176
     1
 40
1.0
176
     1
  0
VISUALSTYLE
  5
41
102
{ACAD_REACTORS
330
2A
102
}
330
2A
100
AcDbVisualStyle
  2
Shaded with edges
 70
    26
177
     3
291
     0
 70
    58
 90
        2
176
     1
 90
        2
176
     1
 90
        1
176
     1
 90
        2
176
     1
 40
0.6
176
     1
 40
30.0
176
     1
 62
     7
420
 16777215
176
     1
 90
        1
176
     1
 90
       10
176
     1
 62
     7
176
     1
 62
   257
176
     1
 90
        2
176
     1
 90
        1
176
     1
 40
1.0
176
     1
 90
        8
176
     1
 62
   257
176
     1
 40
1.0
176
     1
 90
        1
176
     1
 90
        6
176
     1
 90
        2
176
     1
 62
     7
176
     1
 90
        3
176
     1
 90
        0
176
     1
 90
        0
176
     1
290
     0
176
     1
 90
        5
176
     1
 40
0.0
176
     1
 90
        0
176
     1
290
     0
176
     1
290
     1
176
     1
290
     1
176
     1
290
     0
176
     1
290
     0
176
     1
290
     0
176
     1
290
     0
176
     1
290
     0
176
     1
290
     0
176
     1
 90
       50
176
     1
 40
0.0
176
     1
 40
1.0
176
     1
 90
        0
176
     1
 62
    18
420
        0
176
     1
 90
       50
176
     1
 90
        3
176
     1
 62
     5
420
      255
176
     1
290
     0
176
     1
 90
       50
176
     1
 90
       50
176
     1
 90
       50
176
     1
290
     0
176
     1
 90
       50
176
     1
 62
   256
176
     0
 40
1.0
176
     0
 90
        2
176
     1
  1
strokes_ogs.tif
176
     1
290
     0
176
     1
 40
1.0
176
     1
 40
1.0
176
     1
  0
VISUALSTYLE
  5
3E
102
{ACAD_REACTORS
330
2A
102
}
330
2A
100
AcDbVisualStyle
  2
Shades of Gray
 70
    23
177
     3
291
     0
 70
    58
 90
        2
176
     1
 90
        2
176
     1
 90
        3
176
     1
 90
        0
176
     1
 40
0.6
176
     1
 40
30.0
176
     1
 62
     7
420
 16777215
176
     1
 90
        2
176
     1
 90
        2
176
     1
 62
     7
176
     1
 62
     7
176
     1
 90
        1
176
     1
 90
        1
176
     1
 40
40.0
176
     1
 90
        8
176
     1
 62
     7
176
     1
 40
1.0
176
     1
 90
        1
176
     1
 90
        6
176
     1
 90
        2
176
     1
 62
     7
176
     1
 90
        3
176
     1
 90
        0
176
     1
 90
        0
176
     1
290
     0
176
     1
 90
        1
176
     1
 40
0.0
176
     1
 90
        0
176
     1
290
     0
176
     1
290
     1
176
     1
290
     1
176
     1
290
     0
176
     1
290
     0
176
     1
290
     0
176
     1
290
     0
176
     1
290
     0
176
     1
290
     0
176
     1
 90
       50
176
     1
 40
0.0
176
     1
 40
1.0
176
     1
 90
        0
176
     1
 62
    18
420
        0
176
     1
 90
       50
176
     1
 90
        3
176
     1
 62
     5
420
      255
176
     1
290
     0
176
     1
 90
       50
176
     1
 90
       50
176
     1
 90
       50
176
     1
290
     0
176
     1
 90
       50
176
     1
 62
   256
176
     0
 40
1.0
176
     0
 90
        2
176
     1
  1
strokes_ogs.tif
176
     1
290
     0
176
     1
 40
1.0
176
     1
 40
1.0
176
     1
  0
VISUALSTYLE
  5
3F
102
{ACAD_REACTORS
330
2A
102
}
330
2A
100
AcDbVisualStyle
  2
Sketchy
 70
    24
177
     3
291
     0
 70
    58
 90
        1
176
     1
 90
        2
176
     1
 90
        2
176
     1
 90
        0
176
     1
 40
0.6
176
     1
 40
30.0
176
     1
 62
     7
420
 16777215
176
     1
 90
        2
176
     1
 90
        2
176
     1
 62
     7
176
     1
 62
     7
176
     1
 90
        1
176
     1
 90
        1
176
     1
 40
40.0
176
     1
 90
       11
176
     1
 62
     7
176
     1
 40
1.0
176
     1
 90
        1
176
     1
 90
        6
176
     1
 90
        2
176
     1
 62
     7
176
     1
 90
        6
176
     1
 90
        0
176
     1
 90
        0
176
     1
290
     0
176
     1
 90
        1
176
     1
 40
0.0
176
     1
 90
        0
176
     1
290
     0
176
     1
290
     1
176
     1
290
     1
176
     1
290
     0
176
     1
290
     0
176
     1
290
     0
176
     1
290
     0
176
     1
290
     0
176
     1
290
     0
176
     1
 90
       50
176
     1
 40
0.0
176
     1
 40
1.0
176
     1
 90
        0
176
     1
 62
    18
420
        0
176
     1
 90
       50
176
     1
 90
        3
176
     1
 62
     5
420
      255
176
     1
290
     0
176
     1
 90
       50
176
     1
 90
       50
176
     1
 90
       50
176
     1
290
     0
176
     1
 90
       50
176
     1
 62
   256
176
     0
 40
1.0
176
     0
 90
        2
176
     1
  1
strokes_ogs.tif
176
     1
290
     0
176
     1
 40
1.0
176
     1
 40
1.0
176
     1
  0
VISUALSTYLE
  5
37
102
{ACAD_REACTORS
330
2A
102
}
330
2A
100
AcDbVisualStyle
  2
Thicken
 70
    13
177
     3
291
     1
 70
    58
 90
        2
176
     1
 90
        2
176
     1
 90
        0
176
     1
 90
        0
176
     1
 40
0.6
176
     1
 40
30.0
176
     1
 62
     7
420
 16777215
176
     1
 90
        1
176
     1
 90
        4
176
     1
 62
     7
176
     1
 62
   257
176
     1
 90
        1
176
     1
 90
        1
176
     1
 40
1.0
176
     1
 90
       12
176
     1
 62
     7
176
     1
 40
1.0
176
     1
 90
        1
176
     1
 90
        6
176
     1
 90
        2
176
     1
 62
     7
176
     1
 90
        5
176
     1
 90
        0
176
     1
 90
        0
176
     1
290
     0
176
     1
 90
        1
176
     1
 40
0.0
176
     1
 90
        0
176
     1
290
     0
176
     1
290
     1
176
     1
290
     1
176
     1
290
     0
176
     1
290
     0
176
     1
290
     0
176
     1
290
     0
176
     1
290
     0
176
     1
290
     0
176
     1
 90
       50
176
     1
 40
0.0
176
     1
 40
1.0
176
     1
 90
        0
176
     1
 62
    18
420
        0
176
     1
 90
       50
176
     1
 90
        3
176
     1
 62
     5
420
      255
176
     1
290
     0
176
     1
 90
       50
176
     1
 90
       50
176
     1
 90
       50
176
     1
290
     0
176
     1
 90
       50
176
     1
 62
   256
176
     0
 40
1.0
176
     0
 90
        2
176
     1
  1
strokes_ogs.tif
176
     1
290
     0
176
     1
 40
1.0
176
     1
 40
1.0
176
     1
  0
VISUALSTYLE
  5
30
102
{ACAD_REACTORS
330
2A
102
}
330
2A
100
AcDbVisualStyle
  2
Wireframe
 70
     5
177
     3
291
     0
 70
    58
 90
        0
176
     1
 90
        2
176
     1
 90
        0
176
     1
 90
        0
176
     1
 40
0.6
176
     1
 40
30.0
176
     1
 62
     7
420
 16777215
176
     1
 90
        1
176
     1
 90
        4
176
     1
 62
     7
176
     1
 62
   257
176
     1
 90
        1
176
     1
 90
        1
176
     1
 40
1.0
176
     1
 90
        0
176
     1
 62
   257
176
     1
 40
1.0
176
     1
 90
        1
176
     1
 90
        6
176
     1
 90
        2
176
     1
 62
     7
176
     1
 90
        3
176
     1
 90
        0
176
     1
 90
        0
176
     1
290
     0
176
     1
 90
        1
176
     1
 40
0.0
176
     1
 90
        0
176
     1
290
     0
176
     1
290
     1
176
     1
290
     1
176
     1
290
     0
176
     1
290
     0
176
     1
290
     0
176
     1
290
     0
176
     1
290
     0
176
     1
290
     0
176
     1
 90
       50
176
     1
 40
0.0
176
     1
 40
1.0
176
     1
 90
        0
176
     1
 62
    18
420
        0
176
     1
 90
       50
176
     1
 90
        3
176
     1
 62
     5
420
      255
176
     1
290
     0
176
     1
 90
       50
176
     1
 90
       50
176
     1
 90
       50
176
     1
290
     0
176
     1
 90
       50
176
     1
 62
   256
176
     0
 40
1.0
176
     0
 90
        2
176
     1
  1
strokes_ogs.tif
176
     1
290
     0
176
     1
 40
1.0
176
     1
 40
1.0
176
     1
  0
VISUALSTYLE
  5
40
102
{ACAD_REACTORS
330
2A
102
}
330
2A
100
AcDbVisualStyle
  2
X-Ray
 70
    25
177
     3
291
     0
 70
    58
 90
        2
176
     1
 90
        2
176
     1
 90
        1
176
     1
 90
        1
176
     1
 40
0.5
176
     1
 40
30.0
176
     1
 62
     7
420
 16777215
176
     1
 90
        1
176
     1
 90
        0
176
     1
 62
     7
176
     1
 62
   257
176
     1
 90
        1
176
     1
 90
        1
176
     1
 40
1.0
176
     1
 90
        8
176
     1
 62
     7
176
     1
 40
1.0
176
     1
 90
        1
176
     1
 90
        6
176
     1
 90
        2
176
     1
 62
     7
176
     1
 90
        3
176
     1
 90
        0
176
     1
 90
        0
176
     1
290
     0
176
     1
 90
       13
176
     1
 40
0.0
176
     1
 90
        0
176
     1
290
     0
176
     1
290
     1
176
     1
290
     1
176
     1
290
     0
176
     1
290
     0
176
     1
290
     0
176
     1
290
     0
176
     1
290
     0
176
     1
290
     0
176
     1
 90
       50
176
     1
 40
0.0
176
     1
 40
1.0
176
     1
 90
        0
176
     1
 62
    18
420
        0
176
     1
 90
       50
176
     1
 90
        3
176
     1
 62
     5
420
      255
176
     1
290
     0
176
     1
 90
       50
176
     1
 90
       50
176
     1
 90
       50
176
     1
290
     0
176
     1
 90
       50
176
     1
 62
   256
176
     0
 40
1.0
176
     0
 90
        2
176
     1
  1
strokes_ogs.tif
176
     1
290
     0
176
     1
 40
1.0
176
     1
 40
1.0
176
     1
  0
DICTIONARYVAR
  5
209
102
{ACAD_REACTORS
330
208
102
}
330
208
100
DictionaryVariables
280
     0
  1
1:1
  0
DICTIONARYVAR
  5
20E
102
{ACAD_REACTORS
330
208
102
}
330
208
100
DictionaryVariables
280
     0
  1
Standard
  0
DICTIONARYVAR
  5
20D
102
{ACAD_REACTORS
330
208
102
}
330
208
100
DictionaryVariables
280
     0
  1
Standard
  0
DICTIONARY
  5
20A
330
6A
100
AcDbDictionary
280
     1
281
     1
  3
ACAD_ROUNDTRIP_2008_TABLESTYLE_CELLSTYLEMAP
360
20B
  0
CELLSTYLEMAP
  5
20B
102
{ACAD_REACTORS
330
20A
102
}
330
20A
100
AcDbCellStyleMap
 90
        3
300
CELLSTYLE
  1
TABLEFORMAT_BEGIN
 90
        5
170
     1
 91
        0
 92
    32768
 62
   257
 93
        1
300
CONTENTFORMAT
  1
CONTENTFORMAT_BEGIN
 90
        0
 91
        0
 92
        4
 93
        0
300

 40
0.0
140
1.0
 94
        5
 62
     0
340
11
144
0.25
309
CONTENTFORMAT_END
171
     1
301
MARGIN
  1
CELLMARGIN_BEGIN
 40
0.06
 40
0.06
 40
0.06
 40
0.06
 40
0.06
 40
0.06
309
CELLMARGIN_END
 94
        6
 95
        1
302
GRIDFORMAT
  1
GRIDFORMAT_BEGIN
 90
        0
 91
        1
 62
     0
 92
       -2
340
14
 93
        0
 40
0.045
309
GRIDFORMAT_END
 95
        2
302
GRIDFORMAT
  1
GRIDFORMAT_BEGIN
 90
        0
 91
        1
 62
     0
 92
       -2
340
14
 93
        0
 40
0.045
309
GRIDFORMAT_END
 95
        4
302
GRIDFORMAT
  1
GRIDFORMAT_BEGIN
 90
        0
 91
        1
 62
     0
 92
       -2
340
14
 93
        0
 40
0.045
309
GRIDFORMAT_END
 95
        8
302
GRIDFORMAT
  1
GRIDFORMAT_BEGIN
 90
        0
 91
        1
 62
     0
 92
       -2
340
14
 93
        0
 40
0.045
309
GRIDFORMAT_END
 95
       16
302
GRIDFORMAT
  1
GRIDFORMAT_BEGIN
 90
        0
 91
        1
 62
     0
 92
       -2
340
14
 93
        0
 40
0.045
309
GRIDFORMAT_END
 95
       32
302
GRIDFORMAT
  1
GRIDFORMAT_BEGIN
 90
        0
 91
        1
 62
     0
 92
       -2
340
14
 93
        0
 40
0.045
309
GRIDFORMAT_END
309
TABLEFORMAT_END
  1
CELLSTYLE_BEGIN
 90
        1
 91
        1
300
_TITLE
309
CELLSTYLE_END
300
CELLSTYLE
  1
TABLEFORMAT_BEGIN
 90
        5
170
     1
 91
        0
 92
        0
 62
   257
 93
        1
300
CONTENTFORMAT
  1
CONTENTFORMAT_BEGIN
 90
        0
 91
        0
 92
        4
 93
        0
300

 40
0.0
140
1.0
 94
        5
 62
     0
340
11
144
0.18
309
CONTENTFORMAT_END
171
     1
301
MARGIN
  1
CELLMARGIN_BEGIN
 40
0.06
 40
0.06
 40
0.06
 40
0.06
 40
0.06
 40
0.06
309
CELLMARGIN_END
 94
        6
 95
        1
302
GRIDFORMAT
  1
GRIDFORMAT_BEGIN
 90
        0
 91
        1
 62
     0
 92
       -2
340
14
 93
        0
 40
0.045
309
GRIDFORMAT_END
 95
        2
302
GRIDFORMAT
  1
GRIDFORMAT_BEGIN
 90
        0
 91
        1
 62
     0
 92
       -2
340
14
 93
        0
 40
0.045
309
GRIDFORMAT_END
 95
        4
302
GRIDFORMAT
  1
GRIDFORMAT_BEGIN
 90
        0
 91
        1
 62
     0
 92
       -2
340
14
 93
        0
 40
0.045
309
GRIDFORMAT_END
 95
        8
302
GRIDFORMAT
  1
GRIDFORMAT_BEGIN
 90
        0
 91
        1
 62
     0
 92
       -2
340
14
 93
        0
 40
0.045
309
GRIDFORMAT_END
 95
       16
302
GRIDFORMAT
  1
GRIDFORMAT_BEGIN
 90
        0
 91
        1
 62
     0
 92
       -2
340
14
 93
        0
 40
0.045
309
GRIDFORMAT_END
 95
       32
302
GRIDFORMAT
  1
GRIDFORMAT_BEGIN
 90
        0
 91
        1
 62
     0
 92
       -2
340
14
 93
        0
 40
0.045
309
GRIDFORMAT_END
309
TABLEFORMAT_END
  1
CELLSTYLE_BEGIN
 90
        2
 91
        1
300
_HEADER
309
CELLSTYLE_END
300
CELLSTYLE
  1
TABLEFORMAT_BEGIN
 90
        5
170
     1
 91
        0
 92
        0
 62
   257
 93
        1
300
CONTENTFORMAT
  1
CONTENTFORMAT_BEGIN
 90
        0
 91
        0
 92
        4
 93
        0
300

 40
0.0
140
1.0
 94
        2
 62
     0
340
11
144
0.18
309
CONTENTFORMAT_END
171
     1
301
MARGIN
  1
CELLMARGIN_BEGIN
 40
0.06
 40
0.06
 40
0.06
 40
0.06
 40
0.06
 40
0.06
309
CELLMARGIN_END
 94
        6
 95
        1
302
GRIDFORMAT
  1
GRIDFORMAT_BEGIN
 90
        0
 91
        1
 62
     0
 92
       -2
340
14
 93
        0
 40
0.045
309
GRIDFORMAT_END
 95
        2
302
GRIDFORMAT
  1
GRIDFORMAT_BEGIN
 90
        0
 91
        1
 62
     0
 92
       -2
340
14
 93
        0
 40
0.045
309
GRIDFORMAT_END
 95
        4
302
GRIDFORMAT
  1
GRIDFORMAT_BEGIN
 90
        0
 91
        1
 62
     0
 92
       -2
340
14
 93
        0
 40
0.045
309
GRIDFORMAT_END
 95
        8
302
GRIDFORMAT
  1
GRIDFORMAT_BEGIN
 90
        0
 91
        1
 62
     0
 92
       -2
340
14
 93
        0
 40
0.045
309
GRIDFORMAT_END
 95
       16
302
GRIDFORMAT
  1
GRIDFORMAT_BEGIN
 90
        0
 91
        1
 62
     0
 92
       -2
340
14
 93
        0
 40
0.045
309
GRIDFORMAT_END
 95
       32
302
GRIDFORMAT
  1
GRIDFORMAT_BEGIN
 90
        0
 91
        1
 62
     0
 92
       -2
340
14
 93
        0
 40
0.045
309
GRIDFORMAT_END
309
TABLEFORMAT_END
  1
CELLSTYLE_BEGIN
 90
        3
 91
        2
300
_DATA
309
CELLSTYLE_END
  0
ENDSEC
  0
EOF