0
SECTION
  2
HEADER
  9
$ACADVER
  1
AC1027
  9
$ACADMAINTVER
 70
     8
  9
$DWGCODEPAGE
  3
ANSI_1252
  9
$REQUIREDVERSIONS
160
                 0
  9
$COMMENTS
  1
File was created by Cadenas
  9
$CUSTOMPROPERTYTAG
  1
NN
  9
$CUSTOMPROPERTY
  1
S-2000 Piloted Flange Trident Seal
  9
$CUSTOMPROPERTYTAG
  1
NT
  9
$CUSTOMPROPERTY
  1
S-2000 Piloted Flange Bearing -Inch
  9
$CUSTOMPROPERTYTAG
  1
NB
  9
$CUSTOMPROPERTY
  1
070675
  9
$CUSTOMPROPERTYTAG
  1
NBSYN
  9
$CUSTOMPROPERTY
  1
$PN.
  9
$CUSTOMPROPERTYTAG
  1
LINA
  9
$CUSTOMPROPERTY
  1
070675
  9
$CUSTOMPROPERTYTAG
  1
SS
  9
$CUSTOMPROPERTY
  1
1-11/16
  9
$CUSTOMPROPERTYTAG
  1
PN
  9
$CUSTOMPROPERTY
  1
070675
  9
$CUSTOMPROPERTYTAG
  1
DESCRIPTION
  9
$CUSTOMPROPERTY
  1
FC-S2-111RE
  9
$CUSTOMPROPERTYTAG
  1
EF
  9
$CUSTOMPROPERTY
  1
Expansion Type
  9
$CUSTOMPROPERTYTAG
  1
ST
  9
$CUSTOMPROPERTY
  1
Contact Seal
  9
$CUSTOMPROPERTYTAG
  1
A
  9
$CUSTOMPROPERTY
  1
2-43/64
  9
$CUSTOMPROPERTYTAG
  1
B
  9
$CUSTOMPROPERTY
  1
6-1/8
  9
$CUSTOMPROPERTYTAG
  1
C
  9
$CUSTOMPROPERTY
  1
1-29/32
  9
$CUSTOMPROPERTYTAG
  1
D
  9
$CUSTOMPROPERTY
  1
3-5/8
  9
$CUSTOMPROPERTYTAG
  1
DD
  9
$CUSTOMPROPERTY
  1
5-1/8
  9
$CUSTOMPROPERTYTAG
  1
E
  9
$CUSTOMPROPERTY
  1
7/8
  9
$CUSTOMPROPERTYTAG
  1
F
  9
$CUSTOMPROPERTY
  1
7/16
  9
$CUSTOMPROPERTYTAG
  1
G
  9
$CUSTOMPROPERTY
  1
1-29/64
  9
$CUSTOMPROPERTYTAG
  1
H
  9
$CUSTOMPROPERTY
  1
1/2
  9
$CUSTOMPROPERTYTAG
  1
K
  9
$CUSTOMPROPERTY
  1
4.250
  9
$CUSTOMPROPERTYTAG
  1
L
  9
$CUSTOMPROPERTY
  1
3-3/16
  9
$CUSTOMPROPERTYTAG
  1
M
  9
$CUSTOMPROPERTY
  1
7/16-14
  9
$CUSTOMPROPERTYTAG
  1
N
  9
$CUSTOMPROPERTY
  1
2-23/32
  9
$CUSTOMPROPERTYTAG
  1
P
  9
$CUSTOMPROPERTY
  1
1-7/32
  9
$CUSTOMPROPERTYTAG
  1
Q
  9
$CUSTOMPROPERTY
  1
1-17/64
  9
$CUSTOMPROPERTYTAG
  1
X
  9
$CUSTOMPROPERTY
  1
1/4
  9
$CUSTOMPROPERTYTAG
  1
Y
  9
$CUSTOMPROPERTY
  1
0.020
  9
$CUSTOMPROPERTYTAG
  1
Z
  9
$CUSTOMPROPERTY
  1
2-5/64
  9
$CUSTOMPROPERTYTAG
  1
COMPANY
  9
$CUSTOMPROPERTY
  1
baldor
  9
$INSBASE
 10
0.0
 20
0.0
 30
0.0
  9
$EXTMIN
 10
1.000000000000000E+20
 20
1.000000000000000E+20
 30
1.000000000000000E+20
  9
$EXTMAX
 10
-1.000000000000000E+20
 20
-1.000000000000000E+20
 30
-1.000000000000000E+20
  9
$LIMMIN
 10
0.0
 20
0.0
  9
$LIMMAX
 10
12.0
 20
9.0
  9
$ORTHOMODE
 70
     0
  9
$REGENMODE
 70
     1
  9
$FILLMODE
 70
     1
  9
$QTEXTMODE
 70
     0
  9
$MIRRTEXT
 70
     1
  9
$LTSCALE
 40
1.0
  9
$ATTMODE
 70
     1
  9
$TEXTSIZE
 40
0.2
  9
$TRACEWID
 40
0.05
  9
$TEXTSTYLE
  7
Standard
  9
$CLAYER
  8
0
  9
$CELTYPE
  6
ByLayer
  9
$CECOLOR
 62
   256
  9
$CELTSCALE
 40
1.0
  9
$DISPSILH
 70
     0
  9
$DIMSCALE
 40
1.0
  9
$DIMASZ
 40
0.18
  9
$DIMEXO
 40
0.0625
  9
$DIMDLI
 40
0.38
  9
$DIMRND
 40
0.0
  9
$DIMDLE
 40
0.0
  9
$DIMEXE
 40
0.18
  9
$DIMTP
 40
0.0
  9
$DIMTM
 40
0.0
  9
$DIMTXT
 40
0.18
  9
$DIMCEN
 40
0.09
  9
$DIMTSZ
 40
0.0
  9
$DIMTOL
 70
     0
  9
$DIMLIM
 70
     0
  9
$DIMTIH
 70
     1
  9
$DIMTOH
 70
     1
  9
$DIMSE1
 70
     0
  9
$DIMSE2
 70
     0
  9
$DIMTAD
 70
     0
  9
$DIMZIN
 70
     0
  9
$DIMBLK
  1

  9
$DIMASO
 70
     1
  9
$DIMSHO
 70
     1
  9
$DIMPOST
  1

  9
$DIMAPOST
  1

  9
$DIMALT
 70
     0
  9
$DIMALTD
 70
     2
  9
$DIMALTF
 40
25.4
  9
$DIMLFAC
 40
1.0
  9
$DIMTOFL
 70
     0
  9
$DIMTVP
 40
0.0
  9
$DIMTIX
 70
     0
  9
$DIMSOXD
 70
     0
  9
$DIMSAH
 70
     0
  9
$DIMBLK1
  1

  9
$DIMBLK2
  1

  9
$DIMSTYLE
  2
Standard
  9
$DIMCLRD
 70
     0
  9
$DIMCLRE
 70
     0
  9
$DIMCLRT
 70
     0
  9
$DIMTFAC
 40
1.0
  9
$DIMGAP
 40
0.09
  9
$DIMJUST
 70
     0
  9
$DIMSD1
 70
     0
  9
$DIMSD2
 70
     0
  9
$DIMTOLJ
 70
     1
  9
$DIMTZIN
 70
     0
  9
$DIMALTZ
 70
     0
  9
$DIMALTTZ
 70
     0
  9
$DIMUPT
 70
     0
  9
$DIMDEC
 70
     4
  9
$DIMTDEC
 70
     4
  9
$DIMALTU
 70
     2
  9
$DIMALTTD
 70
     2
  9
$DIMTXSTY
  7
Standard
  9
$DIMAUNIT
 70
     0
  9
$DIMADEC
 70
     0
  9
$DIMALTRND
 40
0.0
  9
$DIMAZIN
 70
     0
  9
$DIMDSEP
 70
    46
  9
$DIMATFIT
 70
     3
  9
$DIMFRAC
 70
     0
  9
$DIMLDRBLK
  1

  9
$DIMLUNIT
 70
     2
  9
$DIMLWD
 70
    -2
  9
$DIMLWE
 70
    -2
  9
$DIMTMOVE
 70
     0
  9
$DIMFXL
 40
1.0
  9
$DIMFXLON
 70
     0
  9
$DIMJOGANG
 40
0.7853981633974483
  9
$DIMTFILL
 70
     0
  9
$DIMTFILLCLR
 70
     0
  9
$DIMARCSYM
 70
     0
  9
$DIMLTYPE
  6

  9
$DIMLTEX1
  6

  9
$DIMLTEX2
  6

  9
$DIMTXTDIRECTION
 70
     0
  9
$LUNITS
 70
     2
  9
$LUPREC
 70
     4
  9
$SKETCHINC
 40
0.1
  9
$FILLETRAD
 40
0.5
  9
$AUNITS
 70
     0
  9
$AUPREC
 70
     0
  9
$MENU
  1
.
  9
$ELEVATION
 40
0.0
  9
$PELEVATION
 40
0.0
  9
$THICKNESS
 40
0.0
  9
$LIMCHECK
 70
     0
  9
$CHAMFERA
 40
0.0
  9
$CHAMFERB
 40
0.0
  9
$CHAMFERC
 40
0.0
  9
$CHAMFERD
 40
0.0
  9
$SKPOLY
 70
     0
  9
$TDCREATE
 40
2458168.985429213
  9
$TDUCREATE
 40
2458168.943762546
  9
$TDUPDATE
 40
2458168.985429398
  9
$TDUUPDATE
 40
2458168.943762731
  9
$TDINDWG
 40
0.0000000116
  9
$TDUSRTIMER
 40
0.0000000116
  9
$USRTIMER
 70
     1
  9
$ANGBASE
 50
0.0
  9
$ANGDIR
 70
     0
  9
$PDMODE
 70
     0
  9
$PDSIZE
 40
0.0
  9
$PLINEWID
 40
0.0
  9
$SPLFRAME
 70
     0
  9
$SPLINETYPE
 70
     6
  9
$SPLINESEGS
 70
     8
  9
$HANDSEED
  5
211
  9
$SURFTAB1
 70
     6
  9
$SURFTAB2
 70
     6
  9
$SURFTYPE
 70
     6
  9
$SURFU
 70
     6
  9
$SURFV
 70
     6
  9
$UCSBASE
  2

  9
$UCSNAME
  2

  9
$UCSORG
 10
0.0
 20
0.0
 30
0.0
  9
$UCSXDIR
 10
1.0
 20
0.0
 30
0.0
  9
$UCSYDIR
 10
0.0
 20
1.0
 30
0.0
  9
$UCSORTHOREF
  2

  9
$UCSORTHOVIEW
 70
     0
  9
$UCSORGTOP
 10
0.0
 20
0.0
 30
0.0
  9
$UCSORGBOTTOM
 10
0.0
 20
0.0
 30
0.0
  9
$UCSORGLEFT
 10
0.0
 20
0.0
 30
0.0
  9
$UCSORGRIGHT
 10
0.0
 20
0.0
 30
0.0
  9
$UCSORGFRONT
 10
0.0
 20
0.0
 30
0.0
  9
$UCSORGBACK
 10
0.0
 20
0.0
 30
0.0
  9
$PUCSBASE
  2

  9
$PUCSNAME
  2

  9
$PUCSORG
 10
0.0
 20
0.0
 30
0.0
  9
$PUCSXDIR
 10
1.0
 20
0.0
 30
0.0
  9
$PUCSYDIR
 10
0.0
 20
1.0
 30
0.0
  9
$PUCSORTHOREF
  2

  9
$PUCSORTHOVIEW
 70
     0
  9
$PUCSORGTOP
 10
0.0
 20
0.0
 30
0.0
  9
$PUCSORGBOTTOM
 10
0.0
 20
0.0
 30
0.0
  9
$PUCSORGLEFT
 10
0.0
 20
0.0
 30
0.0
  9
$PUCSORGRIGHT
 10
0.0
 20
0.0
 30
0.0
  9
$PUCSORGFRONT
 10
0.0
 20
0.0
 30
0.0
  9
$PUCSORGBACK
 10
0.0
 20
0.0
 30
0.0
  9
$USERI1
 70
     0
  9
$USERI2
 70
     0
  9
$USERI3
 70
     0
  9
$USERI4
 70
     0
  9
$USERI5
 70
     0
  9
$USERR1
 40
0.0
  9
$USERR2
 40
0.0
  9
$USERR3
 40
0.0
  9
$USERR4
 40
0.0
  9
$USERR5
 40
0.0
  9
$WORLDVIEW
 70
     1
  9
$SHADEDGE
 70
     3
  9
$SHADEDIF
 70
    70
  9
$TILEMODE
 70
     1
  9
$MAXACTVP
 70
    64
  9
$PINSBASE
 10
0.0
 20
0.0
 30
0.0
  9
$PLIMCHECK
 70
     0
  9
$PEXTMIN
 10
1.000000000000000E+20
 20
1.000000000000000E+20
 30
1.000000000000000E+20
  9
$PEXTMAX
 10
-1.000000000000000E+20
 20
-1.000000000000000E+20
 30
-1.000000000000000E+20
  9
$PLIMMIN
 10
0.0
 20
0.0
  9
$PLIMMAX
 10
12.0
 20
9.0
  9
$UNITMODE
 70
     0
  9
$VISRETAIN
 70
     1
  9
$PLINEGEN
 70
     0
  9
$PSLTSCALE
 70
     1
  9
$TREEDEPTH
 70
  3020
  9
$CMLSTYLE
  2
Standard
  9
$CMLJUST
 70
     0
  9
$CMLSCALE
 40
1.0
  9
$PROXYGRAPHICS
 70
     1
  9
$MEASUREMENT
 70
     0
  9
$CELWEIGHT
370
    -1
  9
$ENDCAPS
280
     0
  9
$JOINSTYLE
280
     0
  9
$LWDISPLAY
290
     0
  9
$INSUNITS
 70
     1
  9
$HYPERLINKBASE
  1

  9
$STYLESHEET
  1

  9
$XEDIT
290
     1
  9
$CEPSNTYPE
380
     0
  9
$PSTYLEMODE
290
     1
  9
$FINGERPRINTGUID
  2
{FA447BE1-FF5D-4C02-85D3-958AB3FBB0C0}
  9
$VERSIONGUID
  2
{FAEB1C32-E019-11D5-929B-00C0DF256EC4}
  9
$EXTNAMES
290
     1
  9
$PSVPSCALE
 40
0.0
  9
$OLESTARTUP
290
     0
  9
$SORTENTS
280
   127
  9
$INDEXCTL
280
     0
  9
$HIDETEXT
280
     1
  9
$XCLIPFRAME
280
     2
  9
$HALOGAP
280
     0
  9
$OBSCOLOR
 70
   257
  9
$OBSLTYPE
280
     0
  9
$INTERSECTIONDISPLAY
280
     0
  9
$INTERSECTIONCOLOR
 70
   257
  9
$DIMASSOC
280
     2
  9
$PROJECTNAME
  1

  9
$CAMERADISPLAY
290
     0
  9
$LENSLENGTH
 40
50.0
  9
$CAMERAHEIGHT
 40
0.0
  9
$STEPSPERSEC
 40
2.0
  9
$STEPSIZE
 40
6.0
  9
$3DDWFPREC
 40
2.0
  9
$PSOLWIDTH
 40
0.25
  9
$PSOLHEIGHT
 40
4.0
  9
$LOFTANG1
 40
1.570796326794897
  9
$LOFTANG2
 40
1.570796326794897
  9
$LOFTMAG1
 40
0.0
  9
$LOFTMAG2
 40
0.0
  9
$LOFTPARAM
 70
     7
  9
$LOFTNORMALS
280
     1
  9
$LATITUDE
 40
37.795
  9
$LONGITUDE
 40
-122.394
  9
$NORTHDIRECTION
 40
0.0
  9
$TIMEZONE
 70
 -8000
  9
$LIGHTGLYPHDISPLAY
280
     1
  9
$TILEMODELIGHTSYNCH
280
     1
  9
$CMATERIAL
347
44
  9
$SOLIDHIST
280
     0
  9
$SHOWHIST
280
     1
  9
$DWFFRAME
280
     2
  9
$DGNFRAME
280
     2
  9
$REALWORLDSCALE
290
     1
  9
$INTERFERECOLOR
 62
   256
  9
$CSHADOW
280
     0
  9
$SHADOWPLANELOCATION
 40
0.0
  0
ENDSEC
  0
SECTION
  2
CLASSES
  0
CLASS
  1
ACDBDICTIONARYWDFLT
  2
AcDbDictionaryWithDefault
  3
ObjectDBX Classes
 90
        0
 91
        4
280
     0
281
     0
  0
CLASS
  1
VISUALSTYLE
  2
AcDbVisualStyle
  3
ObjectDBX Classes
 90
     4095
 91
        4
280
     0
281
     0
  0
CLASS
  1
MATERIAL
  2
AcDbMaterial
  3
ObjectDBX Classes
 90
     1153
 91
        4
280
     0
281
     0
  0
CLASS
  1
SCALE
  2
AcDbScale
  3
ObjectDBX Classes
 90
     1153
 91
        4
280
     0
281
     0
  0
CLASS
  1
TABLESTYLE
  2
AcDbTableStyle
  3
ObjectDBX Classes
 90
     4095
 91
        4
280
     0
281
     0
  0
CLASS
  1
MLEADERSTYLE
  2
AcDbMLeaderStyle
  3
ACDB_MLEADERSTYLE_CLASS
 90
     4095
 91
        4
280
     0
281
     0
  0
CLASS
  1
SUN
  2
AcDbSun
  3
SCENEOE
 90
     1153
 91
        4
280
     0
281
     0
  0
CLASS
  1
DICTIONARYVAR
  2
AcDbDictionaryVar
  3
ObjectDBX Classes
 90
        0
 91
        4
280
     0
281
     0
  0
CLASS
  1
CELLSTYLEMAP
  2
AcDbCellStyleMap
  3
ObjectDBX Classes
 90
     1152
 91
        4
280
     0
281
     0
  0
ENDSEC
  0
SECTION
  2
TABLES
  0
TABLE
  2
VPORT
  5
8
330
0
100
AcDbSymbolTable
 70
     1
  0
VPORT
  5
29
330
8
100
AcDbSymbolTableRecord
100
AcDbViewportTableRecord
  2
*Active
 70
     0
 10
0.0
 20
0.0
 11
1.0
 21
1.0
 12
0.3741249999999994
 22
0.0023327850877193
 13
0.0
 23
0.0
 14
0.5
 24
0.5
 15
0.5
 25
0.5
 16
0.0
 26
0.0
 36
1.0
 17
0.0
 27
0.0
 37
0.0
 40
6.242741118421053
 41
0.5971078936784103
 42
50.0
 43
0.0
 44
0.0
 50
0.0
 51
0.0
 71
     0
 72
   100
 73
     1
 74
     3
 75
     0
 76
     0
 77
     0
 78
     0
281
     0
 65
     1
110
0.0
120
0.0
130
0.0
111
1.0
121
0.0
131
0.0
112
0.0
122
1.0
132
0.0
 79
     0
146
0.0
348
2F
 60
     3
 61
     5
292
     1
282
     1
141
0.0
142
0.0
 63
   250
361
6D
  0
ENDTAB
  0
TABLE
  2
LTYPE
  5
5
330
0
100
AcDbSymbolTable
 70
     3
  0
LTYPE
  5
14
330
5
100
AcDbSymbolTableRecord
100
AcDbLinetypeTableRecord
  2
ByBlock
 70
     0
  3

 72
    65
 73
     0
 40
0.0
  0
LTYPE
  5
15
330
5
100
AcDbSymbolTableRecord
100
AcDbLinetypeTableRecord
  2
ByLayer
 70
     0
  3

 72
    65
 73
     0
 40
0.0
  0
LTYPE
  5
16
330
5
100
AcDbSymbolTableRecord
100
AcDbLinetypeTableRecord
  2
Continuous
 70
     0
  3
Solid line
 72
    65
 73
     0
 40
0.0
  0
LTYPE
  5
A7
330
5
100
AcDbSymbolTableRecord
100
AcDbLinetypeTableRecord
  2
Dashed
 70
     0
  3

 72
    65
 73
     2
 40
2.0
 49
1.0
 74
     0
 49
-1.0
 74
     0
  0
LTYPE
  5
154
330
5
100
AcDbSymbolTableRecord
100
AcDbLinetypeTableRecord
  2
Center
 70
     0
  3

 72
    65
 73
     4
 40
1.5
 49
0.45
 74
     0
 49
-0.5
 74
     0
 49
0.05
 74
     0
 49
-0.5
 74
     0
  0
ENDTAB
  0
TABLE
  2
LAYER
  5
2
330
0
100
AcDbSymbolTable
 70
     7
  0
LAYER
  5
10
330
2
100
AcDbSymbolTableRecord
100
AcDbLayerTableRecord
  2
0
 70
     0
 62
     7
  6
Continuous
370
    -3
390
F
347
46
348
0
  0
LAYER
  5
72
330
2
100
AcDbSymbolTableRecord
100
AcDbLayerTableRecord
  2
AM_6
 70
     0
 62
    -2
  6
Continuous
370
    35
390
F
347
46
348
0
  0
LAYER
  5
A8
330
2
100
AcDbSymbolTableRecord
100
AcDbLayerTableRecord
  2
AM_9
 70
     0
 62
     6
  6
Dashed
370
    25
390
F
347
46
348
0
  0
LAYER
  5
E0
330
2
100
AcDbSymbolTableRecord
100
AcDbLayerTableRecord
  2
AM_5
 70
     0
 62
     3
  6
Continuous
370
    25
390
F
347
46
348
0
  0
LAYER
  5
E5
330
2
100
AcDbSymbolTableRecord
100
AcDbLayerTableRecord
  2
AM_4
 70
     0
 62
     7
  6
Continuous
370
    50
390
F
347
46
348
0
  0
LAYER
  5
155
330
2
100
AcDbSymbolTableRecord
100
AcDbLayerTableRecord
  2
AM_7
 70
     0
 62
     7
  6
Center
370
    25
390
F
347
46
348
0
  0
LAYER
  5
1FD
330
2
100
AcDbSymbolTableRecord
100
AcDbLayerTableRecord
  2
ConnectionPoints
 70
     0
 62
     7
  6
Continuous
370
    50
390
F
347
46
348
0
  0
ENDTAB
  0
TABLE
  2
STYLE
  5
3
330
0
100
AcDbSymbolTable
 70
     1
  0
STYLE
  5
11
330
3
100
AcDbSymbolTableRecord
100
AcDbTextStyleTableRecord
  2
Standard
 70
     0
 40
0.0
 41
1.0
 50
0.0
 71
     0
 42
0.2
  3
txt
  4

  0
ENDTAB
  0
TABLE
  2
VIEW
  5
6
330
0
100
AcDbSymbolTable
 70
     0
  0
ENDTAB
  0
TABLE
  2
UCS
  5
7
330
0
100
AcDbSymbolTable
 70
     0
  0
ENDTAB
  0
TABLE
  2
APPID
  5
9
330
0
100
AcDbSymbolTable
 70
     1
  0
APPID
  5
12
330
9
100
AcDbSymbolTableRecord
100
AcDbRegAppTableRecord
  2
ACAD
 70
     0
  0
ENDTAB
  0
TABLE
  2
DIMSTYLE
  5
A
330
0
100
AcDbSymbolTable
 70
     1
100
AcDbDimStyleTable
  0
DIMSTYLE
105
27
330
A
100
AcDbSymbolTableRecord
100
AcDbDimStyleTableRecord
  2
Standard
 70
     0
178
     0
340
11
  0
ENDTAB
  0
TABLE
  2
BLOCK_RECORD
  5
1
330
0
100
AcDbSymbolTable
 70
     7
  0
BLOCK_RECORD
  5
1F
330
1
100
AcDbSymbolTableRecord
100
AcDbBlockTableRecord
  2
*Model_Space
340
22
 70
     0
280
     1
281
     0
  0
BLOCK_RECORD
  5
1B
330
1
100
AcDbSymbolTableRecord
100
AcDbBlockTableRecord
  2
*Paper_Space
340
1E
 70
     0
280
     1
281
     0
  0
BLOCK_RECORD
  5
23
330
1
100
AcDbSymbolTableRecord
100
AcDbBlockTableRecord
  2
*Paper_Space0
340
26
 70
     0
280
     1
281
     0
  0
BLOCK_RECORD
  5
6E
330
1
100
AcDbSymbolTableRecord
100
AcDbBlockTableRecord
  2
1_070675_2
340
0
102
{BLKREFS
331
6F
102
}
 70
     0
280
     1
281
     0
  0
BLOCK_RECORD
  5
90
330
1
100
AcDbSymbolTableRecord
100
AcDbBlockTableRecord
  2
2_1_11_16_Disc_0_in_070675_2
340
0
102
{BLKREFS
331
91
102
}
 70
     0
280
     1
281
     0
  0
BLOCK_RECORD
  5
B4
330
1
100
AcDbSymbolTableRecord
100
AcDbBlockTableRecord
  2
3_1_11_16CS2i_0_in_070675_2
340
0
102
{BLKREFS
331
B5
102
}
 70
     0
280
     1
281
     0
  0
BLOCK_RECORD
  5
F9
330
1
100
AcDbSymbolTableRecord
100
AcDbBlockTableRecord
  2
4_070003i_0_in_070675_2
340
0
102
{BLKREFS
331
FA
102
}
 70
     0
280
     1
281
     0
  0
BLOCK_RECORD
  5
15B
330
1
100
AcDbSymbolTableRecord
100
AcDbBlockTableRecord
  2
5_405015E_Inch_0_in_070675_2
340
0
102
{BLKREFS
331
15C
102
}
 70
     0
280
     1
281
     0
  0
BLOCK_RECORD
  5
19A
330
1
100
AcDbSymbolTableRecord
100
AcDbBlockTableRecord
  2
6_070675H_0_in_070675_2
340
0
102
{BLKREFS
331
19B
102
}
 70
     0
280
     1
281
     0
  0
ENDTAB
  0
ENDSEC
  0
SECTION
  2
BLOCKS
  0
BLOCK
  5
20
330
1F
100
AcDbEntity
  8
0
100
AcDbBlockBegin
  2
*Model_Space
 70
     0
 10
0.0
 20
0.0
 30
0.0
  3
*Model_Space
  1

  0
ENDBLK
  5
21
330
1F
100
AcDbEntity
  8
0
100
AcDbBlockEnd
  0
BLOCK
  5
1C
330
1B
100
AcDbEntity
 67
     1
  8
0
100
AcDbBlockBegin
  2
*Paper_Space
 70
     0
 10
0.0
 20
0.0
 30
0.0
  3
*Paper_Space
  1

  0
ENDBLK
  5
1D
330
1B
100
AcDbEntity
 67
     1
  8
0
100
AcDbBlockEnd
  0
BLOCK
  5
24
330
23
100
AcDbEntity
  8
0
100
AcDbBlockBegin
  2
*Paper_Space0
 70
     0
 10
0.0
 20
0.0
 30
0.0
  3
*Paper_Space0
  1

  0
ENDBLK
  5
25
330
23
100
AcDbEntity
  8
0
100
AcDbBlockEnd
  0
BLOCK
  5
70
330
6E
100
AcDbEntity
  8
0
100
AcDbBlockBegin
  2
1_070675_2
 70
     2
 10
0.0
 20
0.0
 30
0.0
  3
1_070675_2
  1

  0
ATTDEF
  5
73
330
6E
100
AcDbEntity
  8
AM_6
100
AcDbText
 10
6.5859375
 20
3.0625
 30
0.0
 40
0.5
  1
S-2000 Piloted Flange Trident Seal
100
AcDbAttributeDefinition
  3

  2
NN
 70
     8
280
     0
  0
ATTDEF
  5
74
330
6E
100
AcDbEntity
  8
AM_6
100
AcDbText
 10
6.5859375
 20
2.5625
 30
0.0
 40
0.5
  1
S-2000 Piloted Flange Bearing -Inch
100
AcDbAttributeDefinition
  3

  2
NT
 70
     8
280
     0
  0
ATTDEF
  5
75
330
6E
100
AcDbEntity
  8
AM_6
100
AcDbText
 10
6.5859375
 20
2.0625
 30
0.0
 40
0.5
  1
070675
100
AcDbAttributeDefinition
  3

  2
NB
 70
     8
280
     0
  0
ATTDEF
  5
76
330
6E
100
AcDbEntity
  8
AM_6
100
AcDbText
 10
6.5859375
 20
1.5625
 30
0.0
 40
0.5
  1
$PN.
100
AcDbAttributeDefinition
  3

  2
NBSYN
 70
     8
280
     0
  0
ATTDEF
  5
77
330
6E
100
AcDbEntity
  8
AM_6
100
AcDbText
 10
6.5859375
 20
1.0625
 30
0.0
 40
0.5
  1
070675
100
AcDbAttributeDefinition
  3

  2
LINA
 70
     8
280
     0
  0
ATTDEF
  5
78
330
6E
100
AcDbEntity
  8
AM_6
100
AcDbText
 10
6.5859375
 20
0.5625
 30
0.0
 40
0.5
  1
1-11/16
100
AcDbAttributeDefinition
  3

  2
SS
 70
     8
280
     0
  0
ATTDEF
  5
79
330
6E
100
AcDbEntity
  8
AM_6
100
AcDbText
 10
6.5859375
 20
0.0625
 30
0.0
 40
0.5
  1
070675
100
AcDbAttributeDefinition
  3

  2
PN
 70
     8
280
     0
  0
ATTDEF
  5
7A
330
6E
100
AcDbEntity
  8
AM_6
100
AcDbText
 10
6.5859375
 20
-0.4375
 30
0.0
 40
0.5
  1
FC-S2-111RE
100
AcDbAttributeDefinition
  3

  2
DESCRIPTION
 70
     8
280
     0
  0
ATTDEF
  5
7B
330
6E
100
AcDbEntity
  8
AM_6
100
AcDbText
 10
6.5859375
 20
-0.9375
 30
0.0
 40
0.5
  1
Expansion Type
100
AcDbAttributeDefinition
  3

  2
EF
 70
     8
280
     0
  0
ATTDEF
  5
7C
330
6E
100
AcDbEntity
  8
AM_6
100
AcDbText
 10
6.5859375
 20
-1.4375
 30
0.0
 40
0.5
  1
Contact Seal
100
AcDbAttributeDefinition
  3

  2
ST
 70
     8
280
     0
  0
ATTDEF
  5
7D
330
6E
100
AcDbEntity
  8
AM_6
100
AcDbText
 10
6.5859375
 20
-1.9375
 30
0.0
 40
0.5
  1
2-43/64
100
AcDbAttributeDefinition
  3

  2
A
 70
     8
280
     0
  0
ATTDEF
  5
7E
330
6E
100
AcDbEntity
  8
AM_6
100
AcDbText
 10
6.5859375
 20
-2.4375
 30
0.0
 40
0.5
  1
6-1/8
100
AcDbAttributeDefinition
  3

  2
B
 70
     8
280
     0
  0
ATTDEF
  5
7F
330
6E
100
AcDbEntity
  8
AM_6
100
AcDbText
 10
6.5859375
 20
-2.9375
 30
0.0
 40
0.5
  1
1-29/32
100
AcDbAttributeDefinition
  3

  2
C
 70
     8
280
     0
  0
ATTDEF
  5
80
330
6E
100
AcDbEntity
  8
AM_6
100
AcDbText
 10
6.5859375
 20
-3.4375
 30
0.0
 40
0.5
  1
3-5/8
100
AcDbAttributeDefinition
  3

  2
D
 70
     8
280
     0
  0
ATTDEF
  5
81
330
6E
100
AcDbEntity
  8
AM_6
100
AcDbText
 10
6.5859375
 20
-3.9375
 30
0.0
 40
0.5
  1
5-1/8
100
AcDbAttributeDefinition
  3

  2
DD
 70
     8
280
     0
  0
ATTDEF
  5
82
330
6E
100
AcDbEntity
  8
AM_6
100
AcDbText
 10
6.5859375
 20
-4.4375
 30
0.0
 40
0.5
  1
7/8
100
AcDbAttributeDefinition
  3

  2
E
 70
     8
280
     0
  0
ATTDEF
  5
83
330
6E
100
AcDbEntity
  8
AM_6
100
AcDbText
 10
6.5859375
 20
-4.9375
 30
0.0
 40
0.5
  1
7/16
100
AcDbAttributeDefinition
  3

  2
F
 70
     8
280
     0
  0
ATTDEF
  5
84
330
6E
100
AcDbEntity
  8
AM_6
100
AcDbText
 10
6.5859375
 20
-5.4375
 30
0.0
 40
0.5
  1
1-29/64
100
AcDbAttributeDefinition
  3

  2
G
 70
     8
280
     0
  0
ATTDEF
  5
85
330
6E
100
AcDbEntity
  8
AM_6
100
AcDbText
 10
6.5859375
 20
-5.9375
 30
0.0
 40
0.5
  1
1/2
100
AcDbAttributeDefinition
  3

  2
H
 70
     8
280
     0
  0
ATTDEF
  5
86
330
6E
100
AcDbEntity
  8
AM_6
100
AcDbText
 10
6.5859375
 20
-6.4375
 30
0.0
 40
0.5
  1
4.250
100
AcDbAttributeDefinition
  3

  2
K
 70
     8
280
     0
  0
ATTDEF
  5
87
330
6E
100
AcDbEntity
  8
AM_6
100
AcDbText
 10
6.5859375
 20
-6.9375
 30
0.0
 40
0.5
  1
3-3/16
100
AcDbAttributeDefinition
  3

  2
L
 70
     8
280
     0
  0
ATTDEF
  5
88
330
6E
100
AcDbEntity
  8
AM_6
100
AcDbText
 10
6.5859375
 20
-7.4375
 30
0.0
 40
0.5
  1
7/16-14
100
AcDbAttributeDefinition
  3

  2
M
 70
     8
280
     0
  0
ATTDEF
  5
89
330
6E
100
AcDbEntity
  8
AM_6
100
AcDbText
 10
6.5859375
 20
-7.9375
 30
0.0
 40
0.5
  1
2-23/32
100
AcDbAttributeDefinition
  3

  2
N
 70
     8
280
     0
  0
ATTDEF
  5
8A
330
6E
100
AcDbEntity
  8
AM_6
100
AcDbText
 10
6.5859375
 20
-8.4375
 30
0.0
 40
0.5
  1
1-7/32
100
AcDbAttributeDefinition
  3

  2
P
 70
     8
280
     0
  0
ATTDEF
  5
8B
330
6E
100
AcDbEntity
  8
AM_6
100
AcDbText
 10
6.5859375
 20
-8.9375
 30
0.0
 40
0.5
  1
1-17/64
100
AcDbAttributeDefinition
  3

  2
Q
 70
     8
280
     0
  0
ATTDEF
  5
8C
330
6E
100
AcDbEntity
  8
AM_6
100
AcDbText
 10
6.5859375
 20
-9.4375
 30
0.0
 40
0.5
  1
1/4
100
AcDbAttributeDefinition
  3

  2
X
 70
     8
280
     0
  0
ATTDEF
  5
8D
330
6E
100
AcDbEntity
  8
AM_6
100
AcDbText
 10
6.5859375
 20
-9.9375
 30
0.0
 40
0.5
  1
0.020
100
AcDbAttributeDefinition
  3

  2
Y
 70
     8
280
     0
  0
ATTDEF
  5
8E
330
6E
100
AcDbEntity
  8
AM_6
100
AcDbText
 10
6.5859375
 20
-10.4375
 30
0.0
 40
0.5
  1
2-5/64
100
AcDbAttributeDefinition
  3

  2
Z
 70
     8
280
     0
  0
ATTDEF
  5
8F
330
6E
100
AcDbEntity
  8
AM_6
100
AcDbText
 10
6.5859375
 20
-10.9375
 30
0.0
 40
0.5
  1
baldor
100
AcDbAttributeDefinition
  3

  2
COMPANY
 70
     8
280
     0
  0
INSERT
  5
91
330
6E
100
AcDbEntity
  8
0
100
AcDbBlockReference
  2
2_1_11_16_Disc_0_in_070675_2
 10
0.0
 20
0.0
 30
0.0
  0
INSERT
  5
B5
330
6E
100
AcDbEntity
  8
0
100
AcDbBlockReference
  2
3_1_11_16CS2i_0_in_070675_2
 10
0.0
 20
0.0
 30
0.0
  0
INSERT
  5
FA
330
6E
100
AcDbEntity
  8
0
100
AcDbBlockReference
  2
4_070003i_0_in_070675_2
 10
0.0
 20
0.0
 30
0.0
  0
INSERT
  5
15C
330
6E
100
AcDbEntity
  8
0
100
AcDbBlockReference
  2
5_405015E_Inch_0_in_070675_2
 10
0.0
 20
0.0
 30
0.0
  0
INSERT
  5
19B
330
6E
100
AcDbEntity
  8
0
100
AcDbBlockReference
  2
6_070675H_0_in_070675_2
 10
0.0
 20
0.0
 30
0.0
  0
ENDBLK
  5
71
330
6E
100
AcDbEntity
  8
0
100
AcDbBlockEnd
  0
BLOCK
  5
92
330
90
100
AcDbEntity
  8
0
100
AcDbBlockBegin
  2
2_1_11_16_Disc_0_in_070675_2
 70
     2
 10
0.0
 20
0.0
 30
0.0
  3
2_1_11_16_Disc_0_in_070675_2
  1

  0
ATTDEF
  5
94
330
90
100
AcDbEntity
  8
AM_6
100
AcDbText
 10
6.21875
 20
1.67325
 30
0.0
 40
0.5
  1
S-2000 -Disc -Inch
100
AcDbAttributeDefinition
  3

  2
NN
 70
     8
280
     0
  0
ATTDEF
  5
95
330
90
100
AcDbEntity
  8
AM_6
100
AcDbText
 10
6.21875
 20
1.17325
 30
0.0
 40
0.5
  1
S-2000 Bearings
100
AcDbAttributeDefinition
  3

  2
NT
 70
     8
280
     0
  0
ATTDEF
  5
96
330
90
100
AcDbEntity
  8
AM_6
100
AcDbText
 10
6.21875
 20
0.6732499999999999
 30
0.0
 40
0.5
  1
1-11/16-Disc
100
AcDbAttributeDefinition
  3

  2
NB
 70
     8
280
     0
  0
ATTDEF
  5
97
330
90
100
AcDbEntity
  8
AM_6
100
AcDbText
 10
6.21875
 20
0.1732499999999999
 30
0.0
 40
0.5
  1
$SS.-Disc
100
AcDbAttributeDefinition
  3

  2
NBSYN
 70
     8
280
     0
  0
ATTDEF
  5
98
330
90
100
AcDbEntity
  8
AM_6
100
AcDbText
 10
6.21875
 20
-0.3267500000000001
 30
0.0
 40
0.5
  1
1-11/16-Disc
100
AcDbAttributeDefinition
  3

  2
LINA
 70
     8
280
     0
  0
ATTDEF
  5
99
330
90
100
AcDbEntity
  8
AM_6
100
AcDbText
 10
6.21875
 20
-0.8267500000000001
 30
0.0
 40
0.5
  1
1-11/16
100
AcDbAttributeDefinition
  3

  2
SS
 70
     8
280
     0
  0
ATTDEF
  5
9A
330
90
100
AcDbEntity
  8
AM_6
100
AcDbText
 10
6.21875
 20
-1.32675
 30
0.0
 40
0.5
  1
2.06
100
AcDbAttributeDefinition
  3

  2
CC
 70
     8
280
     0
  0
ATTDEF
  5
9B
330
90
100
AcDbEntity
  8
AM_6
100
AcDbText
 10
6.21875
 20
-1.82675
 30
0.0
 40
0.5
  1
0.35
100
AcDbAttributeDefinition
  3

  2
CSD
 70
     8
280
     0
  0
ATTDEF
  5
9C
330
90
100
AcDbEntity
  8
AM_6
100
AcDbText
 10
6.21875
 20
-2.32675
 30
0.0
 40
0.5
  1
1.687500
100
AcDbAttributeDefinition
  3

  2
SS1
 70
     8
280
     0
  0
ATTDEF
  5
9D
330
90
100
AcDbEntity
  8
AM_6
100
AcDbText
 10
6.21875
 20
-2.82675
 30
0.0
 40
0.5
  1
3.3465
100
AcDbAttributeDefinition
  3

  2
A
 70
     8
280
     0
  0
ATTDEF
  5
9E
330
90
100
AcDbEntity
  8
AM_6
100
AcDbText
 10
6.21875
 20
-3.32675
 30
0.0
 40
0.5
  1
61/64
100
AcDbAttributeDefinition
  3

  2
B
 70
     8
280
     0
  0
ATTDEF
  5
9F
330
90
100
AcDbEntity
  8
AM_6
100
AcDbText
 10
6.21875
 20
-3.82675
 30
0.0
 40
0.5
  1
0.953125
100
AcDbAttributeDefinition
  3

  2
B1
 70
     8
280
     0
  0
ATTDEF
  5
A0
330
90
100
AcDbEntity
  8
AM_6
100
AcDbText
 10
6.21875
 20
-4.326750000000001
 30
0.0
 40
0.5
  1
2-21/32
100
AcDbAttributeDefinition
  3

  2
C
 70
     8
280
     0
  0
ATTDEF
  5
A1
330
90
100
AcDbEntity
  8
AM_6
100
AcDbText
 10
6.21875
 20
-4.826750000000001
 30
0.0
 40
0.5
  1
2.656250
100
AcDbAttributeDefinition
  3

  2
C1
 70
     8
280
     0
  0
ATTDEF
  5
A2
330
90
100
AcDbEntity
  8
AM_6
100
AcDbText
 10
6.21875
 20
-5.326750000000001
 30
0.0
 40
0.5
  1
0.954
100
AcDbAttributeDefinition
  3

  2
D
 70
     8
280
     0
  0
ATTDEF
  5
A3
330
90
100
AcDbEntity
  8
AM_6
100
AcDbText
 10
6.21875
 20
-5.826750000000001
 30
0.0
 40
0.5
  1
3-3/32
100
AcDbAttributeDefinition
  3

  2
E
 70
     8
280
     0
  0
ATTDEF
  5
A4
330
90
100
AcDbEntity
  8
AM_6
100
AcDbText
 10
6.21875
 20
-6.326750000000001
 30
0.0
 40
0.5
  1
3.093750
100
AcDbAttributeDefinition
  3

  2
E1
 70
     8
280
     0
  0
ATTDEF
  5
A5
330
90
100
AcDbEntity
  8
AM_6
100
AcDbText
 10
6.21875
 20
-6.826750000000001
 30
0.0
 40
0.5
  1
0.286
100
AcDbAttributeDefinition
  3

  2
F
 70
     8
280
     0
  0
ATTDEF
  5
A6
330
90
100
AcDbEntity
  8
AM_6
100
AcDbText
 10
6.21875
 20
-7.326750000000001
 30
0.0
 40
0.5
  1
baldor
100
AcDbAttributeDefinition
  3

  2
COMPANY
 70
     8
280
     0
  0
LINE
  5
A9
330
90
100
AcDbEntity
  8
AM_9
100
AcDbLine
 10
1.125
 20
-1.03
 30
0.0
 11
1.21875
 21
-1.03
 31
0.0
  0
LINE
  5
AA
330
90
100
AcDbEntity
  8
AM_9
100
AcDbLine
 10
1.21875
 20
1.03
 30
0.0
 11
1.125
 21
1.03
 31
0.0
  0
LINE
  5
AB
330
90
100
AcDbEntity
  8
AM_9
100
AcDbLine
 10
0.8187499999999999
 20
-1.5795
 30
0.0
 11
1.125
 21
-1.5795
 31
0.0
  0
LINE
  5
AC
330
90
100
AcDbEntity
  8
AM_9
100
AcDbLine
 10
1.125
 20
1.5795
 30
0.0
 11
0.8187499999999999
 21
1.5795
 31
0.0
  0
LINE
  5
AD
330
90
100
AcDbEntity
  8
AM_9
100
AcDbLine
 10
0.8187499999999999
 20
-1.67325
 30
0.0
 11
1.125
 21
-1.67325
 31
0.0
  0
LINE
  5
AE
330
90
100
AcDbEntity
  8
AM_9
100
AcDbLine
 10
1.125
 20
1.67325
 30
0.0
 11
0.8187499999999999
 21
1.67325
 31
0.0
  0
LINE
  5
AF
330
90
100
AcDbEntity
  8
AM_9
100
AcDbLine
 10
0.8187499999999999
 20
1.67325
 30
0.0
 11
0.8187499999999999
 21
-1.67325
 31
0.0
  0
LINE
  5
B0
330
90
100
AcDbEntity
  8
AM_9
100
AcDbLine
 10
1.21875
 20
1.5795
 30
0.0
 11
1.21875
 21
-1.5795
 31
0.0
  0
ARC
  5
B1
330
90
100
AcDbEntity
  8
AM_9
100
AcDbCircle
 10
1.125
 20
-1.5795
 30
0.0
 40
0.09375
100
AcDbArc
 50
270.0
 51
0.0
  0
ARC
  5
B2
330
90
100
AcDbEntity
  8
AM_9
100
AcDbCircle
 10
1.125
 20
1.5795
 30
0.0
 40
0.09375
100
AcDbArc
 50
0.0
 51
90.0
  0
LINE
  5
B3
330
90
100
AcDbEntity
  8
AM_9
100
AcDbLine
 10
1.125
 20
1.67325
 30
0.0
 11
1.125
 21
-1.67325
 31
0.0
  0
ENDBLK
  5
93
330
90
100
AcDbEntity
  8
0
100
AcDbBlockEnd
  0
BLOCK
  5
B6
330
B4
100
AcDbEntity
  8
0
100
AcDbBlockBegin
  2
3_1_11_16CS2i_0_in_070675_2
 70
     2
 10
0.0
 20
0.0
 30
0.0
  3
3_1_11_16CS2i_0_in_070675_2
  1

  0
ATTDEF
  5
B8
330
B4
100
AcDbEntity
  8
AM_6
100
AcDbText
 10
4.368875
 20
1.59375
 30
0.0
 40
0.5
  1
S-2000 Collar -Inch
100
AcDbAttributeDefinition
  3

  2
NN
 70
     8
280
     0
  0
ATTDEF
  5
B9
330
B4
100
AcDbEntity
  8
AM_6
100
AcDbText
 10
4.368875
 20
1.09375
 30
0.0
 40
0.5
  1
S-2000 Bearings
100
AcDbAttributeDefinition
  3

  2
NT
 70
     8
280
     0
  0
ATTDEF
  5
BA
330
B4
100
AcDbEntity
  8
AM_6
100
AcDbText
 10
4.368875
 20
0.59375
 30
0.0
 40
0.5
  1
1-11/16CS2i
100
AcDbAttributeDefinition
  3

  2
NB
 70
     8
280
     0
  0
ATTDEF
  5
BB
330
B4
100
AcDbEntity
  8
AM_6
100
AcDbText
 10
4.368875
 20
0.09375
 30
0.0
 40
0.5
  1
$BORE.CS2i
100
AcDbAttributeDefinition
  3

  2
NBSYN
 70
     8
280
     0
  0
ATTDEF
  5
BC
330
B4
100
AcDbEntity
  8
AM_6
100
AcDbText
 10
4.368875
 20
-0.40625
 30
0.0
 40
0.5
  1
1-11/16CS2i
100
AcDbAttributeDefinition
  3

  2
LINA
 70
     8
280
     0
  0
ATTDEF
  5
BD
330
B4
100
AcDbEntity
  8
AM_6
100
AcDbText
 10
4.368875
 20
-0.90625
 30
0.0
 40
0.5
  1
1-11/16
100
AcDbAttributeDefinition
  3

  2
BORE
 70
     8
280
     0
  0
ATTDEF
  5
BE
330
B4
100
AcDbEntity
  8
AM_6
100
AcDbText
 10
4.368875
 20
-1.40625
 30
0.0
 40
0.5
  1
1.687500
100
AcDbAttributeDefinition
  3

  2
BORE1
 70
     8
280
     0
  0
ATTDEF
  5
BF
330
B4
100
AcDbEntity
  8
AM_6
100
AcDbText
 10
4.368875
 20
-1.90625
 30
0.0
 40
0.5
  1
3-3/16
100
AcDbAttributeDefinition
  3

  2
L1
 70
     8
280
     0
  0
ATTDEF
  5
C0
330
B4
100
AcDbEntity
  8
AM_6
100
AcDbText
 10
4.368875
 20
-2.40625
 30
0.0
 40
0.5
  1
3.18750
100
AcDbAttributeDefinition
  3

  2
L
 70
     8
280
     0
  0
ATTDEF
  5
C1
330
B4
100
AcDbEntity
  8
AM_6
100
AcDbText
 10
4.368875
 20
-2.90625
 30
0.0
 40
0.5
  1
3.09375
100
AcDbAttributeDefinition
  3

  2
L2
 70
     8
280
     0
  0
ATTDEF
  5
C2
330
B4
100
AcDbEntity
  8
AM_6
100
AcDbText
 10
4.368875
 20
-3.40625
 30
0.0
 40
0.5
  1
3.38
100
AcDbAttributeDefinition
  3

  2
A
 70
     8
280
     0
  0
ATTDEF
  5
C3
330
B4
100
AcDbEntity
  8
AM_6
100
AcDbText
 10
4.368875
 20
-3.90625
 30
0.0
 40
0.5
  1
1.50
100
AcDbAttributeDefinition
  3

  2
B
 70
     8
280
     0
  0
ATTDEF
  5
C4
330
B4
100
AcDbEntity
  8
AM_6
100
AcDbText
 10
4.368875
 20
-4.40625
 30
0.0
 40
0.5
  1
2.06
100
AcDbAttributeDefinition
  3

  2
C
 70
     8
280
     0
  0
ATTDEF
  5
C5
330
B4
100
AcDbEntity
  8
AM_6
100
AcDbText
 10
4.368875
 20
-4.90625
 30
0.0
 40
0.5
  1
3.25
100
AcDbAttributeDefinition
  3

  2
D
 70
     8
280
     0
  0
ATTDEF
  5
C6
330
B4
100
AcDbEntity
  8
AM_6
100
AcDbText
 10
4.368875
 20
-5.40625
 30
0.0
 40
0.5
  1
0.35
100
AcDbAttributeDefinition
  3

  2
E
 70
     8
280
     0
  0
ATTDEF
  5
C7
330
B4
100
AcDbEntity
  8
AM_6
100
AcDbText
 10
4.368875
 20
-5.90625
 30
0.0
 40
0.5
  1
0.286
100
AcDbAttributeDefinition
  3

  2
F
 70
     8
280
     0
  0
ATTDEF
  5
C8
330
B4
100
AcDbEntity
  8
AM_6
100
AcDbText
 10
4.368875
 20
-6.40625
 30
0.0
 40
0.5
  1
5/16-18
100
AcDbAttributeDefinition
  3

  2
CS
 70
     8
280
     0
  0
ATTDEF
  5
C9
330
B4
100
AcDbEntity
  8
AM_6
100
AcDbText
 10
4.368875
 20
-6.90625
 30
0.0
 40
0.5
  1
0.3125
100
AcDbAttributeDefinition
  3

  2
NDM
 70
     8
280
     0
  0
ATTDEF
  5
CA
330
B4
100
AcDbEntity
  8
AM_6
100
AcDbText
 10
4.368875
 20
-7.40625
 30
0.0
 40
0.5
  1
0.2520
100
AcDbAttributeDefinition
  3

  2
KDM
 70
     8
280
     0
  0
ATTDEF
  5
CB
330
B4
100
AcDbEntity
  8
AM_6
100
AcDbText
 10
4.368875
 20
-7.90625
 30
0.0
 40
0.5
  1
1
100
AcDbAttributeDefinition
  3

  2
DD
 70
     8
280
     0
  0
ATTDEF
  5
CC
330
B4
100
AcDbEntity
  8
AM_6
100
AcDbText
 10
4.368875
 20
-8.40625
 30
0.0
 40
0.5
  1
baldor
100
AcDbAttributeDefinition
  3

  2
COMPANY
 70
     8
280
     0
  0
LINE
  5
CD
330
B4
100
AcDbEntity
  8
AM_9
100
AcDbLine
 10
-0.790925
 20
1.039216666666661
 30
0.0
 11
-0.790925
 21
1.5637
 31
0.0
  0
LINE
  5
CE
330
B4
100
AcDbEntity
  8
AM_9
100
AcDbLine
 10
-1.043325
 20
1.546841802762024
 30
0.0
 11
-1.043325
 21
1.039216666666661
 31
0.0
  0
LINE
  5
CF
330
B4
100
AcDbEntity
  8
AM_9
100
AcDbLine
 10
-1.043325
 20
1.039216666666661
 30
0.0
 11
-0.790925
 21
1.039216666666661
 31
0.0
  0
LINE
  5
D0
330
B4
100
AcDbEntity
  8
AM_9
100
AcDbLine
 10
-1.043325
 20
1.039216666666661
 30
0.0
 11
-1.052379312460437
 21
1.030162354206226
 31
0.0
  0
LINE
  5
D1
330
B4
100
AcDbEntity
  8
AM_9
100
AcDbLine
 10
-0.7819291009351255
 20
1.030220767601788
 30
0.0
 11
-0.790925
 21
1.039216666666661
 31
0.0
  0
LINE
  5
D2
330
B4
100
AcDbEntity
  8
AM_9
100
AcDbLine
 10
-0.917125
 20
1.5637
 30
0.0
 11
-0.790925
 21
1.5637
 31
0.0
  0
LINE
  5
D3
330
B4
100
AcDbEntity
  8
AM_9
100
AcDbLine
 10
-0.790925
 20
1.5637
 30
0.0
 11
-0.760875
 21
1.59375
 31
0.0
  0
LWPOLYLINE
  5
D4
330
B4
100
AcDbEntity
  8
AM_9
100
AcDbPolyline
 90
       38
 70
     0
 43
0.0
 10
-0.8192418330625709
 20
0.3420727600107157
 10
-0.8066279891879268
 20
0.3576428693506655
 10
-0.7964480371741727
 20
0.3746144374717396
 10
-0.7877302603102608
 20
0.39611166075439
 10
-0.782816538561018
 20
0.4184119341135766
 10
-0.7818843379834577
 20
0.4417378314205234
 10
-0.7851584710045912
 20
0.4646207901325312
 10
-0.7927257524807565
 20
0.4866404434838052
 10
-0.8043651211375726
 20
0.5069596956867743
 10
-0.8196016011682823
 20
0.5246885637191113
 10
-0.8381947792873328
 20
0.5396547463403879
 10
-0.8585268868658258
 20
0.5507655984540446
 10
-0.8808855724102009
 20
0.5585090037749458
 10
-0.9026648997857145
 20
0.5623167344003607
 10
-0.9249002637056193
 20
0.5628367738380112
 10
-0.9456532988992726
 20
0.5602421549397771
 10
-0.9656153834720956
 20
0.5547947228341827
 10
-0.9844086981314891
 20
0.5465640775371868
 10
-1.001451636269268
 20
0.5358741898888096
 10
-1.017243201389449
 20
0.5221132796922195
 10
-1.030371269160129
 20
0.5062673685663551
 10
-1.041219504743312
 20
0.4873163369832589
 10
-1.048529346588576
 20
0.4668691695546931
 10
-1.0522113723685
 20
0.4442869216571754
 10
-1.051769252685196
 20
0.4212014264218907
 10
-1.04702979885606
 20
0.3977991796571311
 10
-1.038110224404418
 20
0.375225811170432
 10
-1.025241433877426
 20
0.354355082878249
 10
-1.008707906120249
 20
0.3357525884283252
 10
-0.9896871028125679
 20
0.3207549751852335
 10
-0.9681361887800921
 20
0.3092069346310671
 10
-0.9464645956583688
 20
0.3021742393179086
 10
-0.9238294842747833
 20
0.2989613574359911
 10
-0.90258365374442
 20
0.299623159995014
 10
-0.8817573047026395
 20
0.3037049028914059
 10
-0.8622296631107492
 20
0.3109370494732738
 10
-0.8441457829645264
 20
0.3210083704886006
 10
-0.8192418330625707
 20
0.3420727600107157
  0
LINE
  5
D5
330
B4
100
AcDbEntity
  8
AM_9
100
AcDbLine
 10
-1.203125
 20
-1.03
 30
0.0
 11
-0.6311249999999999
 21
-1.03
 31
0.0
  0
LINE
  5
D6
330
B4
100
AcDbEntity
  8
AM_9
100
AcDbLine
 10
-0.6311249999999999
 20
1.03
 30
0.0
 11
-0.7822284992086639
 21
1.03
 31
0.0
  0
LINE
  5
D7
330
B4
100
AcDbEntity
  8
AM_9
100
AcDbLine
 10
-1.052158840512475
 20
1.03
 30
0.0
 11
-1.203125
 21
1.03
 31
0.0
  0
LWPOLYLINE
  5
D8
330
B4
100
AcDbEntity
  8
AM_9
100
AcDbPolyline
 90
       21
 70
     0
 43
0.0
 10
-1.052541666666246
 20
1.029999999999937
 10
-1.052416658032935
 20
1.029981085276194
 10
-1.04920042734938
 20
1.029500183660362
 10
-1.041872146372804
 20
1.028445838517683
 10
-1.030158245786087
 20
1.026880884928272
 10
-1.015272654098443
 20
1.025108016048413
 10
-0.9964533958514734
 20
1.023216557386044
 10
-0.9765283316360606
 20
1.02164497587827
 10
-0.9538133406675026
 20
1.020400023263993
 10
-0.9323925405221298
 20
1.019763875754073
 10
-0.9097813952954203
 20
1.019661377182347
 10
-0.8892967396439229
 20
1.020073403156144
 10
-0.8690230585755186
 20
1.02095243956671
 10
-0.8504278058082414
 20
1.022168520518038
 10
-0.8331304047294067
 20
1.02364885571841
 10
-0.8174724534714545
 20
1.025276196241047
 10
-0.8041243730102491
 20
1.02687673508421
 10
-0.793323321888074
 20
1.028314017784905
 10
-0.7858352149436385
 20
1.029384392792492
 10
-0.7820833115040536
 20
1.029943313047362
 10
-0.7817083333334189
 20
1.029999999999988
  0
LINE
  5
D9
330
B4
100
AcDbEntity
  8
AM_9
100
AcDbLine
 10
-0.790925
 20
0.4391919412386283
 30
0.0
 11
-0.7909249999999999
 21
0.6608481758839317
 31
0.0
  0
LINE
  5
DA
330
B4
100
AcDbEntity
  8
AM_9
100
AcDbLine
 10
-1.043325
 20
0.6537236091749147
 30
0.0
 11
-1.043325
 21
0.4391919412386283
 31
0.0
  0
ELLIPSE
  5
DB
330
B4
100
AcDbEntity
  8
AM_9
100
AcDbEllipse
 10
-0.9171250000000002
 20
0.4391919412386279
 30
0.0
 11
0.1262000000000002
 21
0.0
 31
0.0
210
0.0
220
0.0
230
1.0
 40
0.9063077870366516
 41
1.936655325289925
 42
7.604255617693681
  0
LINE
  5
DC
330
B4
100
AcDbEntity
  8
AM_9
100
AcDbLine
 10
-0.917125
 20
0.5464721331599065
 30
0.0
 11
-0.917125
 21
0.7659344205374001
 31
0.0
  0
LINE
  5
DD
330
B4
100
AcDbEntity
  8
AM_9
100
AcDbLine
 10
-0.640625
 20
-1.59375
 30
0.0
 11
-0.6311249999999999
 21
-1.59375
 31
0.0
  0
LINE
  5
DE
330
B4
100
AcDbEntity
  8
AM_9
100
AcDbLine
 10
-0.6311249999999999
 20
1.59375
 30
0.0
 11
-0.640625
 21
1.59375
 31
0.0
  0
LINE
  5
DF
330
B4
100
AcDbEntity
  8
AM_9
100
AcDbLine
 10
-0.6311249999999999
 20
1.59375
 30
0.0
 11
-0.6311249999999999
 21
-1.59375
 31
0.0
  0
LINE
  5
E1
330
B4
100
AcDbEntity
  8
AM_5
100
AcDbLine
 10
-1.073375
 20
1.546875
 30
0.0
 11
-1.073375
 21
1.03
 31
0.0
  0
LINE
  5
E2
330
B4
100
AcDbEntity
  8
AM_5
100
AcDbLine
 10
-0.99525
 20
1.009166666666667
 30
0.0
 11
-1.073375
 21
1.009166666666667
 31
0.0
  0
LINE
  5
E3
330
B4
100
AcDbEntity
  8
AM_5
100
AcDbLine
 10
-0.760875
 20
1.59375
 30
0.0
 11
-0.760875
 21
1.03
 31
0.0
  0
LINE
  5
E4
330
B4
100
AcDbEntity
  8
AM_5
100
AcDbLine
 10
-0.839
 20
1.009166666666667
 30
0.0
 11
-0.760875
 21
1.009166666666667
 31
0.0
  0
ELLIPSE
  5
E6
330
B4
100
AcDbEntity
  8
AM_4
100
AcDbEllipse
 10
-0.917124999999999
 20
0.4391919412386255
 30
0.0
 11
0.1262000000000053
 21
0.0
 31
0.0
210
0.0
220
0.0
230
1.0
 40
0.9063077870366336
 41
1.570796326794897
 42
1.93665532528992
  0
LWPOLYLINE
  5
E7
330
B4
100
AcDbEntity
  8
AM_4
100
AcDbPolyline
 90
       11
 70
     0
 43
0.0
 10
-1.043324999444958
 20
0.6537268964933693
 10
-1.042499536368185
 20
0.666769701566435
 10
-1.038307841066026
 20
0.6854560282206072
 10
-1.030724375050978
 20
0.7031438164698263
 10
-1.019904858318032
 20
0.7193547220522083
 10
-1.006205024252794
 20
0.733663064961805
 10
-0.9899218541873622
 20
0.7456998368265382
 10
-0.9715826213682437
 20
0.7551438244027168
 10
-0.9516775593007182
 20
0.7617162810333818
 10
-0.9307922327924126
 20
0.765287314070195
 10
-0.917125
 20
0.7659344205373999
  0
ELLIPSE
  5
E8
330
B4
100
AcDbEntity
  8
AM_4
100
AcDbEllipse
 10
-0.917125
 20
0.6608481758839317
 30
0.0
 11
0.1262000000000001
 21
0.0
 31
0.0
210
0.0
220
0.0
230
1.0
 40
0.9063077870366485
 41
0.0
 42
1.570796326794897
  0
ELLIPSE
  5
E9
330
B4
100
AcDbEntity
  8
AM_4
100
AcDbEllipse
 10
-0.9171250000000024
 20
0.4391919412386073
 30
0.0
 11
0.1262000000000192
 21
0.0
 31
0.0
210
0.0
220
0.0
230
1.0
 40
0.9063077870366786
 41
1.321070310514116
 42
1.570796326794897
  0
LINE
  5
EA
330
B4
100
AcDbEntity
  8
AM_4
100
AcDbLine
 10
-0.917125
 20
-1.59375
 30
0.0
 11
-0.9171249999999999
 21
0.5464721331599065
 31
0.0
  0
ELLIPSE
  5
EB
330
B4
100
AcDbEntity
  8
AM_4
100
AcDbEllipse
 10
-0.9171249999999997
 20
0.6608481758839317
 30
0.0
 11
0.1262000000000001
 21
0.0
 31
0.0
210
0.0
220
0.0
230
1.0
 40
0.9063077870366495
 41
4.71238898038469
 42
6.283185307179586
  0
LINE
  5
EC
330
B4
100
AcDbEntity
  8
AM_4
100
AcDbLine
 10
-1.203125
 20
1.451541666666667
 30
0.0
 11
-1.203125
 21
-1.451541666666667
 31
0.0
  0
ARC
  5
ED
330
B4
100
AcDbEntity
  8
AM_4
100
AcDbCircle
 10
-1.107791666666667
 20
-1.451541666666667
 30
0.0
 40
0.095333333333333
100
AcDbArc
 50
179.9999991462263
 51
270.0
  0
ARC
  5
EE
330
B4
100
AcDbEntity
  8
AM_4
100
AcDbCircle
 10
-1.107791666666667
 20
1.451541666666667
 30
0.0
 40
0.095333333333333
100
AcDbArc
 50
90.0
 51
179.9999991462263
  0
LWPOLYLINE
  5
EF
330
B4
100
AcDbEntity
  8
AM_4
100
AcDbPolyline
 90
       11
 70
     0
 43
0.0
 10
-0.917125
 20
0.5371823350893495
 10
-0.9382705454032305
 20
0.5388731490364947
 10
-0.9588190915095574
 20
0.5438430436455426
 10
-0.9781735163135016
 20
0.5519795453189889
 10
-0.9958114827062581
 20
0.5629851511539922
 10
-1.011240160833197
 20
0.5765897697813073
 10
-1.024019935275394
 20
0.5923262431578468
 10
-1.033761076696589
 20
0.609773658788733
 10
-1.040209125865358
 20
0.628372694337704
 10
-1.043127390805061
 20
0.6475436281925322
 10
-1.043324999444958
 20
0.6537268964933693
  0
LWPOLYLINE
  5
F0
330
B4
100
AcDbEntity
  8
AM_4
100
AcDbPolyline
 90
       11
 70
     0
 43
0.0
 10
-0.917125
 20
1.541718465098281
 10
-0.9379720457547787
 20
1.541859405050182
 10
-0.9588190915095574
 20
1.542282147627926
 10
-0.9779143673767239
 20
1.542916450366339
 10
-0.9958114827062582
 20
1.543725166014236
 10
-1.01104679114549
 20
1.544576682614682
 10
-1.024019935275394
 20
1.54541979824659
 10
-1.033655458089253
 20
1.546116157760306
 10
-1.040209125865358
 20
1.546623912806549
 10
-1.043123265544615
 20
1.546858554795897
 10
-1.043324999999976
 20
1.546874999999998
  0
LINE
  5
F1
330
B4
100
AcDbEntity
  8
AM_4
100
AcDbLine
 10
-1.107791666666667
 20
-1.546875
 30
0.0
 11
-0.917125
 21
-1.546875
 31
0.0
  0
LINE
  5
F2
330
B4
100
AcDbEntity
  8
AM_4
100
AcDbLine
 10
-1.042916757187256
 20
1.546875
 30
0.0
 11
-1.107791666666667
 21
1.546875
 31
0.0
  0
LINE
  5
F3
330
B4
100
AcDbEntity
  8
AM_4
100
AcDbLine
 10
-1.107791666666667
 20
1.546875
 30
0.0
 11
-1.107791666666667
 21
-1.546875
 31
0.0
  0
LINE
  5
F4
330
B4
100
AcDbEntity
  8
AM_4
100
AcDbLine
 10
-0.917125
 20
1.586746525770697
 30
0.0
 11
-0.917125
 21
0.7659344205374001
 31
0.0
  0
LWPOLYLINE
  5
F5
330
B4
100
AcDbEntity
  8
AM_4
100
AcDbPolyline
 90
       20
 70
     0
 43
0.0
 10
-0.9171249999999999
 20
0.8058513470384542
 10
-0.8975999003470372
 20
0.8048323399613724
 10
-0.8783575645613061
 20
0.8017974034448735
 10
-0.8524426435038515
 20
0.7941920698805742
 10
-0.8283955705021543
 20
0.7828503026741438
 10
-0.8076001277383568
 20
0.7684722209966415
 10
-0.7894460609109848
 20
0.7504898732181795
 10
-0.7759509225885428
 20
0.7308930123721266
 10
-0.7665265177021683
 20
0.709358013551645
 10
-0.7617404890881329
 20
0.6875726381623828
 10
-0.761171680305927
 20
0.665212683410904
 10
-0.7647356257467262
 20
0.6436067011865295
 10
-0.7721627049287509
 20
0.6226987915573007
 10
-0.7833149719434397
 20
0.6029880662513913
 10
-0.7977516072577032
 20
0.5850890398228517
 10
-0.8157398152889589
 20
0.5689691464419464
 10
-0.8362566324763854
 20
0.5556736142488006
 10
-0.859823295572245
 20
0.5451773270323923
 10
-0.8848870344095106
 20
0.5383667201032332
 10
-0.9171249999999999
 20
0.5353247700501572
  0
LINE
  5
F6
330
B4
100
AcDbEntity
  8
AM_4
100
AcDbLine
 10
-0.917125
 20
-1.59375
 30
0.0
 11
-0.640625
 21
-1.59375
 31
0.0
  0
LINE
  5
F7
330
B4
100
AcDbEntity
  8
AM_4
100
AcDbLine
 10
-0.640625
 20
1.59375
 30
0.0
 11
-0.760875
 21
1.59375
 31
0.0
  0
LWPOLYLINE
  5
F8
330
B4
100
AcDbEntity
  8
AM_4
100
AcDbPolyline
 90
       11
 70
     0
 43
0.0
 10
-0.7608750000000327
 20
1.593749999999997
 10
-0.7611716803059271
 20
1.593723535435102
 10
-0.7646429966741225
 20
1.593417565089238
 10
-0.7721627049287513
 20
1.592778032872036
 10
-0.7831329977195874
 20
1.591902276002048
 10
-0.7977516072577034
 20
1.590841149019071
 10
-0.8154794154345834
 20
1.589717210163978
 10
-0.8362566324763854
 20
1.588628046155303
 10
-0.8594924711682413
 20
1.587702658629785
 10
-0.8848870344095108
 20
1.587045809020582
 10
-0.917125
 20
1.586746525770697
  0
ENDBLK
  5
B7
330
B4
100
AcDbEntity
  8
0
100
AcDbBlockEnd
  0
BLOCK
  5
FB
330
F9
100
AcDbEntity
  8
0
100
AcDbBlockBegin
  2
4_070003i_0_in_070675_2
 70
     2
 10
0.0
 20
0.0
 30
0.0
  3
4_070003i_0_in_070675_2
  1

  0
ATTDEF
  5
FD
330
F9
100
AcDbEntity
  8
AM_6
100
AcDbText
 10
6.5859375
 20
1.67325
 30
0.0
 40
0.5
  1
S-2000 Insert -Inch
100
AcDbAttributeDefinition
  3

  2
NN
 70
     8
280
     0
  0
ATTDEF
  5
FE
330
F9
100
AcDbEntity
  8
AM_6
100
AcDbText
 10
6.5859375
 20
1.17325
 30
0.0
 40
0.5
  1
S-2000 Bearings
100
AcDbAttributeDefinition
  3

  2
NT
 70
     8
280
     0
  0
ATTDEF
  5
FF
330
F9
100
AcDbEntity
  8
AM_6
100
AcDbText
 10
6.5859375
 20
0.6732499999999999
 30
0.0
 40
0.5
  1
070003i
100
AcDbAttributeDefinition
  3

  2
NB
 70
     8
280
     0
  0
ATTDEF
  5
100
330
F9
100
AcDbEntity
  8
AM_6
100
AcDbText
 10
6.5859375
 20
0.1732499999999999
 30
0.0
 40
0.5
  1
$PN.i
100
AcDbAttributeDefinition
  3

  2
NBSYN
 70
     8
280
     0
  0
ATTDEF
  5
101
330
F9
100
AcDbEntity
  8
AM_6
100
AcDbText
 10
6.5859375
 20
-0.3267500000000001
 30
0.0
 40
0.5
  1
070003i
100
AcDbAttributeDefinition
  3

  2
LINA
 70
     8
280
     0
  0
ATTDEF
  5
102
330
F9
100
AcDbEntity
  8
AM_6
100
AcDbText
 10
6.5859375
 20
-0.8267500000000001
 30
0.0
 40
0.5
  1
1-11/16
100
AcDbAttributeDefinition
  3

  2
SS
 70
     8
280
     0
  0
ATTDEF
  5
103
330
F9
100
AcDbEntity
  8
AM_6
100
AcDbText
 10
6.5859375
 20
-1.32675
 30
0.0
 40
0.5
  1
2.06
100
AcDbAttributeDefinition
  3

  2
CC
 70
     8
280
     0
  0
ATTDEF
  5
104
330
F9
100
AcDbEntity
  8
AM_6
100
AcDbText
 10
6.5859375
 20
-1.82675
 30
0.0
 40
0.5
  1
1.687500
100
AcDbAttributeDefinition
  3

  2
SS1
 70
     8
280
     0
  0
ATTDEF
  5
105
330
F9
100
AcDbEntity
  8
AM_6
100
AcDbText
 10
6.5859375
 20
-2.32675
 30
0.0
 40
0.5
  1
070003
100
AcDbAttributeDefinition
  3

  2
PN
 70
     8
280
     0
  0
ATTDEF
  5
106
330
F9
100
AcDbEntity
  8
AM_6
100
AcDbText
 10
6.5859375
 20
-2.82675
 30
0.0
 40
0.5
  1
INS-S2-111R
100
AcDbAttributeDefinition
  3

  2
DESCRIPTION
 70
     8
280
     0
  0
ATTDEF
  5
107
330
F9
100
AcDbEntity
  8
AM_6
100
AcDbText
 10
6.5859375
 20
-3.32675
 30
0.0
 40
0.5
  1
Contact Seal
100
AcDbAttributeDefinition
  3

  2
ST
 70
     8
280
     0
  0
ATTDEF
  5
108
330
F9
100
AcDbEntity
  8
AM_6
100
AcDbText
 10
6.5859375
 20
-3.82675
 30
0.0
 40
0.5
  1
1
100
AcDbAttributeDefinition
  3

  2
ST1
 70
     8
280
     0
  0
ATTDEF
  5
109
330
F9
100
AcDbEntity
  8
AM_6
100
AcDbText
 10
6.5859375
 20
-4.326750000000001
 30
0.0
 40
0.5
  1
3.3465
100
AcDbAttributeDefinition
  3

  2
A
 70
     8
280
     0
  0
ATTDEF
  5
10A
330
F9
100
AcDbEntity
  8
AM_6
100
AcDbText
 10
6.5859375
 20
-4.826750000000001
 30
0.0
 40
0.5
  1
61/64
100
AcDbAttributeDefinition
  3

  2
B
 70
     8
280
     0
  0
ATTDEF
  5
10B
330
F9
100
AcDbEntity
  8
AM_6
100
AcDbText
 10
6.5859375
 20
-5.326750000000001
 30
0.0
 40
0.5
  1
2-21/32
100
AcDbAttributeDefinition
  3

  2
C
 70
     8
280
     0
  0
ATTDEF
  5
10C
330
F9
100
AcDbEntity
  8
AM_6
100
AcDbText
 10
6.5859375
 20
-5.826750000000001
 30
0.0
 40
0.5
  1
0.954
100
AcDbAttributeDefinition
  3

  2
D
 70
     8
280
     0
  0
ATTDEF
  5
10D
330
F9
100
AcDbEntity
  8
AM_6
100
AcDbText
 10
6.5859375
 20
-6.326750000000001
 30
0.0
 40
0.5
  1
3-3/32
100
AcDbAttributeDefinition
  3

  2
E
 70
     8
280
     0
  0
ATTDEF
  5
10E
330
F9
100
AcDbEntity
  8
AM_6
100
AcDbText
 10
6.5859375
 20
-6.826750000000001
 30
0.0
 40
0.5
  1
0.43750
100
AcDbAttributeDefinition
  3

  2
F
 70
     8
280
     0
  0
ATTDEF
  5
10F
330
F9
100
AcDbEntity
  8
AM_6
100
AcDbText
 10
6.5859375
 20
-7.326750000000001
 30
0.0
 40
0.5
  1
1
100
AcDbAttributeDefinition
  3

  2
DD
 70
     8
280
     0
  0
ATTDEF
  5
110
330
F9
100
AcDbEntity
  8
AM_6
100
AcDbText
 10
6.5859375
 20
-7.826750000000001
 30
0.0
 40
0.5
  1
baldor
100
AcDbAttributeDefinition
  3

  2
COMPANY
 70
     8
280
     0
  0
LINE
  5
111
330
F9
100
AcDbEntity
  8
AM_9
100
AcDbLine
 10
-1.092125
 20
1.029900488665567
 30
0.0
 11
-1.092125
 21
0.84375
 31
0.0
  0
LINE
  5
112
330
F9
100
AcDbEntity
  8
AM_9
100
AcDbLine
 10
-0.7421249999999999
 20
0.8437499999999999
 30
0.0
 11
-0.7421249999999999
 21
1.029973304198089
 31
0.0
  0
LINE
  5
113
330
F9
100
AcDbEntity
  8
AM_9
100
AcDbLine
 10
-1.092125
 20
0.4352968095929204
 30
0.0
 11
-1.092125
 21
0.3565588336377734
 31
0.0
  0
LINE
  5
114
330
F9
100
AcDbEntity
  8
AM_9
100
AcDbLine
 10
-0.7421249999999999
 20
0.3565319129246461
 30
0.0
 11
-0.7421249999999999
 21
0.4352968095929204
 31
0.0
  0
LWPOLYLINE
  5
115
330
F9
100
AcDbEntity
  8
AM_9
100
AcDbPolyline
 90
        4
 70
     0
 43
0.0
 10
-1.086719486989413
 20
0.3952328050146918
 10
-1.088888491100058
 20
0.3865740285130332
 10
-1.092079241647471
 20
0.3602068888547606
 10
-1.092124999119066
 20
0.3566000723367603
  0
LWPOLYLINE
  5
116
330
F9
100
AcDbEntity
  8
AM_9
100
AcDbPolyline
 90
        5
 70
     0
 43
0.0
 10
-1.039828286548949
 20
0.4657484490986398
 10
-1.05094000688338
 20
0.4555948058106152
 10
-1.068030186583435
 20
0.4348927975896915
 10
-1.080840821255898
 20
0.4116566616356581
 10
-1.086719486989413
 20
0.3952328050146918
  0
LWPOLYLINE
  5
117
330
F9
100
AcDbEntity
  8
AM_9
100
AcDbPolyline
 90
        7
 70
     0
 43
0.0
 10
-0.9171249999999999
 20
0.5074339750425799
 10
-0.9242755890785296
 20
0.507301174976002
 10
-0.9532183280718826
 20
0.504357315068533
 10
-0.9808298924497071
 20
0.4975756798673168
 10
-1.006684189133867
 20
0.4871379502388454
 10
-1.030376164998647
 20
0.4729942108073553
 10
-1.039828286548949
 20
0.4657484490986398
  0
LWPOLYLINE
  5
118
330
F9
100
AcDbEntity
  8
AM_9
100
AcDbPolyline
 90
        6
 70
     0
 43
0.0
 10
-0.7942043739511659
 20
0.4655679235728203
 10
-0.8134029416140104
 20
0.4792994800885829
 10
-0.8385637021067174
 20
0.4921304240201106
 10
-0.8660953974841384
 20
0.5011922988811881
 10
-0.8951276830022824
 20
0.5062998530338333
 10
-0.9171249999999999
 20
0.5074339750425799
  0
LWPOLYLINE
  5
119
330
F9
100
AcDbEntity
  8
AM_9
100
AcDbPolyline
 90
        6
 70
     0
 43
0.0
 10
-0.7478326319846755
 20
0.3962677435392266
 10
-0.7485287883204903
 20
0.3984870475703646
 10
-0.7584999120987022
 20
0.4222009672763707
 10
-0.7728919024509147
 20
0.4439102165938227
 10
-0.7911939490110147
 20
0.4629984468404065
 10
-0.7942043739511659
 20
0.4655679235728203
  0
LWPOLYLINE
  5
11A
330
F9
100
AcDbEntity
  8
AM_9
100
AcDbPolyline
 90
        3
 70
     0
 43
0.0
 10
-0.742125000442484
 20
0.356572879618643
 10
-0.7431024980045953
 20
0.373238894946063
 10
-0.7478326319846755
 20
0.3962677435392266
  0
LWPOLYLINE
  5
11B
330
F9
100
AcDbEntity
  8
AM_9
100
AcDbPolyline
 90
       11
 70
     0
 43
0.0
 10
-1.092124999119066
 20
0.3566000723367603
 10
-1.090316867649613
 20
0.3337968051205255
 10
-1.083832803208309
 20
0.3076304199147086
 10
-1.0727967459112
 20
0.2825556971273288
 10
-1.057577774179592
 20
0.259231619194024
 10
-1.038180884610496
 20
0.2380487285479039
 10
-1.015409903394636
 20
0.220067192982905
 10
-0.9895242138304682
 20
0.2057954590032997
 10
-0.961523222510987
 20
0.1959197493383394
 10
-0.939514551359212
 20
0.1916648818335256
 10
-0.9171249999999999
 20
0.1902262495797525
  0
LWPOLYLINE
  5
11C
330
F9
100
AcDbEntity
  8
AM_9
100
AcDbPolyline
 90
        9
 70
     0
 43
0.0
 10
-0.8392954977062672
 20
0.5722822306919436
 10
-0.825996577916395
 20
0.5660964372909014
 10
-0.8023890456985338
 20
0.5514393328079237
 10
-0.781973210716401
 20
0.5335090323920053
 10
-0.7651937899709454
 20
0.512421810061792
 10
-0.7527159229878958
 20
0.4888968108922436
 10
-0.7449969457402664
 20
0.4636141066757644
 10
-0.7421373327571629
 20
0.437178845397539
 10
-0.7421250003907451
 20
0.4353074083635972
  0
LWPOLYLINE
  5
11D
330
F9
100
AcDbEntity
  8
AM_9
100
AcDbPolyline
 90
        8
 70
     0
 43
0.0
 10
-1.002410851171228
 20
0.5689736855706773
 10
-0.9945021858353384
 20
0.572470476848086
 10
-0.9669452076914421
 20
0.5815101857421298
 10
-0.937943694058289
 20
0.5865357137500833
 10
-0.9086942766402606
 20
0.5873886237707691
 10
-0.879685157994551
 20
0.5841912704250314
 10
-0.8519355987292659
 20
0.57702610533654
 10
-0.8392954977062672
 20
0.5722822306919436
  0
LWPOLYLINE
  5
11E
330
F9
100
AcDbEntity
  8
AM_9
100
AcDbPolyline
 90
        8
 70
     0
 43
0.0
 10
-1.092124999433229
 20
0.4352840447670453
 10
-1.091084402438499
 20
0.4524927924891723
 10
-1.085510631169831
 20
0.4779654235699383
 10
-1.075332001435086
 20
0.5019422207252202
 10
-1.060704018102753
 20
0.5238887596824134
 10
-1.042132179214583
 20
0.5432018481912034
 10
-1.019774442412315
 20
0.5595911889126565
 10
-1.002410851171228
 20
0.5689736855706773
  0
LWPOLYLINE
  5
11F
330
F9
100
AcDbEntity
  8
AM_9
100
AcDbPolyline
 90
       11
 70
     0
 43
0.0
 10
-0.7421250003907451
 20
0.4353074083635972
 10
-0.7442395709146468
 20
0.4106668039121871
 10
-0.7511028595370334
 20
0.3845202695121024
 10
-0.7625705034333491
 20
0.3595496426350275
 10
-0.778257819781523
 20
0.3364478587765529
 10
-0.798039599966389
 20
0.3157129919539335
 10
-0.8211584638285773
 20
0.2982517713985704
 10
-0.8472151257103793
 20
0.2846055111829309
 10
-0.8752919167746203
 20
0.2753264581291697
 10
-0.8960516288128514
 20
0.271615793159358
 10
-0.9171249999999999
 20
0.2703640821258918
  0
LWPOLYLINE
  5
120
330
F9
100
AcDbEntity
  8
AM_9
100
AcDbPolyline
 90
       11
 70
     0
 43
0.0
 10
-0.9171249999999999
 20
0.1902262495797525
 10
-0.8881036697790348
 20
0.1926573899673874
 10
-0.859909139375298
 20
0.1997798115485497
 10
-0.8333709706636625
 20
0.2113798993391191
 10
-0.8091552976492722
 20
0.2269826897112876
 10
-0.7876689100575957
 20
0.2463949776739148
 10
-0.7697947037589141
 20
0.2687524096536754
 10
-0.7559715327661961
 20
0.293626078095307
 10
-0.746738976152086
 20
0.3200050652536311
 10
-0.7424824369703447
 20
0.3466886275951694
 10
-0.742125000442484
 20
0.356572879618643
  0
LWPOLYLINE
  5
121
330
F9
100
AcDbEntity
  8
AM_9
100
AcDbPolyline
 90
       11
 70
     0
 43
0.0
 10
-0.9171249999999999
 20
0.8254023640019453
 10
-0.8885170696876489
 20
0.8258979817003771
 10
-0.859909139375298
 20
0.8273830534927732
 10
-0.8337181679379801
 20
0.8296057871872772
 10
-0.8091552976492722
 20
0.8324340929621424
 10
-0.7879353048668671
 20
0.8354513988429199
 10
-0.7697947037589141
 20
0.8384481371501079
 10
-0.756126380256394
 20
0.8409575602010758
 10
-0.746738976152086
 20
0.8428051136666779
 10
-0.7424913337701549
 20
0.8436740957744743
 10
-0.7421250000007938
 20
0.8437499999998352
  0
LINE
  5
122
330
F9
100
AcDbEntity
  8
AM_9
100
AcDbLine
 10
1.453125
 20
0.84375
 30
0.0
 11
-0.7421249999999999
 21
0.84375
 31
0.0
  0
LINE
  5
123
330
F9
100
AcDbEntity
  8
AM_9
100
AcDbLine
 10
-1.092125
 20
0.84375
 30
0.0
 11
-1.203125
 21
0.84375
 31
0.0
  0
LINE
  5
124
330
F9
100
AcDbEntity
  8
AM_9
100
AcDbLine
 10
-1.203125
 20
-0.84375
 30
0.0
 11
1.453125
 21
-0.84375
 31
0.0
  0
LINE
  5
125
330
F9
100
AcDbEntity
  8
AM_9
100
AcDbLine
 10
-1.087504036853606
 20
0.8428037011660321
 30
0.0
 11
-1.092124999998557
 21
0.8437499999997006
 31
0.0
  0
LINE
  5
126
330
F9
100
AcDbEntity
  8
AM_9
100
AcDbLine
 10
-0.9059923543682663
 20
0.8254774365776121
 30
0.0
 11
-0.9210376272821246
 21
0.825411637398122
 31
0.0
  0
LWPOLYLINE
  5
127
330
F9
100
AcDbEntity
  8
AM_9
100
AcDbPolyline
 90
       11
 70
     0
 43
0.0
 10
-1.092124999998557
 20
0.8437499999997006
 10
-1.090393521250674
 20
0.843392579381865
 10
-1.083832803208309
 20
0.8420692098340493
 10
-1.072992716110045
 20
0.8399903615074173
 10
-1.057577774179592
 20
0.8372670089492023
 10
-1.038488292982692
 20
0.8342769991936747
 10
-1.015409903394636
 20
0.8312334117053359
 10
-0.9899301883005003
 20
0.8286070588303429
 10
-0.961523222510987
 20
0.8265955871296042
 10
-0.9397067069072857
 20
0.8257112061652346
 10
-0.9171249999999999
 20
0.8254023640019453
  0
LWPOLYLINE
  5
128
330
F9
100
AcDbEntity
  8
AM_9
100
AcDbPolyline
 90
       11
 70
     0
 43
0.0
 10
-0.9171249999999999
 20
0.2703640821258918
 10
-0.9462637998091284
 20
0.2727736967612863
 10
-0.9745754453057475
 20
0.279840854884448
 10
-1.001230996380489
 20
0.2913712086018144
 10
-1.025541777649895
 20
0.3069075667576415
 10
-1.046993429806787
 20
0.3261783001517113
 10
-1.064808949005365
 20
0.3483957270702719
 10
-1.078508453474293
 20
0.3730602782780942
 10
-1.087626741688253
 20
0.3992486723995774
 10
-1.091801356212409
 20
0.4259085475678555
 10
-1.092124999433229
 20
0.4352840447670453
  0
LWPOLYLINE
  5
129
330
F9
100
AcDbEntity
  8
AM_9
100
AcDbPolyline
 90
       11
 70
     0
 43
0.0
 10
-0.9171249999999999
 20
1.01502463024303
 10
-0.9458502226528738
 20
1.015431011155587
 10
-0.9745754453057475
 20
1.016649179248097
 10
-1.000879103121385
 20
1.018474226374761
 10
-1.025541777649894
 20
1.0207983139073
 10
-1.046726308174267
 20
1.023265116712419
 10
-1.064808949005365
 20
1.025712215386859
 10
-1.078356910293474
 20
1.027750324201789
 10
-1.087626741688253
 20
1.029245278793509
 10
-1.091793716705419
 20
1.029943765744285
 10
-1.092124999999537
 20
1.029999999999921
  0
LINE
  5
12A
330
F9
100
AcDbEntity
  8
AM_9
100
AcDbLine
 10
-0.1936250000000001
 20
1.03
 30
0.0
 11
-0.7422837127986004
 21
1.03
 31
0.0
  0
LINE
  5
12B
330
F9
100
AcDbEntity
  8
AM_9
100
AcDbLine
 10
-1.091537704117518
 20
1.03
 30
0.0
 11
-1.203125
 21
1.03
 31
0.0
  0
LINE
  5
12C
330
F9
100
AcDbEntity
  8
AM_9
100
AcDbLine
 10
-1.203125
 20
-1.03
 30
0.0
 11
-0.1936250000000001
 21
-1.03
 31
0.0
  0
LINE
  5
12D
330
F9
100
AcDbEntity
  8
AM_9
100
AcDbLine
 10
-0.7514655292369097
 20
1.028454209118475
 30
0.0
 11
-0.7421250000002917
 21
1.02999999999995
 31
0.0
  0
LINE
  5
12E
330
F9
100
AcDbEntity
  8
AM_9
100
AcDbLine
 10
-0.927635680947188
 20
1.015079048357301
 30
0.0
 11
-0.9122218449828843
 21
1.0150364727088
 31
0.0
  0
LWPOLYLINE
  5
12F
330
F9
100
AcDbEntity
  8
AM_9
100
AcDbPolyline
 90
       11
 70
     0
 43
0.0
 10
-0.7421250000002917
 20
1.02999999999995
 10
-0.744157991700236
 20
1.029656537861131
 10
-0.7511028595370334
 20
1.028512688849246
 10
-0.7623658296960059
 20
1.026754790976492
 10
-0.778257819781523
 20
1.02447991378154
 10
-0.7977241368591237
 20
1.022023270830359
 10
-0.8211584638285773
 20
1.019551164025004
 10
-0.8468107397296017
 20
1.017457171185782
 10
-0.8752919167746206
 20
1.015886315909483
 10
-0.8958935861979065
 20
1.015246656203326
 10
-0.9171249999999999
 20
1.01502463024303
  0
LINE
  5
130
330
F9
100
AcDbEntity
  8
AM_9
100
AcDbLine
 10
1.265625
 20
1.03
 30
0.0
 11
1.191875
 21
1.03
 31
0.0
  0
LINE
  5
131
330
F9
100
AcDbEntity
  8
AM_9
100
AcDbLine
 10
1.191875
 20
-1.03
 30
0.0
 11
1.265625
 21
-1.03
 31
0.0
  0
LINE
  5
132
330
F9
100
AcDbEntity
  8
AM_9
100
AcDbLine
 10
1.191875
 20
-1.2432875
 30
0.0
 11
1.191875
 21
1.2432875
 31
0.0
  0
ARC
  5
133
330
F9
100
AcDbEntity
  8
AM_9
100
AcDbCircle
 10
1.096562499999999
 20
1.243287499999999
 30
0.0
 40
0.095312500000001
100
AcDbArc
 50
0.0
 51
90.0
  0
ARC
  5
134
330
F9
100
AcDbEntity
  8
AM_9
100
AcDbCircle
 10
1.096562499999999
 20
-1.243287499999999
 30
0.0
 40
0.095312500000001
100
AcDbArc
 50
270.0
 51
0.0
  0
LINE
  5
135
330
F9
100
AcDbEntity
  8
AM_9
100
AcDbLine
 10
1.0965625
 20
-1.3386
 30
0.0
 11
1.0965625
 21
1.3386
 31
0.0
  0
LINE
  5
136
330
F9
100
AcDbEntity
  8
AM_9
100
AcDbLine
 10
1.0965625
 20
1.3386
 30
0.0
 11
0.9756875000000003
 21
1.3386
 31
0.0
  0
LINE
  5
137
330
F9
100
AcDbEntity
  8
AM_9
100
AcDbLine
 10
0.9756875000000003
 20
-1.3386
 30
0.0
 11
1.0965625
 21
-1.3386
 31
0.0
  0
LINE
  5
138
330
F9
100
AcDbEntity
  8
AM_9
100
AcDbLine
 10
-0.193625
 20
-1.2432875
 30
0.0
 11
-0.193625
 21
1.2432875
 31
0.0
  0
ARC
  5
139
330
F9
100
AcDbEntity
  8
AM_9
100
AcDbCircle
 10
-0.0983125000000001
 20
1.2432875
 30
0.0
 40
0.0953124999999999
100
AcDbArc
 50
90.0
 51
179.9999991462263
  0
ARC
  5
13A
330
F9
100
AcDbEntity
  8
AM_9
100
AcDbCircle
 10
-0.0983125000000001
 20
-1.2432875
 30
0.0
 40
0.0953124999999999
100
AcDbArc
 50
179.9999991462263
 51
270.0
  0
LINE
  5
13B
330
F9
100
AcDbEntity
  8
AM_9
100
AcDbLine
 10
-0.0983124999999999
 20
-1.3386
 30
0.0
 11
-0.0983124999999999
 21
1.3386
 31
0.0
  0
LINE
  5
13C
330
F9
100
AcDbEntity
  8
AM_9
100
AcDbLine
 10
0.0225625000000001
 20
1.3386
 30
0.0
 11
-0.0983124999999999
 21
1.3386
 31
0.0
  0
LINE
  5
13D
330
F9
100
AcDbEntity
  8
AM_9
100
AcDbLine
 10
-0.0983124999999999
 20
-1.3386
 30
0.0
 11
0.0225625000000001
 21
-1.3386
 31
0.0
  0
LINE
  5
13E
330
F9
100
AcDbEntity
  8
AM_9
100
AcDbLine
 10
0.5467812500000019
 20
1.60632
 30
0.0
 11
0.4514687499999981
 21
1.60632
 31
0.0
  0
LINE
  5
13F
330
F9
100
AcDbEntity
  8
AM_9
100
AcDbLine
 10
0.4514687499999981
 20
-1.60632
 30
0.0
 11
0.5467812500000019
 21
-1.60632
 31
0.0
  0
LINE
  5
140
330
F9
100
AcDbEntity
  8
AM_9
100
AcDbLine
 10
0.4514687499999981
 20
-1.60632
 30
0.0
 11
0.4514687499999981
 21
1.60632
 31
0.0
  0
LINE
  5
141
330
F9
100
AcDbEntity
  8
AM_9
100
AcDbLine
 10
0.4514687499999981
 20
1.60632
 30
0.0
 11
0.4128266964831365
 21
1.67325
 31
0.0
  0
LINE
  5
142
330
F9
100
AcDbEntity
  8
AM_9
100
AcDbLine
 10
0.4128266964831365
 20
-1.67325
 30
0.0
 11
0.4514687499999981
 21
-1.60632
 31
0.0
  0
LINE
  5
143
330
F9
100
AcDbEntity
  8
AM_9
100
AcDbLine
 10
0.5467812500000019
 20
-1.60632
 30
0.0
 11
0.5467812500000019
 21
1.60632
 31
0.0
  0
LINE
  5
144
330
F9
100
AcDbEntity
  8
AM_9
100
AcDbLine
 10
0.5467812500000019
 20
-1.60632
 30
0.0
 11
0.5854233035168636
 21
-1.67325
 31
0.0
  0
LINE
  5
145
330
F9
100
AcDbEntity
  8
AM_9
100
AcDbLine
 10
0.5854233035168636
 20
1.67325
 30
0.0
 11
0.5467812500000019
 21
1.60632
 31
0.0
  0
LINE
  5
146
330
F9
100
AcDbEntity
  8
AM_9
100
AcDbLine
 10
0.9756875000000003
 20
-1.5779375
 30
0.0
 11
0.9756875000000003
 21
1.5779375
 31
0.0
  0
ARC
  5
147
330
F9
100
AcDbEntity
  8
AM_9
100
AcDbCircle
 10
0.8803750000000002
 20
1.5779375
 30
0.0
 40
0.0953125
100
AcDbArc
 50
0.0
 51
90.0
  0
ARC
  5
148
330
F9
100
AcDbEntity
  8
AM_9
100
AcDbCircle
 10
0.8803749999974391
 20
-1.577937499997439
 30
0.0
 40
0.0953125000025612
100
AcDbArc
 50
270.0
 51
0.0
  0
LINE
  5
149
330
F9
100
AcDbEntity
  8
AM_9
100
AcDbLine
 10
0.0225625000000001
 20
-1.5779375
 30
0.0
 11
0.0225625000000001
 21
1.5779375
 31
0.0
  0
ARC
  5
14A
330
F9
100
AcDbEntity
  8
AM_9
100
AcDbCircle
 10
0.1178750000000003
 20
1.5779375
 30
0.0
 40
0.0953125000000004
100
AcDbArc
 50
90.0
 51
180.0
  0
ARC
  5
14B
330
F9
100
AcDbEntity
  8
AM_9
100
AcDbCircle
 10
0.1178750000000001
 20
-1.5779375
 30
0.0
 40
0.0953125000000001
100
AcDbArc
 50
180.0
 51
270.0
  0
LINE
  5
14C
330
F9
100
AcDbEntity
  8
AM_9
100
AcDbLine
 10
0.8803750000000004
 20
-1.67325
 30
0.0
 11
0.8803750000000004
 21
1.67325
 31
0.0
  0
LINE
  5
14D
330
F9
100
AcDbEntity
  8
AM_9
100
AcDbLine
 10
0.5854233035168636
 20
-1.67325
 30
0.0
 11
0.5854233035168636
 21
1.67325
 31
0.0
  0
LINE
  5
14E
330
F9
100
AcDbEntity
  8
AM_9
100
AcDbLine
 10
0.8803750000000004
 20
1.67325
 30
0.0
 11
0.5854233035168636
 21
1.67325
 31
0.0
  0
LINE
  5
14F
330
F9
100
AcDbEntity
  8
AM_9
100
AcDbLine
 10
0.5854233035168636
 20
-1.67325
 30
0.0
 11
0.8803750000000004
 21
-1.67325
 31
0.0
  0
LINE
  5
150
330
F9
100
AcDbEntity
  8
AM_9
100
AcDbLine
 10
0.4128266964831365
 20
-1.67325
 30
0.0
 11
0.4128266964831365
 21
1.67325
 31
0.0
  0
LINE
  5
151
330
F9
100
AcDbEntity
  8
AM_9
100
AcDbLine
 10
0.1178750000000001
 20
-1.67325
 30
0.0
 11
0.1178750000000001
 21
1.67325
 31
0.0
  0
LINE
  5
152
330
F9
100
AcDbEntity
  8
AM_9
100
AcDbLine
 10
0.4128266964831365
 20
1.67325
 30
0.0
 11
0.1178750000000001
 21
1.67325
 31
0.0
  0
LINE
  5
153
330
F9
100
AcDbEntity
  8
AM_9
100
AcDbLine
 10
0.1178750000000001
 20
-1.67325
 30
0.0
 11
0.4128266964831365
 21
-1.67325
 31
0.0
  0
LINE
  5
156
330
F9
100
AcDbEntity
  8
AM_7
100
AcDbLine
 10
1.5859375
 20
0.0
 30
0.0
 11
-1.3359375
 21
0.0
 31
0.0
  0
LINE
  5
157
330
F9
100
AcDbEntity
  8
AM_7
100
AcDbLine
 10
-0.9171249999999999
 20
-0.0528205128205128
 30
0.0
 11
-0.917125
 21
1.622979166666667
 31
0.0
  0
LINE
  5
158
330
F9
100
AcDbEntity
  8
AM_4
100
AcDbLine
 10
1.453125
 20
-1.03
 30
0.0
 11
1.453125
 21
1.03
 31
0.0
  0
LINE
  5
159
330
F9
100
AcDbEntity
  8
AM_4
100
AcDbLine
 10
1.453125
 20
1.03
 30
0.0
 11
1.265625
 21
1.03
 31
0.0
  0
LINE
  5
15A
330
F9
100
AcDbEntity
  8
AM_4
100
AcDbLine
 10
1.265625
 20
-1.03
 30
0.0
 11
1.453125
 21
-1.03
 31
0.0
  0
ENDBLK
  5
FC
330
F9
100
AcDbEntity
  8
0
100
AcDbBlockEnd
  0
BLOCK
  5
15D
330
15B
100
AcDbEntity
  8
0
100
AcDbBlockBegin
  2
5_405015E_Inch_0_in_070675_2
 70
     2
 10
0.0
 20
0.0
 30
0.0
  3
5_405015E_Inch_0_in_070675_2
  1

  0
ATTDEF
  5
15F
330
15B
100
AcDbEntity
  8
AM_6
100
AcDbText
 10
4.770137777510708
 20
2.489338338148094
 30
0.0
 40
0.5
  1
405015E -Inch
100
AcDbAttributeDefinition
  3

  2
NN
 70
     8
280
     0
  0
ATTDEF
  5
160
330
15B
100
AcDbEntity
  8
AM_6
100
AcDbText
 10
4.770137777510708
 20
1.989338338148094
 30
0.0
 40
0.5
  1
Grease Fitting
100
AcDbAttributeDefinition
  3

  2
NT
 70
     8
280
     0
  0
ATTDEF
  5
161
330
15B
100
AcDbEntity
  8
AM_6
100
AcDbText
 10
4.770137777510708
 20
1.489338338148094
 30
0.0
 40
0.5
  1
405015E-Inch
100
AcDbAttributeDefinition
  3

  2
NB
 70
     8
280
     0
  0
ATTDEF
  5
162
330
15B
100
AcDbEntity
  8
AM_6
100
AcDbText
 10
4.770137777510708
 20
0.9893383381480945
 30
0.0
 40
0.5
  1
$MN.-Inch
100
AcDbAttributeDefinition
  3

  2
NBSYN
 70
     8
280
     0
  0
ATTDEF
  5
163
330
15B
100
AcDbEntity
  8
AM_6
100
AcDbText
 10
4.770137777510708
 20
0.4893383381480945
 30
0.0
 40
0.5
  1
405015E
100
AcDbAttributeDefinition
  3

  2
LINA
 70
     8
280
     0
  0
ATTDEF
  5
164
330
15B
100
AcDbEntity
  8
AM_6
100
AcDbText
 10
4.770137777510708
 20
-0.0106616618519055
 30
0.0
 40
0.5
  1
405015E
100
AcDbAttributeDefinition
  3

  2
MN
 70
     8
280
     0
  0
ATTDEF
  5
165
330
15B
100
AcDbEntity
  8
AM_6
100
AcDbText
 10
4.770137777510708
 20
-0.5106616618519055
 30
0.0
 40
0.5
  1
1/8 x 27PTF
100
AcDbAttributeDefinition
  3

  2
T
 70
     8
280
     0
  0
ATTDEF
  5
166
330
15B
100
AcDbEntity
  8
AM_6
100
AcDbText
 10
4.770137777510708
 20
-1.010661661851906
 30
0.0
 40
0.5
  1
baldor
100
AcDbAttributeDefinition
  3

  2
COMPANY
 70
     8
280
     0
  0
LINE
  5
167
330
15B
100
AcDbEntity
  8
AM_9
100
AcDbLine
 10
-0.5000000000000002
 20
2.28273631148104
 30
0.0
 11
-0.4309353907283024
 21
2.402359723744512
 31
0.0
  0
LINE
  5
168
330
15B
100
AcDbEntity
  8
AM_9
100
AcDbLine
 10
-0.4309353907283024
 20
2.402359723744512
 30
0.0
 11
-0.5000000000000001
 21
2.442234194499004
 31
0.0
  0
LINE
  5
169
330
15B
100
AcDbEntity
  8
AM_9
100
AcDbLine
 10
-0.640625
 20
2.039166666666667
 30
0.0
 11
-0.6255144221513298
 21
2.065338955232288
 31
0.0
  0
LINE
  5
16A
330
15B
100
AcDbEntity
  8
AM_9
100
AcDbLine
 10
-0.3917650949615606
 20
1.940204666160009
 30
0.0
 11
-0.2298622224892917
 21
2.220628667173324
 31
0.0
  0
LINE
  5
16B
330
15B
100
AcDbEntity
  8
AM_9
100
AcDbLine
 10
-0.2298622224892917
 20
2.220628667173324
 30
0.0
 11
-0.2433007552600703
 21
2.270781954253049
 31
0.0
  0
LINE
  5
16C
330
15B
100
AcDbEntity
  8
AM_9
100
AcDbLine
 10
-0.4419183820412857
 20
1.926766133389231
 30
0.0
 11
-0.3917650949615606
 21
1.940204666160009
 31
0.0
  0
LINE
  5
16D
330
15B
100
AcDbEntity
  8
AM_9
100
AcDbLine
 10
-0.4419183820412857
 20
1.926766133389231
 30
0.0
 11
-0.2433007552600703
 21
2.270781954253049
 31
0.0
  0
LINE
  5
16E
330
15B
100
AcDbEntity
  8
AM_9
100
AcDbLine
 10
-0.2433007552600703
 20
2.270781954253049
 30
0.0
 11
-0.4374344421167676
 21
2.39110303653869
 31
0.0
  0
LINE
  5
16F
330
15B
100
AcDbEntity
  8
AM_9
100
AcDbLine
 10
-0.640625
 20
2.033356343072777
 30
0.0
 11
-0.4419183820412857
 21
1.926766133389231
 31
0.0
  0
LWPOLYLINE
  5
170
330
15B
100
AcDbEntity
  8
AM_9
100
AcDbPolyline
 90
        3
 70
     0
 43
0.0
 10
-0.4387881624169186
 20
2.40689352359282
 10
-0.4602472358098194
 20
2.356419168698977
 10
-0.4856228907283024
 20
2.307638195205589
  0
LINE
  5
171
330
15B
100
AcDbEntity
  8
AM_9
100
AcDbLine
 10
-0.6292422633656931
 20
2.065198125315675
 30
0.0
 11
-0.6402424237451037
 21
2.050215820960283
 31
0.0
  0
LINE
  5
172
330
15B
100
AcDbEntity
  8
AM_9
100
AcDbLine
 10
-0.4856228907283024
 20
2.307638195205589
 30
0.0
 11
-0.4994999588122459
 21
2.284765068497705
 31
0.0
  0
LINE
  5
173
330
15B
100
AcDbEntity
  8
AM_5
100
AcDbLine
 10
-0.567980794598394
 20
2.034730296794644
 30
0.0
 11
-0.3917650949615605
 21
1.940204666160009
 31
0.0
  0
LINE
  5
174
330
15B
100
AcDbEntity
  8
AM_5
100
AcDbLine
 10
-0.6085453231884597
 20
2.034730296794644
 30
0.0
 11
-0.567980794598394
 21
2.034730296794644
 31
0.0
  0
LINE
  5
175
330
15B
100
AcDbEntity
  8
AM_5
100
AcDbLine
 10
-0.3998316697460462
 20
2.325973124287153
 30
0.0
 11
-0.2298622224892917
 21
2.220628667173324
 31
0.0
  0
LINE
  5
176
330
15B
100
AcDbEntity
  8
AM_5
100
AcDbLine
 10
-0.4374344421167675
 20
2.39110303653869
 30
0.0
 11
-0.3998316697460459
 21
2.325973124287152
 31
0.0
  0
LINE
  5
177
330
15B
100
AcDbEntity
  8
AM_5
100
AcDbLine
 10
-0.5857644750479983
 20
2.00392805871036
 30
0.0
 11
-0.3820479892964417
 21
2.356775362371437
 31
0.0
  0
LINE
  5
178
330
15B
100
AcDbEntity
  8
AM_7
100
AcDbLine
 10
-0.8927827300685689
 20
2.416416666666667
 30
0.0
 11
-0.2831008458043242
 21
2.064416666666667
 31
0.0
  0
LINE
  5
179
330
15B
100
AcDbEntity
  8
AM_4
100
AcDbLine
 10
-0.6653455985041123
 20
2.406349334064033
 30
0.0
 11
-0.6913263606176455
 21
2.421349334064033
 31
0.0
  0
LINE
  5
17A
330
15B
100
AcDbEntity
  8
AM_4
100
AcDbLine
 10
-0.7963263606176455
 20
2.239483999269301
 30
0.0
 11
-0.7703455985041124
 21
2.2244839992693
 31
0.0
  0
LINE
  5
17B
330
15B
100
AcDbEntity
  8
AM_4
100
AcDbLine
 10
-0.7703455985041124
 20
2.2244839992693
 30
0.0
 11
-0.6653455985041123
 21
2.406349334064033
 31
0.0
  0
LINE
  5
17C
330
15B
100
AcDbEntity
  8
AM_4
100
AcDbLine
 10
-0.7703455985041124
 20
2.2244839992693
 30
0.0
 11
-0.7493290280004976
 21
2.19639201041956
 31
0.0
  0
LINE
  5
17D
330
15B
100
AcDbEntity
  8
AM_4
100
AcDbLine
 10
-0.6305089372656001
 20
2.402194444532346
 30
0.0
 11
-0.6653455985041123
 21
2.406349334064033
 31
0.0
  0
LINE
  5
17E
330
15B
100
AcDbEntity
  8
AM_4
100
AcDbLine
 10
-0.7963263606176455
 20
2.239483999269301
 30
0.0
 11
-0.6913263606176455
 21
2.421349334064033
 31
0.0
  0
LINE
  5
17F
330
15B
100
AcDbEntity
  8
AM_4
100
AcDbLine
 10
-0.6913263606176455
 20
2.421349334064033
 30
0.0
 11
-0.7282878848447117
 21
2.477330096177566
 31
0.0
  0
LINE
  5
180
330
15B
100
AcDbEntity
  8
AM_4
100
AcDbLine
 10
-0.8632878848447119
 20
2.243503237155767
 30
0.0
 11
-0.7963263606176455
 21
2.239483999269301
 31
0.0
  0
LINE
  5
181
330
15B
100
AcDbEntity
  8
AM_4
100
AcDbLine
 10
-0.9164088681140606
 20
2.311494995185239
 30
0.0
 11
-0.8137309661808731
 21
2.489338338148094
 31
0.0
  0
LINE
  5
182
330
15B
100
AcDbEntity
  8
AM_4
100
AcDbLine
 10
-0.8632878848447119
 20
2.243503237155767
 30
0.0
 11
-0.7282878848447117
 21
2.477330096177566
 31
0.0
  0
LINE
  5
183
330
15B
100
AcDbEntity
  8
AM_4
100
AcDbLine
 10
-0.9164088681140606
 20
2.311494995185239
 30
0.0
 11
-0.8632878848447119
 21
2.243503237155767
 31
0.0
  0
LINE
  5
184
330
15B
100
AcDbEntity
  8
AM_4
100
AcDbLine
 10
-0.7282878848447117
 20
2.477330096177566
 30
0.0
 11
-0.8137309661808731
 21
2.489338338148094
 31
0.0
  0
LINE
  5
185
330
15B
100
AcDbEntity
  8
AM_4
100
AcDbLine
 10
-0.7493290280004977
 20
2.19639201041956
 30
0.0
 11
-0.6305089372656001
 21
2.402194444532346
 31
0.0
  0
LINE
  5
186
330
15B
100
AcDbEntity
  8
AM_4
100
AcDbLine
 10
-0.7493290280004977
 20
2.19639201041956
 30
0.0
 11
-0.7290439830362249
 21
2.122656892776118
 31
0.0
  0
LINE
  5
187
330
15B
100
AcDbEntity
  8
AM_4
100
AcDbLine
 10
-0.5565099297532095
 20
2.421494639098097
 30
0.0
 11
-0.6305089372656001
 21
2.402194444532346
 31
0.0
  0
LINE
  5
188
330
15B
100
AcDbEntity
  8
AM_4
100
AcDbLine
 10
-0.5000000000000001
 20
2.442234194499004
 30
0.0
 11
-0.5175379311067463
 21
2.452359723744513
 31
0.0
  0
LINE
  5
189
330
15B
100
AcDbEntity
  8
AM_4
100
AcDbLine
 10
-0.7362879311067462
 20
2.073473609588821
 30
0.0
 11
-0.5175379311067463
 21
2.452359723744513
 31
0.0
  0
LINE
  5
18A
330
15B
100
AcDbEntity
  8
AM_4
100
AcDbLine
 10
-0.6255144221513298
 20
2.065338955232288
 30
0.0
 11
-0.5000000000000002
 21
2.28273631148104
 31
0.0
  0
LINE
  5
18B
330
15B
100
AcDbEntity
  8
AM_4
100
AcDbLine
 10
-0.6496853907283024
 20
2.023473609588821
 30
0.0
 11
-0.640625
 21
2.039166666666667
 31
0.0
  0
LINE
  5
18C
330
15B
100
AcDbEntity
  8
AM_4
100
AcDbLine
 10
-0.7362879311067462
 20
2.073473609588821
 30
0.0
 11
-0.6496853907283024
 21
2.023473609588821
 31
0.0
  0
LINE
  5
18D
330
15B
100
AcDbEntity
  8
AM_4
100
AcDbLine
 10
-0.6431863393398372
 20
2.034730296794644
 30
0.0
 11
-0.640625
 21
2.033356343072777
 31
0.0
  0
LINE
  5
18E
330
15B
100
AcDbEntity
  8
AM_4
100
AcDbLine
 10
-0.7290439830362249
 20
2.122656892776118
 30
0.0
 11
-0.5565099297532095
 21
2.421494639098097
 31
0.0
  0
LINE
  5
18F
330
15B
100
AcDbEntity
  8
AM_4
100
AcDbLine
 10
-0.7290439830362249
 20
2.122656892776118
 30
0.0
 11
-0.7337879311067463
 21
2.077803736607743
 31
0.0
  0
LINE
  5
190
330
15B
100
AcDbEntity
  8
AM_4
100
AcDbLine
 10
-0.5200379311067462
 20
2.448029596725591
 30
0.0
 11
-0.5565099297532095
 21
2.421494639098097
 31
0.0
  0
LWPOLYLINE
  5
191
330
15B
100
AcDbEntity
  8
AM_4
100
AcDbPolyline
 90
        3
 70
     0
 43
0.0
 10
-0.5722254311067463
 20
2.35763819520559
 10
-0.5428089525459767
 20
2.403802269082534
 10
-0.5096851594181301
 20
2.447825923896205
  0
LWPOLYLINE
  5
192
330
15B
100
AcDbEntity
  8
AM_4
100
AcDbPolyline
 90
        3
 70
     0
 43
0.0
 10
-0.6190601594181301
 20
2.258382866818359
 10
-0.5976010860252292
 20
2.308857221712202
 10
-0.5722254311067463
 20
2.35763819520559
  0
LINE
  5
193
330
15B
100
AcDbEntity
  8
AM_4
100
AcDbLine
 10
-0.6190601594181301
 20
2.258382866818359
 30
0.0
 11
-0.5481631624169185
 21
2.217450466514974
 31
0.0
  0
LWPOLYLINE
  5
194
330
15B
100
AcDbEntity
  8
AM_4
100
AcDbPolyline
 90
        3
 70
     0
 43
0.0
 10
-0.6816004311067462
 20
2.168195138127744
 10
-0.6521839525459768
 20
2.214359212004688
 10
-0.6190601594181301
 20
2.258382866818359
  0
LWPOLYLINE
  5
195
330
15B
100
AcDbEntity
  8
AM_4
100
AcDbPolyline
 90
        3
 70
     0
 43
0.0
 10
-0.7284351594181302
 20
2.068939809740514
 10
-0.7069760860252292
 20
2.119414164634356
 10
-0.6816004311067462
 20
2.168195138127744
  0
LINE
  5
196
330
15B
100
AcDbEntity
  8
AM_4
100
AcDbLine
 10
-0.6402424237451037
 20
2.050215820960283
 30
0.0
 11
-0.6575381624169186
 21
2.028007409437128
 31
0.0
  0
LWPOLYLINE
  5
197
330
15B
100
AcDbEntity
  8
AM_4
100
AcDbPolyline
 90
        3
 70
     0
 43
0.0
 10
-0.5949978907283024
 20
2.118195138127744
 10
-0.6244143692890719
 20
2.072031064250799
 10
-0.6292422633656931
 20
2.065198125315675
  0
LWPOLYLINE
  5
198
330
15B
100
AcDbEntity
  8
AM_4
100
AcDbPolyline
 90
        3
 70
     0
 43
0.0
 10
-0.4994999588122459
 20
2.284765068497705
 10
-0.5150393692890719
 20
2.261474121328646
 10
-0.5481631624169185
 20
2.217450466514974
  0
LWPOLYLINE
  5
199
330
15B
100
AcDbEntity
  8
AM_4
100
AcDbPolyline
 90
        3
 70
     0
 43
0.0
 10
-0.5481631624169185
 20
2.217450466514974
 10
-0.5696222358098194
 20
2.166976111621131
 10
-0.5949978907283024
 20
2.118195138127744
  0
ENDBLK
  5
15E
330
15B
100
AcDbEntity
  8
0
100
AcDbBlockEnd
  0
BLOCK
  5
19C
330
19A
100
AcDbEntity
  8
0
100
AcDbBlockBegin
  2
6_070675H_0_in_070675_2
 70
     2
 10
0.0
 20
0.0
 30
0.0
  3
6_070675H_0_in_070675_2
  1

  0
ATTDEF
  5
19E
330
19A
100
AcDbEntity
  8
AM_6
100
AcDbText
 10
6.265625
 20
3.0625
 30
0.0
 40
0.5
  1
FC-S2 -(Contact Seal)-Housing
100
AcDbAttributeDefinition
  3

  2
NN
 70
     8
280
     0
  0
ATTDEF
  5
19F
330
19A
100
AcDbEntity
  8
AM_6
100
AcDbText
 10
6.265625
 20
2.5625
 30
0.0
 40
0.5
  1
S-2000 Piloted Flange Bearing -Inch
100
AcDbAttributeDefinition
  3

  2
NT
 70
     8
280
     0
  0
ATTDEF
  5
1A0
330
19A
100
AcDbEntity
  8
AM_6
100
AcDbText
 10
6.265625
 20
2.0625
 30
0.0
 40
0.5
  1
070675H
100
AcDbAttributeDefinition
  3

  2
NB
 70
     8
280
     0
  0
ATTDEF
  5
1A1
330
19A
100
AcDbEntity
  8
AM_6
100
AcDbText
 10
6.265625
 20
1.5625
 30
0.0
 40
0.5
  1
$PN.H
100
AcDbAttributeDefinition
  3

  2
NBSYN
 70
     8
280
     0
  0
ATTDEF
  5
1A2
330
19A
100
AcDbEntity
  8
AM_6
100
AcDbText
 10
6.265625
 20
1.0625
 30
0.0
 40
0.5
  1
070675
100
AcDbAttributeDefinition
  3

  2
LINA
 70
     8
280
     0
  0
ATTDEF
  5
1A3
330
19A
100
AcDbEntity
  8
AM_6
100
AcDbText
 10
6.265625
 20
0.5625
 30
0.0
 40
0.5
  1
1-11/16
100
AcDbAttributeDefinition
  3

  2
SS
 70
     8
280
     0
  0
ATTDEF
  5
1A4
330
19A
100
AcDbEntity
  8
AM_6
100
AcDbText
 10
6.265625
 20
0.0625
 30
0.0
 40
0.5
  1
070675
100
AcDbAttributeDefinition
  3

  2
PN
 70
     8
280
     0
  0
ATTDEF
  5
1A5
330
19A
100
AcDbEntity
  8
AM_6
100
AcDbText
 10
6.265625
 20
-0.4375
 30
0.0
 40
0.5
  1
FC-S2-111RE
100
AcDbAttributeDefinition
  3

  2
DESCRIPTION
 70
     8
280
     0
  0
ATTDEF
  5
1A6
330
19A
100
AcDbEntity
  8
AM_6
100
AcDbText
 10
6.265625
 20
-0.9375
 30
0.0
 40
0.5
  1
Expansion Type
100
AcDbAttributeDefinition
  3

  2
EF
 70
     8
280
     0
  0
ATTDEF
  5
1A7
330
19A
100
AcDbEntity
  8
AM_6
100
AcDbText
 10
6.265625
 20
-1.4375
 30
0.0
 40
0.5
  1
2-43/64
100
AcDbAttributeDefinition
  3

  2
A
 70
     8
280
     0
  0
ATTDEF
  5
1A8
330
19A
100
AcDbEntity
  8
AM_6
100
AcDbText
 10
6.265625
 20
-1.9375
 30
0.0
 40
0.5
  1
6-1/8
100
AcDbAttributeDefinition
  3

  2
B
 70
     8
280
     0
  0
ATTDEF
  5
1A9
330
19A
100
AcDbEntity
  8
AM_6
100
AcDbText
 10
6.265625
 20
-2.4375
 30
0.0
 40
0.5
  1
1-29/32
100
AcDbAttributeDefinition
  3

  2
C
 70
     8
280
     0
  0
ATTDEF
  5
1AA
330
19A
100
AcDbEntity
  8
AM_6
100
AcDbText
 10
6.265625
 20
-2.9375
 30
0.0
 40
0.5
  1
5-1/8
100
AcDbAttributeDefinition
  3

  2
DD
 70
     8
280
     0
  0
ATTDEF
  5
1AB
330
19A
100
AcDbEntity
  8
AM_6
100
AcDbText
 10
6.265625
 20
-3.4375
 30
0.0
 40
0.5
  1
7/8
100
AcDbAttributeDefinition
  3

  2
E
 70
     8
280
     0
  0
ATTDEF
  5
1AC
330
19A
100
AcDbEntity
  8
AM_6
100
AcDbText
 10
6.265625
 20
-3.9375
 30
0.0
 40
0.5
  1
7/16
100
AcDbAttributeDefinition
  3

  2
F
 70
     8
280
     0
  0
ATTDEF
  5
1AD
330
19A
100
AcDbEntity
  8
AM_6
100
AcDbText
 10
6.265625
 20
-4.4375
 30
0.0
 40
0.5
  1
1-29/64
100
AcDbAttributeDefinition
  3

  2
G
 70
     8
280
     0
  0
ATTDEF
  5
1AE
330
19A
100
AcDbEntity
  8
AM_6
100
AcDbText
 10
6.265625
 20
-4.9375
 30
0.0
 40
0.5
  1
1/2
100
AcDbAttributeDefinition
  3

  2
H
 70
     8
280
     0
  0
ATTDEF
  5
1AF
330
19A
100
AcDbEntity
  8
AM_6
100
AcDbText
 10
6.265625
 20
-5.4375
 30
0.0
 40
0.5
  1
4.250
100
AcDbAttributeDefinition
  3

  2
K
 70
     8
280
     0
  0
ATTDEF
  5
1B0
330
19A
100
AcDbEntity
  8
AM_6
100
AcDbText
 10
6.265625
 20
-5.9375
 30
0.0
 40
0.5
  1
3-3/16
100
AcDbAttributeDefinition
  3

  2
L
 70
     8
280
     0
  0
ATTDEF
  5
1B1
330
19A
100
AcDbEntity
  8
AM_6
100
AcDbText
 10
6.265625
 20
-6.4375
 30
0.0
 40
0.5
  1
7/16-14
100
AcDbAttributeDefinition
  3

  2
M
 70
     8
280
     0
  0
ATTDEF
  5
1B2
330
19A
100
AcDbEntity
  8
AM_6
100
AcDbText
 10
6.265625
 20
-6.9375
 30
0.0
 40
0.5
  1
0.4375
100
AcDbAttributeDefinition
  3

  2
MNDM
 70
     8
280
     0
  0
ATTDEF
  5
1B3
330
19A
100
AcDbEntity
  8
AM_6
100
AcDbText
 10
6.265625
 20
-7.4375
 30
0.0
 40
0.5
  1
0.3602
100
AcDbAttributeDefinition
  3

  2
MKDM
 70
     8
280
     0
  0
ATTDEF
  5
1B4
330
19A
100
AcDbEntity
  8
AM_6
100
AcDbText
 10
6.265625
 20
-7.9375
 30
0.0
 40
0.5
  1
2-23/32
100
AcDbAttributeDefinition
  3

  2
N
 70
     8
280
     0
  0
ATTDEF
  5
1B5
330
19A
100
AcDbEntity
  8
AM_6
100
AcDbText
 10
6.265625
 20
-8.4375
 30
0.0
 40
0.5
  1
2.718750
100
AcDbAttributeDefinition
  3

  2
N1
 70
     8
280
     0
  0
ATTDEF
  5
1B6
330
19A
100
AcDbEntity
  8
AM_6
100
AcDbText
 10
6.265625
 20
-8.9375
 30
0.0
 40
0.5
  1
1-7/32
100
AcDbAttributeDefinition
  3

  2
P
 70
     8
280
     0
  0
ATTDEF
  5
1B7
330
19A
100
AcDbEntity
  8
AM_6
100
AcDbText
 10
6.265625
 20
-9.4375
 30
0.0
 40
0.5
  1
1-17/64
100
AcDbAttributeDefinition
  3

  2
Q
 70
     8
280
     0
  0
ATTDEF
  5
1B8
330
19A
100
AcDbEntity
  8
AM_6
100
AcDbText
 10
6.265625
 20
-9.9375
 30
0.0
 40
0.5
  1
1.265625
100
AcDbAttributeDefinition
  3

  2
Q1
 70
     8
280
     0
  0
ATTDEF
  5
1B9
330
19A
100
AcDbEntity
  8
AM_6
100
AcDbText
 10
6.265625
 20
-10.4375
 30
0.0
 40
0.5
  1
1/4
100
AcDbAttributeDefinition
  3

  2
X
 70
     8
280
     0
  0
ATTDEF
  5
1BA
330
19A
100
AcDbEntity
  8
AM_6
100
AcDbText
 10
6.265625
 20
-10.9375
 30
0.0
 40
0.5
  1
0.020
100
AcDbAttributeDefinition
  3

  2
Y
 70
     8
280
     0
  0
ATTDEF
  5
1BB
330
19A
100
AcDbEntity
  8
AM_6
100
AcDbText
 10
6.265625
 20
-11.4375
 30
0.0
 40
0.5
  1
2-5/64
100
AcDbAttributeDefinition
  3

  2
Z
 70
     8
280
     0
  0
ATTDEF
  5
1BC
330
19A
100
AcDbEntity
  8
AM_6
100
AcDbText
 10
6.265625
 20
-11.9375
 30
0.0
 40
0.5
  1
baldor
100
AcDbAttributeDefinition
  3

  2
COMPANY
 70
     8
280
     0
  0
LINE
  5
1BD
330
19A
100
AcDbEntity
  8
AM_9
100
AcDbLine
 10
-0.0000000000000003
 20
-2.928333333333321
 30
0.0
 11
-0.4500000000000001
 21
-2.928333333333321
 31
0.0
  0
LINE
  5
1BE
330
19A
100
AcDbEntity
  8
AM_9
100
AcDbLine
 10
-0.640625
 20
1.979166666666667
 30
0.0
 11
-0.5908734059999524
 21
2.065338955232288
 31
0.0
  0
LINE
  5
1BF
330
19A
100
AcDbEntity
  8
AM_9
100
AcDbLine
 10
-0.4500000000000001
 20
2.309338851859483
 30
0.0
 11
-0.4999999999999998
 21
2.22273631148104
 31
0.0
  0
LINE
  5
1C0
330
19A
100
AcDbEntity
  8
AM_9
100
AcDbLine
 10
-0.4500000000000001
 20
-1.989047229239223
 30
0.0
 11
-0.5000000000000001
 21
-1.989047229239223
 31
0.0
  0
LINE
  5
1C1
330
19A
100
AcDbEntity
  8
AM_9
100
AcDbLine
 10
-0.4500000000000001
 20
-1.943835240311471
 30
0.0
 11
-0.5000000000000001
 21
-1.943835240311471
 31
0.0
  0
LINE
  5
1C2
330
19A
100
AcDbEntity
  8
AM_9
100
AcDbLine
 10
-0.4500000000000001
 20
1.989047229239223
 30
0.0
 11
-0.5000000000000001
 21
1.989047229239223
 31
0.0
  0
LINE
  5
1C3
330
19A
100
AcDbEntity
  8
AM_9
100
AcDbLine
 10
-0.5000000000000001
 20
1.943835240311471
 30
0.0
 11
-0.4500000000000001
 21
1.943835240311471
 31
0.0
  0
LINE
  5
1C4
330
19A
100
AcDbEntity
  8
AM_9
100
AcDbLine
 10
-0.4500000000000001
 20
2.065338955232288
 30
0.0
 11
-0.5
 21
2.065338955232288
 31
0.0
  0
LINE
  5
1C5
330
19A
100
AcDbEntity
  8
AM_9
100
AcDbLine
 10
-0.4500000000000001
 20
1.962905215015526
 30
0.0
 11
-0.5000000000000001
 21
1.962905215015526
 31
0.0
  0
LINE
  5
1C6
330
19A
100
AcDbEntity
  8
AM_9
100
AcDbLine
 10
-0.4500000000000001
 20
-1.962905215015527
 30
0.0
 11
-0.5000000000000001
 21
-1.962905215015527
 31
0.0
  0
LINE
  5
1C7
330
19A
100
AcDbEntity
  8
AM_9
100
AcDbLine
 10
-0.5
 20
-2.125
 30
0.0
 11
-0.4500000000000001
 21
-2.125
 31
0.0
  0
LINE
  5
1C8
330
19A
100
AcDbEntity
  8
AM_9
100
AcDbLine
 10
-0.4409539473684211
 20
-1.67325
 30
0.0
 11
1.265625
 21
-1.67325
 31
0.0
  0
LINE
  5
1C9
330
19A
100
AcDbEntity
  8
AM_9
100
AcDbLine
 10
1.265625
 20
1.67325
 30
0.0
 11
-0.4409539473684211
 21
1.67325
 31
0.0
  0
LINE
  5
1CA
330
19A
100
AcDbEntity
  8
AM_9
100
AcDbLine
 10
-0.4409539473684211
 20
1.67325
 30
0.0
 11
-0.640625
 21
1.745924319802495
 31
0.0
  0
LINE
  5
1CB
330
19A
100
AcDbEntity
  8
AM_9
100
AcDbLine
 10
-0.640625
 20
-1.745924319802495
 30
0.0
 11
-0.4409539473684211
 21
-1.67325
 31
0.0
  0
LINE
  5
1CC
330
19A
100
AcDbEntity
  8
AM_9
100
AcDbLine
 10
-0.4409539473684211
 20
1.67325
 30
0.0
 11
-0.4409539473684211
 21
-1.67325
 31
0.0
  0
LINE
  5
1CD
330
19A
100
AcDbEntity
  8
AM_9
100
AcDbLine
 10
-0.4500000000000001
 20
-1.943835240311471
 30
0.0
 11
-0.4500000000000001
 21
-2.495056726536931
 31
0.0
  0
LINE
  5
1CE
330
19A
100
AcDbEntity
  8
AM_9
100
AcDbLine
 10
-0.4500000000000001
 20
2.49505672653693
 30
0.0
 11
-0.4500000000000001
 21
1.943835240311471
 31
0.0
  0
LINE
  5
1CF
330
19A
100
AcDbEntity
  8
AM_9
100
AcDbLine
 10
-0.0000000000000003
 20
2.030711126790528
 30
0.0
 11
-0.5000000000000001
 21
2.030711126790528
 31
0.0
  0
LINE
  5
1D0
330
19A
100
AcDbEntity
  8
AM_9
100
AcDbLine
 10
-0.5000000000000001
 20
1.593211126790528
 30
0.0
 11
-0.0000000000000003
 21
1.593211126790528
 31
0.0
  0
LINE
  5
1D1
330
19A
100
AcDbEntity
  8
AM_9
100
AcDbLine
 10
-0.0000000000000003
 20
-1.593211126790528
 30
0.0
 11
-0.5000000000000001
 21
-1.593211126790528
 31
0.0
  0
LINE
  5
1D2
330
19A
100
AcDbEntity
  8
AM_9
100
AcDbLine
 10
-0.5000000000000001
 20
-2.030711126790528
 30
0.0
 11
-0.0000000000000003
 21
-2.030711126790528
 31
0.0
  0
LINE
  5
1D3
330
19A
100
AcDbEntity
  8
AM_9
100
AcDbLine
 10
-0.0386499999999999
 20
0.1801000000000001
 30
0.0
 11
-0.4113499999999997
 21
0.1801000000000001
 31
0.0
  0
LINE
  5
1D4
330
19A
100
AcDbEntity
  8
AM_9
100
AcDbLine
 10
-0.4113499999999997
 20
-0.1801000000000001
 30
0.0
 11
-0.0386499999999999
 21
-0.1801000000000001
 31
0.0
  0
LINE
  5
1D5
330
19A
100
AcDbEntity
  8
AM_9
100
AcDbLine
 10
-0.0386499999999999
 20
-0.1801000000000001
 30
0.0
 11
-0.0386499999999999
 21
0.1801000000000001
 31
0.0
  0
LINE
  5
1D6
330
19A
100
AcDbEntity
  8
AM_9
100
AcDbLine
 10
-0.0386499999999999
 20
-0.1801000000000001
 30
0.0
 11
0.0000000000000003
 21
-0.2187499999999999
 31
0.0
  0
LINE
  5
1D7
330
19A
100
AcDbEntity
  8
AM_9
100
AcDbLine
 10
0.0000000000000003
 20
0.2187499999999999
 30
0.0
 11
-0.0386499999999999
 21
0.1801000000000001
 31
0.0
  0
LINE
  5
1D8
330
19A
100
AcDbEntity
  8
AM_9
100
AcDbLine
 10
-0.4113499999999997
 20
-0.1801000000000001
 30
0.0
 11
-0.4113499999999997
 21
0.1801000000000001
 31
0.0
  0
LINE
  5
1D9
330
19A
100
AcDbEntity
  8
AM_9
100
AcDbLine
 10
-0.4113499999999997
 20
0.1801000000000001
 30
0.0
 11
-0.4499999999999996
 21
0.2187499999999999
 31
0.0
  0
LINE
  5
1DA
330
19A
100
AcDbEntity
  8
AM_9
100
AcDbLine
 10
-0.4499999999999996
 20
-0.2187499999999999
 30
0.0
 11
-0.4113499999999997
 21
-0.1801000000000001
 31
0.0
  0
LINE
  5
1DB
330
19A
100
AcDbEntity
  8
AM_5
100
AcDbLine
 10
-0.0000000000000005
 20
-0.2187499999999999
 30
0.0
 11
-0.4500000000000004
 21
-0.2187499999999999
 31
0.0
  0
LINE
  5
1DC
330
19A
100
AcDbEntity
  8
AM_5
100
AcDbLine
 10
-0.0000000000000005
 20
0.2187499999999997
 30
0.0
 11
-0.4500000000000004
 21
0.2187499999999997
 31
0.0
  0
LINE
  5
1DD
330
19A
100
AcDbEntity
  8
AM_7
100
AcDbLine
 10
-0.5250000000000002
 20
1.811961126790528
 30
0.0
 11
0.0249999999999996
 21
1.811961126790528
 31
0.0
  0
LINE
  5
1DE
330
19A
100
AcDbEntity
  8
AM_7
100
AcDbLine
 10
-0.5250000000000002
 20
-1.811961126790528
 30
0.0
 11
0.0249999999999996
 21
-1.811961126790528
 31
0.0
  0
LINE
  5
1DF
330
19A
100
AcDbEntity
  8
AM_4
100
AcDbLine
 10
-0.4999999999999998
 20
2.22273631148104
 30
0.0
 11
-0.5908734059999524
 21
2.065338955232288
 31
0.0
  0
LINE
  5
1E0
330
19A
100
AcDbEntity
  8
AM_4
100
AcDbLine
 10
-0.5
 20
2.065338955232288
 30
0.0
 11
-0.640625
 21
2.065338955232288
 31
0.0
  0
LINE
  5
1E1
330
19A
100
AcDbEntity
  8
AM_4
100
AcDbLine
 10
-0.640625
 20
-2.125
 30
0.0
 11
-0.5
 21
-2.125
 31
0.0
  0
LINE
  5
1E2
330
19A
100
AcDbEntity
  8
AM_4
100
AcDbLine
 10
-0.640625
 20
-2.125
 30
0.0
 11
-0.640625
 21
2.065338955232288
 31
0.0
  0
LINE
  5
1E3
330
19A
100
AcDbEntity
  8
AM_4
100
AcDbLine
 10
-0.640625
 20
1.705750167209492
 30
0.0
 11
-0.5000000000000001
 21
1.705750167209492
 31
0.0
  0
LINE
  5
1E4
330
19A
100
AcDbEntity
  8
AM_4
100
AcDbLine
 10
-0.640625
 20
-1.705750167209491
 30
0.0
 11
-0.5000000000000001
 21
-1.705750167209491
 31
0.0
  0
LINE
  5
1E5
330
19A
100
AcDbEntity
  8
AM_4
100
AcDbLine
 10
1.265625
 20
-2.023809523809524
 30
0.0
 11
1.265625
 21
2.023809523809524
 31
0.0
  0
LINE
  5
1E6
330
19A
100
AcDbEntity
  8
AM_4
100
AcDbLine
 10
0.875
 20
-2.023809523809524
 30
0.0
 11
1.265625
 21
-2.023809523809524
 31
0.0
  0
LINE
  5
1E7
330
19A
100
AcDbEntity
  8
AM_4
100
AcDbLine
 10
1.265625
 20
2.023809523809524
 30
0.0
 11
0.875
 21
2.023809523809524
 31
0.0
  0
LINE
  5
1E8
330
19A
100
AcDbEntity
  8
AM_4
100
AcDbLine
 10
-0.640625
 20
-1.267296874084676
 30
0.0
 11
-0.5000000000000001
 21
-1.267296874084676
 31
0.0
  0
LINE
  5
1E9
330
19A
100
AcDbEntity
  8
AM_4
100
AcDbLine
 10
-0.4500000000000001
 20
-0.8140197275649107
 30
0.0
 11
-0.5000000000000001
 21
-0.8140197275649107
 31
0.0
  0
LINE
  5
1EA
330
19A
100
AcDbEntity
  8
AM_4
100
AcDbLine
 10
-0.4500000000000001
 20
0.81401972756491
 30
0.0
 11
-0.5000000000000001
 21
0.8140197275649095
 31
0.0
  0
LINE
  5
1EB
330
19A
100
AcDbEntity
  8
AM_4
100
AcDbLine
 10
-0.640625
 20
1.267296874084677
 30
0.0
 11
-0.5000000000000001
 21
1.267296874084677
 31
0.0
  0
LINE
  5
1EC
330
19A
100
AcDbEntity
  8
AM_4
100
AcDbLine
 10
0.875
 20
-2.125
 30
0.0
 11
0.875
 21
2.125
 31
0.0
  0
LINE
  5
1ED
330
19A
100
AcDbEntity
  8
AM_4
100
AcDbLine
 10
-0.0000000000000003
 20
-2.125
 30
0.0
 11
0.875
 21
-2.125
 31
0.0
  0
LINE
  5
1EE
330
19A
100
AcDbEntity
  8
AM_4
100
AcDbLine
 10
0.875
 20
2.125
 30
0.0
 11
-0.0000000000000003
 21
2.125
 31
0.0
  0
LINE
  5
1EF
330
19A
100
AcDbEntity
  8
AM_4
100
AcDbLine
 10
-0.4500000000000001
 20
-1.053180863425015
 30
0.0
 11
-0.5000000000000001
 21
-1.053180863425015
 31
0.0
  0
LINE
  5
1F0
330
19A
100
AcDbEntity
  8
AM_4
100
AcDbLine
 10
-0.4500000000000001
 20
1.053180863425013
 30
0.0
 11
-0.5000000000000001
 21
1.053180863425013
 31
0.0
  0
LINE
  5
1F1
330
19A
100
AcDbEntity
  8
AM_4
100
AcDbLine
 10
-0.5000000000000001
 20
-2.495056726536931
 30
0.0
 11
-0.5000000000000001
 21
-0.8140197275649107
 31
0.0
  0
LINE
  5
1F2
330
19A
100
AcDbEntity
  8
AM_4
100
AcDbLine
 10
-0.5000000000000001
 20
-2.495056726536931
 30
0.0
 11
-0.4500000000000001
 21
-2.495056726536931
 31
0.0
  0
LINE
  5
1F3
330
19A
100
AcDbEntity
  8
AM_4
100
AcDbLine
 10
-0.4500000000000001
 20
-2.495056726536931
 30
0.0
 11
-0.4500000000000001
 21
-3.057834429824561
 31
0.0
  0
LINE
  5
1F4
330
19A
100
AcDbEntity
  8
AM_4
100
AcDbLine
 10
-0.0000000000000003
 20
-3.057834429824561
 30
0.0
 11
-0.4500000000000001
 21
-3.057834429824561
 31
0.0
  0
LINE
  5
1F5
330
19A
100
AcDbEntity
  8
AM_4
100
AcDbLine
 10
-0.0000000000000003
 20
-3.057834429824561
 30
0.0
 11
-0.0000000000000003
 21
3.0625
 31
0.0
  0
LINE
  5
1F6
330
19A
100
AcDbEntity
  8
AM_4
100
AcDbLine
 10
-0.4500000000000001
 20
2.49505672653693
 30
0.0
 11
-0.5000000000000001
 21
2.49505672653693
 31
0.0
  0
LINE
  5
1F7
330
19A
100
AcDbEntity
  8
AM_4
100
AcDbLine
 10
-0.5000000000000001
 20
0.8140197275649095
 30
0.0
 11
-0.5000000000000001
 21
2.49505672653693
 31
0.0
  0
LINE
  5
1F8
330
19A
100
AcDbEntity
  8
AM_4
100
AcDbLine
 10
-0.4999999999999998
 20
1.775837318383315
 30
0.0
 11
-0.4499999999999998
 21
1.775837318383315
 31
0.0
  0
LINE
  5
1F9
330
19A
100
AcDbEntity
  8
AM_4
100
AcDbLine
 10
-0.4499999999999998
 20
1.775837318383315
 30
0.0
 11
-0.4499999999999998
 21
-1.775837318383316
 31
0.0
  0
LINE
  5
1FA
330
19A
100
AcDbEntity
  8
AM_4
100
AcDbLine
 10
-0.4499999999999998
 20
-1.775837318383316
 30
0.0
 11
-0.4999999999999998
 21
-1.775837318383316
 31
0.0
  0
LINE
  5
1FB
330
19A
100
AcDbEntity
  8
AM_4
100
AcDbLine
 10
-0.0000000000000003
 20
3.0625
 30
0.0
 11
-0.4500000000000001
 21
3.0625
 31
0.0
  0
LINE
  5
1FC
330
19A
100
AcDbEntity
  8
AM_4
100
AcDbLine
 10
-0.4500000000000001
 20
3.0625
 30
0.0
 11
-0.4500000000000001
 21
2.49505672653693
 31
0.0
  0
ENDBLK
  5
19D
330
19A
100
AcDbEntity
  8
0
100
AcDbBlockEnd
  0
ENDSEC
  0
SECTION
  2
ENTITIES
  0
INSERT
  5
6F
330
1F
100
AcDbEntity
  8
0
100
AcDbBlockReference
  2
1_070675_2
 10
0.0
 20
0.0
 30
0.0
  0
POINT
  5
1FE
330
1F
100
AcDbEntity
  8
ConnectionPoints
100
AcDbPoint
 10
-1.203125
 20
0.0
 30
0.0000000000000001
  0
POINT
  5
1FF
330
1F
100
AcDbEntity
  8
ConnectionPoints
100
AcDbPoint
 10
-1.203125
 20
0.0
 30
0.0000000000000001
  0
POINT
  5
200
330
1F
100
AcDbEntity
  8
ConnectionPoints
100
AcDbPoint
 10
2.201375
 20
0.0
 30
-0.0000000000000001
  0
POINT
  5
201
330
1F
100
AcDbEntity
  8
ConnectionPoints
100
AcDbPoint
 10
-1.203125
 20
0.0
 30
0.0000000000000001
  0
POINT
  5
202
330
1F
100
AcDbEntity
  8
ConnectionPoints
100
AcDbPoint
 10
-0.5403103907283024
 20
2.212916666666667
 30
0.0
  0
POINT
  5
203
330
1F
100
AcDbEntity
  8
ConnectionPoints
100
AcDbPoint
 10
1.21875
 20
0.0
 30
-0.0000000000000001
  0
POINT
  5
204
330
1F
100
AcDbEntity
  8
ConnectionPoints
100
AcDbPoint
 10
-0.5403103907283024
 20
2.212916666666667
 30
0.0
  0
POINT
  5
205
330
1F
100
AcDbEntity
  8
ConnectionPoints
100
AcDbPoint
 10
-0.5087365478819947
 20
2.5228125
 30
0.0
  0
POINT
  5
206
330
1F
100
AcDbEntity
  8
ConnectionPoints
100
AcDbPoint
 10
-1.203125
 20
0.0
 30
0.0000000000000001
  0
POINT
  5
207
330
1F
100
AcDbEntity
  8
ConnectionPoints
100
AcDbPoint
 10
-1.453125
 20
0.0
 30
0.0000000000000001
  0
ENDSEC
  0
SECTION
  2
OBJECTS
  0
DICTIONARY
  5
C
330
0
100
AcDbDictionary
281
     1
  3
ACAD_DETAILVIEWSTYLE
350
20F
  3
ACAD_GROUP
350
D
  3
ACAD_LAYOUT
350
1A
  3
ACAD_MATERIAL
350
43
  3
ACAD_MLEADERSTYLE
350
6B
  3
ACAD_MLINESTYLE
350
17
  3
ACAD_PLOTSETTINGS
350
19
  3
ACAD_PLOTSTYLENAME
350
E
  3
ACAD_SCALELIST
350
47
  3
ACAD_SECTIONVIEWSTYLE
350
210
  3
ACAD_TABLESTYLE
350
69
  3
ACAD_VISUALSTYLE
350
2A
  3
ACDB_RECOMPOSE_DATA
350
20C
  3
AcDbVariableDictionary
350
208
  0
SUN
  5
6D
330
29
100
AcDbSun
 90
        1
290
     0
 63
     7
421
 16777215
 40
1.0
291
     1
 91
  2455826
 92
 54000000
292
     0
 70
     2
 71
   256
280
     1
  0
DICTIONARY
  5
20F
102
{ACAD_REACTORS
330
C
102
}
330
C
100
AcDbDictionary
281
     1
  0
DICTIONARY
  5
D
102
{ACAD_REACTORS
330
C
102
}
330
C
100
AcDbDictionary
281
     1
  0
DICTIONARY
  5
1A
102
{ACAD_REACTORS
330
C
102
}
330
C
100
AcDbDictionary
281
     1
  3
Layout1
350
1E
  3
Layout2
350
26
  3
Model
350
22
  0
DICTIONARY
  5
43
102
{ACAD_REACTORS
330
C
102
}
330
C
100
AcDbDictionary
281
     1
  3
ByBlock
350
45
  3
ByLayer
350
44
  3
Global
350
46
  0
DICTIONARY
  5
6B
102
{ACAD_REACTORS
330
C
102
}
330
C
100
AcDbDictionary
281
     1
  3
Standard
350
6C
  0
DICTIONARY
  5
17
102
{ACAD_REACTORS
330
C
102
}
330
C
100
AcDbDictionary
281
     1
  3
Standard
350
18
  0
DICTIONARY
  5
19
102
{ACAD_REACTORS
330
C
102
}
330
C
100
AcDbDictionary
281
     1
  0
ACDBDICTIONARYWDFLT
  5
E
102
{ACAD_REACTORS
330
C
102
}
330
C
100
AcDbDictionary
281
     1
  3
Normal
350
F
100
AcDbDictionaryWithDefault
340
F
  0
DICTIONARY
  5
47
102
{ACAD_REACTORS
330
C
102
}
330
C
100
AcDbDictionary
281
     1
  3
A0
350
48
  3
A1
350
49
  3
A2
350
4A
  3
A3
350
4B
  3
A4
350
4C
  3
A5
350
4D
  3
A6
350
4E
  3
A7
350
4F
  3
A8
350
50
  3
A9
350
51
  3
B0
350
52
  3
B1
350
53
  3
B2
350
54
  3
B3
350
55
  3
B4
350
56
  3
B5
350
57
  3
B6
350
58
  3
B7
350
59
  3
B8
350
5A
  3
B9
350
5B
  3
C0
350
5C
  3
C1
350
5D
  3
C2
350
5E
  3
C3
350
5F
  3
C4
350
60
  3
C5
350
61
  3
C6
350
62
  3
C7
350
63
  3
C8
350
64
  3
C9
350
65
  3
D0
350
66
  3
D1
350
67
  3
D2
350
68
  0
DICTIONARY
  5
210
102
{ACAD_REACTORS
330
C
102
}
330
C
100
AcDbDictionary
281
     1
  0
DICTIONARY
  5
69
102
{ACAD_REACTORS
330
C
102
}
330
C
100
AcDbDictionary
281
     1
  3
Standard
350
6A
  0
DICTIONARY
  5
2A
102
{ACAD_REACTORS
330
C
102
}
330
C
100
AcDbDictionary
281
     1
  3
2dWireframe
350
2F
  3
Basic
350
32
  3
Brighten
350
36
  3
ColorChange
350
3A
  3
Conceptual
350
34
  3
Dim
350
35
  3
EdgeColorOff
350
3D
  3
Facepattern
350
39
  3
Flat
350
2B
  3
FlatWithEdges
350
2C
  3
Gouraud
350
2D
  3
GouraudWithEdges
350
2E
  3
Hidden
350
31
  3
JitterOff
350
3B
  3
Linepattern
350
38
  3
OverhangOff
350
3C
  3
Realistic
350
33
  3
Shaded
350
42
  3
Shaded with edges
350
41
  3
Shades of Gray
350
3E
  3
Sketchy
350
3F
  3
Thicken
350
37
  3
Wireframe
350
30
  3
X-Ray
350
40
  0
XRECORD
  5
20C
102
{ACAD_REACTORS
330
C
102
}
330
C
100
AcDbXrecord
280
     1
 90
        1
330
6A
  0
DICTIONARY
  5
208
102
{ACAD_REACTORS
330
C
102
}
330
C
100
AcDbDictionary
281
     1
  3
CANNOSCALE
350
209
  3
CMLEADERSTYLE
350
20E
  3
CTABLESTYLE
350
20D
  0
LAYOUT
  5
1E
102
{ACAD_REACTORS
330
1A
102
}
330
1A
100
AcDbPlotSettings
  1

  2
none_device
  4

  6

 40
0.0
 41
0.0
 42
0.0
 43
0.0
 44
0.0
 45
0.0
 46
0.0
 47
0.0
 48
0.0
 49
0.0
140
0.0
141
0.0
142
1.0
143
1.0
 70
   688
 72
     0
 73
     0
 74
     5
  7

 75
    16
 76
     0
 77
     2
 78
   300
147
1.0
148
0.0
149
0.0
100
AcDbLayout
  1
Layout1
 70
     1
 71
     1
 10
0.0
 20
0.0
 11
12.0
 21
9.0
 12
0.0
 22
0.0
 32
0.0
 14
1.000000000000000E+20
 24
1.000000000000000E+20
 34
1.000000000000000E+20
 15
-1.000000000000000E+20
 25
-1.000000000000000E+20
 35
-1.000000000000000E+20
146
0.0
 13
0.0
 23
0.0
 33
0.0
 16
1.0
 26
0.0
 36
0.0
 17
0.0
 27
1.0
 37
0.0
 76
     0
330
1B
  0
LAYOUT
  5
26
102
{ACAD_REACTORS
330
1A
102
}
330
1A
100
AcDbPlotSettings
  1

  2
none_device
  4

  6

 40
0.0
 41
0.0
 42
0.0
 43
0.0
 44
0.0
 45
0.0
 46
0.0
 47
0.0
 48
0.0
 49
0.0
140
0.0
141
0.0
142
1.0
143
1.0
 70
   688
 72
     0
 73
     0
 74
     5
  7

 75
    16
 76
     0
 77
     2
 78
   300
147
1.0
148
0.0
149
0.0
100
AcDbLayout
  1
Layout2
 70
     1
 71
     2
 10
0.0
 20
0.0
 11
0.0
 21
0.0
 12
0.0
 22
0.0
 32
0.0
 14
0.0
 24
0.0
 34
0.0
 15
0.0
 25
0.0
 35
0.0
146
0.0
 13
0.0
 23
0.0
 33
0.0
 16
1.0
 26
0.0
 36
0.0
 17
0.0
 27
1.0
 37
0.0
 76
     0
330
23
  0
LAYOUT
  5
22
102
{ACAD_REACTORS
330
1A
102
}
330
1A
100
AcDbPlotSettings
  1

  2
none_device
  4
Letter_(8.50_x_11.00_Inches)
  6

 40
6.35
 41
6.35
 42
6.35000508
 43
6.35000508
 44
215.9
 45
279.4
 46
0.0
 47
0.0
 48
0.0
 49
0.0
140
0.0
141
0.0
142
1.0
143
1.0
 70
  1712
 72
     0
 73
     0
 74
     0
  7

 75
     0
 76
     0
 77
     2
 78
   300
147
1.0
148
0.0
149
0.0
100
AcDbLayout
  1
Model
 70
     1
 71
     0
 10
0.0
 20
0.0
 11
12.0
 21
9.0
 12
0.0
 22
0.0
 32
0.0
 14
1.000000000000000E+20
 24
1.000000000000000E+20
 34
1.000000000000000E+20
 15
-1.000000000000000E+20
 25
-1.000000000000000E+20
 35
-1.000000000000000E+20
146
0.0
 13
0.0
 23
0.0
 33
0.0
 16
1.0
 26
0.0
 36
0.0
 17
0.0
 27
1.0
 37
0.0
 76
     0
330
1F
331
29
  0
MATERIAL
  5
45
102
{ACAD_REACTORS
330
43
102
}
330
43
100
AcDbMaterial
  1
ByBlock
 72
     1
 94
      127
  0
MATERIAL
  5
44
102
{ACAD_REACTORS
330
43
102
}
330
43
100
AcDbMaterial
  1
ByLayer
 72
     1
 94
      127
  0
MATERIAL
  5
46
102
{ACAD_REACTORS
330
43
102
}
330
43
100
AcDbMaterial
  1
Global
 72
     1
 94
      127
  0
MLEADERSTYLE
  5
6C
102
{ACAD_REACTORS
330
6B
102
}
330
6B
100
AcDbMLeaderStyle
179
     2
170
     2
171
     1
172
     0
 90
        2
 40
0.0
 41
0.0
173
     1
 91
-1056964608
340
14
 92
       -2
290
     1
 42
0.09
291
     1
 43
0.36
  3
Standard
341
0
 44
0.18
300

342
11
174
     1
178
     6
175
     1
176
     0
 93
-1056964608
 45
0.18
292
     0
297
     0
 46
0.18
343
0
 94
-1056964608
 47
1.0
 49
1.0
140
1.0
293
     1
141
0.0
294
     1
177
     0
142
1.0
295
     0
296
     0
143
0.125
271
     0
272
     9
273
     9
298
     0
  0
MLINESTYLE
  5
18
102
{ACAD_REACTORS
330
17
102
}
330
17
100
AcDbMlineStyle
  2
Standard
 70
     0
  3

 62
   256
 51
90.0
 52
90.0
 71
     2
 49
0.5
 62
   256
  6
BYLAYER
 49
-0.5
 62
   256
  6
BYLAYER
  0
ACDBPLACEHOLDER
  5
F
102
{ACAD_REACTORS
330
E
102
}
330
E
  0
SCALE
  5
48
102
{ACAD_REACTORS
330
47
102
}
330
47
100
AcDbScale
 70
     0
300
1:1
140
1.0
141
1.0
290
     1
  0
SCALE
  5
49
102
{ACAD_REACTORS
330
47
102
}
330
47
100
AcDbScale
 70
     0
300
1:2
140
1.0
141
2.0
290
     0
  0
SCALE
  5
4A
102
{ACAD_REACTORS
330
47
102
}
330
47
100
AcDbScale
 70
     0
300
1:4
140
1.0
141
4.0
290
     0
  0
SCALE
  5
4B
102
{ACAD_REACTORS
330
47
102
}
330
47
100
AcDbScale
 70
     0
300
1:5
140
1.0
141
5.0
290
     0
  0
SCALE
  5
4C
102
{ACAD_REACTORS
330
47
102
}
330
47
100
AcDbScale
 70
     0
300
1:8
140
1.0
141
8.0
290
     0
  0
SCALE
  5
4D
102
{ACAD_REACTORS
330
47
102
}
330
47
100
AcDbScale
 70
     0
300
1:10
140
1.0
141
10.0
290
     0
  0
SCALE
  5
4E
102
{ACAD_REACTORS
330
47
102
}
330
47
100
AcDbScale
 70
     0
300
1:16
140
1.0
141
16.0
290
     0
  0
SCALE
  5
4F
102
{ACAD_REACTORS
330
47
102
}
330
47
100
AcDbScale
 70
     0
300
1:20
140
1.0
141
20.0
290
     0
  0
SCALE
  5
50
102
{ACAD_REACTORS
330
47
102
}
330
47
100
AcDbScale
 70
     0
300
1:30
140
1.0
141
30.0
290
     0
  0
SCALE
  5
51
102
{ACAD_REACTORS
330
47
102
}
330
47
100
AcDbScale
 70
     0
300
1:40
140
1.0
141
40.0
290
     0
  0
SCALE
  5
52
102
{ACAD_REACTORS
330
47
102
}
330
47
100
AcDbScale
 70
     0
300
1:50
140
1.0
141
50.0
290
     0
  0
SCALE
  5
53
102
{ACAD_REACTORS
330
47
102
}
330
47
100
AcDbScale
 70
     0
300
1:100
140
1.0
141
100.0
290
     0
  0
SCALE
  5
54
102
{ACAD_REACTORS
330
47
102
}
330
47
100
AcDbScale
 70
     0
300
2:1
140
2.0
141
1.0
290
     0
  0
SCALE
  5
55
102
{ACAD_REACTORS
330
47
102
}
330
47
100
AcDbScale
 70
     0
300
4:1
140
4.0
141
1.0
290
     0
  0
SCALE
  5
56
102
{ACAD_REACTORS
330
47
102
}
330
47
100
AcDbScale
 70
     0
300
8:1
140
8.0
141
1.0
290
     0
  0
SCALE
  5
57
102
{ACAD_REACTORS
330
47
102
}
330
47
100
AcDbScale
 70
     0
300
10:1
140
10.0
141
1.0
290
     0
  0
SCALE
  5
58
102
{ACAD_REACTORS
330
47
102
}
330
47
100
AcDbScale
 70
     0
300
100:1
140
100.0
141
1.0
290
     0
  0
SCALE
  5
59
102
{ACAD_REACTORS
330
47
102
}
330
47
100
AcDbScale
 70
     0
300
1/128" = 1'-0"
140
0.0078125
141
12.0
290
     0
  0
SCALE
  5
5A
102
{ACAD_REACTORS
330
47
102
}
330
47
100
AcDbScale
 70
     0
300
1/64" = 1'-0"
140
0.015625
141
12.0
290
     0
  0
SCALE
  5
5B
102
{ACAD_REACTORS
330
47
102
}
330
47
100
AcDbScale
 70
     0
300
1/32" = 1'-0"
140
0.03125
141
12.0
290
     0
  0
SCALE
  5
5C
102
{ACAD_REACTORS
330
47
102
}
330
47
100
AcDbScale
 70
     0
300
1/16" = 1'-0"
140
0.0625
141
12.0
290
     0
  0
SCALE
  5
5D
102
{ACAD_REACTORS
330
47
102
}
330
47
100
AcDbScale
 70
     0
300
3/32" = 1'-0"
140
0.09375
141
12.0
290
     0
  0
SCALE
  5
5E
102
{ACAD_REACTORS
330
47
102
}
330
47
100
AcDbScale
 70
     0
300
1/8" = 1'-0"
140
0.125
141
12.0
290
     0
  0
SCALE
  5
5F
102
{ACAD_REACTORS
330
47
102
}
330
47
100
AcDbScale
 70
     0
300
3/16" = 1'-0"
140
0.1875
141
12.0
290
     0
  0
SCALE
  5
60
102
{ACAD_REACTORS
330
47
102
}
330
47
100
AcDbScale
 70
     0
300
1/4" = 1'-0"
140
0.25
141
12.0
290
     0
  0
SCALE
  5
61
102
{ACAD_REACTORS
330
47
102
}
330
47
100
AcDbScale
 70
     0
300
3/8" = 1'-0"
140
0.375
141
12.0
290
     0
  0
SCALE
  5
62
102
{ACAD_REACTORS
330
47
102
}
330
47
100
AcDbScale
 70
     0
300
1/2" = 1'-0"
140
0.5
141
12.0
290
     0
  0
SCALE
  5
63
102
{ACAD_REACTORS
330
47
102
}
330
47
100
AcDbScale
 70
     0
300
3/4" = 1'-0"
140
0.75
141
12.0
290
     0
  0
SCALE
  5
64
102
{ACAD_REACTORS
330
47
102
}
330
47
100
AcDbScale
 70
     0
300
1" = 1'-0"
140
1.0
141
12.0
290
     0
  0
SCALE
  5
65
102
{ACAD_REACTORS
330
47
102
}
330
47
100
AcDbScale
 70
     0
300
1-1/2" = 1'-0"
140
1.5
141
12.0
290
     0
  0
SCALE
  5
66
102
{ACAD_REACTORS
330
47
102
}
330
47
100
AcDbScale
 70
     0
300
3" = 1'-0"
140
3.0
141
12.0
290
     0
  0
SCALE
  5
67
102
{ACAD_REACTORS
330
47
102
}
330
47
100
AcDbScale
 70
     0
300
6" = 1'-0"
140
6.0
141
12.0
290
     0
  0
SCALE
  5
68
102
{ACAD_REACTORS
330
47
102
}
330
47
100
AcDbScale
 70
     0
300
1'-0" = 1'-0"
140
12.0
141
12.0
290
     0
  0
TABLESTYLE
  5
6A
102
{ACAD_REACTORS
330
69
102
}
102
{ACAD_XDICTIONARY
360
20A
102
}
330
69
100
AcDbTableStyle
  3
Standard
 70
     0
 71
     0
 40
0.06
 41
0.06
280
     0
281
     0
  7
Standard
140
0.18
170
     2
 62
     0
 63
   257
283
     0
 90
        4
 91
        0
  1

274
    -2
284
     1
 64
     0
275
    -2
285
     1
 65
     0
276
    -2
286
     1
 66
     0
277
    -2
287
     1
 67
     0
278
    -2
288
     1
 68
     0
279
    -2
289
     1
 69
     0
  7
Standard
140
0.25
170
     5
 62
     0
 63
   257
283
     0
 90
        4
 91
        0
  1

274
    -2
284
     1
 64
     0
275
    -2
285
     1
 65
     0
276
    -2
286
     1
 66
     0
277
    -2
287
     1
 67
     0
278
    -2
288
     1
 68
     0
279
    -2
289
     1
 69
     0
  7
Standard
140
0.18
170
     5
 62
     0
 63
   257
283
     0
 90
        4
 91
        0
  1

274
    -2
284
     1
 64
     0
275
    -2
285
     1
 65
     0
276
    -2
286
     1
 66
     0
277
    -2
287
     1
 67
     0
278
    -2
288
     1
 68
     0
279
    -2
289
     1
 69
     0
  0
VISUALSTYLE
  5
2F
102
{ACAD_REACTORS
330
2A
102
}
330
2A
100
AcDbVisualStyle
  2
2dWireframe
 70
     4
177
     3
291
     0
 70
    58
 90
        0
176
     1
 90
        2
176
     1
 90
        0
176
     1
 90
        0
176
     1
 40
0.6
176
     1
 40
30.0
176
     1
 62
     7
420
 16777215
176
     1
 90
        1
176
     1
 90
        4
176
     1
 62
     7
176
     1
 62
   257
176
     1
 90
        1
176
     1
 90
        1
176
     1
 40
1.0
176
     1
 90
        0
176
     1
 62
   257
176
     1
 40
1.0
176
     1
 90
        1
176
     1
 90
        6
176
     1
 90
        2
176
     1
 62
     7
176
     1
 90
        5
176
     1
 90
        0
176
     1
 90
        0
176
     1
290
     0
176
     1
 90
        1
176
     1
 40
0.0
176
     1
 90
        0
176
     1
290
     1
176
     1
290
     1
176
     1
290
     0
176
     1
290
     0
176
     1
290
     0
176
     1
290
     0
176
     1
290
     0
176
     1
290
     0
176
     1
290
     0
176
     1
 90
       50
176
     1
 40
0.0
176
     1
 40
1.0
176
     1
 90
        0
176
     1
 62
    18
420
        0
176
     1
 90
       50
176
     1
 90
        3
176
     1
 62
     5
420
      255
176
     1
290
     0
176
     1
 90
       50
176
     1
 90
       50
176
     1
 90
       50
176
     1
290
     0
176
     1
 90
       50
176
     1
 62
   256
176
     0
 40
1.0
176
     0
 90
        2
176
     1
  1
strokes_ogs.tif
176
     1
290
     0
176
     1
 40
1.0
176
     1
 40
1.0
176
     1
  0
VISUALSTYLE
  5
32
102
{ACAD_REACTORS
330
2A
102
}
330
2A
100
AcDbVisualStyle
  2
Basic
 70
     7
177
     3
291
     1
 70
    58
 90
        1
176
     1
 90
        0
176
     1
 90
        1
176
     1
 90
        0
176
     1
 40
0.6
176
     1
 40
30.0
176
     1
 62
     7
420
 16777215
176
     1
 90
        0
176
     1
 90
        4
176
     1
 62
     7
176
     1
 62
   257
176
     1
 90
        1
176
     1
 90
        1
176
     1
 40
1.0
176
     1
 90
        8
176
     1
 62
     7
176
     1
 40
1.0
176
     1
 90
        1
176
     1
 90
        6
176
     1
 90
        2
176
     1
 62
     7
176
     1
 90
        5
176
     1
 90
        0
176
     1
 90
        0
176
     1
290
     0
176
     1
 90
        1
176
     1
 40
0.0
176
     1
 90
        0
176
     1
290
     0
176
     1
290
     1
176
     1
290
     1
176
     1
290
     0
176
     1
290
     0
176
     1
290
     0
176
     1
290
     0
176
     1
290
     0
176
     1
290
     0
176
     1
 90
       50
176
     1
 40
0.0
176
     1
 40
1.0
176
     1
 90
        0
176
     1
 62
    18
420
        0
176
     1
 90
       50
176
     1
 90
        3
176
     1
 62
     5
420
      255
176
     1
290
     0
176
     1
 90
       50
176
     1
 90
       50
176
     1
 90
       50
176
     1
290
     0
176
     1
 90
       50
176
     1
 62
   256
176
     0
 40
1.0
176
     0
 90
        2
176
     1
  1
strokes_ogs.tif
176
     1
290
     0
176
     1
 40
1.0
176
     1
 40
1.0
176
     1
  0
VISUALSTYLE
  5
36
102
{ACAD_REACTORS
330
2A
102
}
330
2A
100
AcDbVisualStyle
  2
Brighten
 70
    12
177
     3
291
     1
 70
    58
 90
        2
176
     1
 90
        2
176
     1
 90
        0
176
     1
 90
        0
176
     1
 40
0.6
176
     1
 40
30.0
176
     1
 62
     7
420
 16777215
176
     1
 90
        1
176
     1
 90
        4
176
     1
 62
     7
176
     1
 62
   257
176
     1
 90
        1
176
     1
 90
        1
176
     1
 40
1.0
176
     1
 90
        8
176
     1
 62
     7
176
     1
 40
1.0
176
     1
 90
        1
176
     1
 90
        6
176
     1
 90
        2
176
     1
 62
     7
176
     1
 90
        5
176
     1
 90
        0
176
     1
 90
        0
176
     1
290
     0
176
     1
 90
        1
176
     1
 40
50.0
176
     1
 90
        0
176
     1
290
     0
176
     1
290
     1
176
     1
290
     1
176
     1
290
     0
176
     1
290
     0
176
     1
290
     0
176
     1
290
     0
176
     1
290
     0
176
     1
290
     0
176
     1
 90
       50
176
     1
 40
0.0
176
     1
 40
1.0
176
     1
 90
        0
176
     1
 62
    18
420
        0
176
     1
 90
       50
176
     1
 90
        3
176
     1
 62
     5
420
      255
176
     1
290
     0
176
     1
 90
       50
176
     1
 90
       50
176
     1
 90
       50
176
     1
290
     0
176
     1
 90
       50
176
     1
 62
   256
176
     0
 40
1.0
176
     0
 90
        2
176
     1
  1
strokes_ogs.tif
176
     1
290
     0
176
     1
 40
1.0
176
     1
 40
1.0
176
     1
  0
VISUALSTYLE
  5
3A
102
{ACAD_REACTORS
330
2A
102
}
330
2A
100
AcDbVisualStyle
  2
ColorChange
 70
    16
177
     3
291
     1
 70
    58
 90
        2
176
     1
 90
        2
176
     1
 90
        3
176
     1
 90
        0
176
     1
 40
0.6
176
     1
 40
30.0
176
     1
 62
     8
420
  8421504
176
     1
 90
        1
176
     1
 90
        4
176
     1
 62
     7
176
     1
 62
   257
176
     1
 90
        1
176
     1
 90
        1
176
     1
 40
1.0
176
     1
 90
        8
176
     1
 62
     8
420
  8421504
176
     1
 40
1.0
176
     1
 90
        1
176
     1
 90
        6
176
     1
 90
        2
176
     1
 62
     7
176
     1
 90
        5
176
     1
 90
        0
176
     1
 90
        0
176
     1
290
     0
176
     1
 90
        1
176
     1
 40
0.0
176
     1
 90
        0
176
     1
290
     0
176
     1
290
     1
176
     1
290
     1
176
     1
290
     0
176
     1
290
     0
176
     1
290
     0
176
     1
290
     0
176
     1
290
     0
176
     1
290
     0
176
     1
 90
       50
176
     1
 40
0.0
176
     1
 40
1.0
176
     1
 90
        0
176
     1
 62
    18
420
        0
176
     1
 90
       50
176
     1
 90
        3
176
     1
 62
     5
420
      255
176
     1
290
     0
176
     1
 90
       50
176
     1
 90
       50
176
     1
 90
       50
176
     1
290
     0
176
     1
 90
       50
176
     1
 62
   256
176
     0
 40
1.0
176
     0
 90
        2
176
     1
  1
strokes_ogs.tif
176
     1
290
     0
176
     1
 40
1.0
176
     1
 40
1.0
176
     1
  0
VISUALSTYLE
  5
34
102
{ACAD_REACTORS
330
2A
102
}
330
2A
100
AcDbVisualStyle
  2
Conceptual
 70
     9
177
     3
291
     0
 70
    58
 90
        3
176
     1
 90
        2
176
     1
 90
        0
176
     1
 90
        0
176
     1
 40
0.6
176
     1
 40
30.0
176
     1
 62
     7
420
 16777215
176
     1
 90
        2
176
     1
 90
        2
176
     1
 62
     7
176
     1
 62
   257
176
     1
 90
        1
176
     1
 90
        1
176
     1
 40
179.0
176
     1
 90
        8
176
     1
 62
     7
176
     1
 40
1.0
176
     1
 90
        1
176
     1
 90
        6
176
     1
 90
        2
176
     1
 62
     7
176
     1
 90
        3
176
     1
 90
        0
176
     1
 90
        0
176
     1
290
     0
176
     1
 90
        1
176
     1
 40
0.0
176
     1
 90
        0
176
     1
290
     0
176
     1
290
     1
176
     1
290
     1
176
     1
290
     0
176
     1
290
     0
176
     1
290
     0
176
     1
290
     0
176
     1
290
     0
176
     1
290
     0
176
     1
 90
       50
176
     1
 40
0.0
176
     1
 40
1.0
176
     1
 90
        0
176
     1
 62
    18
420
        0
176
     1
 90
       50
176
     1
 90
        3
176
     1
 62
     5
420
      255
176
     1
290
     0
176
     1
 90
       50
176
     1
 90
       50
176
     1
 90
       50
176
     1
290
     0
176
     1
 90
       50
176
     1
 62
   256
176
     0
 40
1.0
176
     0
 90
        2
176
     1
  1
strokes_ogs.tif
176
     1
290
     0
176
     1
 40
1.0
176
     1
 40
1.0
176
     1
  0
VISUALSTYLE
  5
35
102
{ACAD_REACTORS
330
2A
102
}
330
2A
100
AcDbVisualStyle
  2
Dim
 70
    11
177
     3
291
     1
 70
    58
 90
        2
176
     1
 90
        2
176
     1
 90
        0
176
     1
 90
        0
176
     1
 40
0.6
176
     1
 40
30.0
176
     1
 62
     7
420
 16777215
176
     1
 90
        1
176
     1
 90
        4
176
     1
 62
     7
176
     1
 62
   257
176
     1
 90
        1
176
     1
 90
        1
176
     1
 40
1.0
176
     1
 90
        8
176
     1
 62
     7
176
     1
 40
1.0
176
     1
 90
        1
176
     1
 90
        6
176
     1
 90
        2
176
     1
 62
     7
176
     1
 90
        5
176
     1
 90
        0
176
     1
 90
        0
176
     1
290
     0
176
     1
 90
        1
176
     1
 40
-50.0
176
     1
 90
        0
176
     1
290
     0
176
     1
290
     1
176
     1
290
     1
176
     1
290
     0
176
     1
290
     0
176
     1
290
     0
176
     1
290
     0
176
     1
290
     0
176
     1
290
     0
176
     1
 90
       50
176
     1
 40
0.0
176
     1
 40
1.0
176
     1
 90
        0
176
     1
 62
    18
420
        0
176
     1
 90
       50
176
     1
 90
        3
176
     1
 62
     5
420
      255
176
     1
290
     0
176
     1
 90
       50
176
     1
 90
       50
176
     1
 90
       50
176
     1
290
     0
176
     1
 90
       50
176
     1
 62
   256
176
     0
 40
1.0
176
     0
 90
        2
176
     1
  1
strokes_ogs.tif
176
     1
290
     0
176
     1
 40
1.0
176
     1
 40
1.0
176
     1
  0
VISUALSTYLE
  5
3D
102
{ACAD_REACTORS
330
2A
102
}
330
2A
100
AcDbVisualStyle
  2
EdgeColorOff
 70
    22
177
     3
291
     1
 70
    58
 90
        2
176
     0
 90
        2
176
     0
 90
        0
176
     0
 90
        0
176
     0
 40
0.6
176
     0
 40
30.0
176
     0
 62
     7
420
 16777215
176
     0
 90
        1
176
     0
 90
        4
176
     0
 62
     7
176
     0
 62
   257
176
     0
 90
        1
176
     0
 90
        1
176
     0
 40
1.0
176
     0
 90
        8
176
     2
 62
     7
176
     0
 40
1.0
176
     0
 90
        1
176
     0
 90
        6
176
     0
 90
        2
176
     0
 62
     7
176
     0
 90
        5
176
     0
 90
        0
176
     0
 90
        0
176
     0
290
     0
176
     0
 90
        1
176
     0
 40
0.0
176
     0
 90
        0
176
     0
290
     0
176
     0
290
     1
176
     0
290
     1
176
     0
290
     0
176
     0
290
     0
176
     0
290
     0
176
     0
290
     0
176
     0
290
     0
176
     0
290
     0
176
     0
 90
       50
176
     0
 40
0.0
176
     0
 40
1.0
176
     0
 90
        0
176
     0
 62
    18
420
        0
176
     0
 90
       50
176
     0
 90
        3
176
     0
 62
     5
420
      255
176
     0
290
     0
176
     0
 90
       50
176
     0
 90
       50
176
     0
 90
       50
176
     0
290
     0
176
     0
 90
       50
176
     0
 62
   256
176
     0
 40
1.0
176
     0
 90
        2
176
     0
  1
strokes_ogs.tif
176
     0
290
     0
176
     0
 40
1.0
176
     0
 40
1.0
176
     0
  0
VISUALSTYLE
  5
39
102
{ACAD_REACTORS
330
2A
102
}
330
2A
100
AcDbVisualStyle
  2
Facepattern
 70
    15
177
     3
291
     1
 70
    58
 90
        2
176
     1
 90
        2
176
     1
 90
        0
176
     1
 90
        0
176
     1
 40
0.6
176
     1
 40
30.0
176
     1
 62
     7
420
 16777215
176
     1
 90
        1
176
     1
 90
        4
176
     1
 62
     7
176
     1
 62
   257
176
     1
 90
        1
176
     1
 90
        1
176
     1
 40
1.0
176
     1
 90
        8
176
     1
 62
     7
176
     1
 40
1.0
176
     1
 90
        1
176
     1
 90
        6
176
     1
 90
        2
176
     1
 62
     7
176
     1
 90
        5
176
     1
 90
        0
176
     1
 90
        0
176
     1
290
     0
176
     1
 90
        1
176
     1
 40
0.0
176
     1
 90
        0
176
     1
290
     0
176
     1
290
     1
176
     1
290
     1
176
     1
290
     0
176
     1
290
     0
176
     1
290
     0
176
     1
290
     0
176
     1
290
     0
176
     1
290
     0
176
     1
 90
       50
176
     1
 40
0.0
176
     1
 40
1.0
176
     1
 90
        0
176
     1
 62
    18
420
        0
176
     1
 90
       50
176
     1
 90
        3
176
     1
 62
     5
420
      255
176
     1
290
     0
176
     1
 90
       50
176
     1
 90
       50
176
     1
 90
       50
176
     1
290
     0
176
     1
 90
       50
176
     1
 62
   256
176
     0
 40
1.0
176
     0
 90
        2
176
     1
  1
strokes_ogs.tif
176
     1
290
     0
176
     1
 40
1.0
176
     1
 40
1.0
176
     1
  0
VISUALSTYLE
  5
2B
102
{ACAD_REACTORS
330
2A
102
}
330
2A
100
AcDbVisualStyle
  2
Flat
 70
     0
177
     3
291
     1
 70
    58
 90
        2
176
     1
 90
        1
176
     1
 90
        1
176
     1
 90
        2
176
     1
 40
0.6
176
     1
 40
30.0
176
     1
 62
     7
420
 16777215
176
     1
 90
        0
176
     1
 90
        0
176
     1
 62
     7
176
     1
 62
   257
176
     1
 90
        1
176
     1
 90
        1
176
     1
 40
1.0
176
     1
 90
        8
176
     1
 62
     7
176
     1
 40
1.0
176
     1
 90
        1
176
     1
 90
        6
176
     1
 90
        2
176
     1
 62
     7
176
     1
 90
        5
176
     1
 90
        0
176
     1
 90
        0
176
     1
290
     0
176
     1
 90
       13
176
     1
 40
0.0
176
     1
 90
        0
176
     1
290
     0
176
     1
290
     1
176
     1
290
     1
176
     1
290
     0
176
     1
290
     0
176
     1
290
     0
176
     1
290
     0
176
     1
290
     0
176
     1
290
     0
176
     1
 90
       50
176
     1
 40
0.0
176
     1
 40
1.0
176
     1
 90
        0
176
     1
 62
    18
420
        0
176
     1
 90
       50
176
     1
 90
        3
176
     1
 62
     5
420
      255
176
     1
290
     0
176
     1
 90
       50
176
     1
 90
       50
176
     1
 90
       50
176
     1
290
     0
176
     1
 90
       50
176
     1
 62
   256
176
     0
 40
1.0
176
     0
 90
        2
176
     1
  1
strokes_ogs.tif
176
     1
290
     0
176
     1
 40
1.0
176
     1
 40
1.0
176
     1
  0
VISUALSTYLE
  5
2C
102
{ACAD_REACTORS
330
2A
102
}
330
2A
100
AcDbVisualStyle
  2
FlatWithEdges
 70
     1
177
     3
291
     1
 70
    58
 90
        2
176
     1
 90
        1
176
     1
 90
        1
176
     1
 90
        2
176
     1
 40
0.6
176
     1
 40
30.0
176
     1
 62
     7
420
 16777215
176
     1
 90
        1
176
     1
 90
        0
176
     1
 62
     7
176
     1
 62
   257
176
     1
 90
        1
176
     1
 90
        1
176
     1
 40
1.0
176
     1
 90
        0
176
     1
 62
   257
176
     1
 40
1.0
176
     1
 90
        1
176
     1
 90
        6
176
     1
 90
        2
176
     1
 62
     7
176
     1
 90
        5
176
     1
 90
        0
176
     1
 90
        0
176
     1
290
     0
176
     1
 90
       13
176
     1
 40
0.0
176
     1
 90
        0
176
     1
290
     0
176
     1
290
     1
176
     1
290
     1
176
     1
290
     0
176
     1
290
     0
176
     1
290
     0
176
     1
290
     0
176
     1
290
     0
176
     1
290
     0
176
     1
 90
       50
176
     1
 40
0.0
176
     1
 40
1.0
176
     1
 90
        0
176
     1
 62
    18
420
        0
176
     1
 90
       50
176
     1
 90
        3
176
     1
 62
     5
420
      255
176
     1
290
     0
176
     1
 90
       50
176
     1
 90
       50
176
     1
 90
       50
176
     1
290
     0
176
     1
 90
       50
176
     1
 62
   256
176
     0
 40
1.0
176
     0
 90
        2
176
     1
  1
strokes_ogs.tif
176
     1
290
     0
176
     1
 40
1.0
176
     1
 40
1.0
176
     1
  0
VISUALSTYLE
  5
2D
102
{ACAD_REACTORS
330
2A
102
}
330
2A
100
AcDbVisualStyle
  2
Gouraud
 70
     2
177
     3
291
     1
 70
    58
 90
        2
176
     1
 90
        2
176
     1
 90
        1
176
     1
 90
        2
176
     1
 40
0.6
176
     1
 40
30.0
176
     1
 62
     7
420
 16777215
176
     1
 90
        0
176
     1
 90
        0
176
     1
 62
     7
176
     1
 62
   257
176
     1
 90
        1
176
     1
 90
        1
176
     1
 40
1.0
176
     1
 90
        0
176
     1
 62
     7
176
     1
 40
1.0
176
     1
 90
        1
176
     1
 90
        6
176
     1
 90
        2
176
     1
 62
     7
176
     1
 90
        5
176
     1
 90
        0
176
     1
 90
        0
176
     1
290
     0
176
     1
 90
       13
176
     1
 40
0.0
176
     1
 90
        0
176
     1
290
     0
176
     1
290
     1
176
     1
290
     1
176
     1
290
     0
176
     1
290
     0
176
     1
290
     0
176
     1
290
     0
176
     1
290
     0
176
     1
290
     0
176
     1
 90
       50
176
     1
 40
0.0
176
     1
 40
1.0
176
     1
 90
        0
176
     1
 62
    18
420
        0
176
     1
 90
       50
176
     1
 90
        3
176
     1
 62
     5
420
      255
176
     1
290
     0
176
     1
 90
       50
176
     1
 90
       50
176
     1
 90
       50
176
     1
290
     0
176
     1
 90
       50
176
     1
 62
   256
176
     0
 40
1.0
176
     0
 90
        2
176
     1
  1
strokes_ogs.tif
176
     1
290
     0
176
     1
 40
1.0
176
     1
 40
1.0
176
     1
  0
VISUALSTYLE
  5
2E
102
{ACAD_REACTORS
330
2A
102
}
330
2A
100
AcDbVisualStyle
  2
GouraudWithEdges
 70
     3
177
     3
291
     1
 70
    58
 90
        2
176
     1
 90
        2
176
     1
 90
        1
176
     1
 90
        2
176
     1
 40
0.6
176
     1
 40
30.0
176
     1
 62
     7
420
 16777215
176
     1
 90
        1
176
     1
 90
        0
176
     1
 62
     7
176
     1
 62
   257
176
     1
 90
        1
176
     1
 90
        1
176
     1
 40
1.0
176
     1
 90
        0
176
     1
 62
   257
176
     1
 40
1.0
176
     1
 90
        1
176
     1
 90
        6
176
     1
 90
        2
176
     1
 62
     7
176
     1
 90
        5
176
     1
 90
        0
176
     1
 90
        0
176
     1
290
     0
176
     1
 90
       13
176
     1
 40
0.0
176
     1
 90
        0
176
     1
290
     0
176
     1
290
     1
176
     1
290
     1
176
     1
290
     0
176
     1
290
     0
176
     1
290
     0
176
     1
290
     0
176
     1
290
     0
176
     1
290
     0
176
     1
 90
       50
176
     1
 40
0.0
176
     1
 40
1.0
176
     1
 90
        0
176
     1
 62
    18
420
        0
176
     1
 90
       50
176
     1
 90
        3
176
     1
 62
     5
420
      255
176
     1
290
     0
176
     1
 90
       50
176
     1
 90
       50
176
     1
 90
       50
176
     1
290
     0
176
     1
 90
       50
176
     1
 62
   256
176
     0
 40
1.0
176
     0
 90
        2
176
     1
  1
strokes_ogs.tif
176
     1
290
     0
176
     1
 40
1.0
176
     1
 40
1.0
176
     1
  0
VISUALSTYLE
  5
31
102
{ACAD_REACTORS
330
2A
102
}
330
2A
100
AcDbVisualStyle
  2
Hidden
 70
     6
177
     3
291
     0
 70
    58
 90
        1
176
     1
 90
        2
176
     1
 90
        2
176
     1
 90
        0
176
     1
 40
0.6
176
     1
 40
30.0
176
     1
 62
     7
420
 16777215
176
     1
 90
        2
176
     1
 90
        2
176
     1
 62
     7
176
     1
 62
   257
176
     1
 90
        2
176
     1
 90
        1
176
     1
 40
40.0
176
     1
 90
        0
176
     1
 62
   257
176
     1
 40
1.0
176
     1
 90
        1
176
     1
 90
        6
176
     1
 90
        2
176
     1
 62
     7
176
     1
 90
        3
176
     1
 90
        0
176
     1
 90
        0
176
     1
290
     0
176
     1
 90
        1
176
     1
 40
0.0
176
     1
 90
        0
176
     1
290
     0
176
     1
290
     1
176
     1
290
     1
176
     1
290
     0
176
     1
290
     0
176
     1
290
     0
176
     1
290
     0
176
     1
290
     0
176
     1
290
     0
176
     1
 90
       50
176
     1
 40
0.0
176
     1
 40
1.0
176
     1
 90
        0
176
     1
 62
    18
420
        0
176
     1
 90
       50
176
     1
 90
        3
176
     1
 62
     5
420
      255
176
     1
290
     0
176
     1
 90
       50
176
     1
 90
       50
176
     1
 90
       50
176
     1
290
     0
176
     1
 90
       50
176
     1
 62
   256
176
     0
 40
1.0
176
     0
 90
        2
176
     1
  1
strokes_ogs.tif
176
     1
290
     0
176
     1
 40
1.0
176
     1
 40
1.0
176
     1
  0
VISUALSTYLE
  5
3B
102
{ACAD_REACTORS
330
2A
102
}
330
2A
100
AcDbVisualStyle
  2
JitterOff
 70
    20
177
     3
291
     1
 70
    58
 90
        2
176
     0
 90
        2
176
     0
 90
        0
176
     0
 90
        0
176
     0
 40
0.6
176
     0
 40
30.0
176
     0
 62
     7
420
 16777215
176
     0
 90
        1
176
     0
 90
        4
176
     0
 62
     7
176
     0
 62
   257
176
     0
 90
        1
176
     0
 90
        1
176
     0
 40
1.0
176
     0
 90
       10
176
     2
 62
     7
176
     0
 40
1.0
176
     0
 90
        1
176
     0
 90
        6
176
     0
 90
        2
176
     0
 62
     7
176
     0
 90
        5
176
     0
 90
        0
176
     0
 90
        0
176
     0
290
     0
176
     0
 90
        1
176
     0
 40
0.0
176
     0
 90
        0
176
     0
290
     0
176
     0
290
     1
176
     0
290
     1
176
     0
290
     0
176
     0
290
     0
176
     0
290
     0
176
     0
290
     0
176
     0
290
     0
176
     0
290
     0
176
     0
 90
       50
176
     0
 40
0.0
176
     0
 40
1.0
176
     0
 90
        0
176
     0
 62
    18
420
        0
176
     0
 90
       50
176
     0
 90
        3
176
     0
 62
     5
420
      255
176
     0
290
     0
176
     0
 90
       50
176
     0
 90
       50
176
     0
 90
       50
176
     0
290
     0
176
     0
 90
       50
176
     0
 62
   256
176
     0
 40
1.0
176
     0
 90
        2
176
     0
  1
strokes_ogs.tif
176
     0
290
     0
176
     0
 40
1.0
176
     0
 40
1.0
176
     0
  0
VISUALSTYLE
  5
38
102
{ACAD_REACTORS
330
2A
102
}
330
2A
100
AcDbVisualStyle
  2
Linepattern
 70
    14
177
     3
291
     1
 70
    58
 90
        2
176
     1
 90
        2
176
     1
 90
        0
176
     1
 90
        0
176
     1
 40
0.6
176
     1
 40
30.0
176
     1
 62
     7
420
 16777215
176
     1
 90
        1
176
     1
 90
        4
176
     1
 62
     7
176
     1
 62
   257
176
     1
 90
        7
176
     1
 90
        7
176
     1
 40
1.0
176
     1
 90
        8
176
     1
 62
     7
176
     1
 40
1.0
176
     1
 90
        1
176
     1
 90
        6
176
     1
 90
        2
176
     1
 62
     7
176
     1
 90
        5
176
     1
 90
        0
176
     1
 90
        0
176
     1
290
     0
176
     1
 90
        1
176
     1
 40
0.0
176
     1
 90
        0
176
     1
290
     0
176
     1
290
     1
176
     1
290
     1
176
     1
290
     0
176
     1
290
     0
176
     1
290
     0
176
     1
290
     0
176
     1
290
     0
176
     1
290
     0
176
     1
 90
       50
176
     1
 40
0.0
176
     1
 40
1.0
176
     1
 90
        0
176
     1
 62
    18
420
        0
176
     1
 90
       50
176
     1
 90
        3
176
     1
 62
     5
420
      255
176
     1
290
     0
176
     1
 90
       50
176
     1
 90
       50
176
     1
 90
       50
176
     1
290
     0
176
     1
 90
       50
176
     1
 62
   256
176
     0
 40
1.0
176
     0
 90
        2
176
     1
  1
strokes_ogs.tif
176
     1
290
     0
176
     1
 40
1.0
176
     1
 40
1.0
176
     1
  0
VISUALSTYLE
  5
3C
102
{ACAD_REACTORS
330
2A
102
}
330
2A
100
AcDbVisualStyle
  2
OverhangOff
 70
    21
177
     3
291
     1
 70
    58
 90
        2
176
     0
 90
        2
176
     0
 90
        0
176
     0
 90
        0
176
     0
 40
0.6
176
     0
 40
30.0
176
     0
 62
     7
420
 16777215
176
     0
 90
        1
176
     0
 90
        4
176
     0
 62
     7
176
     0
 62
   257
176
     0
 90
        1
176
     0
 90
        1
176
     0
 40
1.0
176
     0
 90
        9
176
     2
 62
     7
176
     0
 40
1.0
176
     0
 90
        1
176
     0
 90
        6
176
     0
 90
        2
176
     0
 62
     7
176
     0
 90
        5
176
     0
 90
        0
176
     0
 90
        0
176
     0
290
     0
176
     0
 90
        1
176
     0
 40
0.0
176
     0
 90
        0
176
     0
290
     0
176
     0
290
     1
176
     0
290
     1
176
     0
290
     0
176
     0
290
     0
176
     0
290
     0
176
     0
290
     0
176
     0
290
     0
176
     0
290
     0
176
     0
 90
       50
176
     0
 40
0.0
176
     0
 40
1.0
176
     0
 90
        0
176
     0
 62
    18
420
        0
176
     0
 90
       50
176
     0
 90
        3
176
     0
 62
     5
420
      255
176
     0
290
     0
176
     0
 90
       50
176
     0
 90
       50
176
     0
 90
       50
176
     0
290
     0
176
     0
 90
       50
176
     0
 62
   256
176
     0
 40
1.0
176
     0
 90
        2
176
     0
  1
strokes_ogs.tif
176
     0
290
     0
176
     0
 40
1.0
176
     0
 40
1.0
176
     0
  0
VISUALSTYLE
  5
33
102
{ACAD_REACTORS
330
2A
102
}
330
2A
100
AcDbVisualStyle
  2
Realistic
 70
     8
177
     3
291
     0
 70
    58
 90
        2
176
     1
 90
        3
176
     1
 90
        0
176
     1
 90
        2
176
     1
 40
0.6
176
     1
 40
30.0
176
     1
 62
     7
420
 16777215
176
     1
 90
        0
176
     1
 90
        0
176
     1
 62
     7
176
     1
 62
   257
176
     1
 90
        1
176
     1
 90
        1
176
     1
 40
1.0
176
     1
 90
        8
176
     1
 62
   257
176
     1
 40
1.0
176
     1
 90
        1
176
     1
 90
        6
176
     1
 90
        2
176
     1
 62
     7
176
     1
 90
        3
176
     1
 90
        0
176
     1
 90
        0
176
     1
290
     0
176
     1
 90
       13
176
     1
 40
0.0
176
     1
 90
        0
176
     1
290
     0
176
     1
290
     1
176
     1
290
     1
176
     1
290
     0
176
     1
290
     0
176
     1
290
     0
176
     1
290
     0
176
     1
290
     0
176
     1
290
     0
176
     1
 90
       50
176
     1
 40
0.0
176
     1
 40
1.0
176
     1
 90
        0
176
     1
 62
    18
420
        0
176
     1
 90
       50
176
     1
 90
        3
176
     1
 62
     5
420
      255
176
     1
290
     0
176
     1
 90
       50
176
     1
 90
       50
176
     1
 90
       50
176
     1
290
     0
176
     1
 90
       50
176
     1
 62
   256
176
     0
 40
1.0
176
     0
 90
        2
176
     1
  1
strokes_ogs.tif
176
     1
290
     0
176
     1
 40
1.0
176
     1
 40
1.0
176
     1
  0
VISUALSTYLE
  5
42
102
{ACAD_REACTORS
330
2A
102
}
330
2A
100
AcDbVisualStyle
  2
Shaded
 70
    27
177
     3
291
     0
 70
    58
 90
        2
176
     1
 90
        2
176
     1
 90
        1
176
     1
 90
        2
176
     1
 40
0.6
176
     1
 40
30.0
176
     1
 62
     7
420
 16777215
176
     1
 90
        0
176
     1
 90
        4
176
     1
 62
     7
176
     1
 62
   257
176
     1
 90
        1
176
     1
 90
        1
176
     1
 40
1.0
176
     1
 90
        8
176
     1
 62
   257
176
     1
 40
1.0
176
     1
 90
        1
176
     1
 90
        6
176
     1
 90
        2
176
     1
 62
     8
420
  7895160
176
     1
 90
        3
176
     1
 90
        0
176
     1
 90
        0
176
     1
290
     0
176
     1
 90
        5
176
     1
 40
0.0
176
     1
 90
        0
176
     1
290
     0
176
     1
290
     1
176
     1
290
     1
176
     1
290
     0
176
     1
290
     0
176
     1
290
     0
176
     1
290
     0
176
     1
290
     0
176
     1
290
     0
176
     1
 90
       50
176
     1
 40
0.0
176
     1
 40
1.0
176
     1
 90
        0
176
     1
 62
    18
420
        0
176
     1
 90
       50
176
     1
 90
        3
176
     1
 62
     5
420
      255
176
     1
290
     0
176
     1
 90
       50
176
     1
 90
       50
176
     1
 90
       50
176
     1
290
     0
176
     1
 90
       50
176
     1
 62
   256
176
     0
 40
1.0
176
     0
 90
        2
176
     1
  1
strokes_ogs.tif
176
     1
290
     0
176
     1
 40
1.0
176
     1
 40
1.0
176
     1
  0
VISUALSTYLE
  5
41
102
{ACAD_REACTORS
330
2A
102
}
330
2A
100
AcDbVisualStyle
  2
Shaded with edges
 70
    26
177
     3
291
     0
 70
    58
 90
        2
176
     1
 90
        2
176
     1
 90
        1
176
     1
 90
        2
176
     1
 40
0.6
176
     1
 40
30.0
176
     1
 62
     7
420
 16777215
176
     1
 90
        1
176
     1
 90
       10
176
     1
 62
     7
176
     1
 62
   257
176
     1
 90
        2
176
     1
 90
        1
176
     1
 40
1.0
176
     1
 90
        8
176
     1
 62
   257
176
     1
 40
1.0
176
     1
 90
        1
176
     1
 90
        6
176
     1
 90
        2
176
     1
 62
     7
176
     1
 90
        3
176
     1
 90
        0
176
     1
 90
        0
176
     1
290
     0
176
     1
 90
        5
176
     1
 40
0.0
176
     1
 90
        0
176
     1
290
     0
176
     1
290
     1
176
     1
290
     1
176
     1
290
     0
176
     1
290
     0
176
     1
290
     0
176
     1
290
     0
176
     1
290
     0
176
     1
290
     0
176
     1
 90
       50
176
     1
 40
0.0
176
     1
 40
1.0
176
     1
 90
        0
176
     1
 62
    18
420
        0
176
     1
 90
       50
176
     1
 90
        3
176
     1
 62
     5
420
      255
176
     1
290
     0
176
     1
 90
       50
176
     1
 90
       50
176
     1
 90
       50
176
     1
290
     0
176
     1
 90
       50
176
     1
 62
   256
176
     0
 40
1.0
176
     0
 90
        2
176
     1
  1
strokes_ogs.tif
176
     1
290
     0
176
     1
 40
1.0
176
     1
 40
1.0
176
     1
  0
VISUALSTYLE
  5
3E
102
{ACAD_REACTORS
330
2A
102
}
330
2A
100
AcDbVisualStyle
  2
Shades of Gray
 70
    23
177
     3
291
     0
 70
    58
 90
        2
176
     1
 90
        2
176
     1
 90
        3
176
     1
 90
        0
176
     1
 40
0.6
176
     1
 40
30.0
176
     1
 62
     7
420
 16777215
176
     1
 90
        2
176
     1
 90
        2
176
     1
 62
     7
176
     1
 62
     7
176
     1
 90
        1
176
     1
 90
        1
176
     1
 40
40.0
176
     1
 90
        8
176
     1
 62
     7
176
     1
 40
1.0
176
     1
 90
        1
176
     1
 90
        6
176
     1
 90
        2
176
     1
 62
     7
176
     1
 90
        3
176
     1
 90
        0
176
     1
 90
        0
176
     1
290
     0
176
     1
 90
        1
176
     1
 40
0.0
176
     1
 90
        0
176
     1
290
     0
176
     1
290
     1
176
     1
290
     1
176
     1
290
     0
176
     1
290
     0
176
     1
290
     0
176
     1
290
     0
176
     1
290
     0
176
     1
290
     0
176
     1
 90
       50
176
     1
 40
0.0
176
     1
 40
1.0
176
     1
 90
        0
176
     1
 62
    18
420
        0
176
     1
 90
       50
176
     1
 90
        3
176
     1
 62
     5
420
      255
176
     1
290
     0
176
     1
 90
       50
176
     1
 90
       50
176
     1
 90
       50
176
     1
290
     0
176
     1
 90
       50
176
     1
 62
   256
176
     0
 40
1.0
176
     0
 90
        2
176
     1
  1
strokes_ogs.tif
176
     1
290
     0
176
     1
 40
1.0
176
     1
 40
1.0
176
     1
  0
VISUALSTYLE
  5
3F
102
{ACAD_REACTORS
330
2A
102
}
330
2A
100
AcDbVisualStyle
  2
Sketchy
 70
    24
177
     3
291
     0
 70
    58
 90
        1
176
     1
 90
        2
176
     1
 90
        2
176
     1
 90
        0
176
     1
 40
0.6
176
     1
 40
30.0
176
     1
 62
     7
420
 16777215
176
     1
 90
        2
176
     1
 90
        2
176
     1
 62
     7
176
     1
 62
     7
176
     1
 90
        1
176
     1
 90
        1
176
     1
 40
40.0
176
     1
 90
       11
176
     1
 62
     7
176
     1
 40
1.0
176
     1
 90
        1
176
     1
 90
        6
176
     1
 90
        2
176
     1
 62
     7
176
     1
 90
        6
176
     1
 90
        0
176
     1
 90
        0
176
     1
290
     0
176
     1
 90
        1
176
     1
 40
0.0
176
     1
 90
        0
176
     1
290
     0
176
     1
290
     1
176
     1
290
     1
176
     1
290
     0
176
     1
290
     0
176
     1
290
     0
176
     1
290
     0
176
     1
290
     0
176
     1
290
     0
176
     1
 90
       50
176
     1
 40
0.0
176
     1
 40
1.0
176
     1
 90
        0
176
     1
 62
    18
420
        0
176
     1
 90
       50
176
     1
 90
        3
176
     1
 62
     5
420
      255
176
     1
290
     0
176
     1
 90
       50
176
     1
 90
       50
176
     1
 90
       50
176
     1
290
     0
176
     1
 90
       50
176
     1
 62
   256
176
     0
 40
1.0
176
     0
 90
        2
176
     1
  1
strokes_ogs.tif
176
     1
290
     0
176
     1
 40
1.0
176
     1
 40
1.0
176
     1
  0
VISUALSTYLE
  5
37
102
{ACAD_REACTORS
330
2A
102
}
330
2A
100
AcDbVisualStyle
  2
Thicken
 70
    13
177
     3
291
     1
 70
    58
 90
        2
176
     1
 90
        2
176
     1
 90
        0
176
     1
 90
        0
176
     1
 40
0.6
176
     1
 40
30.0
176
     1
 62
     7
420
 16777215
176
     1
 90
        1
176
     1
 90
        4
176
     1
 62
     7
176
     1
 62
   257
176
     1
 90
        1
176
     1
 90
        1
176
     1
 40
1.0
176
     1
 90
       12
176
     1
 62
     7
176
     1
 40
1.0
176
     1
 90
        1
176
     1
 90
        6
176
     1
 90
        2
176
     1
 62
     7
176
     1
 90
        5
176
     1
 90
        0
176
     1
 90
        0
176
     1
290
     0
176
     1
 90
        1
176
     1
 40
0.0
176
     1
 90
        0
176
     1
290
     0
176
     1
290
     1
176
     1
290
     1
176
     1
290
     0
176
     1
290
     0
176
     1
290
     0
176
     1
290
     0
176
     1
290
     0
176
     1
290
     0
176
     1
 90
       50
176
     1
 40
0.0
176
     1
 40
1.0
176
     1
 90
        0
176
     1
 62
    18
420
        0
176
     1
 90
       50
176
     1
 90
        3
176
     1
 62
     5
420
      255
176
     1
290
     0
176
     1
 90
       50
176
     1
 90
       50
176
     1
 90
       50
176
     1
290
     0
176
     1
 90
       50
176
     1
 62
   256
176
     0
 40
1.0
176
     0
 90
        2
176
     1
  1
strokes_ogs.tif
176
     1
290
     0
176
     1
 40
1.0
176
     1
 40
1.0
176
     1
  0
VISUALSTYLE
  5
30
102
{ACAD_REACTORS
330
2A
102
}
330
2A
100
AcDbVisualStyle
  2
Wireframe
 70
     5
177
     3
291
     0
 70
    58
 90
        0
176
     1
 90
        2
176
     1
 90
        0
176
     1
 90
        0
176
     1
 40
0.6
176
     1
 40
30.0
176
     1
 62
     7
420
 16777215
176
     1
 90
        1
176
     1
 90
        4
176
     1
 62
     7
176
     1
 62
   257
176
     1
 90
        1
176
     1
 90
        1
176
     1
 40
1.0
176
     1
 90
        0
176
     1
 62
   257
176
     1
 40
1.0
176
     1
 90
        1
176
     1
 90
        6
176
     1
 90
        2
176
     1
 62
     7
176
     1
 90
        3
176
     1
 90
        0
176
     1
 90
        0
176
     1
290
     0
176
     1
 90
        1
176
     1
 40
0.0
176
     1
 90
        0
176
     1
290
     0
176
     1
290
     1
176
     1
290
     1
176
     1
290
     0
176
     1
290
     0
176
     1
290
     0
176
     1
290
     0
176
     1
290
     0
176
     1
290
     0
176
     1
 90
       50
176
     1
 40
0.0
176
     1
 40
1.0
176
     1
 90
        0
176
     1
 62
    18
420
        0
176
     1
 90
       50
176
     1
 90
        3
176
     1
 62
     5
420
      255
176
     1
290
     0
176
     1
 90
       50
176
     1
 90
       50
176
     1
 90
       50
176
     1
290
     0
176
     1
 90
       50
176
     1
 62
   256
176
     0
 40
1.0
176
     0
 90
        2
176
     1
  1
strokes_ogs.tif
176
     1
290
     0
176
     1
 40
1.0
176
     1
 40
1.0
176
     1
  0
VISUALSTYLE
  5
40
102
{ACAD_REACTORS
330
2A
102
}
330
2A
100
AcDbVisualStyle
  2
X-Ray
 70
    25
177
     3
291
     0
 70
    58
 90
        2
176
     1
 90
        2
176
     1
 90
        1
176
     1
 90
        1
176
     1
 40
0.5
176
     1
 40
30.0
176
     1
 62
     7
420
 16777215
176
     1
 90
        1
176
     1
 90
        0
176
     1
 62
     7
176
     1
 62
   257
176
     1
 90
        1
176
     1
 90
        1
176
     1
 40
1.0
176
     1
 90
        8
176
     1
 62
     7
176
     1
 40
1.0
176
     1
 90
        1
176
     1
 90
        6
176
     1
 90
        2
176
     1
 62
     7
176
     1
 90
        3
176
     1
 90
        0
176
     1
 90
        0
176
     1
290
     0
176
     1
 90
       13
176
     1
 40
0.0
176
     1
 90
        0
176
     1
290
     0
176
     1
290
     1
176
     1
290
     1
176
     1
290
     0
176
     1
290
     0
176
     1
290
     0
176
     1
290
     0
176
     1
290
     0
176
     1
290
     0
176
     1
 90
       50
176
     1
 40
0.0
176
     1
 40
1.0
176
     1
 90
        0
176
     1
 62
    18
420
        0
176
     1
 90
       50
176
     1
 90
        3
176
     1
 62
     5
420
      255
176
     1
290
     0
176
     1
 90
       50
176
     1
 90
       50
176
     1
 90
       50
176
     1
290
     0
176
     1
 90
       50
176
     1
 62
   256
176
     0
 40
1.0
176
     0
 90
        2
176
     1
  1
strokes_ogs.tif
176
     1
290
     0
176
     1
 40
1.0
176
     1
 40
1.0
176
     1
  0
DICTIONARYVAR
  5
209
102
{ACAD_REACTORS
330
208
102
}
330
208
100
DictionaryVariables
280
     0
  1
1:1
  0
DICTIONARYVAR
  5
20E
102
{ACAD_REACTORS
330
208
102
}
330
208
100
DictionaryVariables
280
     0
  1
Standard
  0
DICTIONARYVAR
  5
20D
102
{ACAD_REACTORS
330
208
102
}
330
208
100
DictionaryVariables
280
     0
  1
Standard
  0
DICTIONARY
  5
20A
330
6A
100
AcDbDictionary
280
     1
281
     1
  3
ACAD_ROUNDTRIP_2008_TABLESTYLE_CELLSTYLEMAP
360
20B
  0
CELLSTYLEMAP
  5
20B
102
{ACAD_REACTORS
330
20A
102
}
330
20A
100
AcDbCellStyleMap
 90
        3
300
CELLSTYLE
  1
TABLEFORMAT_BEGIN
 90
        5
170
     1
 91
        0
 92
    32768
 62
   257
 93
        1
300
CONTENTFORMAT
  1
CONTENTFORMAT_BEGIN
 90
        0
 91
        0
 92
        4
 93
        0
300

 40
0.0
140
1.0
 94
        5
 62
     0
340
11
144
0.25
309
CONTENTFORMAT_END
171
     1
301
MARGIN
  1
CELLMARGIN_BEGIN
 40
0.06
 40
0.06
 40
0.06
 40
0.06
 40
0.06
 40
0.06
309
CELLMARGIN_END
 94
        6
 95
        1
302
GRIDFORMAT
  1
GRIDFORMAT_BEGIN
 90
        0
 91
        1
 62
     0
 92
       -2
340
14
 93
        0
 40
0.045
309
GRIDFORMAT_END
 95
        2
302
GRIDFORMAT
  1
GRIDFORMAT_BEGIN
 90
        0
 91
        1
 62
     0
 92
       -2
340
14
 93
        0
 40
0.045
309
GRIDFORMAT_END
 95
        4
302
GRIDFORMAT
  1
GRIDFORMAT_BEGIN
 90
        0
 91
        1
 62
     0
 92
       -2
340
14
 93
        0
 40
0.045
309
GRIDFORMAT_END
 95
        8
302
GRIDFORMAT
  1
GRIDFORMAT_BEGIN
 90
        0
 91
        1
 62
     0
 92
       -2
340
14
 93
        0
 40
0.045
309
GRIDFORMAT_END
 95
       16
302
GRIDFORMAT
  1
GRIDFORMAT_BEGIN
 90
        0
 91
        1
 62
     0
 92
       -2
340
14
 93
        0
 40
0.045
309
GRIDFORMAT_END
 95
       32
302
GRIDFORMAT
  1
GRIDFORMAT_BEGIN
 90
        0
 91
        1
 62
     0
 92
       -2
340
14
 93
        0
 40
0.045
309
GRIDFORMAT_END
309
TABLEFORMAT_END
  1
CELLSTYLE_BEGIN
 90
        1
 91
        1
300
_TITLE
309
CELLSTYLE_END
300
CELLSTYLE
  1
TABLEFORMAT_BEGIN
 90
        5
170
     1
 91
        0
 92
        0
 62
   257
 93
        1
300
CONTENTFORMAT
  1
CONTENTFORMAT_BEGIN
 90
        0
 91
        0
 92
        4
 93
        0
300

 40
0.0
140
1.0
 94
        5
 62
     0
340
11
144
0.18
309
CONTENTFORMAT_END
171
     1
301
MARGIN
  1
CELLMARGIN_BEGIN
 40
0.06
 40
0.06
 40
0.06
 40
0.06
 40
0.06
 40
0.06
309
CELLMARGIN_END
 94
        6
 95
        1
302
GRIDFORMAT
  1
GRIDFORMAT_BEGIN
 90
        0
 91
        1
 62
     0
 92
       -2
340
14
 93
        0
 40
0.045
309
GRIDFORMAT_END
 95
        2
302
GRIDFORMAT
  1
GRIDFORMAT_BEGIN
 90
        0
 91
        1
 62
     0
 92
       -2
340
14
 93
        0
 40
0.045
309
GRIDFORMAT_END
 95
        4
302
GRIDFORMAT
  1
GRIDFORMAT_BEGIN
 90
        0
 91
        1
 62
     0
 92
       -2
340
14
 93
        0
 40
0.045
309
GRIDFORMAT_END
 95
        8
302
GRIDFORMAT
  1
GRIDFORMAT_BEGIN
 90
        0
 91
        1
 62
     0
 92
       -2
340
14
 93
        0
 40
0.045
309
GRIDFORMAT_END
 95
       16
302
GRIDFORMAT
  1
GRIDFORMAT_BEGIN
 90
        0
 91
        1
 62
     0
 92
       -2
340
14
 93
        0
 40
0.045
309
GRIDFORMAT_END
 95
       32
302
GRIDFORMAT
  1
GRIDFORMAT_BEGIN
 90
        0
 91
        1
 62
     0
 92
       -2
340
14
 93
        0
 40
0.045
309
GRIDFORMAT_END
309
TABLEFORMAT_END
  1
CELLSTYLE_BEGIN
 90
        2
 91
        1
300
_HEADER
309
CELLSTYLE_END
300
CELLSTYLE
  1
TABLEFORMAT_BEGIN
 90
        5
170
     1
 91
        0
 92
        0
 62
   257
 93
        1
300
CONTENTFORMAT
  1
CONTENTFORMAT_BEGIN
 90
        0
 91
        0
 92
        4
 93
        0
300

 40
0.0
140
1.0
 94
        2
 62
     0
340
11
144
0.18
309
CONTENTFORMAT_END
171
     1
301
MARGIN
  1
CELLMARGIN_BEGIN
 40
0.06
 40
0.06
 40
0.06
 40
0.06
 40
0.06
 40
0.06
309
CELLMARGIN_END
 94
        6
 95
        1
302
GRIDFORMAT
  1
GRIDFORMAT_BEGIN
 90
        0
 91
        1
 62
     0
 92
       -2
340
14
 93
        0
 40
0.045
309
GRIDFORMAT_END
 95
        2
302
GRIDFORMAT
  1
GRIDFORMAT_BEGIN
 90
        0
 91
        1
 62
     0
 92
       -2
340
14
 93
        0
 40
0.045
309
GRIDFORMAT_END
 95
        4
302
GRIDFORMAT
  1
GRIDFORMAT_BEGIN
 90
        0
 91
        1
 62
     0
 92
       -2
340
14
 93
        0
 40
0.045
309
GRIDFORMAT_END
 95
        8
302
GRIDFORMAT
  1
GRIDFORMAT_BEGIN
 90
        0
 91
        1
 62
     0
 92
       -2
340
14
 93
        0
 40
0.045
309
GRIDFORMAT_END
 95
       16
302
GRIDFORMAT
  1
GRIDFORMAT_BEGIN
 90
        0
 91
        1
 62
     0
 92
       -2
340
14
 93
        0
 40
0.045
309
GRIDFORMAT_END
 95
       32
302
GRIDFORMAT
  1
GRIDFORMAT_BEGIN
 90
        0
 91
        1
 62
     0
 92
       -2
340
14
 93
        0
 40
0.045
309
GRIDFORMAT_END
309
TABLEFORMAT_END
  1
CELLSTYLE_BEGIN
 90
        3
 91
        2
300
_DATA
309
CELLSTYLE_END
  0
ENDSEC
  0
EOF