0
SECTION
  2
HEADER
  9
$ACADVER
  1
AC1027
  9
$ACADMAINTVER
 70
     8
  9
$DWGCODEPAGE
  3
ANSI_1252
  9
$REQUIREDVERSIONS
160
                 0
  9
$COMMENTS
  1
File was created by Cadenas
  9
$CUSTOMPROPERTYTAG
  1
NN
  9
$CUSTOMPROPERTY
  1
S-2000 Piloted Flange Trident Seal
  9
$CUSTOMPROPERTYTAG
  1
NT
  9
$CUSTOMPROPERTY
  1
S-2000 Piloted Flange Bearing -Inch
  9
$CUSTOMPROPERTYTAG
  1
NB
  9
$CUSTOMPROPERTY
  1
070673
  9
$CUSTOMPROPERTYTAG
  1
NBSYN
  9
$CUSTOMPROPERTY
  1
$PN.
  9
$CUSTOMPROPERTYTAG
  1
LINA
  9
$CUSTOMPROPERTY
  1
070673
  9
$CUSTOMPROPERTYTAG
  1
SS
  9
$CUSTOMPROPERTY
  1
1-1/2
  9
$CUSTOMPROPERTYTAG
  1
PN
  9
$CUSTOMPROPERTY
  1
070673
  9
$CUSTOMPROPERTYTAG
  1
DESCRIPTION
  9
$CUSTOMPROPERTY
  1
FC-S2-108RE
  9
$CUSTOMPROPERTYTAG
  1
EF
  9
$CUSTOMPROPERTY
  1
Expansion Type
  9
$CUSTOMPROPERTYTAG
  1
ST
  9
$CUSTOMPROPERTY
  1
Contact Seal
  9
$CUSTOMPROPERTYTAG
  1
A
  9
$CUSTOMPROPERTY
  1
2-17/32
  9
$CUSTOMPROPERTYTAG
  1
B
  9
$CUSTOMPROPERTY
  1
5-1/4
  9
$CUSTOMPROPERTYTAG
  1
C
  9
$CUSTOMPROPERTY
  1
1-27/32
  9
$CUSTOMPROPERTYTAG
  1
D
  9
$CUSTOMPROPERTY
  1
3-3/32
  9
$CUSTOMPROPERTYTAG
  1
DD
  9
$CUSTOMPROPERTY
  1
4-3/8
  9
$CUSTOMPROPERTYTAG
  1
E
  9
$CUSTOMPROPERTY
  1
3/4
  9
$CUSTOMPROPERTYTAG
  1
F
  9
$CUSTOMPROPERTY
  1
3/8
  9
$CUSTOMPROPERTYTAG
  1
G
  9
$CUSTOMPROPERTY
  1
1-5/16
  9
$CUSTOMPROPERTYTAG
  1
H
  9
$CUSTOMPROPERTY
  1
1/2
  9
$CUSTOMPROPERTYTAG
  1
K
  9
$CUSTOMPROPERTY
  1
3.625
  9
$CUSTOMPROPERTYTAG
  1
L
  9
$CUSTOMPROPERTY
  1
2-3/4
  9
$CUSTOMPROPERTYTAG
  1
M
  9
$CUSTOMPROPERTY
  1
3/8-16
  9
$CUSTOMPROPERTYTAG
  1
N
  9
$CUSTOMPROPERTY
  1
2-17/32
  9
$CUSTOMPROPERTYTAG
  1
P
  9
$CUSTOMPROPERTY
  1
1-7/32
  9
$CUSTOMPROPERTYTAG
  1
Q
  9
$CUSTOMPROPERTY
  1
1-7/32
  9
$CUSTOMPROPERTYTAG
  1
X
  9
$CUSTOMPROPERTY
  1
3/16
  9
$CUSTOMPROPERTYTAG
  1
Y
  9
$CUSTOMPROPERTY
  1
0.020
  9
$CUSTOMPROPERTYTAG
  1
Z
  9
$CUSTOMPROPERTY
  1
1-51/64
  9
$CUSTOMPROPERTYTAG
  1
COMPANY
  9
$CUSTOMPROPERTY
  1
baldor
  9
$INSBASE
 10
0.0
 20
0.0
 30
0.0
  9
$EXTMIN
 10
1.000000000000000E+20
 20
1.000000000000000E+20
 30
1.000000000000000E+20
  9
$EXTMAX
 10
-1.000000000000000E+20
 20
-1.000000000000000E+20
 30
-1.000000000000000E+20
  9
$LIMMIN
 10
0.0
 20
0.0
  9
$LIMMAX
 10
12.0
 20
9.0
  9
$ORTHOMODE
 70
     0
  9
$REGENMODE
 70
     1
  9
$FILLMODE
 70
     1
  9
$QTEXTMODE
 70
     0
  9
$MIRRTEXT
 70
     1
  9
$LTSCALE
 40
1.0
  9
$ATTMODE
 70
     1
  9
$TEXTSIZE
 40
0.2
  9
$TRACEWID
 40
0.05
  9
$TEXTSTYLE
  7
Standard
  9
$CLAYER
  8
0
  9
$CELTYPE
  6
ByLayer
  9
$CECOLOR
 62
   256
  9
$CELTSCALE
 40
1.0
  9
$DISPSILH
 70
     0
  9
$DIMSCALE
 40
1.0
  9
$DIMASZ
 40
0.18
  9
$DIMEXO
 40
0.0625
  9
$DIMDLI
 40
0.38
  9
$DIMRND
 40
0.0
  9
$DIMDLE
 40
0.0
  9
$DIMEXE
 40
0.18
  9
$DIMTP
 40
0.0
  9
$DIMTM
 40
0.0
  9
$DIMTXT
 40
0.18
  9
$DIMCEN
 40
0.09
  9
$DIMTSZ
 40
0.0
  9
$DIMTOL
 70
     0
  9
$DIMLIM
 70
     0
  9
$DIMTIH
 70
     1
  9
$DIMTOH
 70
     1
  9
$DIMSE1
 70
     0
  9
$DIMSE2
 70
     0
  9
$DIMTAD
 70
     0
  9
$DIMZIN
 70
     0
  9
$DIMBLK
  1

  9
$DIMASO
 70
     1
  9
$DIMSHO
 70
     1
  9
$DIMPOST
  1

  9
$DIMAPOST
  1

  9
$DIMALT
 70
     0
  9
$DIMALTD
 70
     2
  9
$DIMALTF
 40
25.4
  9
$DIMLFAC
 40
1.0
  9
$DIMTOFL
 70
     0
  9
$DIMTVP
 40
0.0
  9
$DIMTIX
 70
     0
  9
$DIMSOXD
 70
     0
  9
$DIMSAH
 70
     0
  9
$DIMBLK1
  1

  9
$DIMBLK2
  1

  9
$DIMSTYLE
  2
Standard
  9
$DIMCLRD
 70
     0
  9
$DIMCLRE
 70
     0
  9
$DIMCLRT
 70
     0
  9
$DIMTFAC
 40
1.0
  9
$DIMGAP
 40
0.09
  9
$DIMJUST
 70
     0
  9
$DIMSD1
 70
     0
  9
$DIMSD2
 70
     0
  9
$DIMTOLJ
 70
     1
  9
$DIMTZIN
 70
     0
  9
$DIMALTZ
 70
     0
  9
$DIMALTTZ
 70
     0
  9
$DIMUPT
 70
     0
  9
$DIMDEC
 70
     4
  9
$DIMTDEC
 70
     4
  9
$DIMALTU
 70
     2
  9
$DIMALTTD
 70
     2
  9
$DIMTXSTY
  7
Standard
  9
$DIMAUNIT
 70
     0
  9
$DIMADEC
 70
     0
  9
$DIMALTRND
 40
0.0
  9
$DIMAZIN
 70
     0
  9
$DIMDSEP
 70
    46
  9
$DIMATFIT
 70
     3
  9
$DIMFRAC
 70
     0
  9
$DIMLDRBLK
  1

  9
$DIMLUNIT
 70
     2
  9
$DIMLWD
 70
    -2
  9
$DIMLWE
 70
    -2
  9
$DIMTMOVE
 70
     0
  9
$DIMFXL
 40
1.0
  9
$DIMFXLON
 70
     0
  9
$DIMJOGANG
 40
0.7853981633974483
  9
$DIMTFILL
 70
     0
  9
$DIMTFILLCLR
 70
     0
  9
$DIMARCSYM
 70
     0
  9
$DIMLTYPE
  6

  9
$DIMLTEX1
  6

  9
$DIMLTEX2
  6

  9
$DIMTXTDIRECTION
 70
     0
  9
$LUNITS
 70
     2
  9
$LUPREC
 70
     4
  9
$SKETCHINC
 40
0.1
  9
$FILLETRAD
 40
0.5
  9
$AUNITS
 70
     0
  9
$AUPREC
 70
     0
  9
$MENU
  1
.
  9
$ELEVATION
 40
0.0
  9
$PELEVATION
 40
0.0
  9
$THICKNESS
 40
0.0
  9
$LIMCHECK
 70
     0
  9
$CHAMFERA
 40
0.0
  9
$CHAMFERB
 40
0.0
  9
$CHAMFERC
 40
0.0
  9
$CHAMFERD
 40
0.0
  9
$SKPOLY
 70
     0
  9
$TDCREATE
 40
2458168.985465752
  9
$TDUCREATE
 40
2458168.943799085
  9
$TDUPDATE
 40
2458168.985465937
  9
$TDUUPDATE
 40
2458168.943799271
  9
$TDINDWG
 40
0.0000000116
  9
$TDUSRTIMER
 40
0.0000000116
  9
$USRTIMER
 70
     1
  9
$ANGBASE
 50
0.0
  9
$ANGDIR
 70
     0
  9
$PDMODE
 70
     0
  9
$PDSIZE
 40
0.0
  9
$PLINEWID
 40
0.0
  9
$SPLFRAME
 70
     0
  9
$SPLINETYPE
 70
     6
  9
$SPLINESEGS
 70
     8
  9
$HANDSEED
  5
20C
  9
$SURFTAB1
 70
     6
  9
$SURFTAB2
 70
     6
  9
$SURFTYPE
 70
     6
  9
$SURFU
 70
     6
  9
$SURFV
 70
     6
  9
$UCSBASE
  2

  9
$UCSNAME
  2

  9
$UCSORG
 10
0.0
 20
0.0
 30
0.0
  9
$UCSXDIR
 10
1.0
 20
0.0
 30
0.0
  9
$UCSYDIR
 10
0.0
 20
1.0
 30
0.0
  9
$UCSORTHOREF
  2

  9
$UCSORTHOVIEW
 70
     0
  9
$UCSORGTOP
 10
0.0
 20
0.0
 30
0.0
  9
$UCSORGBOTTOM
 10
0.0
 20
0.0
 30
0.0
  9
$UCSORGLEFT
 10
0.0
 20
0.0
 30
0.0
  9
$UCSORGRIGHT
 10
0.0
 20
0.0
 30
0.0
  9
$UCSORGFRONT
 10
0.0
 20
0.0
 30
0.0
  9
$UCSORGBACK
 10
0.0
 20
0.0
 30
0.0
  9
$PUCSBASE
  2

  9
$PUCSNAME
  2

  9
$PUCSORG
 10
0.0
 20
0.0
 30
0.0
  9
$PUCSXDIR
 10
1.0
 20
0.0
 30
0.0
  9
$PUCSYDIR
 10
0.0
 20
1.0
 30
0.0
  9
$PUCSORTHOREF
  2

  9
$PUCSORTHOVIEW
 70
     0
  9
$PUCSORGTOP
 10
0.0
 20
0.0
 30
0.0
  9
$PUCSORGBOTTOM
 10
0.0
 20
0.0
 30
0.0
  9
$PUCSORGLEFT
 10
0.0
 20
0.0
 30
0.0
  9
$PUCSORGRIGHT
 10
0.0
 20
0.0
 30
0.0
  9
$PUCSORGFRONT
 10
0.0
 20
0.0
 30
0.0
  9
$PUCSORGBACK
 10
0.0
 20
0.0
 30
0.0
  9
$USERI1
 70
     0
  9
$USERI2
 70
     0
  9
$USERI3
 70
     0
  9
$USERI4
 70
     0
  9
$USERI5
 70
     0
  9
$USERR1
 40
0.0
  9
$USERR2
 40
0.0
  9
$USERR3
 40
0.0
  9
$USERR4
 40
0.0
  9
$USERR5
 40
0.0
  9
$WORLDVIEW
 70
     1
  9
$SHADEDGE
 70
     3
  9
$SHADEDIF
 70
    70
  9
$TILEMODE
 70
     1
  9
$MAXACTVP
 70
    64
  9
$PINSBASE
 10
0.0
 20
0.0
 30
0.0
  9
$PLIMCHECK
 70
     0
  9
$PEXTMIN
 10
1.000000000000000E+20
 20
1.000000000000000E+20
 30
1.000000000000000E+20
  9
$PEXTMAX
 10
-1.000000000000000E+20
 20
-1.000000000000000E+20
 30
-1.000000000000000E+20
  9
$PLIMMIN
 10
0.0
 20
0.0
  9
$PLIMMAX
 10
12.0
 20
9.0
  9
$UNITMODE
 70
     0
  9
$VISRETAIN
 70
     1
  9
$PLINEGEN
 70
     0
  9
$PSLTSCALE
 70
     1
  9
$TREEDEPTH
 70
  3020
  9
$CMLSTYLE
  2
Standard
  9
$CMLJUST
 70
     0
  9
$CMLSCALE
 40
1.0
  9
$PROXYGRAPHICS
 70
     1
  9
$MEASUREMENT
 70
     0
  9
$CELWEIGHT
370
    -1
  9
$ENDCAPS
280
     0
  9
$JOINSTYLE
280
     0
  9
$LWDISPLAY
290
     0
  9
$INSUNITS
 70
     1
  9
$HYPERLINKBASE
  1

  9
$STYLESHEET
  1

  9
$XEDIT
290
     1
  9
$CEPSNTYPE
380
     0
  9
$PSTYLEMODE
290
     1
  9
$FINGERPRINTGUID
  2
{6C1F2D2E-4550-4659-8070-F3B126C6CE2D}
  9
$VERSIONGUID
  2
{FAEB1C32-E019-11D5-929B-00C0DF256EC4}
  9
$EXTNAMES
290
     1
  9
$PSVPSCALE
 40
0.0
  9
$OLESTARTUP
290
     0
  9
$SORTENTS
280
   127
  9
$INDEXCTL
280
     0
  9
$HIDETEXT
280
     1
  9
$XCLIPFRAME
280
     2
  9
$HALOGAP
280
     0
  9
$OBSCOLOR
 70
   257
  9
$OBSLTYPE
280
     0
  9
$INTERSECTIONDISPLAY
280
     0
  9
$INTERSECTIONCOLOR
 70
   257
  9
$DIMASSOC
280
     2
  9
$PROJECTNAME
  1

  9
$CAMERADISPLAY
290
     0
  9
$LENSLENGTH
 40
50.0
  9
$CAMERAHEIGHT
 40
0.0
  9
$STEPSPERSEC
 40
2.0
  9
$STEPSIZE
 40
6.0
  9
$3DDWFPREC
 40
2.0
  9
$PSOLWIDTH
 40
0.25
  9
$PSOLHEIGHT
 40
4.0
  9
$LOFTANG1
 40
1.570796326794897
  9
$LOFTANG2
 40
1.570796326794897
  9
$LOFTMAG1
 40
0.0
  9
$LOFTMAG2
 40
0.0
  9
$LOFTPARAM
 70
     7
  9
$LOFTNORMALS
280
     1
  9
$LATITUDE
 40
37.795
  9
$LONGITUDE
 40
-122.394
  9
$NORTHDIRECTION
 40
0.0
  9
$TIMEZONE
 70
 -8000
  9
$LIGHTGLYPHDISPLAY
280
     1
  9
$TILEMODELIGHTSYNCH
280
     1
  9
$CMATERIAL
347
44
  9
$SOLIDHIST
280
     0
  9
$SHOWHIST
280
     1
  9
$DWFFRAME
280
     2
  9
$DGNFRAME
280
     2
  9
$REALWORLDSCALE
290
     1
  9
$INTERFERECOLOR
 62
   256
  9
$CSHADOW
280
     0
  9
$SHADOWPLANELOCATION
 40
0.0
  0
ENDSEC
  0
SECTION
  2
CLASSES
  0
CLASS
  1
ACDBDICTIONARYWDFLT
  2
AcDbDictionaryWithDefault
  3
ObjectDBX Classes
 90
        0
 91
        4
280
     0
281
     0
  0
CLASS
  1
VISUALSTYLE
  2
AcDbVisualStyle
  3
ObjectDBX Classes
 90
     4095
 91
        4
280
     0
281
     0
  0
CLASS
  1
MATERIAL
  2
AcDbMaterial
  3
ObjectDBX Classes
 90
     1153
 91
        4
280
     0
281
     0
  0
CLASS
  1
SCALE
  2
AcDbScale
  3
ObjectDBX Classes
 90
     1153
 91
        4
280
     0
281
     0
  0
CLASS
  1
TABLESTYLE
  2
AcDbTableStyle
  3
ObjectDBX Classes
 90
     4095
 91
        4
280
     0
281
     0
  0
CLASS
  1
MLEADERSTYLE
  2
AcDbMLeaderStyle
  3
ACDB_MLEADERSTYLE_CLASS
 90
     4095
 91
        4
280
     0
281
     0
  0
CLASS
  1
SUN
  2
AcDbSun
  3
SCENEOE
 90
     1153
 91
        4
280
     0
281
     0
  0
CLASS
  1
DICTIONARYVAR
  2
AcDbDictionaryVar
  3
ObjectDBX Classes
 90
        0
 91
        4
280
     0
281
     0
  0
CLASS
  1
CELLSTYLEMAP
  2
AcDbCellStyleMap
  3
ObjectDBX Classes
 90
     1152
 91
        4
280
     0
281
     0
  0
ENDSEC
  0
SECTION
  2
TABLES
  0
TABLE
  2
VPORT
  5
8
330
0
100
AcDbSymbolTable
 70
     1
  0
VPORT
  5
29
330
8
100
AcDbSymbolTableRecord
100
AcDbViewportTableRecord
  2
*Active
 70
     0
 10
0.0
 20
0.0
 11
1.0
 21
1.0
 12
0.3424999999999994
 22
0.0019995300751878
 13
0.0
 23
0.0
 14
0.5
 24
0.5
 15
0.5
 25
0.5
 16
0.0
 26
0.0
 36
1.0
 17
0.0
 27
0.0
 37
0.0
 40
5.350920958646617
 41
0.6309568065183914
 42
50.0
 43
0.0
 44
0.0
 50
0.0
 51
0.0
 71
     0
 72
   100
 73
     1
 74
     3
 75
     0
 76
     0
 77
     0
 78
     0
281
     0
 65
     1
110
0.0
120
0.0
130
0.0
111
1.0
121
0.0
131
0.0
112
0.0
122
1.0
132
0.0
 79
     0
146
0.0
348
2F
 60
     3
 61
     5
292
     1
282
     1
141
0.0
142
0.0
 63
   250
361
6D
  0
ENDTAB
  0
TABLE
  2
LTYPE
  5
5
330
0
100
AcDbSymbolTable
 70
     3
  0
LTYPE
  5
14
330
5
100
AcDbSymbolTableRecord
100
AcDbLinetypeTableRecord
  2
ByBlock
 70
     0
  3

 72
    65
 73
     0
 40
0.0
  0
LTYPE
  5
15
330
5
100
AcDbSymbolTableRecord
100
AcDbLinetypeTableRecord
  2
ByLayer
 70
     0
  3

 72
    65
 73
     0
 40
0.0
  0
LTYPE
  5
16
330
5
100
AcDbSymbolTableRecord
100
AcDbLinetypeTableRecord
  2
Continuous
 70
     0
  3
Solid line
 72
    65
 73
     0
 40
0.0
  0
LTYPE
  5
A7
330
5
100
AcDbSymbolTableRecord
100
AcDbLinetypeTableRecord
  2
Dashed
 70
     0
  3

 72
    65
 73
     2
 40
2.0
 49
1.0
 74
     0
 49
-1.0
 74
     0
  0
LTYPE
  5
152
330
5
100
AcDbSymbolTableRecord
100
AcDbLinetypeTableRecord
  2
Center
 70
     0
  3

 72
    65
 73
     4
 40
1.5
 49
0.45
 74
     0
 49
-0.5
 74
     0
 49
0.05
 74
     0
 49
-0.5
 74
     0
  0
ENDTAB
  0
TABLE
  2
LAYER
  5
2
330
0
100
AcDbSymbolTable
 70
     7
  0
LAYER
  5
10
330
2
100
AcDbSymbolTableRecord
100
AcDbLayerTableRecord
  2
0
 70
     0
 62
     7
  6
Continuous
370
    -3
390
F
347
46
348
0
  0
LAYER
  5
72
330
2
100
AcDbSymbolTableRecord
100
AcDbLayerTableRecord
  2
AM_6
 70
     0
 62
    -2
  6
Continuous
370
    35
390
F
347
46
348
0
  0
LAYER
  5
A8
330
2
100
AcDbSymbolTableRecord
100
AcDbLayerTableRecord
  2
AM_9
 70
     0
 62
     6
  6
Dashed
370
    25
390
F
347
46
348
0
  0
LAYER
  5
E0
330
2
100
AcDbSymbolTableRecord
100
AcDbLayerTableRecord
  2
AM_5
 70
     0
 62
     3
  6
Continuous
370
    25
390
F
347
46
348
0
  0
LAYER
  5
E5
330
2
100
AcDbSymbolTableRecord
100
AcDbLayerTableRecord
  2
AM_4
 70
     0
 62
     7
  6
Continuous
370
    50
390
F
347
46
348
0
  0
LAYER
  5
153
330
2
100
AcDbSymbolTableRecord
100
AcDbLayerTableRecord
  2
AM_7
 70
     0
 62
     7
  6
Center
370
    25
390
F
347
46
348
0
  0
LAYER
  5
1F8
330
2
100
AcDbSymbolTableRecord
100
AcDbLayerTableRecord
  2
ConnectionPoints
 70
     0
 62
     7
  6
Continuous
370
    50
390
F
347
46
348
0
  0
ENDTAB
  0
TABLE
  2
STYLE
  5
3
330
0
100
AcDbSymbolTable
 70
     1
  0
STYLE
  5
11
330
3
100
AcDbSymbolTableRecord
100
AcDbTextStyleTableRecord
  2
Standard
 70
     0
 40
0.0
 41
1.0
 50
0.0
 71
     0
 42
0.2
  3
txt
  4

  0
ENDTAB
  0
TABLE
  2
VIEW
  5
6
330
0
100
AcDbSymbolTable
 70
     0
  0
ENDTAB
  0
TABLE
  2
UCS
  5
7
330
0
100
AcDbSymbolTable
 70
     0
  0
ENDTAB
  0
TABLE
  2
APPID
  5
9
330
0
100
AcDbSymbolTable
 70
     1
  0
APPID
  5
12
330
9
100
AcDbSymbolTableRecord
100
AcDbRegAppTableRecord
  2
ACAD
 70
     0
  0
ENDTAB
  0
TABLE
  2
DIMSTYLE
  5
A
330
0
100
AcDbSymbolTable
 70
     1
100
AcDbDimStyleTable
  0
DIMSTYLE
105
27
330
A
100
AcDbSymbolTableRecord
100
AcDbDimStyleTableRecord
  2
Standard
 70
     0
178
     0
340
11
  0
ENDTAB
  0
TABLE
  2
BLOCK_RECORD
  5
1
330
0
100
AcDbSymbolTable
 70
     7
  0
BLOCK_RECORD
  5
1F
330
1
100
AcDbSymbolTableRecord
100
AcDbBlockTableRecord
  2
*Model_Space
340
22
 70
     0
280
     1
281
     0
  0
BLOCK_RECORD
  5
1B
330
1
100
AcDbSymbolTableRecord
100
AcDbBlockTableRecord
  2
*Paper_Space
340
1E
 70
     0
280
     1
281
     0
  0
BLOCK_RECORD
  5
23
330
1
100
AcDbSymbolTableRecord
100
AcDbBlockTableRecord
  2
*Paper_Space0
340
26
 70
     0
280
     1
281
     0
  0
BLOCK_RECORD
  5
6E
330
1
100
AcDbSymbolTableRecord
100
AcDbBlockTableRecord
  2
1_070673_2
340
0
102
{BLKREFS
331
6F
102
}
 70
     0
280
     1
281
     0
  0
BLOCK_RECORD
  5
90
330
1
100
AcDbSymbolTableRecord
100
AcDbBlockTableRecord
  2
2_1_1_2_Disc_0_in_070673_2
340
0
102
{BLKREFS
331
91
102
}
 70
     0
280
     1
281
     0
  0
BLOCK_RECORD
  5
B4
330
1
100
AcDbSymbolTableRecord
100
AcDbBlockTableRecord
  2
3_1_1_2CS2i_0_in_070673_2
340
0
102
{BLKREFS
331
B5
102
}
 70
     0
280
     1
281
     0
  0
BLOCK_RECORD
  5
F9
330
1
100
AcDbSymbolTableRecord
100
AcDbBlockTableRecord
  2
4_070002i_0_in_070673_2
340
0
102
{BLKREFS
331
FA
102
}
 70
     0
280
     1
281
     0
  0
BLOCK_RECORD
  5
15A
330
1
100
AcDbSymbolTableRecord
100
AcDbBlockTableRecord
  2
5_405015E_Inch_0_in_070673_2
340
0
102
{BLKREFS
331
15B
102
}
 70
     0
280
     1
281
     0
  0
BLOCK_RECORD
  5
195
330
1
100
AcDbSymbolTableRecord
100
AcDbBlockTableRecord
  2
6_070673H_0_in_070673_2
340
0
102
{BLKREFS
331
196
102
}
 70
     0
280
     1
281
     0
  0
ENDTAB
  0
ENDSEC
  0
SECTION
  2
BLOCKS
  0
BLOCK
  5
20
330
1F
100
AcDbEntity
  8
0
100
AcDbBlockBegin
  2
*Model_Space
 70
     0
 10
0.0
 20
0.0
 30
0.0
  3
*Model_Space
  1

  0
ENDBLK
  5
21
330
1F
100
AcDbEntity
  8
0
100
AcDbBlockEnd
  0
BLOCK
  5
1C
330
1B
100
AcDbEntity
 67
     1
  8
0
100
AcDbBlockBegin
  2
*Paper_Space
 70
     0
 10
0.0
 20
0.0
 30
0.0
  3
*Paper_Space
  1

  0
ENDBLK
  5
1D
330
1B
100
AcDbEntity
 67
     1
  8
0
100
AcDbBlockEnd
  0
BLOCK
  5
24
330
23
100
AcDbEntity
  8
0
100
AcDbBlockBegin
  2
*Paper_Space0
 70
     0
 10
0.0
 20
0.0
 30
0.0
  3
*Paper_Space0
  1

  0
ENDBLK
  5
25
330
23
100
AcDbEntity
  8
0
100
AcDbBlockEnd
  0
BLOCK
  5
70
330
6E
100
AcDbEntity
  8
0
100
AcDbBlockBegin
  2
1_070673_2
 70
     2
 10
0.0
 20
0.0
 30
0.0
  3
1_070673_2
  1

  0
ATTDEF
  5
73
330
6E
100
AcDbEntity
  8
AM_6
100
AcDbText
 10
6.532812499999999
 20
2.625
 30
0.0
 40
0.5
  1
S-2000 Piloted Flange Trident Seal
100
AcDbAttributeDefinition
  3

  2
NN
 70
     8
280
     0
  0
ATTDEF
  5
74
330
6E
100
AcDbEntity
  8
AM_6
100
AcDbText
 10
6.532812499999999
 20
2.125
 30
0.0
 40
0.5
  1
S-2000 Piloted Flange Bearing -Inch
100
AcDbAttributeDefinition
  3

  2
NT
 70
     8
280
     0
  0
ATTDEF
  5
75
330
6E
100
AcDbEntity
  8
AM_6
100
AcDbText
 10
6.532812499999999
 20
1.625
 30
0.0
 40
0.5
  1
070673
100
AcDbAttributeDefinition
  3

  2
NB
 70
     8
280
     0
  0
ATTDEF
  5
76
330
6E
100
AcDbEntity
  8
AM_6
100
AcDbText
 10
6.532812499999999
 20
1.125
 30
0.0
 40
0.5
  1
$PN.
100
AcDbAttributeDefinition
  3

  2
NBSYN
 70
     8
280
     0
  0
ATTDEF
  5
77
330
6E
100
AcDbEntity
  8
AM_6
100
AcDbText
 10
6.532812499999999
 20
0.625
 30
0.0
 40
0.5
  1
070673
100
AcDbAttributeDefinition
  3

  2
LINA
 70
     8
280
     0
  0
ATTDEF
  5
78
330
6E
100
AcDbEntity
  8
AM_6
100
AcDbText
 10
6.532812499999999
 20
0.125
 30
0.0
 40
0.5
  1
1-1/2
100
AcDbAttributeDefinition
  3

  2
SS
 70
     8
280
     0
  0
ATTDEF
  5
79
330
6E
100
AcDbEntity
  8
AM_6
100
AcDbText
 10
6.532812499999999
 20
-0.375
 30
0.0
 40
0.5
  1
070673
100
AcDbAttributeDefinition
  3

  2
PN
 70
     8
280
     0
  0
ATTDEF
  5
7A
330
6E
100
AcDbEntity
  8
AM_6
100
AcDbText
 10
6.532812499999999
 20
-0.875
 30
0.0
 40
0.5
  1
FC-S2-108RE
100
AcDbAttributeDefinition
  3

  2
DESCRIPTION
 70
     8
280
     0
  0
ATTDEF
  5
7B
330
6E
100
AcDbEntity
  8
AM_6
100
AcDbText
 10
6.532812499999999
 20
-1.375
 30
0.0
 40
0.5
  1
Expansion Type
100
AcDbAttributeDefinition
  3

  2
EF
 70
     8
280
     0
  0
ATTDEF
  5
7C
330
6E
100
AcDbEntity
  8
AM_6
100
AcDbText
 10
6.532812499999999
 20
-1.875
 30
0.0
 40
0.5
  1
Contact Seal
100
AcDbAttributeDefinition
  3

  2
ST
 70
     8
280
     0
  0
ATTDEF
  5
7D
330
6E
100
AcDbEntity
  8
AM_6
100
AcDbText
 10
6.532812499999999
 20
-2.375
 30
0.0
 40
0.5
  1
2-17/32
100
AcDbAttributeDefinition
  3

  2
A
 70
     8
280
     0
  0
ATTDEF
  5
7E
330
6E
100
AcDbEntity
  8
AM_6
100
AcDbText
 10
6.532812499999999
 20
-2.875
 30
0.0
 40
0.5
  1
5-1/4
100
AcDbAttributeDefinition
  3

  2
B
 70
     8
280
     0
  0
ATTDEF
  5
7F
330
6E
100
AcDbEntity
  8
AM_6
100
AcDbText
 10
6.532812499999999
 20
-3.375
 30
0.0
 40
0.5
  1
1-27/32
100
AcDbAttributeDefinition
  3

  2
C
 70
     8
280
     0
  0
ATTDEF
  5
80
330
6E
100
AcDbEntity
  8
AM_6
100
AcDbText
 10
6.532812499999999
 20
-3.875
 30
0.0
 40
0.5
  1
3-3/32
100
AcDbAttributeDefinition
  3

  2
D
 70
     8
280
     0
  0
ATTDEF
  5
81
330
6E
100
AcDbEntity
  8
AM_6
100
AcDbText
 10
6.532812499999999
 20
-4.375
 30
0.0
 40
0.5
  1
4-3/8
100
AcDbAttributeDefinition
  3

  2
DD
 70
     8
280
     0
  0
ATTDEF
  5
82
330
6E
100
AcDbEntity
  8
AM_6
100
AcDbText
 10
6.532812499999999
 20
-4.875
 30
0.0
 40
0.5
  1
3/4
100
AcDbAttributeDefinition
  3

  2
E
 70
     8
280
     0
  0
ATTDEF
  5
83
330
6E
100
AcDbEntity
  8
AM_6
100
AcDbText
 10
6.532812499999999
 20
-5.375
 30
0.0
 40
0.5
  1
3/8
100
AcDbAttributeDefinition
  3

  2
F
 70
     8
280
     0
  0
ATTDEF
  5
84
330
6E
100
AcDbEntity
  8
AM_6
100
AcDbText
 10
6.532812499999999
 20
-5.875
 30
0.0
 40
0.5
  1
1-5/16
100
AcDbAttributeDefinition
  3

  2
G
 70
     8
280
     0
  0
ATTDEF
  5
85
330
6E
100
AcDbEntity
  8
AM_6
100
AcDbText
 10
6.532812499999999
 20
-6.375
 30
0.0
 40
0.5
  1
1/2
100
AcDbAttributeDefinition
  3

  2
H
 70
     8
280
     0
  0
ATTDEF
  5
86
330
6E
100
AcDbEntity
  8
AM_6
100
AcDbText
 10
6.532812499999999
 20
-6.875
 30
0.0
 40
0.5
  1
3.625
100
AcDbAttributeDefinition
  3

  2
K
 70
     8
280
     0
  0
ATTDEF
  5
87
330
6E
100
AcDbEntity
  8
AM_6
100
AcDbText
 10
6.532812499999999
 20
-7.375
 30
0.0
 40
0.5
  1
2-3/4
100
AcDbAttributeDefinition
  3

  2
L
 70
     8
280
     0
  0
ATTDEF
  5
88
330
6E
100
AcDbEntity
  8
AM_6
100
AcDbText
 10
6.532812499999999
 20
-7.875
 30
0.0
 40
0.5
  1
3/8-16
100
AcDbAttributeDefinition
  3

  2
M
 70
     8
280
     0
  0
ATTDEF
  5
89
330
6E
100
AcDbEntity
  8
AM_6
100
AcDbText
 10
6.532812499999999
 20
-8.375
 30
0.0
 40
0.5
  1
2-17/32
100
AcDbAttributeDefinition
  3

  2
N
 70
     8
280
     0
  0
ATTDEF
  5
8A
330
6E
100
AcDbEntity
  8
AM_6
100
AcDbText
 10
6.532812499999999
 20
-8.875
 30
0.0
 40
0.5
  1
1-7/32
100
AcDbAttributeDefinition
  3

  2
P
 70
     8
280
     0
  0
ATTDEF
  5
8B
330
6E
100
AcDbEntity
  8
AM_6
100
AcDbText
 10
6.532812499999999
 20
-9.375
 30
0.0
 40
0.5
  1
1-7/32
100
AcDbAttributeDefinition
  3

  2
Q
 70
     8
280
     0
  0
ATTDEF
  5
8C
330
6E
100
AcDbEntity
  8
AM_6
100
AcDbText
 10
6.532812499999999
 20
-9.875
 30
0.0
 40
0.5
  1
3/16
100
AcDbAttributeDefinition
  3

  2
X
 70
     8
280
     0
  0
ATTDEF
  5
8D
330
6E
100
AcDbEntity
  8
AM_6
100
AcDbText
 10
6.532812499999999
 20
-10.375
 30
0.0
 40
0.5
  1
0.020
100
AcDbAttributeDefinition
  3

  2
Y
 70
     8
280
     0
  0
ATTDEF
  5
8E
330
6E
100
AcDbEntity
  8
AM_6
100
AcDbText
 10
6.532812499999999
 20
-10.875
 30
0.0
 40
0.5
  1
1-51/64
100
AcDbAttributeDefinition
  3

  2
Z
 70
     8
280
     0
  0
ATTDEF
  5
8F
330
6E
100
AcDbEntity
  8
AM_6
100
AcDbText
 10
6.532812499999999
 20
-11.375
 30
0.0
 40
0.5
  1
baldor
100
AcDbAttributeDefinition
  3

  2
COMPANY
 70
     8
280
     0
  0
INSERT
  5
91
330
6E
100
AcDbEntity
  8
0
100
AcDbBlockReference
  2
2_1_1_2_Disc_0_in_070673_2
 10
0.0
 20
0.0
 30
0.0
  0
INSERT
  5
B5
330
6E
100
AcDbEntity
  8
0
100
AcDbBlockReference
  2
3_1_1_2CS2i_0_in_070673_2
 10
0.0
 20
0.0
 30
0.0
  0
INSERT
  5
FA
330
6E
100
AcDbEntity
  8
0
100
AcDbBlockReference
  2
4_070002i_0_in_070673_2
 10
0.0
 20
0.0
 30
0.0
  0
INSERT
  5
15B
330
6E
100
AcDbEntity
  8
0
100
AcDbBlockReference
  2
5_405015E_Inch_0_in_070673_2
 10
0.0
 20
0.0
 30
0.0
  0
INSERT
  5
196
330
6E
100
AcDbEntity
  8
0
100
AcDbBlockReference
  2
6_070673H_0_in_070673_2
 10
0.0
 20
0.0
 30
0.0
  0
ENDBLK
  5
71
330
6E
100
AcDbEntity
  8
0
100
AcDbBlockEnd
  0
BLOCK
  5
92
330
90
100
AcDbEntity
  8
0
100
AcDbBlockBegin
  2
2_1_1_2_Disc_0_in_070673_2
 70
     2
 10
0.0
 20
0.0
 30
0.0
  3
2_1_1_2_Disc_0_in_070673_2
  1

  0
ATTDEF
  5
94
330
90
100
AcDbEntity
  8
AM_6
100
AcDbText
 10
6.171875
 20
1.5748
 30
0.0
 40
0.5
  1
S-2000 -Disc -Inch
100
AcDbAttributeDefinition
  3

  2
NN
 70
     8
280
     0
  0
ATTDEF
  5
95
330
90
100
AcDbEntity
  8
AM_6
100
AcDbText
 10
6.171875
 20
1.0748
 30
0.0
 40
0.5
  1
S-2000 Bearings
100
AcDbAttributeDefinition
  3

  2
NT
 70
     8
280
     0
  0
ATTDEF
  5
96
330
90
100
AcDbEntity
  8
AM_6
100
AcDbText
 10
6.171875
 20
0.5747999999999998
 30
0.0
 40
0.5
  1
1-1/2-Disc
100
AcDbAttributeDefinition
  3

  2
NB
 70
     8
280
     0
  0
ATTDEF
  5
97
330
90
100
AcDbEntity
  8
AM_6
100
AcDbText
 10
6.171875
 20
0.0747999999999998
 30
0.0
 40
0.5
  1
$SS.-Disc
100
AcDbAttributeDefinition
  3

  2
NBSYN
 70
     8
280
     0
  0
ATTDEF
  5
98
330
90
100
AcDbEntity
  8
AM_6
100
AcDbText
 10
6.171875
 20
-0.4252000000000002
 30
0.0
 40
0.5
  1
1-1/2-Disc
100
AcDbAttributeDefinition
  3

  2
LINA
 70
     8
280
     0
  0
ATTDEF
  5
99
330
90
100
AcDbEntity
  8
AM_6
100
AcDbText
 10
6.171875
 20
-0.9252000000000002
 30
0.0
 40
0.5
  1
1-1/2
100
AcDbAttributeDefinition
  3

  2
SS
 70
     8
280
     0
  0
ATTDEF
  5
9A
330
90
100
AcDbEntity
  8
AM_6
100
AcDbText
 10
6.171875
 20
-1.4252
 30
0.0
 40
0.5
  1
2.06
100
AcDbAttributeDefinition
  3

  2
CC
 70
     8
280
     0
  0
ATTDEF
  5
9B
330
90
100
AcDbEntity
  8
AM_6
100
AcDbText
 10
6.171875
 20
-1.9252
 30
0.0
 40
0.5
  1
0.35
100
AcDbAttributeDefinition
  3

  2
CSD
 70
     8
280
     0
  0
ATTDEF
  5
9C
330
90
100
AcDbEntity
  8
AM_6
100
AcDbText
 10
6.171875
 20
-2.4252
 30
0.0
 40
0.5
  1
1.500000
100
AcDbAttributeDefinition
  3

  2
SS1
 70
     8
280
     0
  0
ATTDEF
  5
9D
330
90
100
AcDbEntity
  8
AM_6
100
AcDbText
 10
6.171875
 20
-2.9252
 30
0.0
 40
0.5
  1
3.1496
100
AcDbAttributeDefinition
  3

  2
A
 70
     8
280
     0
  0
ATTDEF
  5
9E
330
90
100
AcDbEntity
  8
AM_6
100
AcDbText
 10
6.171875
 20
-3.4252
 30
0.0
 40
0.5
  1
61/64
100
AcDbAttributeDefinition
  3

  2
B
 70
     8
280
     0
  0
ATTDEF
  5
9F
330
90
100
AcDbEntity
  8
AM_6
100
AcDbText
 10
6.171875
 20
-3.9252
 30
0.0
 40
0.5
  1
0.953125
100
AcDbAttributeDefinition
  3

  2
B1
 70
     8
280
     0
  0
ATTDEF
  5
A0
330
90
100
AcDbEntity
  8
AM_6
100
AcDbText
 10
6.171875
 20
-4.4252
 30
0.0
 40
0.5
  1
2-17/32
100
AcDbAttributeDefinition
  3

  2
C
 70
     8
280
     0
  0
ATTDEF
  5
A1
330
90
100
AcDbEntity
  8
AM_6
100
AcDbText
 10
6.171875
 20
-4.9252
 30
0.0
 40
0.5
  1
2.531250
100
AcDbAttributeDefinition
  3

  2
C1
 70
     8
280
     0
  0
ATTDEF
  5
A2
330
90
100
AcDbEntity
  8
AM_6
100
AcDbText
 10
6.171875
 20
-5.4252
 30
0.0
 40
0.5
  1
0.970
100
AcDbAttributeDefinition
  3

  2
D
 70
     8
280
     0
  0
ATTDEF
  5
A3
330
90
100
AcDbEntity
  8
AM_6
100
AcDbText
 10
6.171875
 20
-5.9252
 30
0.0
 40
0.5
  1
2-21/32
100
AcDbAttributeDefinition
  3

  2
E
 70
     8
280
     0
  0
ATTDEF
  5
A4
330
90
100
AcDbEntity
  8
AM_6
100
AcDbText
 10
6.171875
 20
-6.4252
 30
0.0
 40
0.5
  1
2.656250
100
AcDbAttributeDefinition
  3

  2
E1
 70
     8
280
     0
  0
ATTDEF
  5
A5
330
90
100
AcDbEntity
  8
AM_6
100
AcDbText
 10
6.171875
 20
-6.9252
 30
0.0
 40
0.5
  1
0.286
100
AcDbAttributeDefinition
  3

  2
F
 70
     8
280
     0
  0
ATTDEF
  5
A6
330
90
100
AcDbEntity
  8
AM_6
100
AcDbText
 10
6.171875
 20
-7.4252
 30
0.0
 40
0.5
  1
baldor
100
AcDbAttributeDefinition
  3

  2
COMPANY
 70
     8
280
     0
  0
LINE
  5
A9
330
90
100
AcDbEntity
  8
AM_9
100
AcDbLine
 10
1.078125
 20
-1.03
 30
0.0
 11
1.171875
 21
-1.03
 31
0.0
  0
LINE
  5
AA
330
90
100
AcDbEntity
  8
AM_9
100
AcDbLine
 10
1.171875
 20
1.03
 30
0.0
 11
1.078125
 21
1.03
 31
0.0
  0
LINE
  5
AB
330
90
100
AcDbEntity
  8
AM_9
100
AcDbLine
 10
0.7718750000000001
 20
-1.48105
 30
0.0
 11
1.078125
 21
-1.48105
 31
0.0
  0
LINE
  5
AC
330
90
100
AcDbEntity
  8
AM_9
100
AcDbLine
 10
1.078125
 20
1.48105
 30
0.0
 11
0.7718750000000001
 21
1.48105
 31
0.0
  0
LINE
  5
AD
330
90
100
AcDbEntity
  8
AM_9
100
AcDbLine
 10
1.171875
 20
1.48105
 30
0.0
 11
1.171875
 21
-1.48105
 31
0.0
  0
ARC
  5
AE
330
90
100
AcDbEntity
  8
AM_9
100
AcDbCircle
 10
1.078125
 20
-1.48105
 30
0.0
 40
0.0937499999999996
100
AcDbArc
 50
270.0
 51
0.0
  0
ARC
  5
AF
330
90
100
AcDbEntity
  8
AM_9
100
AcDbCircle
 10
1.078125
 20
1.48105
 30
0.0
 40
0.0937499999999998
100
AcDbArc
 50
0.0
 51
90.0
  0
LINE
  5
B0
330
90
100
AcDbEntity
  8
AM_9
100
AcDbLine
 10
0.7718750000000001
 20
-1.5748
 30
0.0
 11
1.078125
 21
-1.5748
 31
0.0
  0
LINE
  5
B1
330
90
100
AcDbEntity
  8
AM_9
100
AcDbLine
 10
1.078125
 20
1.5748
 30
0.0
 11
0.7718750000000001
 21
1.5748
 31
0.0
  0
LINE
  5
B2
330
90
100
AcDbEntity
  8
AM_9
100
AcDbLine
 10
0.7718750000000001
 20
1.5748
 30
0.0
 11
0.7718750000000001
 21
-1.5748
 31
0.0
  0
LINE
  5
B3
330
90
100
AcDbEntity
  8
AM_9
100
AcDbLine
 10
1.078125
 20
1.5748
 30
0.0
 11
1.078125
 21
-1.5748
 31
0.0
  0
ENDBLK
  5
93
330
90
100
AcDbEntity
  8
0
100
AcDbBlockEnd
  0
BLOCK
  5
B6
330
B4
100
AcDbEntity
  8
0
100
AcDbBlockBegin
  2
3_1_1_2CS2i_0_in_070673_2
 70
     2
 10
0.0
 20
0.0
 30
0.0
  3
3_1_1_2CS2i_0_in_070673_2
  1

  0
ATTDEF
  5
B8
330
B4
100
AcDbEntity
  8
AM_6
100
AcDbText
 10
4.447
 20
1.375
 30
0.0
 40
0.5
  1
S-2000 Collar -Inch
100
AcDbAttributeDefinition
  3

  2
NN
 70
     8
280
     0
  0
ATTDEF
  5
B9
330
B4
100
AcDbEntity
  8
AM_6
100
AcDbText
 10
4.447
 20
0.875
 30
0.0
 40
0.5
  1
S-2000 Bearings
100
AcDbAttributeDefinition
  3

  2
NT
 70
     8
280
     0
  0
ATTDEF
  5
BA
330
B4
100
AcDbEntity
  8
AM_6
100
AcDbText
 10
4.447
 20
0.375
 30
0.0
 40
0.5
  1
1-1/2CS2i
100
AcDbAttributeDefinition
  3

  2
NB
 70
     8
280
     0
  0
ATTDEF
  5
BB
330
B4
100
AcDbEntity
  8
AM_6
100
AcDbText
 10
4.447
 20
-0.125
 30
0.0
 40
0.5
  1
$BORE.CS2i
100
AcDbAttributeDefinition
  3

  2
NBSYN
 70
     8
280
     0
  0
ATTDEF
  5
BC
330
B4
100
AcDbEntity
  8
AM_6
100
AcDbText
 10
4.447
 20
-0.625
 30
0.0
 40
0.5
  1
1-1/2CS2i
100
AcDbAttributeDefinition
  3

  2
LINA
 70
     8
280
     0
  0
ATTDEF
  5
BD
330
B4
100
AcDbEntity
  8
AM_6
100
AcDbText
 10
4.447
 20
-1.125
 30
0.0
 40
0.5
  1
1-1/2
100
AcDbAttributeDefinition
  3

  2
BORE
 70
     8
280
     0
  0
ATTDEF
  5
BE
330
B4
100
AcDbEntity
  8
AM_6
100
AcDbText
 10
4.447
 20
-1.625
 30
0.0
 40
0.5
  1
1.500000
100
AcDbAttributeDefinition
  3

  2
BORE1
 70
     8
280
     0
  0
ATTDEF
  5
BF
330
B4
100
AcDbEntity
  8
AM_6
100
AcDbText
 10
4.447
 20
-2.125
 30
0.0
 40
0.5
  1
2-3/4
100
AcDbAttributeDefinition
  3

  2
L1
 70
     8
280
     0
  0
ATTDEF
  5
C0
330
B4
100
AcDbEntity
  8
AM_6
100
AcDbText
 10
4.447
 20
-2.625
 30
0.0
 40
0.5
  1
2.75000
100
AcDbAttributeDefinition
  3

  2
L
 70
     8
280
     0
  0
ATTDEF
  5
C1
330
B4
100
AcDbEntity
  8
AM_6
100
AcDbText
 10
4.447
 20
-3.125
 30
0.0
 40
0.5
  1
2.65625
100
AcDbAttributeDefinition
  3

  2
L2
 70
     8
280
     0
  0
ATTDEF
  5
C2
330
B4
100
AcDbEntity
  8
AM_6
100
AcDbText
 10
4.447
 20
-3.625
 30
0.0
 40
0.5
  1
3.38
100
AcDbAttributeDefinition
  3

  2
A
 70
     8
280
     0
  0
ATTDEF
  5
C3
330
B4
100
AcDbEntity
  8
AM_6
100
AcDbText
 10
4.447
 20
-4.125
 30
0.0
 40
0.5
  1
1.50
100
AcDbAttributeDefinition
  3

  2
B
 70
     8
280
     0
  0
ATTDEF
  5
C4
330
B4
100
AcDbEntity
  8
AM_6
100
AcDbText
 10
4.447
 20
-4.625
 30
0.0
 40
0.5
  1
2.06
100
AcDbAttributeDefinition
  3

  2
C
 70
     8
280
     0
  0
ATTDEF
  5
C5
330
B4
100
AcDbEntity
  8
AM_6
100
AcDbText
 10
4.447
 20
-5.125
 30
0.0
 40
0.5
  1
3.25
100
AcDbAttributeDefinition
  3

  2
D
 70
     8
280
     0
  0
ATTDEF
  5
C6
330
B4
100
AcDbEntity
  8
AM_6
100
AcDbText
 10
4.447
 20
-5.625
 30
0.0
 40
0.5
  1
0.35
100
AcDbAttributeDefinition
  3

  2
E
 70
     8
280
     0
  0
ATTDEF
  5
C7
330
B4
100
AcDbEntity
  8
AM_6
100
AcDbText
 10
4.447
 20
-6.125
 30
0.0
 40
0.5
  1
0.286
100
AcDbAttributeDefinition
  3

  2
F
 70
     8
280
     0
  0
ATTDEF
  5
C8
330
B4
100
AcDbEntity
  8
AM_6
100
AcDbText
 10
4.447
 20
-6.625
 30
0.0
 40
0.5
  1
5/16-18
100
AcDbAttributeDefinition
  3

  2
CS
 70
     8
280
     0
  0
ATTDEF
  5
C9
330
B4
100
AcDbEntity
  8
AM_6
100
AcDbText
 10
4.447
 20
-7.125
 30
0.0
 40
0.5
  1
0.3125
100
AcDbAttributeDefinition
  3

  2
NDM
 70
     8
280
     0
  0
ATTDEF
  5
CA
330
B4
100
AcDbEntity
  8
AM_6
100
AcDbText
 10
4.447
 20
-7.625
 30
0.0
 40
0.5
  1
0.2520
100
AcDbAttributeDefinition
  3

  2
KDM
 70
     8
280
     0
  0
ATTDEF
  5
CB
330
B4
100
AcDbEntity
  8
AM_6
100
AcDbText
 10
4.447
 20
-8.125
 30
0.0
 40
0.5
  1
1
100
AcDbAttributeDefinition
  3

  2
DD
 70
     8
280
     0
  0
ATTDEF
  5
CC
330
B4
100
AcDbEntity
  8
AM_6
100
AcDbText
 10
4.447
 20
-8.625
 30
0.0
 40
0.5
  1
baldor
100
AcDbAttributeDefinition
  3

  2
COMPANY
 70
     8
280
     0
  0
LINE
  5
CD
330
B4
100
AcDbEntity
  8
AM_9
100
AcDbLine
 10
-0.7128
 20
1.039216666666661
 30
0.0
 11
-0.7128
 21
1.34495
 31
0.0
  0
LINE
  5
CE
330
B4
100
AcDbEntity
  8
AM_9
100
AcDbLine
 10
-0.9652
 20
1.328086163487361
 30
0.0
 11
-0.9652
 21
1.039216666666661
 31
0.0
  0
LINE
  5
CF
330
B4
100
AcDbEntity
  8
AM_9
100
AcDbLine
 10
-0.9652
 20
1.039216666666661
 30
0.0
 11
-0.7128
 21
1.039216666666661
 31
0.0
  0
LINE
  5
D0
330
B4
100
AcDbEntity
  8
AM_9
100
AcDbLine
 10
-0.9652
 20
1.039216666666661
 30
0.0
 11
-0.9742543124604365
 21
1.030162354206226
 31
0.0
  0
LINE
  5
D1
330
B4
100
AcDbEntity
  8
AM_9
100
AcDbLine
 10
-0.7038041009351257
 20
1.030220767601788
 30
0.0
 11
-0.7128
 21
1.039216666666661
 31
0.0
  0
LINE
  5
D2
330
B4
100
AcDbEntity
  8
AM_9
100
AcDbLine
 10
-0.839
 20
1.34495
 30
0.0
 11
-0.7128
 21
1.34495
 31
0.0
  0
LINE
  5
D3
330
B4
100
AcDbEntity
  8
AM_9
100
AcDbLine
 10
-0.7128
 20
1.34495
 30
0.0
 11
-0.68275
 21
1.375
 31
0.0
  0
LWPOLYLINE
  5
D4
330
B4
100
AcDbEntity
  8
AM_9
100
AcDbPolyline
 90
       39
 70
     0
 43
0.0
 10
-0.741116833062571
 20
0.342072760010716
 10
-0.7285029891879269
 20
0.3576428693506656
 10
-0.7183230371741729
 20
0.3746144374717397
 10
-0.7096052603102608
 20
0.3961116607543901
 10
-0.704691538561018
 20
0.4184119341135765
 10
-0.7037593379834577
 20
0.4417378314205234
 10
-0.7070334710045912
 20
0.4646207901325312
 10
-0.7146007524807565
 20
0.4866404434838053
 10
-0.7262401211375727
 20
0.5069596956867745
 10
-0.7414766011682823
 20
0.5246885637191114
 10
-0.760069779287333
 20
0.5396547463403879
 10
-0.7804018868658259
 20
0.5507655984540446
 10
-0.8027605724102009
 20
0.558509003774946
 10
-0.8245398997857145
 20
0.5623167344003608
 10
-0.8467752637056192
 20
0.5628367738380113
 10
-0.8675282988992726
 20
0.5602421549397771
 10
-0.8874903834720955
 20
0.5547947228341827
 10
-0.9062836981314889
 20
0.5465640775371869
 10
-0.9233266362692679
 20
0.5358741898888099
 10
-0.9391182013894483
 20
0.5221132796922197
 10
-0.952246269160129
 20
0.5062673685663553
 10
-0.9630945047433118
 20
0.4873163369832592
 10
-0.9704043465885754
 20
0.4668691695546934
 10
-0.9740863723684998
 20
0.4442869216571758
 10
-0.9736442526851965
 20
0.421201426421891
 10
-0.9689047988560596
 20
0.3977991796571316
 10
-0.9599852244044174
 20
0.3752258111704323
 10
-0.9471164338774263
 20
0.3543550828782494
 10
-0.9305829061202492
 20
0.3357525884283254
 10
-0.9115621028125679
 20
0.3207549751852338
 10
-0.8900111887800921
 20
0.3092069346310674
 10
-0.8683395956583689
 20
0.3021742393179089
 10
-0.8457044842747834
 20
0.2989613574359912
 10
-0.8244586537444201
 20
0.2996231599950142
 10
-0.8036323047026396
 20
0.3037049028914063
 10
-0.7841046631107491
 20
0.310937049473274
 10
-0.7660207829645265
 20
0.3210083704886006
 10
-0.7529052621021374
 20
0.3308549347460737
 10
-0.741116833062571
 20
0.3420727600107161
  0
LINE
  5
D5
330
B4
100
AcDbEntity
  8
AM_9
100
AcDbLine
 10
-1.125
 20
-1.03
 30
0.0
 11
-0.553
 21
-1.03
 31
0.0
  0
LINE
  5
D6
330
B4
100
AcDbEntity
  8
AM_9
100
AcDbLine
 10
-0.553
 20
1.03
 30
0.0
 11
-0.7041034992086641
 21
1.03
 31
0.0
  0
LINE
  5
D7
330
B4
100
AcDbEntity
  8
AM_9
100
AcDbLine
 10
-0.9740338405124751
 20
1.03
 30
0.0
 11
-1.125
 21
1.03
 31
0.0
  0
LWPOLYLINE
  5
D8
330
B4
100
AcDbEntity
  8
AM_9
100
AcDbPolyline
 90
       21
 70
     0
 43
0.0
 10
-0.9744166666662462
 20
1.029999999999937
 10
-0.9742916580329352
 20
1.029981085276194
 10
-0.9710754273493799
 20
1.029500183660362
 10
-0.9637471463728039
 20
1.028445838517683
 10
-0.9520332457860867
 20
1.026880884928272
 10
-0.9371476540984431
 20
1.025108016048413
 10
-0.9183283958514733
 20
1.023216557386044
 10
-0.8984033316360607
 20
1.02164497587827
 10
-0.8756883406675026
 20
1.020400023263993
 10
-0.8542675405221297
 20
1.019763875754073
 10
-0.8316563952954203
 20
1.019661377182347
 10
-0.8111717396439229
 20
1.020073403156144
 10
-0.7908980585755188
 20
1.02095243956671
 10
-0.7723028058082416
 20
1.022168520518038
 10
-0.7550054047294068
 20
1.02364885571841
 10
-0.7393474534714546
 20
1.025276196241047
 10
-0.7259993730102491
 20
1.02687673508421
 10
-0.7151983218880741
 20
1.028314017784905
 10
-0.7077102149436388
 20
1.029384392792493
 10
-0.703958311504054
 20
1.029943313047362
 10
-0.7035833333334189
 20
1.029999999999988
  0
LINE
  5
D9
330
B4
100
AcDbEntity
  8
AM_9
100
AcDbLine
 10
-0.7128
 20
0.4391919412386283
 30
0.0
 11
-0.7127999999999999
 21
0.5684004311281539
 31
0.0
  0
LINE
  5
DA
330
B4
100
AcDbEntity
  8
AM_9
100
AcDbLine
 10
-0.9651999999999998
 20
0.5612734845163312
 30
0.0
 11
-0.9652
 21
0.4391919412386283
 31
0.0
  0
ELLIPSE
  5
DB
330
B4
100
AcDbEntity
  8
AM_9
100
AcDbEllipse
 10
-0.8390000000000006
 20
0.4391919412386278
 30
0.0
 11
0.1262000000000006
 21
0.0
 31
0.0
210
0.0
220
0.0
230
1.0
 40
0.9063077870366507
 41
2.58224716350079
 42
6.883425513518683
  0
LINE
  5
DC
330
B4
100
AcDbEntity
  8
AM_9
100
AcDbLine
 10
-0.839
 20
0.4540243884041286
 30
0.0
 11
-0.839
 21
0.673126225968746
 31
0.0
  0
LINE
  5
DD
330
B4
100
AcDbEntity
  8
AM_9
100
AcDbLine
 10
-0.625
 20
-1.375
 30
0.0
 11
-0.553
 21
-1.375
 31
0.0
  0
LINE
  5
DE
330
B4
100
AcDbEntity
  8
AM_9
100
AcDbLine
 10
-0.553
 20
1.375
 30
0.0
 11
-0.625
 21
1.375
 31
0.0
  0
LINE
  5
DF
330
B4
100
AcDbEntity
  8
AM_9
100
AcDbLine
 10
-0.553
 20
1.375
 30
0.0
 11
-0.553
 21
-1.375
 31
0.0
  0
LINE
  5
E1
330
B4
100
AcDbEntity
  8
AM_5
100
AcDbLine
 10
-0.99525
 20
1.328125
 30
0.0
 11
-0.99525
 21
1.03
 31
0.0
  0
LINE
  5
E2
330
B4
100
AcDbEntity
  8
AM_5
100
AcDbLine
 10
-0.917125
 20
1.009166666666667
 30
0.0
 11
-0.99525
 21
1.009166666666667
 31
0.0
  0
LINE
  5
E3
330
B4
100
AcDbEntity
  8
AM_5
100
AcDbLine
 10
-0.68275
 20
1.375
 30
0.0
 11
-0.68275
 21
1.03
 31
0.0
  0
LINE
  5
E4
330
B4
100
AcDbEntity
  8
AM_5
100
AcDbLine
 10
-0.760875
 20
1.009166666666667
 30
0.0
 11
-0.68275
 21
1.009166666666667
 31
0.0
  0
ELLIPSE
  5
E6
330
B4
100
AcDbEntity
  8
AM_4
100
AcDbEllipse
 10
-0.8389999999999999
 20
0.4391919412386283
 30
0.0
 11
0.1262000000000001
 21
0.0
 31
0.0
210
0.0
220
0.0
230
1.0
 40
0.9063077870366495
 41
1.570796326794897
 42
2.582247163500795
  0
LWPOLYLINE
  5
E7
330
B4
100
AcDbEntity
  8
AM_4
100
AcDbPolyline
 90
       11
 70
     0
 43
0.0
 10
-0.9651999994605885
 20
0.5612793038508381
 10
-0.9643827697420564
 20
0.5742525279795131
 10
-0.9602097914276716
 20
0.592897188304635
 10
-0.9526528130313218
 20
0.6105297327198234
 10
-0.9418624081130658
 20
0.626683744335741
 10
-0.9281954275088081
 20
0.6409339142733167
 10
-0.9119288713105034
 20
0.6529305996906021
 10
-0.8936011691324248
 20
0.6623432374875075
 10
-0.8736998434686611
 20
0.6688988803997016
 10
-0.8528118039968398
 20
0.6724696563666862
 10
-0.839
 20
0.673126225968746
  0
ELLIPSE
  5
E8
330
B4
100
AcDbEntity
  8
AM_4
100
AcDbEllipse
 10
-0.8389999999999997
 20
0.568400431128154
 30
0.0
 11
0.1261999999999999
 21
0.0
 31
0.0
210
0.0
220
0.0
230
1.0
 40
0.9063077870366493
 41
0.0
 42
1.570796326794897
  0
ELLIPSE
  5
E9
330
B4
100
AcDbEntity
  8
AM_4
100
AcDbEllipse
 10
-0.8390000000000005
 20
0.4391919412386274
 30
0.0
 11
0.1262000000000009
 21
0.0
 31
0.0
210
0.0
220
0.0
230
1.0
 40
0.9063077870366509
 41
0.6002402063391008
 42
1.570796326794897
  0
LINE
  5
EA
330
B4
100
AcDbEntity
  8
AM_4
100
AcDbLine
 10
-0.839
 20
-1.375
 30
0.0
 11
-0.8389999999999999
 21
0.4540243884041286
 31
0.0
  0
ELLIPSE
  5
EB
330
B4
100
AcDbEntity
  8
AM_4
100
AcDbEllipse
 10
-0.839
 20
0.5684004311281539
 30
0.0
 11
0.1262000000000001
 21
0.0
 31
0.0
210
0.0
220
0.0
230
1.0
 40
0.9063077870366495
 41
4.71238898038469
 42
6.283185307179586
  0
LINE
  5
EC
330
B4
100
AcDbEntity
  8
AM_4
100
AcDbLine
 10
-1.125
 20
1.232791666666667
 30
0.0
 11
-1.125
 21
-1.232791666666667
 31
0.0
  0
ARC
  5
ED
330
B4
100
AcDbEntity
  8
AM_4
100
AcDbCircle
 10
-1.029666666666667
 20
-1.232791666666667
 30
0.0
 40
0.0953333333333335
100
AcDbArc
 50
180.0
 51
270.0
  0
ARC
  5
EE
330
B4
100
AcDbEntity
  8
AM_4
100
AcDbCircle
 10
-1.029666666666667
 20
1.232791666666667
 30
0.0
 40
0.0953333333333335
100
AcDbArc
 50
90.0
 51
180.0
  0
LWPOLYLINE
  5
EF
330
B4
100
AcDbEntity
  8
AM_4
100
AcDbPolyline
 90
       11
 70
     0
 43
0.0
 10
-0.8389999999999999
 20
0.4443741405206955
 10
-0.8601314470934758
 20
0.4460730147513535
 10
-0.8806659543678991
 20
0.4510651019306764
 10
-0.9000063313337007
 20
0.4592341589564921
 10
-0.9176329986566002
 20
0.4702776107509175
 10
-0.9330661590294789
 20
0.4839313497959742
 10
-0.945853249577083
 20
0.4997155039350314
 10
-0.9556090471211864
 20
0.5172133555590326
 10
-0.9620706193298455
 20
0.5358529389538452
 10
-0.9649987113759332
 20
0.5550340090220672
 10
-0.9651999994605885
 20
0.5612793038508381
  0
LWPOLYLINE
  5
F0
330
B4
100
AcDbEntity
  8
AM_4
100
AcDbPolyline
 90
       11
 70
     0
 43
0.0
 10
-0.839
 20
1.322115568180407
 10
-0.8598329771839495
 20
1.322279693772595
 10
-0.8806659543678992
 20
1.322771948363885
 10
-0.8997477616260582
 20
1.323510432965141
 10
-0.9176329986566002
 20
1.32445185797851
 10
-0.9328728630425076
 20
1.325443959600253
 10
-0.9458532495770832
 20
1.326426474618998
 10
-0.9555030411698903
 20
1.327238687737376
 10
-0.9620706193298455
 20
1.327831296877443
 10
-0.9649944404765028
 20
1.328105483256502
 10
-0.9651999999999564
 20
1.328124999999996
  0
LINE
  5
F1
330
B4
100
AcDbEntity
  8
AM_4
100
AcDbLine
 10
-1.029666666666667
 20
-1.328125
 30
0.0
 11
-0.839
 21
-1.328125
 31
0.0
  0
LINE
  5
F2
330
B4
100
AcDbEntity
  8
AM_4
100
AcDbLine
 10
-0.9647899725513349
 20
1.328125
 30
0.0
 11
-1.029666666666667
 21
1.328125
 31
0.0
  0
LINE
  5
F3
330
B4
100
AcDbEntity
  8
AM_4
100
AcDbLine
 10
-1.029666666666667
 20
1.328125
 30
0.0
 11
-1.029666666666667
 21
-1.328125
 31
0.0
  0
LINE
  5
F4
330
B4
100
AcDbEntity
  8
AM_4
100
AcDbLine
 10
-0.839
 20
1.366986120150041
 30
0.0
 11
-0.8389999999999999
 21
0.673126225968746
 31
0.0
  0
LWPOLYLINE
  5
F5
330
B4
100
AcDbEntity
  8
AM_4
100
AcDbPolyline
 90
       20
 70
     0
 43
0.0
 10
-0.8389999999999999
 20
0.712060847933556
 10
-0.819343768213998
 20
0.7110417279007345
 10
-0.7999733625115718
 20
0.7080055127829641
 10
-0.7743087648710238
 20
0.7005638011899226
 10
-0.7497898376763376
 20
0.689076887904278
 10
-0.7289551895200647
 20
0.6747177650532961
 10
-0.7107884417305418
 20
0.6567261169850116
 10
-0.6975662421021898
 20
0.6375390015711064
 10
-0.6881094965595109
 20
0.6157201069407844
 10
-0.6835338827187485
 20
0.5944913855738716
 10
-0.6831076757379649
 20
0.5720101051467508
 10
-0.686774795793293
 20
0.5507228643549761
 10
-0.6942306885823998
 20
0.5301269437706739
 10
-0.7053497293007349
 20
0.510679296821011
 10
-0.719677875021348
 20
0.4930148281165235
 10
-0.7375911630482924
 20
0.4770008883182446
 10
-0.7579904905934376
 20
0.4637826156352803
 10
-0.7812263630812696
 20
0.4533720290668613
 10
-0.80660550004842
 20
0.4464377804878872
 10
-0.839
 20
0.4433657479093907
  0
LINE
  5
F6
330
B4
100
AcDbEntity
  8
AM_4
100
AcDbLine
 10
-0.839
 20
-1.375
 30
0.0
 11
-0.625
 21
-1.375
 31
0.0
  0
LINE
  5
F7
330
B4
100
AcDbEntity
  8
AM_4
100
AcDbLine
 10
-0.625
 20
1.375
 30
0.0
 11
-0.68275
 21
1.375
 31
0.0
  0
LWPOLYLINE
  5
F8
330
B4
100
AcDbEntity
  8
AM_4
100
AcDbPolyline
 90
       11
 70
     0
 43
0.0
 10
-0.6827500000000318
 20
1.374999999999997
 10
-0.6831076757379649
 20
1.374963543381437
 10
-0.6866816802000519
 20
1.374603753150546
 10
-0.6942306885824
 20
1.373870707077001
 10
-0.7051712520078387
 20
1.372873314516525
 10
-0.7196778750213482
 20
1.371669886595542
 10
-0.7373357239544825
 20
1.370389074696999
 10
-0.7579904905934378
 20
1.369148571323816
 10
-0.7812263630812698
 20
1.368086741003399
 10
-0.8066055000484201
 20
1.367332328078934
 10
-0.839
 20
1.366986120150041
  0
ENDBLK
  5
B7
330
B4
100
AcDbEntity
  8
0
100
AcDbBlockEnd
  0
BLOCK
  5
FB
330
F9
100
AcDbEntity
  8
0
100
AcDbBlockBegin
  2
4_070002i_0_in_070673_2
 70
     2
 10
0.0
 20
0.0
 30
0.0
  3
4_070002i_0_in_070673_2
  1

  0
ATTDEF
  5
FD
330
F9
100
AcDbEntity
  8
AM_6
100
AcDbText
 10
6.532812499999999
 20
1.5748
 30
0.0
 40
0.5
  1
S-2000 Insert -Inch
100
AcDbAttributeDefinition
  3

  2
NN
 70
     8
280
     0
  0
ATTDEF
  5
FE
330
F9
100
AcDbEntity
  8
AM_6
100
AcDbText
 10
6.532812499999999
 20
1.0748
 30
0.0
 40
0.5
  1
S-2000 Bearings
100
AcDbAttributeDefinition
  3

  2
NT
 70
     8
280
     0
  0
ATTDEF
  5
FF
330
F9
100
AcDbEntity
  8
AM_6
100
AcDbText
 10
6.532812499999999
 20
0.5748000000000002
 30
0.0
 40
0.5
  1
070002i
100
AcDbAttributeDefinition
  3

  2
NB
 70
     8
280
     0
  0
ATTDEF
  5
100
330
F9
100
AcDbEntity
  8
AM_6
100
AcDbText
 10
6.532812499999999
 20
0.0748000000000002
 30
0.0
 40
0.5
  1
$PN.i
100
AcDbAttributeDefinition
  3

  2
NBSYN
 70
     8
280
     0
  0
ATTDEF
  5
101
330
F9
100
AcDbEntity
  8
AM_6
100
AcDbText
 10
6.532812499999999
 20
-0.4251999999999998
 30
0.0
 40
0.5
  1
070002i
100
AcDbAttributeDefinition
  3

  2
LINA
 70
     8
280
     0
  0
ATTDEF
  5
102
330
F9
100
AcDbEntity
  8
AM_6
100
AcDbText
 10
6.532812499999999
 20
-0.9251999999999998
 30
0.0
 40
0.5
  1
1-1/2
100
AcDbAttributeDefinition
  3

  2
SS
 70
     8
280
     0
  0
ATTDEF
  5
103
330
F9
100
AcDbEntity
  8
AM_6
100
AcDbText
 10
6.532812499999999
 20
-1.4252
 30
0.0
 40
0.5
  1
2.06
100
AcDbAttributeDefinition
  3

  2
CC
 70
     8
280
     0
  0
ATTDEF
  5
104
330
F9
100
AcDbEntity
  8
AM_6
100
AcDbText
 10
6.532812499999999
 20
-1.9252
 30
0.0
 40
0.5
  1
1.500000
100
AcDbAttributeDefinition
  3

  2
SS1
 70
     8
280
     0
  0
ATTDEF
  5
105
330
F9
100
AcDbEntity
  8
AM_6
100
AcDbText
 10
6.532812499999999
 20
-2.4252
 30
0.0
 40
0.5
  1
070002
100
AcDbAttributeDefinition
  3

  2
PN
 70
     8
280
     0
  0
ATTDEF
  5
106
330
F9
100
AcDbEntity
  8
AM_6
100
AcDbText
 10
6.532812499999999
 20
-2.9252
 30
0.0
 40
0.5
  1
INS-S2-108R
100
AcDbAttributeDefinition
  3

  2
DESCRIPTION
 70
     8
280
     0
  0
ATTDEF
  5
107
330
F9
100
AcDbEntity
  8
AM_6
100
AcDbText
 10
6.532812499999999
 20
-3.4252
 30
0.0
 40
0.5
  1
Contact Seal
100
AcDbAttributeDefinition
  3

  2
ST
 70
     8
280
     0
  0
ATTDEF
  5
108
330
F9
100
AcDbEntity
  8
AM_6
100
AcDbText
 10
6.532812499999999
 20
-3.9252
 30
0.0
 40
0.5
  1
1
100
AcDbAttributeDefinition
  3

  2
ST1
 70
     8
280
     0
  0
ATTDEF
  5
109
330
F9
100
AcDbEntity
  8
AM_6
100
AcDbText
 10
6.532812499999999
 20
-4.4252
 30
0.0
 40
0.5
  1
3.1496
100
AcDbAttributeDefinition
  3

  2
A
 70
     8
280
     0
  0
ATTDEF
  5
10A
330
F9
100
AcDbEntity
  8
AM_6
100
AcDbText
 10
6.532812499999999
 20
-4.9252
 30
0.0
 40
0.5
  1
61/64
100
AcDbAttributeDefinition
  3

  2
B
 70
     8
280
     0
  0
ATTDEF
  5
10B
330
F9
100
AcDbEntity
  8
AM_6
100
AcDbText
 10
6.532812499999999
 20
-5.4252
 30
0.0
 40
0.5
  1
2-17/32
100
AcDbAttributeDefinition
  3

  2
C
 70
     8
280
     0
  0
ATTDEF
  5
10C
330
F9
100
AcDbEntity
  8
AM_6
100
AcDbText
 10
6.532812499999999
 20
-5.9252
 30
0.0
 40
0.5
  1
0.970
100
AcDbAttributeDefinition
  3

  2
D
 70
     8
280
     0
  0
ATTDEF
  5
10D
330
F9
100
AcDbEntity
  8
AM_6
100
AcDbText
 10
6.532812499999999
 20
-6.4252
 30
0.0
 40
0.5
  1
2-21/32
100
AcDbAttributeDefinition
  3

  2
E
 70
     8
280
     0
  0
ATTDEF
  5
10E
330
F9
100
AcDbEntity
  8
AM_6
100
AcDbText
 10
6.532812499999999
 20
-6.9252
 30
0.0
 40
0.5
  1
0.28125
100
AcDbAttributeDefinition
  3

  2
F
 70
     8
280
     0
  0
ATTDEF
  5
10F
330
F9
100
AcDbEntity
  8
AM_6
100
AcDbText
 10
6.532812499999999
 20
-7.4252
 30
0.0
 40
0.5
  1
1
100
AcDbAttributeDefinition
  3

  2
DD
 70
     8
280
     0
  0
ATTDEF
  5
110
330
F9
100
AcDbEntity
  8
AM_6
100
AcDbText
 10
6.532812499999999
 20
-7.9252
 30
0.0
 40
0.5
  1
baldor
100
AcDbAttributeDefinition
  3

  2
COMPANY
 70
     8
280
     0
  0
LINE
  5
111
330
F9
100
AcDbEntity
  8
AM_9
100
AcDbLine
 10
-1.014
 20
1.029900488665567
 30
0.0
 11
-1.014
 21
0.7499999999999999
 31
0.0
  0
LINE
  5
112
330
F9
100
AcDbEntity
  8
AM_9
100
AcDbLine
 10
-0.6640000000000003
 20
0.7500000000000001
 30
0.0
 11
-0.664
 21
1.02997330419809
 31
0.0
  0
LWPOLYLINE
  5
113
330
F9
100
AcDbEntity
  8
AM_9
100
AcDbPolyline
 90
       11
 70
     0
 43
0.0
 10
-0.839
 20
0.729297607290741
 10
-0.8104871417041426
 20
0.7298547684904165
 10
-0.7819742834082852
 20
0.7315237059404148
 10
-0.7558748009040401
 20
0.7340196173977525
 10
-0.7313931149955775
 20
0.7371934900013393
 10
-0.7101453141069911
 20
0.7405933635110336
 10
-0.6919586367428914
 20
0.7439732270105617
 10
-0.678192235215275
 20
0.7468159995708844
 10
-0.6687089344373043
 20
0.7489152468807656
 10
-0.6643958941078246
 20
0.7499077235196381
 10
-0.6640000000009925
 20
0.7499999999997684
  0
LINE
  5
114
330
F9
100
AcDbEntity
  8
AM_9
100
AcDbLine
 10
1.40625
 20
0.7499999999999999
 30
0.0
 11
-0.6639999999999999
 21
0.7499999999999999
 31
0.0
  0
LINE
  5
115
330
F9
100
AcDbEntity
  8
AM_9
100
AcDbLine
 10
-1.014
 20
0.7499999999999999
 30
0.0
 11
-1.125
 21
0.7499999999999999
 31
0.0
  0
LINE
  5
116
330
F9
100
AcDbEntity
  8
AM_9
100
AcDbLine
 10
-1.125
 20
-0.7499999999999999
 30
0.0
 11
1.40625
 21
-0.7499999999999999
 31
0.0
  0
LINE
  5
117
330
F9
100
AcDbEntity
  8
AM_9
100
AcDbLine
 10
-1.009308546431651
 20
0.7489192219376278
 30
0.0
 11
-1.013999999997232
 21
0.749999999999354
 31
0.0
  0
LINE
  5
118
330
F9
100
AcDbEntity
  8
AM_9
100
AcDbLine
 10
-0.8273520110129917
 20
0.7293906193854001
 30
0.0
 11
-0.8421991067246271
 21
0.7293046237916193
 31
0.0
  0
LWPOLYLINE
  5
119
330
F9
100
AcDbEntity
  8
AM_9
100
AcDbPolyline
 90
       11
 70
     0
 43
0.0
 10
-1.013999999997232
 20
0.749999999999354
 10
-1.012492340081
 20
0.7496496462126702
 10
-1.006234347908089
 20
0.748226120314069
 10
-0.995729766129357
 20
0.7459485368247348
 10
-0.9806943843849965
 20
0.7429349221609138
 10
-0.9619154636530245
 20
0.739583133396806
 10
-0.9391365083319867
 20
0.7361401499041619
 10
-0.9138032030951622
 20
0.7331238089117662
 10
-0.8854648765145234
 20
0.730776289126508
 10
-0.8626768009323847
 20
0.7296818422452293
 10
-0.839
 20
0.729297607290741
  0
LWPOLYLINE
  5
11A
330
F9
100
AcDbEntity
  8
AM_9
100
AcDbPolyline
 90
       11
 70
     0
 43
0.0
 10
-0.839
 20
0.1496106243534505
 10
-0.8104871417041426
 20
0.1519654303822474
 10
-0.7819742834082852
 20
0.1592083924809343
 10
-0.7558748009040401
 20
0.170641045898039
 10
-0.7313931149955775
 20
0.1864751830626246
 10
-0.7101453141069911
 20
0.2056703013479313
 10
-0.6919586367428914
 20
0.2284184374912337
 10
-0.678192235215275
 20
0.2530509143378805
 10
-0.6687089344373043
 20
0.2799601136035007
 10
-0.6643958941078246
 20
0.3062623348724931
 10
-0.6640000003383079
 20
0.3169538342538354
  0
LINE
  5
11B
330
F9
100
AcDbEntity
  8
AM_9
100
AcDbLine
 10
-1.014
 20
0.4352968095929204
 30
0.0
 11
-1.014
 21
0.3169279517635814
 31
0.0
  0
LINE
  5
11C
330
F9
100
AcDbEntity
  8
AM_9
100
AcDbLine
 10
-0.664
 20
0.3169040410036654
 30
0.0
 11
-0.664
 21
0.4352968095929205
 31
0.0
  0
LWPOLYLINE
  5
11D
330
F9
100
AcDbEntity
  8
AM_9
100
AcDbPolyline
 90
        5
 70
     0
 43
0.0
 10
-1.001260719311688
 20
0.3751569684350389
 10
-1.002138401120394
 20
0.3732293436159777
 10
-1.010382536552193
 20
0.3486920473863864
 10
-1.013912049262924
 20
0.3219827896718032
 10
-1.013999999056056
 20
0.3169801696015288
  0
LWPOLYLINE
  5
11E
330
F9
100
AcDbEntity
  8
AM_9
100
AcDbPolyline
 90
        7
 70
     0
 43
0.0
 10
-0.8980062802146432
 20
0.4585377762073281
 10
-0.9011543659227373
 20
0.4575950855948316
 10
-0.9272991838844964
 20
0.4473995651784858
 10
-0.9507528789860598
 20
0.4338654403037005
 10
-0.9717229797258673
 20
0.416650031114628
 10
-0.988852698018725
 20
0.3965688806955769
 10
-1.001260719311688
 20
0.3751569684350389
  0
LWPOLYLINE
  5
11F
330
F9
100
AcDbEntity
  8
AM_9
100
AcDbPolyline
 90
        8
 70
     0
 43
0.0
 10
-0.6768327464478007
 20
0.375357657334157
 10
-0.6800456236646613
 20
0.3817937266989248
 10
-0.6940154354744063
 20
0.4030663919470979
 10
-0.7123341576605272
 20
0.4222660819749846
 10
-0.7340721493205681
 20
0.4383202852002809
 10
-0.7594836097997548
 20
0.4513267137448416
 10
-0.7865629634458533
 20
0.4603265269961303
 10
-0.7954430723075395
 20
0.4623763044058241
  0
LWPOLYLINE
  5
120
330
F9
100
AcDbEntity
  8
AM_9
100
AcDbPolyline
 90
        4
 70
     0
 43
0.0
 10
-0.6640000003383079
 20
0.3169538342538354
 10
-0.6649283131723795
 20
0.3331871287581777
 10
-0.6701154855530204
 20
0.3579327258066261
 10
-0.6768327464478007
 20
0.375357657334157
  0
LWPOLYLINE
  5
121
330
F9
100
AcDbEntity
  8
AM_9
100
AcDbPolyline
 90
       11
 70
     0
 43
0.0
 10
-1.013999999056056
 20
0.3169801696015288
 10
-1.012492340081
 20
0.2960414439781757
 10
-1.006234347908089
 20
0.2694914792026076
 10
-0.9957297661293568
 20
0.2446944935997906
 10
-0.9806943843849965
 20
0.2208982402671817
 10
-0.9619154636530245
 20
0.1996658370664184
 10
-0.9391365083319865
 20
0.1810339579736503
 10
-0.9138032030951619
 20
0.1664471993484122
 10
-0.8854648765145232
 20
0.1559282917166569
 10
-0.8626768009323845
 20
0.1512313361296733
 10
-0.839
 20
0.1496106243534505
  0
LWPOLYLINE
  5
122
330
F9
100
AcDbEntity
  8
AM_9
100
AcDbPolyline
 90
        7
 70
     0
 43
0.0
 10
-0.7161020233981243
 20
0.545011993969831
 10
-0.7038482107164012
 20
0.5335090323920053
 10
-0.6870687899709454
 20
0.512421810061792
 10
-0.6745909229878959
 20
0.4888968108922436
 10
-0.6668719457402666
 20
0.4636141066757644
 10
-0.6640123327571632
 20
0.437178845397539
 10
-0.6640000003907454
 20
0.4353074083635973
  0
LWPOLYLINE
  5
123
330
F9
100
AcDbEntity
  8
AM_9
100
AcDbPolyline
 90
       11
 70
     0
 43
0.0
 10
-0.9633309199417489
 20
0.5437891818755904
 10
-0.9416494424123153
 20
0.5595911889126565
 10
-0.9163771858353386
 20
0.572470476848086
 10
-0.8888202076914424
 20
0.5815101857421298
 10
-0.8598186940582893
 20
0.5865357137500833
 10
-0.8305692766402607
 20
0.5873886237707692
 10
-0.8015601579945512
 20
0.5841912704250315
 10
-0.7738105987292664
 20
0.57702610533654
 10
-0.747871577916395
 20
0.5660964372909015
 10
-0.7242640456985338
 20
0.5514393328079237
 10
-0.7161020233981243
 20
0.545011993969831
  0
LWPOLYLINE
  5
124
330
F9
100
AcDbEntity
  8
AM_9
100
AcDbPolyline
 90
        7
 70
     0
 43
0.0
 10
-1.013999999433229
 20
0.4352840447670453
 10
-1.012959402438499
 20
0.4524927924891724
 10
-1.007385631169831
 20
0.4779654235699384
 10
-0.9972070014350862
 20
0.5019422207252202
 10
-0.9825790181027535
 20
0.5238887596824134
 10
-0.9640071792145827
 20
0.5432018481912034
 10
-0.9633309199417489
 20
0.5437891818755904
  0
LWPOLYLINE
  5
125
330
F9
100
AcDbEntity
  8
AM_9
100
AcDbPolyline
 90
       11
 70
     0
 43
0.0
 10
-0.6640000003907454
 20
0.4353074083635973
 10
-0.666114570914647
 20
0.4106668039121871
 10
-0.6729778595370336
 20
0.3845202695121024
 10
-0.6844455034333494
 20
0.3595496426350273
 10
-0.7001328197815231
 20
0.3364478587765529
 10
-0.7199145999663891
 20
0.3157129919539335
 10
-0.7430334638285773
 20
0.2982517713985706
 10
-0.7690901257103793
 20
0.284605511182931
 10
-0.7971669167746205
 20
0.2753264581291697
 10
-0.8179266288128515
 20
0.2716157931593581
 10
-0.839
 20
0.2703640821258919
  0
LWPOLYLINE
  5
126
330
F9
100
AcDbEntity
  8
AM_9
100
AcDbPolyline
 90
       11
 70
     0
 43
0.0
 10
-0.839
 20
0.2703640821258919
 10
-0.8681387998091286
 20
0.2727736967612864
 10
-0.8964504453057476
 20
0.279840854884448
 10
-0.923105996380489
 20
0.2913712086018144
 10
-0.9474167776498947
 20
0.3069075667576416
 10
-0.9688684298067871
 20
0.3261783001517113
 10
-0.9866839490053648
 20
0.3483957270702719
 10
-1.000383453474293
 20
0.3730602782780942
 10
-1.009501741688253
 20
0.3992486723995775
 10
-1.013676356212409
 20
0.4259085475678556
 10
-1.013999999433229
 20
0.4352840447670453
  0
LWPOLYLINE
  5
127
330
F9
100
AcDbEntity
  8
AM_9
100
AcDbPolyline
 90
       11
 70
     0
 43
0.0
 10
-0.839
 20
1.01502463024303
 10
-0.8677252226528739
 20
1.015431011155587
 10
-0.8964504453057476
 20
1.016649179248097
 10
-0.9227541031213851
 20
1.018474226374761
 10
-0.9474167776498945
 20
1.0207983139073
 10
-0.9686013081742668
 20
1.023265116712419
 10
-0.9866839490053648
 20
1.025712215386859
 10
-1.000231910293475
 20
1.027750324201789
 10
-1.009501741688253
 20
1.029245278793509
 10
-1.013668716705419
 20
1.029943765744285
 10
-1.013999999999538
 20
1.029999999999922
  0
LINE
  5
128
330
F9
100
AcDbEntity
  8
AM_9
100
AcDbLine
 10
-0.27175
 20
1.03
 30
0.0
 11
-0.6641587127986006
 21
1.03
 31
0.0
  0
LINE
  5
129
330
F9
100
AcDbEntity
  8
AM_9
100
AcDbLine
 10
-1.013412704117518
 20
1.03
 30
0.0
 11
-1.125
 21
1.03
 31
0.0
  0
LINE
  5
12A
330
F9
100
AcDbEntity
  8
AM_9
100
AcDbLine
 10
-1.125
 20
-1.03
 30
0.0
 11
-0.27175
 21
-1.03
 31
0.0
  0
LINE
  5
12B
330
F9
100
AcDbEntity
  8
AM_9
100
AcDbLine
 10
-0.6686181963395362
 20
1.029225417009604
 30
0.0
 11
-0.664000000000292
 21
1.02999999999995
 31
0.0
  0
LINE
  5
12C
330
F9
100
AcDbEntity
  8
AM_9
100
AcDbLine
 10
-0.8495106809471944
 20
1.015079048357301
 30
0.0
 11
-0.8340968449828863
 21
1.0150364727088
 31
0.0
  0
LWPOLYLINE
  5
12D
330
F9
100
AcDbEntity
  8
AM_9
100
AcDbPolyline
 90
       11
 70
     0
 43
0.0
 10
-0.664000000000292
 20
1.02999999999995
 10
-0.6660329917002363
 20
1.029656537861131
 10
-0.6729778595370336
 20
1.028512688849246
 10
-0.6842408296960061
 20
1.026754790976492
 10
-0.7001328197815231
 20
1.02447991378154
 10
-0.7195991368591239
 20
1.022023270830359
 10
-0.7430334638285774
 20
1.019551164025004
 10
-0.7686857397296019
 20
1.017457171185782
 10
-0.7971669167746207
 20
1.015886315909483
 10
-0.8177685861979067
 20
1.015246656203327
 10
-0.839
 20
1.01502463024303
  0
LINE
  5
12E
330
F9
100
AcDbEntity
  8
AM_9
100
AcDbLine
 10
1.21875
 20
1.03
 30
0.0
 11
1.14425
 21
1.03
 31
0.0
  0
LINE
  5
12F
330
F9
100
AcDbEntity
  8
AM_9
100
AcDbLine
 10
1.14425
 20
-1.03
 30
0.0
 11
1.21875
 21
-1.03
 31
0.0
  0
LINE
  5
130
330
F9
100
AcDbEntity
  8
AM_9
100
AcDbLine
 10
1.14425
 20
-1.1645275
 30
0.0
 11
1.14425
 21
1.1645275
 31
0.0
  0
ARC
  5
131
330
F9
100
AcDbEntity
  8
AM_9
100
AcDbCircle
 10
1.0489375
 20
1.1645275
 30
0.0
 40
0.0953124999999999
100
AcDbArc
 50
0.0
 51
90.0
  0
ARC
  5
132
330
F9
100
AcDbEntity
  8
AM_9
100
AcDbCircle
 10
1.0489375
 20
-1.1645275
 30
0.0
 40
0.0953124999999999
100
AcDbArc
 50
270.0
 51
0.0
  0
LINE
  5
133
330
F9
100
AcDbEntity
  8
AM_9
100
AcDbLine
 10
-0.27175
 20
-1.1645275
 30
0.0
 11
-0.27175
 21
1.1645275
 31
0.0
  0
ARC
  5
134
330
F9
100
AcDbEntity
  8
AM_9
100
AcDbCircle
 10
-0.1764375000000004
 20
1.1645275
 30
0.0
 40
0.0953124999999997
100
AcDbArc
 50
90.0
 51
179.9999991462263
  0
ARC
  5
135
330
F9
100
AcDbEntity
  8
AM_9
100
AcDbCircle
 10
-0.1764375000000004
 20
-1.1645275
 30
0.0
 40
0.0953124999999996
100
AcDbArc
 50
180.0
 51
270.0
  0
LINE
  5
136
330
F9
100
AcDbEntity
  8
AM_9
100
AcDbLine
 10
-0.1764375000000003
 20
-1.25984
 30
0.0
 11
-0.1764375000000003
 21
1.25984
 31
0.0
  0
LINE
  5
137
330
F9
100
AcDbEntity
  8
AM_9
100
AcDbLine
 10
-0.0403125
 20
1.25984
 30
0.0
 11
-0.1764375000000003
 21
1.25984
 31
0.0
  0
LINE
  5
138
330
F9
100
AcDbEntity
  8
AM_9
100
AcDbLine
 10
-0.1764375000000003
 20
-1.25984
 30
0.0
 11
-0.0403125
 21
-1.25984
 31
0.0
  0
LINE
  5
139
330
F9
100
AcDbEntity
  8
AM_9
100
AcDbLine
 10
1.0489375
 20
-1.25984
 30
0.0
 11
1.0489375
 21
1.25984
 31
0.0
  0
LINE
  5
13A
330
F9
100
AcDbEntity
  8
AM_9
100
AcDbLine
 10
1.0489375
 20
1.25984
 30
0.0
 11
0.9128125000000001
 21
1.25984
 31
0.0
  0
LINE
  5
13B
330
F9
100
AcDbEntity
  8
AM_9
100
AcDbLine
 10
0.9128125000000001
 20
-1.25984
 30
0.0
 11
1.0489375
 21
-1.25984
 31
0.0
  0
LINE
  5
13C
330
F9
100
AcDbEntity
  8
AM_9
100
AcDbLine
 10
0.4839062499999989
 20
1.511808
 30
0.0
 11
0.3885937500000012
 21
1.511808
 31
0.0
  0
LINE
  5
13D
330
F9
100
AcDbEntity
  8
AM_9
100
AcDbLine
 10
0.3885937500000012
 20
-1.511808
 30
0.0
 11
0.4839062499999989
 21
-1.511808
 31
0.0
  0
LINE
  5
13E
330
F9
100
AcDbEntity
  8
AM_9
100
AcDbLine
 10
0.9128125000000001
 20
-1.4794875
 30
0.0
 11
0.9128125000000001
 21
1.4794875
 31
0.0
  0
ARC
  5
13F
330
F9
100
AcDbEntity
  8
AM_9
100
AcDbCircle
 10
0.8175000000000006
 20
1.4794875
 30
0.0
 40
0.0953124999999996
100
AcDbArc
 50
0.0
 51
90.0
  0
ARC
  5
140
330
F9
100
AcDbEntity
  8
AM_9
100
AcDbCircle
 10
0.8174999999986161
 20
-1.479487499998616
 30
0.0
 40
0.0953125000013841
100
AcDbArc
 50
270.0
 51
0.0
  0
LINE
  5
141
330
F9
100
AcDbEntity
  8
AM_9
100
AcDbLine
 10
0.3885937500000012
 20
-1.511808
 30
0.0
 11
0.3885937500000012
 21
1.511808
 31
0.0
  0
LINE
  5
142
330
F9
100
AcDbEntity
  8
AM_9
100
AcDbLine
 10
0.3885937500000012
 20
1.511808
 30
0.0
 11
0.3522253018432082
 21
1.5748
 31
0.0
  0
LINE
  5
143
330
F9
100
AcDbEntity
  8
AM_9
100
AcDbLine
 10
0.3522253018432082
 20
-1.5748
 30
0.0
 11
0.3885937500000012
 21
-1.511808
 31
0.0
  0
LINE
  5
144
330
F9
100
AcDbEntity
  8
AM_9
100
AcDbLine
 10
0.4839062499999989
 20
-1.511808
 30
0.0
 11
0.4839062499999989
 21
1.511808
 31
0.0
  0
LINE
  5
145
330
F9
100
AcDbEntity
  8
AM_9
100
AcDbLine
 10
0.4839062499999989
 20
-1.511808
 30
0.0
 11
0.5202746981567918
 21
-1.5748
 31
0.0
  0
LINE
  5
146
330
F9
100
AcDbEntity
  8
AM_9
100
AcDbLine
 10
0.5202746981567918
 20
1.5748
 30
0.0
 11
0.4839062499999989
 21
1.511808
 31
0.0
  0
LINE
  5
147
330
F9
100
AcDbEntity
  8
AM_9
100
AcDbLine
 10
0.8175
 20
-1.5748
 30
0.0
 11
0.8175
 21
1.5748
 31
0.0
  0
LINE
  5
148
330
F9
100
AcDbEntity
  8
AM_9
100
AcDbLine
 10
0.5202746981567918
 20
-1.5748
 30
0.0
 11
0.5202746981567918
 21
1.5748
 31
0.0
  0
LINE
  5
149
330
F9
100
AcDbEntity
  8
AM_9
100
AcDbLine
 10
0.8175
 20
1.5748
 30
0.0
 11
0.5202746981567918
 21
1.5748
 31
0.0
  0
LINE
  5
14A
330
F9
100
AcDbEntity
  8
AM_9
100
AcDbLine
 10
0.5202746981567918
 20
-1.5748
 30
0.0
 11
0.8175
 21
-1.5748
 31
0.0
  0
LINE
  5
14B
330
F9
100
AcDbEntity
  8
AM_9
100
AcDbLine
 10
-0.0403125
 20
-1.4794875
 30
0.0
 11
-0.0403125
 21
1.4794875
 31
0.0
  0
ARC
  5
14C
330
F9
100
AcDbEntity
  8
AM_9
100
AcDbCircle
 10
0.0549999999999999
 20
1.4794875
 30
0.0
 40
0.0953124999999999
100
AcDbArc
 50
90.0
 51
179.9999991462263
  0
ARC
  5
14D
330
F9
100
AcDbEntity
  8
AM_9
100
AcDbCircle
 10
0.0549999999999997
 20
-1.479487500000001
 30
0.0
 40
0.0953124999999997
100
AcDbArc
 50
180.0
 51
270.0
  0
LINE
  5
14E
330
F9
100
AcDbEntity
  8
AM_9
100
AcDbLine
 10
0.3522253018432082
 20
-1.5748
 30
0.0
 11
0.3522253018432082
 21
1.5748
 31
0.0
  0
LINE
  5
14F
330
F9
100
AcDbEntity
  8
AM_9
100
AcDbLine
 10
0.0549999999999997
 20
-1.5748
 30
0.0
 11
0.0549999999999997
 21
1.5748
 31
0.0
  0
LINE
  5
150
330
F9
100
AcDbEntity
  8
AM_9
100
AcDbLine
 10
0.3522253018432082
 20
1.5748
 30
0.0
 11
0.0549999999999997
 21
1.5748
 31
0.0
  0
LINE
  5
151
330
F9
100
AcDbEntity
  8
AM_9
100
AcDbLine
 10
0.0549999999999997
 20
-1.5748
 30
0.0
 11
0.3522253018432082
 21
-1.5748
 31
0.0
  0
LINE
  5
154
330
F9
100
AcDbEntity
  8
AM_7
100
AcDbLine
 10
1.5328125
 20
0.0
 30
0.0
 11
-1.2515625
 21
0.0
 31
0.0
  0
LINE
  5
155
330
F9
100
AcDbEntity
  8
AM_7
100
AcDbLine
 10
-0.839
 20
-0.0528205128205128
 30
0.0
 11
-0.839
 21
1.393291666666667
 31
0.0
  0
LWPOLYLINE
  5
156
330
F9
100
AcDbEntity
  8
AM_4
100
AcDbPolyline
 90
        5
 70
     0
 43
0.0
 10
-0.7954430723075395
 20
0.4623763044058241
 10
-0.8160561909158458
 20
0.465601795142949
 10
-0.8446989772206756
 20
0.4667436366788423
 10
-0.8740215327472665
 20
0.4639650840630232
 10
-0.8980062802146432
 20
0.4585377762073281
  0
LINE
  5
157
330
F9
100
AcDbEntity
  8
AM_4
100
AcDbLine
 10
1.40625
 20
-1.03
 30
0.0
 11
1.40625
 21
1.03
 31
0.0
  0
LINE
  5
158
330
F9
100
AcDbEntity
  8
AM_4
100
AcDbLine
 10
1.40625
 20
1.03
 30
0.0
 11
1.21875
 21
1.03
 31
0.0
  0
LINE
  5
159
330
F9
100
AcDbEntity
  8
AM_4
100
AcDbLine
 10
1.21875
 20
-1.03
 30
0.0
 11
1.40625
 21
-1.03
 31
0.0
  0
ENDBLK
  5
FC
330
F9
100
AcDbEntity
  8
0
100
AcDbBlockEnd
  0
BLOCK
  5
15C
330
15A
100
AcDbEntity
  8
0
100
AcDbBlockBegin
  2
5_405015E_Inch_0_in_070673_2
 70
     2
 10
0.0
 20
0.0
 30
0.0
  3
5_405015E_Inch_0_in_070673_2
  1

  0
ATTDEF
  5
15E
330
15A
100
AcDbEntity
  8
AM_6
100
AcDbText
 10
4.767720581598533
 20
2.166421671481428
 30
0.0
 40
0.5
  1
405015E -Inch
100
AcDbAttributeDefinition
  3

  2
NN
 70
     8
280
     0
  0
ATTDEF
  5
15F
330
15A
100
AcDbEntity
  8
AM_6
100
AcDbText
 10
4.767720581598533
 20
1.666421671481428
 30
0.0
 40
0.5
  1
Grease Fitting
100
AcDbAttributeDefinition
  3

  2
NT
 70
     8
280
     0
  0
ATTDEF
  5
160
330
15A
100
AcDbEntity
  8
AM_6
100
AcDbText
 10
4.767720581598533
 20
1.166421671481428
 30
0.0
 40
0.5
  1
405015E-Inch
100
AcDbAttributeDefinition
  3

  2
NB
 70
     8
280
     0
  0
ATTDEF
  5
161
330
15A
100
AcDbEntity
  8
AM_6
100
AcDbText
 10
4.767720581598533
 20
0.6664216714814275
 30
0.0
 40
0.5
  1
$MN.-Inch
100
AcDbAttributeDefinition
  3

  2
NBSYN
 70
     8
280
     0
  0
ATTDEF
  5
162
330
15A
100
AcDbEntity
  8
AM_6
100
AcDbText
 10
4.767720581598533
 20
0.1664216714814275
 30
0.0
 40
0.5
  1
405015E
100
AcDbAttributeDefinition
  3

  2
LINA
 70
     8
280
     0
  0
ATTDEF
  5
163
330
15A
100
AcDbEntity
  8
AM_6
100
AcDbText
 10
4.767720581598533
 20
-0.3335783285185725
 30
0.0
 40
0.5
  1
405015E
100
AcDbAttributeDefinition
  3

  2
MN
 70
     8
280
     0
  0
ATTDEF
  5
164
330
15A
100
AcDbEntity
  8
AM_6
100
AcDbText
 10
4.767720581598533
 20
-0.8335783285185725
 30
0.0
 40
0.5
  1
1/8 x 27PTF
100
AcDbAttributeDefinition
  3

  2
T
 70
     8
280
     0
  0
ATTDEF
  5
165
330
15A
100
AcDbEntity
  8
AM_6
100
AcDbText
 10
4.767720581598533
 20
-1.333578328518572
 30
0.0
 40
0.5
  1
baldor
100
AcDbAttributeDefinition
  3

  2
COMPANY
 70
     8
280
     0
  0
LINE
  5
166
330
15A
100
AcDbEntity
  8
AM_9
100
AcDbLine
 10
-0.5000000000000001
 20
1.964006350946109
 30
0.0
 11
-0.433352586640478
 21
2.079443057077845
 31
0.0
  0
LINE
  5
167
330
15A
100
AcDbEntity
  8
AM_9
100
AcDbLine
 10
-0.433352586640478
 20
2.079443057077845
 30
0.0
 11
-0.5000000000000001
 21
2.117921959121758
 31
0.0
  0
LINE
  5
168
330
15A
100
AcDbEntity
  8
AM_9
100
AcDbLine
 10
-0.3941822908737364
 20
1.617287999493343
 30
0.0
 11
-0.2322794184014673
 21
1.897712000506657
 31
0.0
  0
LINE
  5
169
330
15A
100
AcDbEntity
  8
AM_9
100
AcDbLine
 10
-0.2322794184014673
 20
1.897712000506657
 30
0.0
 11
-0.245717951172246
 21
1.947865287586382
 31
0.0
  0
LINE
  5
16A
330
15A
100
AcDbEntity
  8
AM_9
100
AcDbLine
 10
-0.4443355779534614
 20
1.603849466722564
 30
0.0
 11
-0.3941822908737364
 21
1.617287999493343
 31
0.0
  0
LINE
  5
16B
330
15A
100
AcDbEntity
  8
AM_9
100
AcDbLine
 10
-0.4443355779534614
 20
1.603849466722564
 30
0.0
 11
-0.245717951172246
 21
1.947865287586382
 31
0.0
  0
LINE
  5
16C
330
15A
100
AcDbEntity
  8
AM_9
100
AcDbLine
 10
-0.245717951172246
 20
1.947865287586382
 30
0.0
 11
-0.4398516380289433
 21
2.068186369872023
 31
0.0
  0
LINE
  5
16D
330
15A
100
AcDbEntity
  8
AM_9
100
AcDbLine
 10
-0.625
 20
1.700761481159337
 30
0.0
 11
-0.4443355779534614
 21
1.603849466722564
 31
0.0
  0
LWPOLYLINE
  5
16E
330
15A
100
AcDbEntity
  8
AM_9
100
AcDbPolyline
 90
        3
 70
     0
 43
0.0
 10
-0.4412053583290943
 20
2.083976856926153
 10
-0.4626644317219951
 20
2.03350250203231
 10
-0.4880400866404782
 20
1.984721528538923
  0
LINE
  5
16F
330
15A
100
AcDbEntity
  8
AM_9
100
AcDbLine
 10
-0.4880400866404782
 20
1.984721528538923
 30
0.0
 11
-0.4995139090380922
 21
1.965654047042466
 31
0.0
  0
LINE
  5
170
330
15A
100
AcDbEntity
  8
AM_5
100
AcDbLine
 10
-0.5703979905105697
 20
1.711813630127977
 30
0.0
 11
-0.3941822908737364
 21
1.617287999493343
 31
0.0
  0
LINE
  5
171
330
15A
100
AcDbEntity
  8
AM_5
100
AcDbLine
 10
-0.6109625191006355
 20
1.711813630127977
 30
0.0
 11
-0.5703979905105697
 21
1.711813630127977
 31
0.0
  0
LINE
  5
172
330
15A
100
AcDbEntity
  8
AM_5
100
AcDbLine
 10
-0.4022488656582218
 20
2.003056457620486
 30
0.0
 11
-0.2322794184014673
 21
1.897712000506657
 31
0.0
  0
LINE
  5
173
330
15A
100
AcDbEntity
  8
AM_5
100
AcDbLine
 10
-0.4398516380289441
 20
2.068186369872024
 30
0.0
 11
-0.4022488656582218
 21
2.003056457620486
 31
0.0
  0
LINE
  5
174
330
15A
100
AcDbEntity
  8
AM_5
100
AcDbLine
 10
-0.5881816709601742
 20
1.681011392043692
 30
0.0
 11
-0.3844651852086172
 21
2.03385869570477
 31
0.0
  0
LINE
  5
175
330
15A
100
AcDbEntity
  8
AM_7
100
AcDbLine
 10
-0.8951999259807445
 20
2.0935
 30
0.0
 11
-0.2855180417164999
 21
1.7415
 31
0.0
  0
LINE
  5
176
330
15A
100
AcDbEntity
  8
AM_4
100
AcDbLine
 10
-0.6677627944162879
 20
2.083432667397366
 30
0.0
 11
-0.6937435565298212
 21
2.098432667397366
 31
0.0
  0
LINE
  5
177
330
15A
100
AcDbEntity
  8
AM_4
100
AcDbLine
 10
-0.7987435565298212
 20
1.916567332602634
 30
0.0
 11
-0.7727627944162879
 21
1.901567332602634
 31
0.0
  0
LINE
  5
178
330
15A
100
AcDbEntity
  8
AM_4
100
AcDbLine
 10
-0.7727627944162879
 20
1.901567332602634
 30
0.0
 11
-0.6677627944162879
 21
2.083432667397366
 31
0.0
  0
LINE
  5
179
330
15A
100
AcDbEntity
  8
AM_4
100
AcDbLine
 10
-0.7727627944162879
 20
1.901567332602634
 30
0.0
 11
-0.7517462239126733
 21
1.873475343752893
 31
0.0
  0
LINE
  5
17A
330
15A
100
AcDbEntity
  8
AM_4
100
AcDbLine
 10
-0.6329261331777758
 20
2.079277777865679
 30
0.0
 11
-0.6677627944162879
 21
2.083432667397366
 31
0.0
  0
LINE
  5
17B
330
15A
100
AcDbEntity
  8
AM_4
100
AcDbLine
 10
-0.7987435565298212
 20
1.916567332602634
 30
0.0
 11
-0.6937435565298212
 21
2.098432667397366
 31
0.0
  0
LINE
  5
17C
330
15A
100
AcDbEntity
  8
AM_4
100
AcDbLine
 10
-0.6937435565298212
 20
2.098432667397366
 30
0.0
 11
-0.7307050807568874
 21
2.154413429510899
 31
0.0
  0
LINE
  5
17D
330
15A
100
AcDbEntity
  8
AM_4
100
AcDbLine
 10
-0.8657050807568875
 20
1.920586570489101
 30
0.0
 11
-0.7987435565298212
 21
1.916567332602634
 31
0.0
  0
LINE
  5
17E
330
15A
100
AcDbEntity
  8
AM_4
100
AcDbLine
 10
-0.9188260640262365
 20
1.988578328518572
 30
0.0
 11
-0.8161481620930489
 21
2.166421671481428
 31
0.0
  0
LINE
  5
17F
330
15A
100
AcDbEntity
  8
AM_4
100
AcDbLine
 10
-0.8657050807568875
 20
1.920586570489101
 30
0.0
 11
-0.7307050807568874
 21
2.154413429510899
 31
0.0
  0
LINE
  5
180
330
15A
100
AcDbEntity
  8
AM_4
100
AcDbLine
 10
-0.9188260640262365
 20
1.988578328518572
 30
0.0
 11
-0.8657050807568875
 21
1.920586570489101
 31
0.0
  0
LINE
  5
181
330
15A
100
AcDbEntity
  8
AM_4
100
AcDbLine
 10
-0.7307050807568874
 20
2.154413429510899
 30
0.0
 11
-0.8161481620930489
 21
2.166421671481428
 31
0.0
  0
LINE
  5
182
330
15A
100
AcDbEntity
  8
AM_4
100
AcDbLine
 10
-0.7517462239126733
 20
1.873475343752893
 30
0.0
 11
-0.6329261331777758
 21
2.079277777865679
 31
0.0
  0
LINE
  5
183
330
15A
100
AcDbEntity
  8
AM_4
100
AcDbLine
 10
-0.7517462239126733
 20
1.873475343752893
 30
0.0
 11
-0.7314611789484007
 21
1.799740226109452
 31
0.0
  0
LINE
  5
184
330
15A
100
AcDbEntity
  8
AM_4
100
AcDbLine
 10
-0.5589271256653852
 20
2.09857797243143
 30
0.0
 11
-0.6329261331777758
 21
2.079277777865679
 31
0.0
  0
LINE
  5
185
330
15A
100
AcDbEntity
  8
AM_4
100
AcDbLine
 10
-0.5000000000000001
 20
2.117921959121758
 30
0.0
 11
-0.5199551270189219
 21
2.129443057077846
 31
0.0
  0
LINE
  5
186
330
15A
100
AcDbEntity
  8
AM_4
100
AcDbLine
 10
-0.738705127018922
 20
1.750556942922154
 30
0.0
 11
-0.5199551270189219
 21
2.129443057077846
 31
0.0
  0
LINE
  5
187
330
15A
100
AcDbEntity
  8
AM_4
100
AcDbLine
 10
-0.6521025866404782
 20
1.700556942922154
 30
0.0
 11
-0.5000000000000001
 21
1.964006350946109
 31
0.0
  0
LINE
  5
188
330
15A
100
AcDbEntity
  8
AM_4
100
AcDbLine
 10
-0.738705127018922
 20
1.750556942922154
 30
0.0
 11
-0.6521025866404782
 21
1.700556942922154
 31
0.0
  0
LINE
  5
189
330
15A
100
AcDbEntity
  8
AM_4
100
AcDbLine
 10
-0.6456035352520129
 20
1.711813630127977
 30
0.0
 11
-0.625
 21
1.700761481159337
 31
0.0
  0
LINE
  5
18A
330
15A
100
AcDbEntity
  8
AM_4
100
AcDbLine
 10
-0.7314611789484007
 20
1.799740226109452
 30
0.0
 11
-0.5589271256653852
 21
2.09857797243143
 31
0.0
  0
LINE
  5
18B
330
15A
100
AcDbEntity
  8
AM_4
100
AcDbLine
 10
-0.7314611789484007
 20
1.799740226109452
 30
0.0
 11
-0.7362051270189219
 21
1.754887069941076
 31
0.0
  0
LINE
  5
18C
330
15A
100
AcDbEntity
  8
AM_4
100
AcDbLine
 10
-0.5224551270189219
 20
2.125112930058923
 30
0.0
 11
-0.5589271256653852
 21
2.09857797243143
 31
0.0
  0
LWPOLYLINE
  5
18D
330
15A
100
AcDbEntity
  8
AM_4
100
AcDbPolyline
 90
        3
 70
     0
 43
0.0
 10
-0.574642627018922
 20
2.034721528538923
 10
-0.5452261484581524
 20
2.080885602415867
 10
-0.5121023553303058
 20
2.124909257229538
  0
LWPOLYLINE
  5
18E
330
15A
100
AcDbEntity
  8
AM_4
100
AcDbPolyline
 90
        3
 70
     0
 43
0.0
 10
-0.6214773553303058
 20
1.935466200151692
 10
-0.6000182819374049
 20
1.985940555045535
 10
-0.574642627018922
 20
2.034721528538923
  0
LINE
  5
18F
330
15A
100
AcDbEntity
  8
AM_4
100
AcDbLine
 10
-0.6214773553303058
 20
1.935466200151692
 30
0.0
 11
-0.5505803583290942
 21
1.894533799848307
 31
0.0
  0
LWPOLYLINE
  5
190
330
15A
100
AcDbEntity
  8
AM_4
100
AcDbPolyline
 90
        3
 70
     0
 43
0.0
 10
-0.6840176270189219
 20
1.845278471461077
 10
-0.6546011484581523
 20
1.891442545338021
 10
-0.6214773553303058
 20
1.935466200151692
  0
LWPOLYLINE
  5
191
330
15A
100
AcDbEntity
  8
AM_4
100
AcDbPolyline
 90
        3
 70
     0
 43
0.0
 10
-0.7308523553303057
 20
1.746023143073847
 10
-0.7093932819374049
 20
1.796497497967689
 10
-0.6840176270189219
 20
1.845278471461077
  0
LWPOLYLINE
  5
192
330
15A
100
AcDbEntity
  8
AM_4
100
AcDbPolyline
 90
        3
 70
     0
 43
0.0
 10
-0.5974150866404782
 20
1.795278471461077
 10
-0.6268315652012476
 20
1.749114397584133
 10
-0.6599553583290944
 20
1.705090742770461
  0
LWPOLYLINE
  5
193
330
15A
100
AcDbEntity
  8
AM_4
100
AcDbPolyline
 90
        3
 70
     0
 43
0.0
 10
-0.4995139090380922
 20
1.965654047042466
 10
-0.5174565652012476
 20
1.938557454661979
 10
-0.5505803583290942
 20
1.894533799848307
  0
LWPOLYLINE
  5
194
330
15A
100
AcDbEntity
  8
AM_4
100
AcDbPolyline
 90
        3
 70
     0
 43
0.0
 10
-0.5505803583290942
 20
1.894533799848307
 10
-0.5720394317219951
 20
1.844059444954464
 10
-0.5974150866404782
 20
1.795278471461077
  0
ENDBLK
  5
15D
330
15A
100
AcDbEntity
  8
0
100
AcDbBlockEnd
  0
BLOCK
  5
197
330
195
100
AcDbEntity
  8
0
100
AcDbBlockBegin
  2
6_070673H_0_in_070673_2
 70
     2
 10
0.0
 20
0.0
 30
0.0
  3
6_070673H_0_in_070673_2
  1

  0
ATTDEF
  5
199
330
195
100
AcDbEntity
  8
AM_6
100
AcDbText
 10
6.21875
 20
2.625
 30
0.0
 40
0.5
  1
FC-S2 -(Contact Seal)-Housing
100
AcDbAttributeDefinition
  3

  2
NN
 70
     8
280
     0
  0
ATTDEF
  5
19A
330
195
100
AcDbEntity
  8
AM_6
100
AcDbText
 10
6.21875
 20
2.125
 30
0.0
 40
0.5
  1
S-2000 Piloted Flange Bearing -Inch
100
AcDbAttributeDefinition
  3

  2
NT
 70
     8
280
     0
  0
ATTDEF
  5
19B
330
195
100
AcDbEntity
  8
AM_6
100
AcDbText
 10
6.21875
 20
1.625
 30
0.0
 40
0.5
  1
070673H
100
AcDbAttributeDefinition
  3

  2
NB
 70
     8
280
     0
  0
ATTDEF
  5
19C
330
195
100
AcDbEntity
  8
AM_6
100
AcDbText
 10
6.21875
 20
1.125
 30
0.0
 40
0.5
  1
$PN.H
100
AcDbAttributeDefinition
  3

  2
NBSYN
 70
     8
280
     0
  0
ATTDEF
  5
19D
330
195
100
AcDbEntity
  8
AM_6
100
AcDbText
 10
6.21875
 20
0.625
 30
0.0
 40
0.5
  1
070673
100
AcDbAttributeDefinition
  3

  2
LINA
 70
     8
280
     0
  0
ATTDEF
  5
19E
330
195
100
AcDbEntity
  8
AM_6
100
AcDbText
 10
6.21875
 20
0.125
 30
0.0
 40
0.5
  1
1-1/2
100
AcDbAttributeDefinition
  3

  2
SS
 70
     8
280
     0
  0
ATTDEF
  5
19F
330
195
100
AcDbEntity
  8
AM_6
100
AcDbText
 10
6.21875
 20
-0.375
 30
0.0
 40
0.5
  1
070673
100
AcDbAttributeDefinition
  3

  2
PN
 70
     8
280
     0
  0
ATTDEF
  5
1A0
330
195
100
AcDbEntity
  8
AM_6
100
AcDbText
 10
6.21875
 20
-0.875
 30
0.0
 40
0.5
  1
FC-S2-108RE
100
AcDbAttributeDefinition
  3

  2
DESCRIPTION
 70
     8
280
     0
  0
ATTDEF
  5
1A1
330
195
100
AcDbEntity
  8
AM_6
100
AcDbText
 10
6.21875
 20
-1.375
 30
0.0
 40
0.5
  1
Expansion Type
100
AcDbAttributeDefinition
  3

  2
EF
 70
     8
280
     0
  0
ATTDEF
  5
1A2
330
195
100
AcDbEntity
  8
AM_6
100
AcDbText
 10
6.21875
 20
-1.875
 30
0.0
 40
0.5
  1
2-17/32
100
AcDbAttributeDefinition
  3

  2
A
 70
     8
280
     0
  0
ATTDEF
  5
1A3
330
195
100
AcDbEntity
  8
AM_6
100
AcDbText
 10
6.21875
 20
-2.375
 30
0.0
 40
0.5
  1
5-1/4
100
AcDbAttributeDefinition
  3

  2
B
 70
     8
280
     0
  0
ATTDEF
  5
1A4
330
195
100
AcDbEntity
  8
AM_6
100
AcDbText
 10
6.21875
 20
-2.875
 30
0.0
 40
0.5
  1
1-27/32
100
AcDbAttributeDefinition
  3

  2
C
 70
     8
280
     0
  0
ATTDEF
  5
1A5
330
195
100
AcDbEntity
  8
AM_6
100
AcDbText
 10
6.21875
 20
-3.375
 30
0.0
 40
0.5
  1
4-3/8
100
AcDbAttributeDefinition
  3

  2
DD
 70
     8
280
     0
  0
ATTDEF
  5
1A6
330
195
100
AcDbEntity
  8
AM_6
100
AcDbText
 10
6.21875
 20
-3.875
 30
0.0
 40
0.5
  1
3/4
100
AcDbAttributeDefinition
  3

  2
E
 70
     8
280
     0
  0
ATTDEF
  5
1A7
330
195
100
AcDbEntity
  8
AM_6
100
AcDbText
 10
6.21875
 20
-4.375
 30
0.0
 40
0.5
  1
3/8
100
AcDbAttributeDefinition
  3

  2
F
 70
     8
280
     0
  0
ATTDEF
  5
1A8
330
195
100
AcDbEntity
  8
AM_6
100
AcDbText
 10
6.21875
 20
-4.875
 30
0.0
 40
0.5
  1
1-5/16
100
AcDbAttributeDefinition
  3

  2
G
 70
     8
280
     0
  0
ATTDEF
  5
1A9
330
195
100
AcDbEntity
  8
AM_6
100
AcDbText
 10
6.21875
 20
-5.375
 30
0.0
 40
0.5
  1
1/2
100
AcDbAttributeDefinition
  3

  2
H
 70
     8
280
     0
  0
ATTDEF
  5
1AA
330
195
100
AcDbEntity
  8
AM_6
100
AcDbText
 10
6.21875
 20
-5.875
 30
0.0
 40
0.5
  1
3.625
100
AcDbAttributeDefinition
  3

  2
K
 70
     8
280
     0
  0
ATTDEF
  5
1AB
330
195
100
AcDbEntity
  8
AM_6
100
AcDbText
 10
6.21875
 20
-6.375
 30
0.0
 40
0.5
  1
2-3/4
100
AcDbAttributeDefinition
  3

  2
L
 70
     8
280
     0
  0
ATTDEF
  5
1AC
330
195
100
AcDbEntity
  8
AM_6
100
AcDbText
 10
6.21875
 20
-6.875
 30
0.0
 40
0.5
  1
3/8-16
100
AcDbAttributeDefinition
  3

  2
M
 70
     8
280
     0
  0
ATTDEF
  5
1AD
330
195
100
AcDbEntity
  8
AM_6
100
AcDbText
 10
6.21875
 20
-7.375
 30
0.0
 40
0.5
  1
0.3750
100
AcDbAttributeDefinition
  3

  2
MNDM
 70
     8
280
     0
  0
ATTDEF
  5
1AE
330
195
100
AcDbEntity
  8
AM_6
100
AcDbText
 10
6.21875
 20
-7.875
 30
0.0
 40
0.5
  1
0.3299
100
AcDbAttributeDefinition
  3

  2
MKDM
 70
     8
280
     0
  0
ATTDEF
  5
1AF
330
195
100
AcDbEntity
  8
AM_6
100
AcDbText
 10
6.21875
 20
-8.375
 30
0.0
 40
0.5
  1
2-17/32
100
AcDbAttributeDefinition
  3

  2
N
 70
     8
280
     0
  0
ATTDEF
  5
1B0
330
195
100
AcDbEntity
  8
AM_6
100
AcDbText
 10
6.21875
 20
-8.875
 30
0.0
 40
0.5
  1
2.531250
100
AcDbAttributeDefinition
  3

  2
N1
 70
     8
280
     0
  0
ATTDEF
  5
1B1
330
195
100
AcDbEntity
  8
AM_6
100
AcDbText
 10
6.21875
 20
-9.375
 30
0.0
 40
0.5
  1
1-7/32
100
AcDbAttributeDefinition
  3

  2
P
 70
     8
280
     0
  0
ATTDEF
  5
1B2
330
195
100
AcDbEntity
  8
AM_6
100
AcDbText
 10
6.21875
 20
-9.875
 30
0.0
 40
0.5
  1
1-7/32
100
AcDbAttributeDefinition
  3

  2
Q
 70
     8
280
     0
  0
ATTDEF
  5
1B3
330
195
100
AcDbEntity
  8
AM_6
100
AcDbText
 10
6.21875
 20
-10.375
 30
0.0
 40
0.5
  1
1.218750
100
AcDbAttributeDefinition
  3

  2
Q1
 70
     8
280
     0
  0
ATTDEF
  5
1B4
330
195
100
AcDbEntity
  8
AM_6
100
AcDbText
 10
6.21875
 20
-10.875
 30
0.0
 40
0.5
  1
3/16
100
AcDbAttributeDefinition
  3

  2
X
 70
     8
280
     0
  0
ATTDEF
  5
1B5
330
195
100
AcDbEntity
  8
AM_6
100
AcDbText
 10
6.21875
 20
-11.375
 30
0.0
 40
0.5
  1
0.020
100
AcDbAttributeDefinition
  3

  2
Y
 70
     8
280
     0
  0
ATTDEF
  5
1B6
330
195
100
AcDbEntity
  8
AM_6
100
AcDbText
 10
6.21875
 20
-11.875
 30
0.0
 40
0.5
  1
1-51/64
100
AcDbAttributeDefinition
  3

  2
Z
 70
     8
280
     0
  0
ATTDEF
  5
1B7
330
195
100
AcDbEntity
  8
AM_6
100
AcDbText
 10
6.21875
 20
-12.375
 30
0.0
 40
0.5
  1
baldor
100
AcDbAttributeDefinition
  3

  2
COMPANY
 70
     8
280
     0
  0
LINE
  5
1B8
330
195
100
AcDbEntity
  8
AM_9
100
AcDbLine
 10
-0.0000000000000001
 20
-2.509999999999994
 30
0.0
 11
-0.4500000000000001
 21
-2.509999999999994
 31
0.0
  0
LINE
  5
1B9
330
195
100
AcDbEntity
  8
AM_9
100
AcDbLine
 10
-0.625
 20
1.6875
 30
0.0
 11
-0.5934362705430508
 21
1.742169983095794
 31
0.0
  0
LINE
  5
1BA
330
195
100
AcDbEntity
  8
AM_9
100
AcDbLine
 10
-0.4500000000000001
 20
1.990608891324553
 30
0.0
 11
-0.5
 21
1.904006350946109
 31
0.0
  0
LINE
  5
1BB
330
195
100
AcDbEntity
  8
AM_9
100
AcDbLine
 10
-0.4500000000000001
 20
-1.689670124698043
 30
0.0
 11
-0.5000000000000001
 21
-1.689670124698043
 31
0.0
  0
LINE
  5
1BC
330
195
100
AcDbEntity
  8
AM_9
100
AcDbLine
 10
-0.4500000000000001
 20
-1.655761133002229
 30
0.0
 11
-0.5000000000000001
 21
-1.655761133002229
 31
0.0
  0
LINE
  5
1BD
330
195
100
AcDbEntity
  8
AM_9
100
AcDbLine
 10
-0.4500000000000001
 20
1.689670124698043
 30
0.0
 11
-0.5000000000000001
 21
1.689670124698043
 31
0.0
  0
LINE
  5
1BE
330
195
100
AcDbEntity
  8
AM_9
100
AcDbLine
 10
-0.5000000000000001
 20
1.655761133002229
 30
0.0
 11
-0.4500000000000001
 21
1.655761133002229
 31
0.0
  0
LINE
  5
1BF
330
195
100
AcDbEntity
  8
AM_9
100
AcDbLine
 10
-0.4500000000000001
 20
1.742169983095794
 30
0.0
 11
-0.5
 21
1.742169983095794
 31
0.0
  0
LINE
  5
1C0
330
195
100
AcDbEntity
  8
AM_9
100
AcDbLine
 10
-0.4500000000000001
 20
1.67045540178327
 30
0.0
 11
-0.5000000000000001
 21
1.67045540178327
 31
0.0
  0
LINE
  5
1C1
330
195
100
AcDbEntity
  8
AM_9
100
AcDbLine
 10
-0.4500000000000001
 20
-1.67045540178327
 30
0.0
 11
-0.5000000000000001
 21
-1.67045540178327
 31
0.0
  0
LINE
  5
1C2
330
195
100
AcDbEntity
  8
AM_9
100
AcDbLine
 10
-0.5
 20
-1.8125
 30
0.0
 11
-0.4500000000000001
 21
-1.8125
 31
0.0
  0
LINE
  5
1C3
330
195
100
AcDbEntity
  8
AM_9
100
AcDbLine
 10
-0.4500000000000001
 20
2.137665643454645
 30
0.0
 11
-0.4500000000000001
 21
1.655761133002229
 31
0.0
  0
LINE
  5
1C4
330
195
100
AcDbEntity
  8
AM_9
100
AcDbLine
 10
-0.4500000000000001
 20
-1.655761133002229
 30
0.0
 11
-0.4500000000000001
 21
-2.137665643454645
 31
0.0
  0
LINE
  5
1C5
330
195
100
AcDbEntity
  8
AM_9
100
AcDbLine
 10
-0.4220394736842106
 20
-1.5748
 30
0.0
 11
1.21875
 21
-1.5748
 31
0.0
  0
LINE
  5
1C6
330
195
100
AcDbEntity
  8
AM_9
100
AcDbLine
 10
1.21875
 20
1.5748
 30
0.0
 11
-0.4220394736842106
 21
1.5748
 31
0.0
  0
LINE
  5
1C7
330
195
100
AcDbEntity
  8
AM_9
100
AcDbLine
 10
-0.4220394736842106
 20
1.5748
 30
0.0
 11
-0.625
 21
1.64867159030995
 31
0.0
  0
LINE
  5
1C8
330
195
100
AcDbEntity
  8
AM_9
100
AcDbLine
 10
-0.625
 20
-1.64867159030995
 30
0.0
 11
-0.4220394736842106
 21
-1.5748
 31
0.0
  0
LINE
  5
1C9
330
195
100
AcDbEntity
  8
AM_9
100
AcDbLine
 10
-0.4220394736842106
 20
1.5748
 30
0.0
 11
-0.4220394736842106
 21
-1.5748
 31
0.0
  0
LINE
  5
1CA
330
195
100
AcDbEntity
  8
AM_9
100
AcDbLine
 10
0.0
 20
1.734296083845573
 30
0.0
 11
-0.5000000000000001
 21
1.734296083845573
 31
0.0
  0
LINE
  5
1CB
330
195
100
AcDbEntity
  8
AM_9
100
AcDbLine
 10
-0.5000000000000001
 20
1.359296083845573
 30
0.0
 11
0.0
 21
1.359296083845573
 31
0.0
  0
LINE
  5
1CC
330
195
100
AcDbEntity
  8
AM_9
100
AcDbLine
 10
0.0
 20
-1.359296083845573
 30
0.0
 11
-0.5000000000000001
 21
-1.359296083845573
 31
0.0
  0
LINE
  5
1CD
330
195
100
AcDbEntity
  8
AM_9
100
AcDbLine
 10
-0.5000000000000001
 20
-1.734296083845573
 30
0.0
 11
0.0
 21
-1.734296083845573
 31
0.0
  0
LINE
  5
1CE
330
195
100
AcDbEntity
  8
AM_9
100
AcDbLine
 10
-0.02255
 20
0.1649500000000001
 30
0.0
 11
-0.4274500000000001
 21
0.1649500000000001
 31
0.0
  0
LINE
  5
1CF
330
195
100
AcDbEntity
  8
AM_9
100
AcDbLine
 10
-0.4274500000000001
 20
-0.1649500000000001
 30
0.0
 11
-0.02255
 21
-0.1649500000000001
 31
0.0
  0
LINE
  5
1D0
330
195
100
AcDbEntity
  8
AM_9
100
AcDbLine
 10
-0.02255
 20
-0.1649500000000001
 30
0.0
 11
-0.02255
 21
0.1649500000000001
 31
0.0
  0
LINE
  5
1D1
330
195
100
AcDbEntity
  8
AM_9
100
AcDbLine
 10
-0.02255
 20
-0.1649500000000001
 30
0.0
 11
0.0000000000000001
 21
-0.1874999999999998
 31
0.0
  0
LINE
  5
1D2
330
195
100
AcDbEntity
  8
AM_9
100
AcDbLine
 10
0.0000000000000001
 20
0.1874999999999998
 30
0.0
 11
-0.02255
 21
0.1649500000000001
 31
0.0
  0
LINE
  5
1D3
330
195
100
AcDbEntity
  8
AM_9
100
AcDbLine
 10
-0.4274500000000001
 20
-0.1649500000000001
 30
0.0
 11
-0.4274500000000001
 21
0.1649500000000001
 31
0.0
  0
LINE
  5
1D4
330
195
100
AcDbEntity
  8
AM_9
100
AcDbLine
 10
-0.4274500000000001
 20
0.1649500000000001
 30
0.0
 11
-0.4500000000000001
 21
0.1874999999999998
 31
0.0
  0
LINE
  5
1D5
330
195
100
AcDbEntity
  8
AM_9
100
AcDbLine
 10
-0.4500000000000001
 20
-0.1874999999999998
 30
0.0
 11
-0.4274500000000001
 21
-0.1649500000000001
 31
0.0
  0
LINE
  5
1D6
330
195
100
AcDbEntity
  8
AM_5
100
AcDbLine
 10
-0.0000000000000003
 20
-0.1874999999999998
 30
0.0
 11
-0.4500000000000001
 21
-0.1874999999999998
 31
0.0
  0
LINE
  5
1D7
330
195
100
AcDbEntity
  8
AM_5
100
AcDbLine
 10
0.0000000000000001
 20
0.1875000000000001
 30
0.0
 11
-0.4500000000000001
 21
0.1875000000000001
 31
0.0
  0
LINE
  5
1D8
330
195
100
AcDbEntity
  8
AM_7
100
AcDbLine
 10
-0.5250000000000002
 20
1.546796083845573
 30
0.0
 11
0.0249999999999998
 21
1.546796083845573
 31
0.0
  0
LINE
  5
1D9
330
195
100
AcDbEntity
  8
AM_7
100
AcDbLine
 10
-0.5250000000000002
 20
-1.546796083845573
 30
0.0
 11
0.0249999999999998
 21
-1.546796083845573
 31
0.0
  0
LINE
  5
1DA
330
195
100
AcDbEntity
  8
AM_4
100
AcDbLine
 10
-0.5
 20
1.904006350946109
 30
0.0
 11
-0.5934362705430508
 21
1.742169983095794
 31
0.0
  0
LINE
  5
1DB
330
195
100
AcDbEntity
  8
AM_4
100
AcDbLine
 10
-0.5
 20
1.742169983095794
 30
0.0
 11
-0.625
 21
1.742169983095794
 31
0.0
  0
LINE
  5
1DC
330
195
100
AcDbEntity
  8
AM_4
100
AcDbLine
 10
-0.625
 20
-1.8125
 30
0.0
 11
-0.5
 21
-1.8125
 31
0.0
  0
LINE
  5
1DD
330
195
100
AcDbEntity
  8
AM_4
100
AcDbLine
 10
-0.625
 20
-1.8125
 30
0.0
 11
-0.625
 21
1.742169983095794
 31
0.0
  0
LINE
  5
1DE
330
195
100
AcDbEntity
  8
AM_4
100
AcDbLine
 10
-0.625
 20
1.464582532621103
 30
0.0
 11
-0.5000000000000001
 21
1.464582532621103
 31
0.0
  0
LINE
  5
1DF
330
195
100
AcDbEntity
  8
AM_4
100
AcDbLine
 10
-0.625
 20
-1.464582532621103
 30
0.0
 11
-0.5000000000000001
 21
-1.464582532621103
 31
0.0
  0
LINE
  5
1E0
330
195
100
AcDbEntity
  8
AM_4
100
AcDbLine
 10
1.21875
 20
-1.726190476190476
 30
0.0
 11
1.21875
 21
1.726190476190476
 31
0.0
  0
LINE
  5
1E1
330
195
100
AcDbEntity
  8
AM_4
100
AcDbLine
 10
0.7499999999999999
 20
-1.726190476190476
 30
0.0
 11
1.21875
 21
-1.726190476190476
 31
0.0
  0
LINE
  5
1E2
330
195
100
AcDbEntity
  8
AM_4
100
AcDbLine
 10
1.21875
 20
1.726190476190476
 30
0.0
 11
0.7499999999999999
 21
1.726190476190476
 31
0.0
  0
LINE
  5
1E3
330
195
100
AcDbEntity
  8
AM_4
100
AcDbLine
 10
-0.625
 20
-1.06778005934797
 30
0.0
 11
-0.5000000000000001
 21
-1.06778005934797
 31
0.0
  0
LINE
  5
1E4
330
195
100
AcDbEntity
  8
AM_4
100
AcDbLine
 10
-0.4500000000000001
 20
-0.7033740119261542
 30
0.0
 11
-0.5000000000000001
 21
-0.7033740119261542
 31
0.0
  0
LINE
  5
1E5
330
195
100
AcDbEntity
  8
AM_4
100
AcDbLine
 10
-0.4500000000000001
 20
0.7033740119261543
 30
0.0
 11
-0.5000000000000001
 21
0.7033740119261526
 31
0.0
  0
LINE
  5
1E6
330
195
100
AcDbEntity
  8
AM_4
100
AcDbLine
 10
-0.625
 20
1.067780059347971
 30
0.0
 11
-0.5000000000000001
 21
1.067780059347971
 31
0.0
  0
LINE
  5
1E7
330
195
100
AcDbEntity
  8
AM_4
100
AcDbLine
 10
0.7499999999999999
 20
-1.8125
 30
0.0
 11
0.7499999999999999
 21
1.8125
 31
0.0
  0
LINE
  5
1E8
330
195
100
AcDbEntity
  8
AM_4
100
AcDbLine
 10
-0.0000000000000001
 20
-1.8125
 30
0.0
 11
0.7499999999999999
 21
-1.8125
 31
0.0
  0
LINE
  5
1E9
330
195
100
AcDbEntity
  8
AM_4
100
AcDbLine
 10
0.7499999999999999
 20
1.8125
 30
0.0
 11
-0.0000000000000001
 21
1.8125
 31
0.0
  0
LINE
  5
1EA
330
195
100
AcDbEntity
  8
AM_4
100
AcDbLine
 10
-0.4500000000000001
 20
-0.8836824225619223
 30
0.0
 11
-0.5000000000000001
 21
-0.8836824225619223
 31
0.0
  0
LINE
  5
1EB
330
195
100
AcDbEntity
  8
AM_4
100
AcDbLine
 10
-0.4500000000000001
 20
0.8836824225619223
 30
0.0
 11
-0.5000000000000001
 21
0.8836824225619223
 31
0.0
  0
LINE
  5
1EC
330
195
100
AcDbEntity
  8
AM_4
100
AcDbLine
 10
-0.5000000000000001
 20
-2.137665643454645
 30
0.0
 11
-0.5000000000000001
 21
-0.7033740119261542
 31
0.0
  0
LINE
  5
1ED
330
195
100
AcDbEntity
  8
AM_4
100
AcDbLine
 10
-0.5000000000000001
 20
-2.137665643454645
 30
0.0
 11
-0.4500000000000001
 21
-2.137665643454645
 31
0.0
  0
LINE
  5
1EE
330
195
100
AcDbEntity
  8
AM_4
100
AcDbLine
 10
-0.4500000000000001
 20
-2.137665643454645
 30
0.0
 11
-0.4500000000000001
 21
-2.621000939849623
 31
0.0
  0
LINE
  5
1EF
330
195
100
AcDbEntity
  8
AM_4
100
AcDbLine
 10
-0.0000000000000001
 20
-2.621000939849624
 30
0.0
 11
-0.4500000000000001
 21
-2.621000939849623
 31
0.0
  0
LINE
  5
1F0
330
195
100
AcDbEntity
  8
AM_4
100
AcDbLine
 10
-0.0000000000000001
 20
-2.621000939849624
 30
0.0
 11
-0.0000000000000001
 21
2.625
 31
0.0
  0
LINE
  5
1F1
330
195
100
AcDbEntity
  8
AM_4
100
AcDbLine
 10
-0.4500000000000001
 20
2.137665643454645
 30
0.0
 11
-0.5000000000000001
 21
2.137665643454646
 31
0.0
  0
LINE
  5
1F2
330
195
100
AcDbEntity
  8
AM_4
100
AcDbLine
 10
-0.5000000000000001
 20
0.7033740119261526
 30
0.0
 11
-0.5000000000000001
 21
2.137665643454646
 31
0.0
  0
LINE
  5
1F3
330
195
100
AcDbEntity
  8
AM_4
100
AcDbLine
 10
-0.5000000000000001
 20
1.523486329703563
 30
0.0
 11
-0.4500000000000001
 21
1.523486329703563
 31
0.0
  0
LINE
  5
1F4
330
195
100
AcDbEntity
  8
AM_4
100
AcDbLine
 10
-0.4500000000000001
 20
1.523486329703563
 30
0.0
 11
-0.4500000000000001
 21
-1.523486329703563
 31
0.0
  0
LINE
  5
1F5
330
195
100
AcDbEntity
  8
AM_4
100
AcDbLine
 10
-0.4500000000000001
 20
-1.523486329703563
 30
0.0
 11
-0.5000000000000001
 21
-1.523486329703563
 31
0.0
  0
LINE
  5
1F6
330
195
100
AcDbEntity
  8
AM_4
100
AcDbLine
 10
-0.0000000000000001
 20
2.625
 30
0.0
 11
-0.4500000000000001
 21
2.625
 31
0.0
  0
LINE
  5
1F7
330
195
100
AcDbEntity
  8
AM_4
100
AcDbLine
 10
-0.4500000000000001
 20
2.625
 30
0.0
 11
-0.4500000000000001
 21
2.137665643454645
 31
0.0
  0
ENDBLK
  5
198
330
195
100
AcDbEntity
  8
0
100
AcDbBlockEnd
  0
ENDSEC
  0
SECTION
  2
ENTITIES
  0
INSERT
  5
6F
330
1F
100
AcDbEntity
  8
0
100
AcDbBlockReference
  2
1_070673_2
 10
0.0
 20
0.0
 30
0.0
  0
POINT
  5
1F9
330
1F
100
AcDbEntity
  8
ConnectionPoints
100
AcDbPoint
 10
-1.125
 20
0.0
 30
0.0000000000000001
  0
POINT
  5
1FA
330
1F
100
AcDbEntity
  8
ConnectionPoints
100
AcDbPoint
 10
-1.125
 20
0.0
 30
0.0000000000000001
  0
POINT
  5
1FB
330
1F
100
AcDbEntity
  8
ConnectionPoints
100
AcDbPoint
 10
1.9975
 20
0.0
 30
-0.0000000000000001
  0
POINT
  5
1FC
330
1F
100
AcDbEntity
  8
ConnectionPoints
100
AcDbPoint
 10
-1.125
 20
0.0
 30
0.0000000000000001
  0
POINT
  5
1FD
330
1F
100
AcDbEntity
  8
ConnectionPoints
100
AcDbPoint
 10
-0.5427275866404782
 20
1.89
 30
0.0
  0
POINT
  5
1FE
330
1F
100
AcDbEntity
  8
ConnectionPoints
100
AcDbPoint
 10
1.171875
 20
0.0
 30
-0.0000000000000001
  0
POINT
  5
1FF
330
1F
100
AcDbEntity
  8
ConnectionPoints
100
AcDbPoint
 10
-0.5427275866404782
 20
1.89
 30
0.0
  0
POINT
  5
200
330
1F
100
AcDbEntity
  8
ConnectionPoints
100
AcDbPoint
 10
-0.5156642927722146
 20
2.155625
 30
0.0
  0
POINT
  5
201
330
1F
100
AcDbEntity
  8
ConnectionPoints
100
AcDbPoint
 10
-1.125
 20
0.0
 30
0.0000000000000001
  0
POINT
  5
202
330
1F
100
AcDbEntity
  8
ConnectionPoints
100
AcDbPoint
 10
-1.3125
 20
0.0
 30
0.0000000000000001
  0
ENDSEC
  0
SECTION
  2
OBJECTS
  0
DICTIONARY
  5
C
330
0
100
AcDbDictionary
281
     1
  3
ACAD_DETAILVIEWSTYLE
350
20A
  3
ACAD_GROUP
350
D
  3
ACAD_LAYOUT
350
1A
  3
ACAD_MATERIAL
350
43
  3
ACAD_MLEADERSTYLE
350
6B
  3
ACAD_MLINESTYLE
350
17
  3
ACAD_PLOTSETTINGS
350
19
  3
ACAD_PLOTSTYLENAME
350
E
  3
ACAD_SCALELIST
350
47
  3
ACAD_SECTIONVIEWSTYLE
350
20B
  3
ACAD_TABLESTYLE
350
69
  3
ACAD_VISUALSTYLE
350
2A
  3
ACDB_RECOMPOSE_DATA
350
207
  3
AcDbVariableDictionary
350
203
  0
SUN
  5
6D
330
29
100
AcDbSun
 90
        1
290
     0
 63
     7
421
 16777215
 40
1.0
291
     1
 91
  2455826
 92
 54000000
292
     0
 70
     2
 71
   256
280
     1
  0
DICTIONARY
  5
20A
102
{ACAD_REACTORS
330
C
102
}
330
C
100
AcDbDictionary
281
     1
  0
DICTIONARY
  5
D
102
{ACAD_REACTORS
330
C
102
}
330
C
100
AcDbDictionary
281
     1
  0
DICTIONARY
  5
1A
102
{ACAD_REACTORS
330
C
102
}
330
C
100
AcDbDictionary
281
     1
  3
Layout1
350
1E
  3
Layout2
350
26
  3
Model
350
22
  0
DICTIONARY
  5
43
102
{ACAD_REACTORS
330
C
102
}
330
C
100
AcDbDictionary
281
     1
  3
ByBlock
350
45
  3
ByLayer
350
44
  3
Global
350
46
  0
DICTIONARY
  5
6B
102
{ACAD_REACTORS
330
C
102
}
330
C
100
AcDbDictionary
281
     1
  3
Standard
350
6C
  0
DICTIONARY
  5
17
102
{ACAD_REACTORS
330
C
102
}
330
C
100
AcDbDictionary
281
     1
  3
Standard
350
18
  0
DICTIONARY
  5
19
102
{ACAD_REACTORS
330
C
102
}
330
C
100
AcDbDictionary
281
     1
  0
ACDBDICTIONARYWDFLT
  5
E
102
{ACAD_REACTORS
330
C
102
}
330
C
100
AcDbDictionary
281
     1
  3
Normal
350
F
100
AcDbDictionaryWithDefault
340
F
  0
DICTIONARY
  5
47
102
{ACAD_REACTORS
330
C
102
}
330
C
100
AcDbDictionary
281
     1
  3
A0
350
48
  3
A1
350
49
  3
A2
350
4A
  3
A3
350
4B
  3
A4
350
4C
  3
A5
350
4D
  3
A6
350
4E
  3
A7
350
4F
  3
A8
350
50
  3
A9
350
51
  3
B0
350
52
  3
B1
350
53
  3
B2
350
54
  3
B3
350
55
  3
B4
350
56
  3
B5
350
57
  3
B6
350
58
  3
B7
350
59
  3
B8
350
5A
  3
B9
350
5B
  3
C0
350
5C
  3
C1
350
5D
  3
C2
350
5E
  3
C3
350
5F
  3
C4
350
60
  3
C5
350
61
  3
C6
350
62
  3
C7
350
63
  3
C8
350
64
  3
C9
350
65
  3
D0
350
66
  3
D1
350
67
  3
D2
350
68
  0
DICTIONARY
  5
20B
102
{ACAD_REACTORS
330
C
102
}
330
C
100
AcDbDictionary
281
     1
  0
DICTIONARY
  5
69
102
{ACAD_REACTORS
330
C
102
}
330
C
100
AcDbDictionary
281
     1
  3
Standard
350
6A
  0
DICTIONARY
  5
2A
102
{ACAD_REACTORS
330
C
102
}
330
C
100
AcDbDictionary
281
     1
  3
2dWireframe
350
2F
  3
Basic
350
32
  3
Brighten
350
36
  3
ColorChange
350
3A
  3
Conceptual
350
34
  3
Dim
350
35
  3
EdgeColorOff
350
3D
  3
Facepattern
350
39
  3
Flat
350
2B
  3
FlatWithEdges
350
2C
  3
Gouraud
350
2D
  3
GouraudWithEdges
350
2E
  3
Hidden
350
31
  3
JitterOff
350
3B
  3
Linepattern
350
38
  3
OverhangOff
350
3C
  3
Realistic
350
33
  3
Shaded
350
42
  3
Shaded with edges
350
41
  3
Shades of Gray
350
3E
  3
Sketchy
350
3F
  3
Thicken
350
37
  3
Wireframe
350
30
  3
X-Ray
350
40
  0
XRECORD
  5
207
102
{ACAD_REACTORS
330
C
102
}
330
C
100
AcDbXrecord
280
     1
 90
        1
330
6A
  0
DICTIONARY
  5
203
102
{ACAD_REACTORS
330
C
102
}
330
C
100
AcDbDictionary
281
     1
  3
CANNOSCALE
350
204
  3
CMLEADERSTYLE
350
209
  3
CTABLESTYLE
350
208
  0
LAYOUT
  5
1E
102
{ACAD_REACTORS
330
1A
102
}
330
1A
100
AcDbPlotSettings
  1

  2
none_device
  4

  6

 40
0.0
 41
0.0
 42
0.0
 43
0.0
 44
0.0
 45
0.0
 46
0.0
 47
0.0
 48
0.0
 49
0.0
140
0.0
141
0.0
142
1.0
143
1.0
 70
   688
 72
     0
 73
     0
 74
     5
  7

 75
    16
 76
     0
 77
     2
 78
   300
147
1.0
148
0.0
149
0.0
100
AcDbLayout
  1
Layout1
 70
     1
 71
     1
 10
0.0
 20
0.0
 11
12.0
 21
9.0
 12
0.0
 22
0.0
 32
0.0
 14
1.000000000000000E+20
 24
1.000000000000000E+20
 34
1.000000000000000E+20
 15
-1.000000000000000E+20
 25
-1.000000000000000E+20
 35
-1.000000000000000E+20
146
0.0
 13
0.0
 23
0.0
 33
0.0
 16
1.0
 26
0.0
 36
0.0
 17
0.0
 27
1.0
 37
0.0
 76
     0
330
1B
  0
LAYOUT
  5
26
102
{ACAD_REACTORS
330
1A
102
}
330
1A
100
AcDbPlotSettings
  1

  2
none_device
  4

  6

 40
0.0
 41
0.0
 42
0.0
 43
0.0
 44
0.0
 45
0.0
 46
0.0
 47
0.0
 48
0.0
 49
0.0
140
0.0
141
0.0
142
1.0
143
1.0
 70
   688
 72
     0
 73
     0
 74
     5
  7

 75
    16
 76
     0
 77
     2
 78
   300
147
1.0
148
0.0
149
0.0
100
AcDbLayout
  1
Layout2
 70
     1
 71
     2
 10
0.0
 20
0.0
 11
0.0
 21
0.0
 12
0.0
 22
0.0
 32
0.0
 14
0.0
 24
0.0
 34
0.0
 15
0.0
 25
0.0
 35
0.0
146
0.0
 13
0.0
 23
0.0
 33
0.0
 16
1.0
 26
0.0
 36
0.0
 17
0.0
 27
1.0
 37
0.0
 76
     0
330
23
  0
LAYOUT
  5
22
102
{ACAD_REACTORS
330
1A
102
}
330
1A
100
AcDbPlotSettings
  1

  2
none_device
  4
Letter_(8.50_x_11.00_Inches)
  6

 40
6.35
 41
6.35
 42
6.35000508
 43
6.35000508
 44
215.9
 45
279.4
 46
0.0
 47
0.0
 48
0.0
 49
0.0
140
0.0
141
0.0
142
1.0
143
1.0
 70
  1712
 72
     0
 73
     0
 74
     0
  7

 75
     0
 76
     0
 77
     2
 78
   300
147
1.0
148
0.0
149
0.0
100
AcDbLayout
  1
Model
 70
     1
 71
     0
 10
0.0
 20
0.0
 11
12.0
 21
9.0
 12
0.0
 22
0.0
 32
0.0
 14
1.000000000000000E+20
 24
1.000000000000000E+20
 34
1.000000000000000E+20
 15
-1.000000000000000E+20
 25
-1.000000000000000E+20
 35
-1.000000000000000E+20
146
0.0
 13
0.0
 23
0.0
 33
0.0
 16
1.0
 26
0.0
 36
0.0
 17
0.0
 27
1.0
 37
0.0
 76
     0
330
1F
331
29
  0
MATERIAL
  5
45
102
{ACAD_REACTORS
330
43
102
}
330
43
100
AcDbMaterial
  1
ByBlock
 72
     1
 94
      127
  0
MATERIAL
  5
44
102
{ACAD_REACTORS
330
43
102
}
330
43
100
AcDbMaterial
  1
ByLayer
 72
     1
 94
      127
  0
MATERIAL
  5
46
102
{ACAD_REACTORS
330
43
102
}
330
43
100
AcDbMaterial
  1
Global
 72
     1
 94
      127
  0
MLEADERSTYLE
  5
6C
102
{ACAD_REACTORS
330
6B
102
}
330
6B
100
AcDbMLeaderStyle
179
     2
170
     2
171
     1
172
     0
 90
        2
 40
0.0
 41
0.0
173
     1
 91
-1056964608
340
14
 92
       -2
290
     1
 42
0.09
291
     1
 43
0.36
  3
Standard
341
0
 44
0.18
300

342
11
174
     1
178
     6
175
     1
176
     0
 93
-1056964608
 45
0.18
292
     0
297
     0
 46
0.18
343
0
 94
-1056964608
 47
1.0
 49
1.0
140
1.0
293
     1
141
0.0
294
     1
177
     0
142
1.0
295
     0
296
     0
143
0.125
271
     0
272
     9
273
     9
298
     0
  0
MLINESTYLE
  5
18
102
{ACAD_REACTORS
330
17
102
}
330
17
100
AcDbMlineStyle
  2
Standard
 70
     0
  3

 62
   256
 51
90.0
 52
90.0
 71
     2
 49
0.5
 62
   256
  6
BYLAYER
 49
-0.5
 62
   256
  6
BYLAYER
  0
ACDBPLACEHOLDER
  5
F
102
{ACAD_REACTORS
330
E
102
}
330
E
  0
SCALE
  5
48
102
{ACAD_REACTORS
330
47
102
}
330
47
100
AcDbScale
 70
     0
300
1:1
140
1.0
141
1.0
290
     1
  0
SCALE
  5
49
102
{ACAD_REACTORS
330
47
102
}
330
47
100
AcDbScale
 70
     0
300
1:2
140
1.0
141
2.0
290
     0
  0
SCALE
  5
4A
102
{ACAD_REACTORS
330
47
102
}
330
47
100
AcDbScale
 70
     0
300
1:4
140
1.0
141
4.0
290
     0
  0
SCALE
  5
4B
102
{ACAD_REACTORS
330
47
102
}
330
47
100
AcDbScale
 70
     0
300
1:5
140
1.0
141
5.0
290
     0
  0
SCALE
  5
4C
102
{ACAD_REACTORS
330
47
102
}
330
47
100
AcDbScale
 70
     0
300
1:8
140
1.0
141
8.0
290
     0
  0
SCALE
  5
4D
102
{ACAD_REACTORS
330
47
102
}
330
47
100
AcDbScale
 70
     0
300
1:10
140
1.0
141
10.0
290
     0
  0
SCALE
  5
4E
102
{ACAD_REACTORS
330
47
102
}
330
47
100
AcDbScale
 70
     0
300
1:16
140
1.0
141
16.0
290
     0
  0
SCALE
  5
4F
102
{ACAD_REACTORS
330
47
102
}
330
47
100
AcDbScale
 70
     0
300
1:20
140
1.0
141
20.0
290
     0
  0
SCALE
  5
50
102
{ACAD_REACTORS
330
47
102
}
330
47
100
AcDbScale
 70
     0
300
1:30
140
1.0
141
30.0
290
     0
  0
SCALE
  5
51
102
{ACAD_REACTORS
330
47
102
}
330
47
100
AcDbScale
 70
     0
300
1:40
140
1.0
141
40.0
290
     0
  0
SCALE
  5
52
102
{ACAD_REACTORS
330
47
102
}
330
47
100
AcDbScale
 70
     0
300
1:50
140
1.0
141
50.0
290
     0
  0
SCALE
  5
53
102
{ACAD_REACTORS
330
47
102
}
330
47
100
AcDbScale
 70
     0
300
1:100
140
1.0
141
100.0
290
     0
  0
SCALE
  5
54
102
{ACAD_REACTORS
330
47
102
}
330
47
100
AcDbScale
 70
     0
300
2:1
140
2.0
141
1.0
290
     0
  0
SCALE
  5
55
102
{ACAD_REACTORS
330
47
102
}
330
47
100
AcDbScale
 70
     0
300
4:1
140
4.0
141
1.0
290
     0
  0
SCALE
  5
56
102
{ACAD_REACTORS
330
47
102
}
330
47
100
AcDbScale
 70
     0
300
8:1
140
8.0
141
1.0
290
     0
  0
SCALE
  5
57
102
{ACAD_REACTORS
330
47
102
}
330
47
100
AcDbScale
 70
     0
300
10:1
140
10.0
141
1.0
290
     0
  0
SCALE
  5
58
102
{ACAD_REACTORS
330
47
102
}
330
47
100
AcDbScale
 70
     0
300
100:1
140
100.0
141
1.0
290
     0
  0
SCALE
  5
59
102
{ACAD_REACTORS
330
47
102
}
330
47
100
AcDbScale
 70
     0
300
1/128" = 1'-0"
140
0.0078125
141
12.0
290
     0
  0
SCALE
  5
5A
102
{ACAD_REACTORS
330
47
102
}
330
47
100
AcDbScale
 70
     0
300
1/64" = 1'-0"
140
0.015625
141
12.0
290
     0
  0
SCALE
  5
5B
102
{ACAD_REACTORS
330
47
102
}
330
47
100
AcDbScale
 70
     0
300
1/32" = 1'-0"
140
0.03125
141
12.0
290
     0
  0
SCALE
  5
5C
102
{ACAD_REACTORS
330
47
102
}
330
47
100
AcDbScale
 70
     0
300
1/16" = 1'-0"
140
0.0625
141
12.0
290
     0
  0
SCALE
  5
5D
102
{ACAD_REACTORS
330
47
102
}
330
47
100
AcDbScale
 70
     0
300
3/32" = 1'-0"
140
0.09375
141
12.0
290
     0
  0
SCALE
  5
5E
102
{ACAD_REACTORS
330
47
102
}
330
47
100
AcDbScale
 70
     0
300
1/8" = 1'-0"
140
0.125
141
12.0
290
     0
  0
SCALE
  5
5F
102
{ACAD_REACTORS
330
47
102
}
330
47
100
AcDbScale
 70
     0
300
3/16" = 1'-0"
140
0.1875
141
12.0
290
     0
  0
SCALE
  5
60
102
{ACAD_REACTORS
330
47
102
}
330
47
100
AcDbScale
 70
     0
300
1/4" = 1'-0"
140
0.25
141
12.0
290
     0
  0
SCALE
  5
61
102
{ACAD_REACTORS
330
47
102
}
330
47
100
AcDbScale
 70
     0
300
3/8" = 1'-0"
140
0.375
141
12.0
290
     0
  0
SCALE
  5
62
102
{ACAD_REACTORS
330
47
102
}
330
47
100
AcDbScale
 70
     0
300
1/2" = 1'-0"
140
0.5
141
12.0
290
     0
  0
SCALE
  5
63
102
{ACAD_REACTORS
330
47
102
}
330
47
100
AcDbScale
 70
     0
300
3/4" = 1'-0"
140
0.75
141
12.0
290
     0
  0
SCALE
  5
64
102
{ACAD_REACTORS
330
47
102
}
330
47
100
AcDbScale
 70
     0
300
1" = 1'-0"
140
1.0
141
12.0
290
     0
  0
SCALE
  5
65
102
{ACAD_REACTORS
330
47
102
}
330
47
100
AcDbScale
 70
     0
300
1-1/2" = 1'-0"
140
1.5
141
12.0
290
     0
  0
SCALE
  5
66
102
{ACAD_REACTORS
330
47
102
}
330
47
100
AcDbScale
 70
     0
300
3" = 1'-0"
140
3.0
141
12.0
290
     0
  0
SCALE
  5
67
102
{ACAD_REACTORS
330
47
102
}
330
47
100
AcDbScale
 70
     0
300
6" = 1'-0"
140
6.0
141
12.0
290
     0
  0
SCALE
  5
68
102
{ACAD_REACTORS
330
47
102
}
330
47
100
AcDbScale
 70
     0
300
1'-0" = 1'-0"
140
12.0
141
12.0
290
     0
  0
TABLESTYLE
  5
6A
102
{ACAD_REACTORS
330
69
102
}
102
{ACAD_XDICTIONARY
360
205
102
}
330
69
100
AcDbTableStyle
  3
Standard
 70
     0
 71
     0
 40
0.06
 41
0.06
280
     0
281
     0
  7
Standard
140
0.18
170
     2
 62
     0
 63
   257
283
     0
 90
        4
 91
        0
  1

274
    -2
284
     1
 64
     0
275
    -2
285
     1
 65
     0
276
    -2
286
     1
 66
     0
277
    -2
287
     1
 67
     0
278
    -2
288
     1
 68
     0
279
    -2
289
     1
 69
     0
  7
Standard
140
0.25
170
     5
 62
     0
 63
   257
283
     0
 90
        4
 91
        0
  1

274
    -2
284
     1
 64
     0
275
    -2
285
     1
 65
     0
276
    -2
286
     1
 66
     0
277
    -2
287
     1
 67
     0
278
    -2
288
     1
 68
     0
279
    -2
289
     1
 69
     0
  7
Standard
140
0.18
170
     5
 62
     0
 63
   257
283
     0
 90
        4
 91
        0
  1

274
    -2
284
     1
 64
     0
275
    -2
285
     1
 65
     0
276
    -2
286
     1
 66
     0
277
    -2
287
     1
 67
     0
278
    -2
288
     1
 68
     0
279
    -2
289
     1
 69
     0
  0
VISUALSTYLE
  5
2F
102
{ACAD_REACTORS
330
2A
102
}
330
2A
100
AcDbVisualStyle
  2
2dWireframe
 70
     4
177
     3
291
     0
 70
    58
 90
        0
176
     1
 90
        2
176
     1
 90
        0
176
     1
 90
        0
176
     1
 40
0.6
176
     1
 40
30.0
176
     1
 62
     7
420
 16777215
176
     1
 90
        1
176
     1
 90
        4
176
     1
 62
     7
176
     1
 62
   257
176
     1
 90
        1
176
     1
 90
        1
176
     1
 40
1.0
176
     1
 90
        0
176
     1
 62
   257
176
     1
 40
1.0
176
     1
 90
        1
176
     1
 90
        6
176
     1
 90
        2
176
     1
 62
     7
176
     1
 90
        5
176
     1
 90
        0
176
     1
 90
        0
176
     1
290
     0
176
     1
 90
        1
176
     1
 40
0.0
176
     1
 90
        0
176
     1
290
     1
176
     1
290
     1
176
     1
290
     0
176
     1
290
     0
176
     1
290
     0
176
     1
290
     0
176
     1
290
     0
176
     1
290
     0
176
     1
290
     0
176
     1
 90
       50
176
     1
 40
0.0
176
     1
 40
1.0
176
     1
 90
        0
176
     1
 62
    18
420
        0
176
     1
 90
       50
176
     1
 90
        3
176
     1
 62
     5
420
      255
176
     1
290
     0
176
     1
 90
       50
176
     1
 90
       50
176
     1
 90
       50
176
     1
290
     0
176
     1
 90
       50
176
     1
 62
   256
176
     0
 40
1.0
176
     0
 90
        2
176
     1
  1
strokes_ogs.tif
176
     1
290
     0
176
     1
 40
1.0
176
     1
 40
1.0
176
     1
  0
VISUALSTYLE
  5
32
102
{ACAD_REACTORS
330
2A
102
}
330
2A
100
AcDbVisualStyle
  2
Basic
 70
     7
177
     3
291
     1
 70
    58
 90
        1
176
     1
 90
        0
176
     1
 90
        1
176
     1
 90
        0
176
     1
 40
0.6
176
     1
 40
30.0
176
     1
 62
     7
420
 16777215
176
     1
 90
        0
176
     1
 90
        4
176
     1
 62
     7
176
     1
 62
   257
176
     1
 90
        1
176
     1
 90
        1
176
     1
 40
1.0
176
     1
 90
        8
176
     1
 62
     7
176
     1
 40
1.0
176
     1
 90
        1
176
     1
 90
        6
176
     1
 90
        2
176
     1
 62
     7
176
     1
 90
        5
176
     1
 90
        0
176
     1
 90
        0
176
     1
290
     0
176
     1
 90
        1
176
     1
 40
0.0
176
     1
 90
        0
176
     1
290
     0
176
     1
290
     1
176
     1
290
     1
176
     1
290
     0
176
     1
290
     0
176
     1
290
     0
176
     1
290
     0
176
     1
290
     0
176
     1
290
     0
176
     1
 90
       50
176
     1
 40
0.0
176
     1
 40
1.0
176
     1
 90
        0
176
     1
 62
    18
420
        0
176
     1
 90
       50
176
     1
 90
        3
176
     1
 62
     5
420
      255
176
     1
290
     0
176
     1
 90
       50
176
     1
 90
       50
176
     1
 90
       50
176
     1
290
     0
176
     1
 90
       50
176
     1
 62
   256
176
     0
 40
1.0
176
     0
 90
        2
176
     1
  1
strokes_ogs.tif
176
     1
290
     0
176
     1
 40
1.0
176
     1
 40
1.0
176
     1
  0
VISUALSTYLE
  5
36
102
{ACAD_REACTORS
330
2A
102
}
330
2A
100
AcDbVisualStyle
  2
Brighten
 70
    12
177
     3
291
     1
 70
    58
 90
        2
176
     1
 90
        2
176
     1
 90
        0
176
     1
 90
        0
176
     1
 40
0.6
176
     1
 40
30.0
176
     1
 62
     7
420
 16777215
176
     1
 90
        1
176
     1
 90
        4
176
     1
 62
     7
176
     1
 62
   257
176
     1
 90
        1
176
     1
 90
        1
176
     1
 40
1.0
176
     1
 90
        8
176
     1
 62
     7
176
     1
 40
1.0
176
     1
 90
        1
176
     1
 90
        6
176
     1
 90
        2
176
     1
 62
     7
176
     1
 90
        5
176
     1
 90
        0
176
     1
 90
        0
176
     1
290
     0
176
     1
 90
        1
176
     1
 40
50.0
176
     1
 90
        0
176
     1
290
     0
176
     1
290
     1
176
     1
290
     1
176
     1
290
     0
176
     1
290
     0
176
     1
290
     0
176
     1
290
     0
176
     1
290
     0
176
     1
290
     0
176
     1
 90
       50
176
     1
 40
0.0
176
     1
 40
1.0
176
     1
 90
        0
176
     1
 62
    18
420
        0
176
     1
 90
       50
176
     1
 90
        3
176
     1
 62
     5
420
      255
176
     1
290
     0
176
     1
 90
       50
176
     1
 90
       50
176
     1
 90
       50
176
     1
290
     0
176
     1
 90
       50
176
     1
 62
   256
176
     0
 40
1.0
176
     0
 90
        2
176
     1
  1
strokes_ogs.tif
176
     1
290
     0
176
     1
 40
1.0
176
     1
 40
1.0
176
     1
  0
VISUALSTYLE
  5
3A
102
{ACAD_REACTORS
330
2A
102
}
330
2A
100
AcDbVisualStyle
  2
ColorChange
 70
    16
177
     3
291
     1
 70
    58
 90
        2
176
     1
 90
        2
176
     1
 90
        3
176
     1
 90
        0
176
     1
 40
0.6
176
     1
 40
30.0
176
     1
 62
     8
420
  8421504
176
     1
 90
        1
176
     1
 90
        4
176
     1
 62
     7
176
     1
 62
   257
176
     1
 90
        1
176
     1
 90
        1
176
     1
 40
1.0
176
     1
 90
        8
176
     1
 62
     8
420
  8421504
176
     1
 40
1.0
176
     1
 90
        1
176
     1
 90
        6
176
     1
 90
        2
176
     1
 62
     7
176
     1
 90
        5
176
     1
 90
        0
176
     1
 90
        0
176
     1
290
     0
176
     1
 90
        1
176
     1
 40
0.0
176
     1
 90
        0
176
     1
290
     0
176
     1
290
     1
176
     1
290
     1
176
     1
290
     0
176
     1
290
     0
176
     1
290
     0
176
     1
290
     0
176
     1
290
     0
176
     1
290
     0
176
     1
 90
       50
176
     1
 40
0.0
176
     1
 40
1.0
176
     1
 90
        0
176
     1
 62
    18
420
        0
176
     1
 90
       50
176
     1
 90
        3
176
     1
 62
     5
420
      255
176
     1
290
     0
176
     1
 90
       50
176
     1
 90
       50
176
     1
 90
       50
176
     1
290
     0
176
     1
 90
       50
176
     1
 62
   256
176
     0
 40
1.0
176
     0
 90
        2
176
     1
  1
strokes_ogs.tif
176
     1
290
     0
176
     1
 40
1.0
176
     1
 40
1.0
176
     1
  0
VISUALSTYLE
  5
34
102
{ACAD_REACTORS
330
2A
102
}
330
2A
100
AcDbVisualStyle
  2
Conceptual
 70
     9
177
     3
291
     0
 70
    58
 90
        3
176
     1
 90
        2
176
     1
 90
        0
176
     1
 90
        0
176
     1
 40
0.6
176
     1
 40
30.0
176
     1
 62
     7
420
 16777215
176
     1
 90
        2
176
     1
 90
        2
176
     1
 62
     7
176
     1
 62
   257
176
     1
 90
        1
176
     1
 90
        1
176
     1
 40
179.0
176
     1
 90
        8
176
     1
 62
     7
176
     1
 40
1.0
176
     1
 90
        1
176
     1
 90
        6
176
     1
 90
        2
176
     1
 62
     7
176
     1
 90
        3
176
     1
 90
        0
176
     1
 90
        0
176
     1
290
     0
176
     1
 90
        1
176
     1
 40
0.0
176
     1
 90
        0
176
     1
290
     0
176
     1
290
     1
176
     1
290
     1
176
     1
290
     0
176
     1
290
     0
176
     1
290
     0
176
     1
290
     0
176
     1
290
     0
176
     1
290
     0
176
     1
 90
       50
176
     1
 40
0.0
176
     1
 40
1.0
176
     1
 90
        0
176
     1
 62
    18
420
        0
176
     1
 90
       50
176
     1
 90
        3
176
     1
 62
     5
420
      255
176
     1
290
     0
176
     1
 90
       50
176
     1
 90
       50
176
     1
 90
       50
176
     1
290
     0
176
     1
 90
       50
176
     1
 62
   256
176
     0
 40
1.0
176
     0
 90
        2
176
     1
  1
strokes_ogs.tif
176
     1
290
     0
176
     1
 40
1.0
176
     1
 40
1.0
176
     1
  0
VISUALSTYLE
  5
35
102
{ACAD_REACTORS
330
2A
102
}
330
2A
100
AcDbVisualStyle
  2
Dim
 70
    11
177
     3
291
     1
 70
    58
 90
        2
176
     1
 90
        2
176
     1
 90
        0
176
     1
 90
        0
176
     1
 40
0.6
176
     1
 40
30.0
176
     1
 62
     7
420
 16777215
176
     1
 90
        1
176
     1
 90
        4
176
     1
 62
     7
176
     1
 62
   257
176
     1
 90
        1
176
     1
 90
        1
176
     1
 40
1.0
176
     1
 90
        8
176
     1
 62
     7
176
     1
 40
1.0
176
     1
 90
        1
176
     1
 90
        6
176
     1
 90
        2
176
     1
 62
     7
176
     1
 90
        5
176
     1
 90
        0
176
     1
 90
        0
176
     1
290
     0
176
     1
 90
        1
176
     1
 40
-50.0
176
     1
 90
        0
176
     1
290
     0
176
     1
290
     1
176
     1
290
     1
176
     1
290
     0
176
     1
290
     0
176
     1
290
     0
176
     1
290
     0
176
     1
290
     0
176
     1
290
     0
176
     1
 90
       50
176
     1
 40
0.0
176
     1
 40
1.0
176
     1
 90
        0
176
     1
 62
    18
420
        0
176
     1
 90
       50
176
     1
 90
        3
176
     1
 62
     5
420
      255
176
     1
290
     0
176
     1
 90
       50
176
     1
 90
       50
176
     1
 90
       50
176
     1
290
     0
176
     1
 90
       50
176
     1
 62
   256
176
     0
 40
1.0
176
     0
 90
        2
176
     1
  1
strokes_ogs.tif
176
     1
290
     0
176
     1
 40
1.0
176
     1
 40
1.0
176
     1
  0
VISUALSTYLE
  5
3D
102
{ACAD_REACTORS
330
2A
102
}
330
2A
100
AcDbVisualStyle
  2
EdgeColorOff
 70
    22
177
     3
291
     1
 70
    58
 90
        2
176
     0
 90
        2
176
     0
 90
        0
176
     0
 90
        0
176
     0
 40
0.6
176
     0
 40
30.0
176
     0
 62
     7
420
 16777215
176
     0
 90
        1
176
     0
 90
        4
176
     0
 62
     7
176
     0
 62
   257
176
     0
 90
        1
176
     0
 90
        1
176
     0
 40
1.0
176
     0
 90
        8
176
     2
 62
     7
176
     0
 40
1.0
176
     0
 90
        1
176
     0
 90
        6
176
     0
 90
        2
176
     0
 62
     7
176
     0
 90
        5
176
     0
 90
        0
176
     0
 90
        0
176
     0
290
     0
176
     0
 90
        1
176
     0
 40
0.0
176
     0
 90
        0
176
     0
290
     0
176
     0
290
     1
176
     0
290
     1
176
     0
290
     0
176
     0
290
     0
176
     0
290
     0
176
     0
290
     0
176
     0
290
     0
176
     0
290
     0
176
     0
 90
       50
176
     0
 40
0.0
176
     0
 40
1.0
176
     0
 90
        0
176
     0
 62
    18
420
        0
176
     0
 90
       50
176
     0
 90
        3
176
     0
 62
     5
420
      255
176
     0
290
     0
176
     0
 90
       50
176
     0
 90
       50
176
     0
 90
       50
176
     0
290
     0
176
     0
 90
       50
176
     0
 62
   256
176
     0
 40
1.0
176
     0
 90
        2
176
     0
  1
strokes_ogs.tif
176
     0
290
     0
176
     0
 40
1.0
176
     0
 40
1.0
176
     0
  0
VISUALSTYLE
  5
39
102
{ACAD_REACTORS
330
2A
102
}
330
2A
100
AcDbVisualStyle
  2
Facepattern
 70
    15
177
     3
291
     1
 70
    58
 90
        2
176
     1
 90
        2
176
     1
 90
        0
176
     1
 90
        0
176
     1
 40
0.6
176
     1
 40
30.0
176
     1
 62
     7
420
 16777215
176
     1
 90
        1
176
     1
 90
        4
176
     1
 62
     7
176
     1
 62
   257
176
     1
 90
        1
176
     1
 90
        1
176
     1
 40
1.0
176
     1
 90
        8
176
     1
 62
     7
176
     1
 40
1.0
176
     1
 90
        1
176
     1
 90
        6
176
     1
 90
        2
176
     1
 62
     7
176
     1
 90
        5
176
     1
 90
        0
176
     1
 90
        0
176
     1
290
     0
176
     1
 90
        1
176
     1
 40
0.0
176
     1
 90
        0
176
     1
290
     0
176
     1
290
     1
176
     1
290
     1
176
     1
290
     0
176
     1
290
     0
176
     1
290
     0
176
     1
290
     0
176
     1
290
     0
176
     1
290
     0
176
     1
 90
       50
176
     1
 40
0.0
176
     1
 40
1.0
176
     1
 90
        0
176
     1
 62
    18
420
        0
176
     1
 90
       50
176
     1
 90
        3
176
     1
 62
     5
420
      255
176
     1
290
     0
176
     1
 90
       50
176
     1
 90
       50
176
     1
 90
       50
176
     1
290
     0
176
     1
 90
       50
176
     1
 62
   256
176
     0
 40
1.0
176
     0
 90
        2
176
     1
  1
strokes_ogs.tif
176
     1
290
     0
176
     1
 40
1.0
176
     1
 40
1.0
176
     1
  0
VISUALSTYLE
  5
2B
102
{ACAD_REACTORS
330
2A
102
}
330
2A
100
AcDbVisualStyle
  2
Flat
 70
     0
177
     3
291
     1
 70
    58
 90
        2
176
     1
 90
        1
176
     1
 90
        1
176
     1
 90
        2
176
     1
 40
0.6
176
     1
 40
30.0
176
     1
 62
     7
420
 16777215
176
     1
 90
        0
176
     1
 90
        0
176
     1
 62
     7
176
     1
 62
   257
176
     1
 90
        1
176
     1
 90
        1
176
     1
 40
1.0
176
     1
 90
        8
176
     1
 62
     7
176
     1
 40
1.0
176
     1
 90
        1
176
     1
 90
        6
176
     1
 90
        2
176
     1
 62
     7
176
     1
 90
        5
176
     1
 90
        0
176
     1
 90
        0
176
     1
290
     0
176
     1
 90
       13
176
     1
 40
0.0
176
     1
 90
        0
176
     1
290
     0
176
     1
290
     1
176
     1
290
     1
176
     1
290
     0
176
     1
290
     0
176
     1
290
     0
176
     1
290
     0
176
     1
290
     0
176
     1
290
     0
176
     1
 90
       50
176
     1
 40
0.0
176
     1
 40
1.0
176
     1
 90
        0
176
     1
 62
    18
420
        0
176
     1
 90
       50
176
     1
 90
        3
176
     1
 62
     5
420
      255
176
     1
290
     0
176
     1
 90
       50
176
     1
 90
       50
176
     1
 90
       50
176
     1
290
     0
176
     1
 90
       50
176
     1
 62
   256
176
     0
 40
1.0
176
     0
 90
        2
176
     1
  1
strokes_ogs.tif
176
     1
290
     0
176
     1
 40
1.0
176
     1
 40
1.0
176
     1
  0
VISUALSTYLE
  5
2C
102
{ACAD_REACTORS
330
2A
102
}
330
2A
100
AcDbVisualStyle
  2
FlatWithEdges
 70
     1
177
     3
291
     1
 70
    58
 90
        2
176
     1
 90
        1
176
     1
 90
        1
176
     1
 90
        2
176
     1
 40
0.6
176
     1
 40
30.0
176
     1
 62
     7
420
 16777215
176
     1
 90
        1
176
     1
 90
        0
176
     1
 62
     7
176
     1
 62
   257
176
     1
 90
        1
176
     1
 90
        1
176
     1
 40
1.0
176
     1
 90
        0
176
     1
 62
   257
176
     1
 40
1.0
176
     1
 90
        1
176
     1
 90
        6
176
     1
 90
        2
176
     1
 62
     7
176
     1
 90
        5
176
     1
 90
        0
176
     1
 90
        0
176
     1
290
     0
176
     1
 90
       13
176
     1
 40
0.0
176
     1
 90
        0
176
     1
290
     0
176
     1
290
     1
176
     1
290
     1
176
     1
290
     0
176
     1
290
     0
176
     1
290
     0
176
     1
290
     0
176
     1
290
     0
176
     1
290
     0
176
     1
 90
       50
176
     1
 40
0.0
176
     1
 40
1.0
176
     1
 90
        0
176
     1
 62
    18
420
        0
176
     1
 90
       50
176
     1
 90
        3
176
     1
 62
     5
420
      255
176
     1
290
     0
176
     1
 90
       50
176
     1
 90
       50
176
     1
 90
       50
176
     1
290
     0
176
     1
 90
       50
176
     1
 62
   256
176
     0
 40
1.0
176
     0
 90
        2
176
     1
  1
strokes_ogs.tif
176
     1
290
     0
176
     1
 40
1.0
176
     1
 40
1.0
176
     1
  0
VISUALSTYLE
  5
2D
102
{ACAD_REACTORS
330
2A
102
}
330
2A
100
AcDbVisualStyle
  2
Gouraud
 70
     2
177
     3
291
     1
 70
    58
 90
        2
176
     1
 90
        2
176
     1
 90
        1
176
     1
 90
        2
176
     1
 40
0.6
176
     1
 40
30.0
176
     1
 62
     7
420
 16777215
176
     1
 90
        0
176
     1
 90
        0
176
     1
 62
     7
176
     1
 62
   257
176
     1
 90
        1
176
     1
 90
        1
176
     1
 40
1.0
176
     1
 90
        0
176
     1
 62
     7
176
     1
 40
1.0
176
     1
 90
        1
176
     1
 90
        6
176
     1
 90
        2
176
     1
 62
     7
176
     1
 90
        5
176
     1
 90
        0
176
     1
 90
        0
176
     1
290
     0
176
     1
 90
       13
176
     1
 40
0.0
176
     1
 90
        0
176
     1
290
     0
176
     1
290
     1
176
     1
290
     1
176
     1
290
     0
176
     1
290
     0
176
     1
290
     0
176
     1
290
     0
176
     1
290
     0
176
     1
290
     0
176
     1
 90
       50
176
     1
 40
0.0
176
     1
 40
1.0
176
     1
 90
        0
176
     1
 62
    18
420
        0
176
     1
 90
       50
176
     1
 90
        3
176
     1
 62
     5
420
      255
176
     1
290
     0
176
     1
 90
       50
176
     1
 90
       50
176
     1
 90
       50
176
     1
290
     0
176
     1
 90
       50
176
     1
 62
   256
176
     0
 40
1.0
176
     0
 90
        2
176
     1
  1
strokes_ogs.tif
176
     1
290
     0
176
     1
 40
1.0
176
     1
 40
1.0
176
     1
  0
VISUALSTYLE
  5
2E
102
{ACAD_REACTORS
330
2A
102
}
330
2A
100
AcDbVisualStyle
  2
GouraudWithEdges
 70
     3
177
     3
291
     1
 70
    58
 90
        2
176
     1
 90
        2
176
     1
 90
        1
176
     1
 90
        2
176
     1
 40
0.6
176
     1
 40
30.0
176
     1
 62
     7
420
 16777215
176
     1
 90
        1
176
     1
 90
        0
176
     1
 62
     7
176
     1
 62
   257
176
     1
 90
        1
176
     1
 90
        1
176
     1
 40
1.0
176
     1
 90
        0
176
     1
 62
   257
176
     1
 40
1.0
176
     1
 90
        1
176
     1
 90
        6
176
     1
 90
        2
176
     1
 62
     7
176
     1
 90
        5
176
     1
 90
        0
176
     1
 90
        0
176
     1
290
     0
176
     1
 90
       13
176
     1
 40
0.0
176
     1
 90
        0
176
     1
290
     0
176
     1
290
     1
176
     1
290
     1
176
     1
290
     0
176
     1
290
     0
176
     1
290
     0
176
     1
290
     0
176
     1
290
     0
176
     1
290
     0
176
     1
 90
       50
176
     1
 40
0.0
176
     1
 40
1.0
176
     1
 90
        0
176
     1
 62
    18
420
        0
176
     1
 90
       50
176
     1
 90
        3
176
     1
 62
     5
420
      255
176
     1
290
     0
176
     1
 90
       50
176
     1
 90
       50
176
     1
 90
       50
176
     1
290
     0
176
     1
 90
       50
176
     1
 62
   256
176
     0
 40
1.0
176
     0
 90
        2
176
     1
  1
strokes_ogs.tif
176
     1
290
     0
176
     1
 40
1.0
176
     1
 40
1.0
176
     1
  0
VISUALSTYLE
  5
31
102
{ACAD_REACTORS
330
2A
102
}
330
2A
100
AcDbVisualStyle
  2
Hidden
 70
     6
177
     3
291
     0
 70
    58
 90
        1
176
     1
 90
        2
176
     1
 90
        2
176
     1
 90
        0
176
     1
 40
0.6
176
     1
 40
30.0
176
     1
 62
     7
420
 16777215
176
     1
 90
        2
176
     1
 90
        2
176
     1
 62
     7
176
     1
 62
   257
176
     1
 90
        2
176
     1
 90
        1
176
     1
 40
40.0
176
     1
 90
        0
176
     1
 62
   257
176
     1
 40
1.0
176
     1
 90
        1
176
     1
 90
        6
176
     1
 90
        2
176
     1
 62
     7
176
     1
 90
        3
176
     1
 90
        0
176
     1
 90
        0
176
     1
290
     0
176
     1
 90
        1
176
     1
 40
0.0
176
     1
 90
        0
176
     1
290
     0
176
     1
290
     1
176
     1
290
     1
176
     1
290
     0
176
     1
290
     0
176
     1
290
     0
176
     1
290
     0
176
     1
290
     0
176
     1
290
     0
176
     1
 90
       50
176
     1
 40
0.0
176
     1
 40
1.0
176
     1
 90
        0
176
     1
 62
    18
420
        0
176
     1
 90
       50
176
     1
 90
        3
176
     1
 62
     5
420
      255
176
     1
290
     0
176
     1
 90
       50
176
     1
 90
       50
176
     1
 90
       50
176
     1
290
     0
176
     1
 90
       50
176
     1
 62
   256
176
     0
 40
1.0
176
     0
 90
        2
176
     1
  1
strokes_ogs.tif
176
     1
290
     0
176
     1
 40
1.0
176
     1
 40
1.0
176
     1
  0
VISUALSTYLE
  5
3B
102
{ACAD_REACTORS
330
2A
102
}
330
2A
100
AcDbVisualStyle
  2
JitterOff
 70
    20
177
     3
291
     1
 70
    58
 90
        2
176
     0
 90
        2
176
     0
 90
        0
176
     0
 90
        0
176
     0
 40
0.6
176
     0
 40
30.0
176
     0
 62
     7
420
 16777215
176
     0
 90
        1
176
     0
 90
        4
176
     0
 62
     7
176
     0
 62
   257
176
     0
 90
        1
176
     0
 90
        1
176
     0
 40
1.0
176
     0
 90
       10
176
     2
 62
     7
176
     0
 40
1.0
176
     0
 90
        1
176
     0
 90
        6
176
     0
 90
        2
176
     0
 62
     7
176
     0
 90
        5
176
     0
 90
        0
176
     0
 90
        0
176
     0
290
     0
176
     0
 90
        1
176
     0
 40
0.0
176
     0
 90
        0
176
     0
290
     0
176
     0
290
     1
176
     0
290
     1
176
     0
290
     0
176
     0
290
     0
176
     0
290
     0
176
     0
290
     0
176
     0
290
     0
176
     0
290
     0
176
     0
 90
       50
176
     0
 40
0.0
176
     0
 40
1.0
176
     0
 90
        0
176
     0
 62
    18
420
        0
176
     0
 90
       50
176
     0
 90
        3
176
     0
 62
     5
420
      255
176
     0
290
     0
176
     0
 90
       50
176
     0
 90
       50
176
     0
 90
       50
176
     0
290
     0
176
     0
 90
       50
176
     0
 62
   256
176
     0
 40
1.0
176
     0
 90
        2
176
     0
  1
strokes_ogs.tif
176
     0
290
     0
176
     0
 40
1.0
176
     0
 40
1.0
176
     0
  0
VISUALSTYLE
  5
38
102
{ACAD_REACTORS
330
2A
102
}
330
2A
100
AcDbVisualStyle
  2
Linepattern
 70
    14
177
     3
291
     1
 70
    58
 90
        2
176
     1
 90
        2
176
     1
 90
        0
176
     1
 90
        0
176
     1
 40
0.6
176
     1
 40
30.0
176
     1
 62
     7
420
 16777215
176
     1
 90
        1
176
     1
 90
        4
176
     1
 62
     7
176
     1
 62
   257
176
     1
 90
        7
176
     1
 90
        7
176
     1
 40
1.0
176
     1
 90
        8
176
     1
 62
     7
176
     1
 40
1.0
176
     1
 90
        1
176
     1
 90
        6
176
     1
 90
        2
176
     1
 62
     7
176
     1
 90
        5
176
     1
 90
        0
176
     1
 90
        0
176
     1
290
     0
176
     1
 90
        1
176
     1
 40
0.0
176
     1
 90
        0
176
     1
290
     0
176
     1
290
     1
176
     1
290
     1
176
     1
290
     0
176
     1
290
     0
176
     1
290
     0
176
     1
290
     0
176
     1
290
     0
176
     1
290
     0
176
     1
 90
       50
176
     1
 40
0.0
176
     1
 40
1.0
176
     1
 90
        0
176
     1
 62
    18
420
        0
176
     1
 90
       50
176
     1
 90
        3
176
     1
 62
     5
420
      255
176
     1
290
     0
176
     1
 90
       50
176
     1
 90
       50
176
     1
 90
       50
176
     1
290
     0
176
     1
 90
       50
176
     1
 62
   256
176
     0
 40
1.0
176
     0
 90
        2
176
     1
  1
strokes_ogs.tif
176
     1
290
     0
176
     1
 40
1.0
176
     1
 40
1.0
176
     1
  0
VISUALSTYLE
  5
3C
102
{ACAD_REACTORS
330
2A
102
}
330
2A
100
AcDbVisualStyle
  2
OverhangOff
 70
    21
177
     3
291
     1
 70
    58
 90
        2
176
     0
 90
        2
176
     0
 90
        0
176
     0
 90
        0
176
     0
 40
0.6
176
     0
 40
30.0
176
     0
 62
     7
420
 16777215
176
     0
 90
        1
176
     0
 90
        4
176
     0
 62
     7
176
     0
 62
   257
176
     0
 90
        1
176
     0
 90
        1
176
     0
 40
1.0
176
     0
 90
        9
176
     2
 62
     7
176
     0
 40
1.0
176
     0
 90
        1
176
     0
 90
        6
176
     0
 90
        2
176
     0
 62
     7
176
     0
 90
        5
176
     0
 90
        0
176
     0
 90
        0
176
     0
290
     0
176
     0
 90
        1
176
     0
 40
0.0
176
     0
 90
        0
176
     0
290
     0
176
     0
290
     1
176
     0
290
     1
176
     0
290
     0
176
     0
290
     0
176
     0
290
     0
176
     0
290
     0
176
     0
290
     0
176
     0
290
     0
176
     0
 90
       50
176
     0
 40
0.0
176
     0
 40
1.0
176
     0
 90
        0
176
     0
 62
    18
420
        0
176
     0
 90
       50
176
     0
 90
        3
176
     0
 62
     5
420
      255
176
     0
290
     0
176
     0
 90
       50
176
     0
 90
       50
176
     0
 90
       50
176
     0
290
     0
176
     0
 90
       50
176
     0
 62
   256
176
     0
 40
1.0
176
     0
 90
        2
176
     0
  1
strokes_ogs.tif
176
     0
290
     0
176
     0
 40
1.0
176
     0
 40
1.0
176
     0
  0
VISUALSTYLE
  5
33
102
{ACAD_REACTORS
330
2A
102
}
330
2A
100
AcDbVisualStyle
  2
Realistic
 70
     8
177
     3
291
     0
 70
    58
 90
        2
176
     1
 90
        3
176
     1
 90
        0
176
     1
 90
        2
176
     1
 40
0.6
176
     1
 40
30.0
176
     1
 62
     7
420
 16777215
176
     1
 90
        0
176
     1
 90
        0
176
     1
 62
     7
176
     1
 62
   257
176
     1
 90
        1
176
     1
 90
        1
176
     1
 40
1.0
176
     1
 90
        8
176
     1
 62
   257
176
     1
 40
1.0
176
     1
 90
        1
176
     1
 90
        6
176
     1
 90
        2
176
     1
 62
     7
176
     1
 90
        3
176
     1
 90
        0
176
     1
 90
        0
176
     1
290
     0
176
     1
 90
       13
176
     1
 40
0.0
176
     1
 90
        0
176
     1
290
     0
176
     1
290
     1
176
     1
290
     1
176
     1
290
     0
176
     1
290
     0
176
     1
290
     0
176
     1
290
     0
176
     1
290
     0
176
     1
290
     0
176
     1
 90
       50
176
     1
 40
0.0
176
     1
 40
1.0
176
     1
 90
        0
176
     1
 62
    18
420
        0
176
     1
 90
       50
176
     1
 90
        3
176
     1
 62
     5
420
      255
176
     1
290
     0
176
     1
 90
       50
176
     1
 90
       50
176
     1
 90
       50
176
     1
290
     0
176
     1
 90
       50
176
     1
 62
   256
176
     0
 40
1.0
176
     0
 90
        2
176
     1
  1
strokes_ogs.tif
176
     1
290
     0
176
     1
 40
1.0
176
     1
 40
1.0
176
     1
  0
VISUALSTYLE
  5
42
102
{ACAD_REACTORS
330
2A
102
}
330
2A
100
AcDbVisualStyle
  2
Shaded
 70
    27
177
     3
291
     0
 70
    58
 90
        2
176
     1
 90
        2
176
     1
 90
        1
176
     1
 90
        2
176
     1
 40
0.6
176
     1
 40
30.0
176
     1
 62
     7
420
 16777215
176
     1
 90
        0
176
     1
 90
        4
176
     1
 62
     7
176
     1
 62
   257
176
     1
 90
        1
176
     1
 90
        1
176
     1
 40
1.0
176
     1
 90
        8
176
     1
 62
   257
176
     1
 40
1.0
176
     1
 90
        1
176
     1
 90
        6
176
     1
 90
        2
176
     1
 62
     8
420
  7895160
176
     1
 90
        3
176
     1
 90
        0
176
     1
 90
        0
176
     1
290
     0
176
     1
 90
        5
176
     1
 40
0.0
176
     1
 90
        0
176
     1
290
     0
176
     1
290
     1
176
     1
290
     1
176
     1
290
     0
176
     1
290
     0
176
     1
290
     0
176
     1
290
     0
176
     1
290
     0
176
     1
290
     0
176
     1
 90
       50
176
     1
 40
0.0
176
     1
 40
1.0
176
     1
 90
        0
176
     1
 62
    18
420
        0
176
     1
 90
       50
176
     1
 90
        3
176
     1
 62
     5
420
      255
176
     1
290
     0
176
     1
 90
       50
176
     1
 90
       50
176
     1
 90
       50
176
     1
290
     0
176
     1
 90
       50
176
     1
 62
   256
176
     0
 40
1.0
176
     0
 90
        2
176
     1
  1
strokes_ogs.tif
176
     1
290
     0
176
     1
 40
1.0
176
     1
 40
1.0
176
     1
  0
VISUALSTYLE
  5
41
102
{ACAD_REACTORS
330
2A
102
}
330
2A
100
AcDbVisualStyle
  2
Shaded with edges
 70
    26
177
     3
291
     0
 70
    58
 90
        2
176
     1
 90
        2
176
     1
 90
        1
176
     1
 90
        2
176
     1
 40
0.6
176
     1
 40
30.0
176
     1
 62
     7
420
 16777215
176
     1
 90
        1
176
     1
 90
       10
176
     1
 62
     7
176
     1
 62
   257
176
     1
 90
        2
176
     1
 90
        1
176
     1
 40
1.0
176
     1
 90
        8
176
     1
 62
   257
176
     1
 40
1.0
176
     1
 90
        1
176
     1
 90
        6
176
     1
 90
        2
176
     1
 62
     7
176
     1
 90
        3
176
     1
 90
        0
176
     1
 90
        0
176
     1
290
     0
176
     1
 90
        5
176
     1
 40
0.0
176
     1
 90
        0
176
     1
290
     0
176
     1
290
     1
176
     1
290
     1
176
     1
290
     0
176
     1
290
     0
176
     1
290
     0
176
     1
290
     0
176
     1
290
     0
176
     1
290
     0
176
     1
 90
       50
176
     1
 40
0.0
176
     1
 40
1.0
176
     1
 90
        0
176
     1
 62
    18
420
        0
176
     1
 90
       50
176
     1
 90
        3
176
     1
 62
     5
420
      255
176
     1
290
     0
176
     1
 90
       50
176
     1
 90
       50
176
     1
 90
       50
176
     1
290
     0
176
     1
 90
       50
176
     1
 62
   256
176
     0
 40
1.0
176
     0
 90
        2
176
     1
  1
strokes_ogs.tif
176
     1
290
     0
176
     1
 40
1.0
176
     1
 40
1.0
176
     1
  0
VISUALSTYLE
  5
3E
102
{ACAD_REACTORS
330
2A
102
}
330
2A
100
AcDbVisualStyle
  2
Shades of Gray
 70
    23
177
     3
291
     0
 70
    58
 90
        2
176
     1
 90
        2
176
     1
 90
        3
176
     1
 90
        0
176
     1
 40
0.6
176
     1
 40
30.0
176
     1
 62
     7
420
 16777215
176
     1
 90
        2
176
     1
 90
        2
176
     1
 62
     7
176
     1
 62
     7
176
     1
 90
        1
176
     1
 90
        1
176
     1
 40
40.0
176
     1
 90
        8
176
     1
 62
     7
176
     1
 40
1.0
176
     1
 90
        1
176
     1
 90
        6
176
     1
 90
        2
176
     1
 62
     7
176
     1
 90
        3
176
     1
 90
        0
176
     1
 90
        0
176
     1
290
     0
176
     1
 90
        1
176
     1
 40
0.0
176
     1
 90
        0
176
     1
290
     0
176
     1
290
     1
176
     1
290
     1
176
     1
290
     0
176
     1
290
     0
176
     1
290
     0
176
     1
290
     0
176
     1
290
     0
176
     1
290
     0
176
     1
 90
       50
176
     1
 40
0.0
176
     1
 40
1.0
176
     1
 90
        0
176
     1
 62
    18
420
        0
176
     1
 90
       50
176
     1
 90
        3
176
     1
 62
     5
420
      255
176
     1
290
     0
176
     1
 90
       50
176
     1
 90
       50
176
     1
 90
       50
176
     1
290
     0
176
     1
 90
       50
176
     1
 62
   256
176
     0
 40
1.0
176
     0
 90
        2
176
     1
  1
strokes_ogs.tif
176
     1
290
     0
176
     1
 40
1.0
176
     1
 40
1.0
176
     1
  0
VISUALSTYLE
  5
3F
102
{ACAD_REACTORS
330
2A
102
}
330
2A
100
AcDbVisualStyle
  2
Sketchy
 70
    24
177
     3
291
     0
 70
    58
 90
        1
176
     1
 90
        2
176
     1
 90
        2
176
     1
 90
        0
176
     1
 40
0.6
176
     1
 40
30.0
176
     1
 62
     7
420
 16777215
176
     1
 90
        2
176
     1
 90
        2
176
     1
 62
     7
176
     1
 62
     7
176
     1
 90
        1
176
     1
 90
        1
176
     1
 40
40.0
176
     1
 90
       11
176
     1
 62
     7
176
     1
 40
1.0
176
     1
 90
        1
176
     1
 90
        6
176
     1
 90
        2
176
     1
 62
     7
176
     1
 90
        6
176
     1
 90
        0
176
     1
 90
        0
176
     1
290
     0
176
     1
 90
        1
176
     1
 40
0.0
176
     1
 90
        0
176
     1
290
     0
176
     1
290
     1
176
     1
290
     1
176
     1
290
     0
176
     1
290
     0
176
     1
290
     0
176
     1
290
     0
176
     1
290
     0
176
     1
290
     0
176
     1
 90
       50
176
     1
 40
0.0
176
     1
 40
1.0
176
     1
 90
        0
176
     1
 62
    18
420
        0
176
     1
 90
       50
176
     1
 90
        3
176
     1
 62
     5
420
      255
176
     1
290
     0
176
     1
 90
       50
176
     1
 90
       50
176
     1
 90
       50
176
     1
290
     0
176
     1
 90
       50
176
     1
 62
   256
176
     0
 40
1.0
176
     0
 90
        2
176
     1
  1
strokes_ogs.tif
176
     1
290
     0
176
     1
 40
1.0
176
     1
 40
1.0
176
     1
  0
VISUALSTYLE
  5
37
102
{ACAD_REACTORS
330
2A
102
}
330
2A
100
AcDbVisualStyle
  2
Thicken
 70
    13
177
     3
291
     1
 70
    58
 90
        2
176
     1
 90
        2
176
     1
 90
        0
176
     1
 90
        0
176
     1
 40
0.6
176
     1
 40
30.0
176
     1
 62
     7
420
 16777215
176
     1
 90
        1
176
     1
 90
        4
176
     1
 62
     7
176
     1
 62
   257
176
     1
 90
        1
176
     1
 90
        1
176
     1
 40
1.0
176
     1
 90
       12
176
     1
 62
     7
176
     1
 40
1.0
176
     1
 90
        1
176
     1
 90
        6
176
     1
 90
        2
176
     1
 62
     7
176
     1
 90
        5
176
     1
 90
        0
176
     1
 90
        0
176
     1
290
     0
176
     1
 90
        1
176
     1
 40
0.0
176
     1
 90
        0
176
     1
290
     0
176
     1
290
     1
176
     1
290
     1
176
     1
290
     0
176
     1
290
     0
176
     1
290
     0
176
     1
290
     0
176
     1
290
     0
176
     1
290
     0
176
     1
 90
       50
176
     1
 40
0.0
176
     1
 40
1.0
176
     1
 90
        0
176
     1
 62
    18
420
        0
176
     1
 90
       50
176
     1
 90
        3
176
     1
 62
     5
420
      255
176
     1
290
     0
176
     1
 90
       50
176
     1
 90
       50
176
     1
 90
       50
176
     1
290
     0
176
     1
 90
       50
176
     1
 62
   256
176
     0
 40
1.0
176
     0
 90
        2
176
     1
  1
strokes_ogs.tif
176
     1
290
     0
176
     1
 40
1.0
176
     1
 40
1.0
176
     1
  0
VISUALSTYLE
  5
30
102
{ACAD_REACTORS
330
2A
102
}
330
2A
100
AcDbVisualStyle
  2
Wireframe
 70
     5
177
     3
291
     0
 70
    58
 90
        0
176
     1
 90
        2
176
     1
 90
        0
176
     1
 90
        0
176
     1
 40
0.6
176
     1
 40
30.0
176
     1
 62
     7
420
 16777215
176
     1
 90
        1
176
     1
 90
        4
176
     1
 62
     7
176
     1
 62
   257
176
     1
 90
        1
176
     1
 90
        1
176
     1
 40
1.0
176
     1
 90
        0
176
     1
 62
   257
176
     1
 40
1.0
176
     1
 90
        1
176
     1
 90
        6
176
     1
 90
        2
176
     1
 62
     7
176
     1
 90
        3
176
     1
 90
        0
176
     1
 90
        0
176
     1
290
     0
176
     1
 90
        1
176
     1
 40
0.0
176
     1
 90
        0
176
     1
290
     0
176
     1
290
     1
176
     1
290
     1
176
     1
290
     0
176
     1
290
     0
176
     1
290
     0
176
     1
290
     0
176
     1
290
     0
176
     1
290
     0
176
     1
 90
       50
176
     1
 40
0.0
176
     1
 40
1.0
176
     1
 90
        0
176
     1
 62
    18
420
        0
176
     1
 90
       50
176
     1
 90
        3
176
     1
 62
     5
420
      255
176
     1
290
     0
176
     1
 90
       50
176
     1
 90
       50
176
     1
 90
       50
176
     1
290
     0
176
     1
 90
       50
176
     1
 62
   256
176
     0
 40
1.0
176
     0
 90
        2
176
     1
  1
strokes_ogs.tif
176
     1
290
     0
176
     1
 40
1.0
176
     1
 40
1.0
176
     1
  0
VISUALSTYLE
  5
40
102
{ACAD_REACTORS
330
2A
102
}
330
2A
100
AcDbVisualStyle
  2
X-Ray
 70
    25
177
     3
291
     0
 70
    58
 90
        2
176
     1
 90
        2
176
     1
 90
        1
176
     1
 90
        1
176
     1
 40
0.5
176
     1
 40
30.0
176
     1
 62
     7
420
 16777215
176
     1
 90
        1
176
     1
 90
        0
176
     1
 62
     7
176
     1
 62
   257
176
     1
 90
        1
176
     1
 90
        1
176
     1
 40
1.0
176
     1
 90
        8
176
     1
 62
     7
176
     1
 40
1.0
176
     1
 90
        1
176
     1
 90
        6
176
     1
 90
        2
176
     1
 62
     7
176
     1
 90
        3
176
     1
 90
        0
176
     1
 90
        0
176
     1
290
     0
176
     1
 90
       13
176
     1
 40
0.0
176
     1
 90
        0
176
     1
290
     0
176
     1
290
     1
176
     1
290
     1
176
     1
290
     0
176
     1
290
     0
176
     1
290
     0
176
     1
290
     0
176
     1
290
     0
176
     1
290
     0
176
     1
 90
       50
176
     1
 40
0.0
176
     1
 40
1.0
176
     1
 90
        0
176
     1
 62
    18
420
        0
176
     1
 90
       50
176
     1
 90
        3
176
     1
 62
     5
420
      255
176
     1
290
     0
176
     1
 90
       50
176
     1
 90
       50
176
     1
 90
       50
176
     1
290
     0
176
     1
 90
       50
176
     1
 62
   256
176
     0
 40
1.0
176
     0
 90
        2
176
     1
  1
strokes_ogs.tif
176
     1
290
     0
176
     1
 40
1.0
176
     1
 40
1.0
176
     1
  0
DICTIONARYVAR
  5
204
102
{ACAD_REACTORS
330
203
102
}
330
203
100
DictionaryVariables
280
     0
  1
1:1
  0
DICTIONARYVAR
  5
209
102
{ACAD_REACTORS
330
203
102
}
330
203
100
DictionaryVariables
280
     0
  1
Standard
  0
DICTIONARYVAR
  5
208
102
{ACAD_REACTORS
330
203
102
}
330
203
100
DictionaryVariables
280
     0
  1
Standard
  0
DICTIONARY
  5
205
330
6A
100
AcDbDictionary
280
     1
281
     1
  3
ACAD_ROUNDTRIP_2008_TABLESTYLE_CELLSTYLEMAP
360
206
  0
CELLSTYLEMAP
  5
206
102
{ACAD_REACTORS
330
205
102
}
330
205
100
AcDbCellStyleMap
 90
        3
300
CELLSTYLE
  1
TABLEFORMAT_BEGIN
 90
        5
170
     1
 91
        0
 92
    32768
 62
   257
 93
        1
300
CONTENTFORMAT
  1
CONTENTFORMAT_BEGIN
 90
        0
 91
        0
 92
        4
 93
        0
300

 40
0.0
140
1.0
 94
        5
 62
     0
340
11
144
0.25
309
CONTENTFORMAT_END
171
     1
301
MARGIN
  1
CELLMARGIN_BEGIN
 40
0.06
 40
0.06
 40
0.06
 40
0.06
 40
0.06
 40
0.06
309
CELLMARGIN_END
 94
        6
 95
        1
302
GRIDFORMAT
  1
GRIDFORMAT_BEGIN
 90
        0
 91
        1
 62
     0
 92
       -2
340
14
 93
        0
 40
0.045
309
GRIDFORMAT_END
 95
        2
302
GRIDFORMAT
  1
GRIDFORMAT_BEGIN
 90
        0
 91
        1
 62
     0
 92
       -2
340
14
 93
        0
 40
0.045
309
GRIDFORMAT_END
 95
        4
302
GRIDFORMAT
  1
GRIDFORMAT_BEGIN
 90
        0
 91
        1
 62
     0
 92
       -2
340
14
 93
        0
 40
0.045
309
GRIDFORMAT_END
 95
        8
302
GRIDFORMAT
  1
GRIDFORMAT_BEGIN
 90
        0
 91
        1
 62
     0
 92
       -2
340
14
 93
        0
 40
0.045
309
GRIDFORMAT_END
 95
       16
302
GRIDFORMAT
  1
GRIDFORMAT_BEGIN
 90
        0
 91
        1
 62
     0
 92
       -2
340
14
 93
        0
 40
0.045
309
GRIDFORMAT_END
 95
       32
302
GRIDFORMAT
  1
GRIDFORMAT_BEGIN
 90
        0
 91
        1
 62
     0
 92
       -2
340
14
 93
        0
 40
0.045
309
GRIDFORMAT_END
309
TABLEFORMAT_END
  1
CELLSTYLE_BEGIN
 90
        1
 91
        1
300
_TITLE
309
CELLSTYLE_END
300
CELLSTYLE
  1
TABLEFORMAT_BEGIN
 90
        5
170
     1
 91
        0
 92
        0
 62
   257
 93
        1
300
CONTENTFORMAT
  1
CONTENTFORMAT_BEGIN
 90
        0
 91
        0
 92
        4
 93
        0
300

 40
0.0
140
1.0
 94
        5
 62
     0
340
11
144
0.18
309
CONTENTFORMAT_END
171
     1
301
MARGIN
  1
CELLMARGIN_BEGIN
 40
0.06
 40
0.06
 40
0.06
 40
0.06
 40
0.06
 40
0.06
309
CELLMARGIN_END
 94
        6
 95
        1
302
GRIDFORMAT
  1
GRIDFORMAT_BEGIN
 90
        0
 91
        1
 62
     0
 92
       -2
340
14
 93
        0
 40
0.045
309
GRIDFORMAT_END
 95
        2
302
GRIDFORMAT
  1
GRIDFORMAT_BEGIN
 90
        0
 91
        1
 62
     0
 92
       -2
340
14
 93
        0
 40
0.045
309
GRIDFORMAT_END
 95
        4
302
GRIDFORMAT
  1
GRIDFORMAT_BEGIN
 90
        0
 91
        1
 62
     0
 92
       -2
340
14
 93
        0
 40
0.045
309
GRIDFORMAT_END
 95
        8
302
GRIDFORMAT
  1
GRIDFORMAT_BEGIN
 90
        0
 91
        1
 62
     0
 92
       -2
340
14
 93
        0
 40
0.045
309
GRIDFORMAT_END
 95
       16
302
GRIDFORMAT
  1
GRIDFORMAT_BEGIN
 90
        0
 91
        1
 62
     0
 92
       -2
340
14
 93
        0
 40
0.045
309
GRIDFORMAT_END
 95
       32
302
GRIDFORMAT
  1
GRIDFORMAT_BEGIN
 90
        0
 91
        1
 62
     0
 92
       -2
340
14
 93
        0
 40
0.045
309
GRIDFORMAT_END
309
TABLEFORMAT_END
  1
CELLSTYLE_BEGIN
 90
        2
 91
        1
300
_HEADER
309
CELLSTYLE_END
300
CELLSTYLE
  1
TABLEFORMAT_BEGIN
 90
        5
170
     1
 91
        0
 92
        0
 62
   257
 93
        1
300
CONTENTFORMAT
  1
CONTENTFORMAT_BEGIN
 90
        0
 91
        0
 92
        4
 93
        0
300

 40
0.0
140
1.0
 94
        2
 62
     0
340
11
144
0.18
309
CONTENTFORMAT_END
171
     1
301
MARGIN
  1
CELLMARGIN_BEGIN
 40
0.06
 40
0.06
 40
0.06
 40
0.06
 40
0.06
 40
0.06
309
CELLMARGIN_END
 94
        6
 95
        1
302
GRIDFORMAT
  1
GRIDFORMAT_BEGIN
 90
        0
 91
        1
 62
     0
 92
       -2
340
14
 93
        0
 40
0.045
309
GRIDFORMAT_END
 95
        2
302
GRIDFORMAT
  1
GRIDFORMAT_BEGIN
 90
        0
 91
        1
 62
     0
 92
       -2
340
14
 93
        0
 40
0.045
309
GRIDFORMAT_END
 95
        4
302
GRIDFORMAT
  1
GRIDFORMAT_BEGIN
 90
        0
 91
        1
 62
     0
 92
       -2
340
14
 93
        0
 40
0.045
309
GRIDFORMAT_END
 95
        8
302
GRIDFORMAT
  1
GRIDFORMAT_BEGIN
 90
        0
 91
        1
 62
     0
 92
       -2
340
14
 93
        0
 40
0.045
309
GRIDFORMAT_END
 95
       16
302
GRIDFORMAT
  1
GRIDFORMAT_BEGIN
 90
        0
 91
        1
 62
     0
 92
       -2
340
14
 93
        0
 40
0.045
309
GRIDFORMAT_END
 95
       32
302
GRIDFORMAT
  1
GRIDFORMAT_BEGIN
 90
        0
 91
        1
 62
     0
 92
       -2
340
14
 93
        0
 40
0.045
309
GRIDFORMAT_END
309
TABLEFORMAT_END
  1
CELLSTYLE_BEGIN
 90
        3
 91
        2
300
_DATA
309
CELLSTYLE_END
  0
ENDSEC
  0
EOF