0
SECTION
  2
HEADER
  9
$ACADVER
  1
AC1027
  9
$ACADMAINTVER
 70
     8
  9
$DWGCODEPAGE
  3
ANSI_1252
  9
$REQUIREDVERSIONS
160
                 0
  9
$COMMENTS
  1
File was created by Cadenas
  9
$CUSTOMPROPERTYTAG
  1
NN
  9
$CUSTOMPROPERTY
  1
S-2000 Piloted Flange Trident Seal
  9
$CUSTOMPROPERTYTAG
  1
NT
  9
$CUSTOMPROPERTY
  1
S-2000 Piloted Flange Bearing -Inch
  9
$CUSTOMPROPERTYTAG
  1
NB
  9
$CUSTOMPROPERTY
  1
070664
  9
$CUSTOMPROPERTYTAG
  1
NBSYN
  9
$CUSTOMPROPERTY
  1
$PN.
  9
$CUSTOMPROPERTYTAG
  1
LINA
  9
$CUSTOMPROPERTY
  1
070664
  9
$CUSTOMPROPERTYTAG
  1
SS
  9
$CUSTOMPROPERTY
  1
4-7/16
  9
$CUSTOMPROPERTYTAG
  1
PN
  9
$CUSTOMPROPERTY
  1
070664
  9
$CUSTOMPROPERTYTAG
  1
DESCRIPTION
  9
$CUSTOMPROPERTY
  1
FC-S2-407R
  9
$CUSTOMPROPERTYTAG
  1
EF
  9
$CUSTOMPROPERTY
  1
Non-Expansion Type
  9
$CUSTOMPROPERTYTAG
  1
ST
  9
$CUSTOMPROPERTY
  1
Contact Seal
  9
$CUSTOMPROPERTYTAG
  1
A
  9
$CUSTOMPROPERTY
  1
6-17/32
  9
$CUSTOMPROPERTYTAG
  1
B
  9
$CUSTOMPROPERTY
  1
13-37/64
  9
$CUSTOMPROPERTYTAG
  1
C
  9
$CUSTOMPROPERTY
  1
4
  9
$CUSTOMPROPERTYTAG
  1
D
  9
$CUSTOMPROPERTY
  1
8-5/16
  9
$CUSTOMPROPERTYTAG
  1
DD
  9
$CUSTOMPROPERTY
  1
11-3/4
  9
$CUSTOMPROPERTYTAG
  1
E
  9
$CUSTOMPROPERTY
  1
1-29/64
  9
$CUSTOMPROPERTYTAG
  1
F
  9
$CUSTOMPROPERTY
  1
3/4
  9
$CUSTOMPROPERTYTAG
  1
G
  9
$CUSTOMPROPERTY
  1
3-17/32
  9
$CUSTOMPROPERTYTAG
  1
H
  9
$CUSTOMPROPERTY
  1
1
  9
$CUSTOMPROPERTYTAG
  1
K
  9
$CUSTOMPROPERTY
  1
10.250
  9
$CUSTOMPROPERTYTAG
  1
L
  9
$CUSTOMPROPERTY
  1
6-29/64
  9
$CUSTOMPROPERTYTAG
  1
M
  9
$CUSTOMPROPERTY
  1
3/4-10
  9
$CUSTOMPROPERTYTAG
  1
N
  9
$CUSTOMPROPERTY
  1
5-1/2
  9
$CUSTOMPROPERTYTAG
  1
P
  9
$CUSTOMPROPERTY
  1
3
  9
$CUSTOMPROPERTYTAG
  1
Q
  9
$CUSTOMPROPERTY
  1
1-63/64
  9
$CUSTOMPROPERTYTAG
  1
X
  9
$CUSTOMPROPERTY
  1
3/8
  9
$CUSTOMPROPERTYTAG
  1
Y
  9
$CUSTOMPROPERTY
  1
0.036
  9
$CUSTOMPROPERTYTAG
  1
Z
  9
$CUSTOMPROPERTY
  1
5
  9
$CUSTOMPROPERTYTAG
  1
COMPANY
  9
$CUSTOMPROPERTY
  1
baldor
  9
$INSBASE
 10
0.0
 20
0.0
 30
0.0
  9
$EXTMIN
 10
1.000000000000000E+20
 20
1.000000000000000E+20
 30
1.000000000000000E+20
  9
$EXTMAX
 10
-1.000000000000000E+20
 20
-1.000000000000000E+20
 30
-1.000000000000000E+20
  9
$LIMMIN
 10
0.0
 20
0.0
  9
$LIMMAX
 10
12.0
 20
9.0
  9
$ORTHOMODE
 70
     0
  9
$REGENMODE
 70
     1
  9
$FILLMODE
 70
     1
  9
$QTEXTMODE
 70
     0
  9
$MIRRTEXT
 70
     1
  9
$LTSCALE
 40
1.0
  9
$ATTMODE
 70
     1
  9
$TEXTSIZE
 40
0.2
  9
$TRACEWID
 40
0.05
  9
$TEXTSTYLE
  7
Standard
  9
$CLAYER
  8
0
  9
$CELTYPE
  6
ByLayer
  9
$CECOLOR
 62
   256
  9
$CELTSCALE
 40
1.0
  9
$DISPSILH
 70
     0
  9
$DIMSCALE
 40
1.0
  9
$DIMASZ
 40
0.18
  9
$DIMEXO
 40
0.0625
  9
$DIMDLI
 40
0.38
  9
$DIMRND
 40
0.0
  9
$DIMDLE
 40
0.0
  9
$DIMEXE
 40
0.18
  9
$DIMTP
 40
0.0
  9
$DIMTM
 40
0.0
  9
$DIMTXT
 40
0.18
  9
$DIMCEN
 40
0.09
  9
$DIMTSZ
 40
0.0
  9
$DIMTOL
 70
     0
  9
$DIMLIM
 70
     0
  9
$DIMTIH
 70
     1
  9
$DIMTOH
 70
     1
  9
$DIMSE1
 70
     0
  9
$DIMSE2
 70
     0
  9
$DIMTAD
 70
     0
  9
$DIMZIN
 70
     0
  9
$DIMBLK
  1

  9
$DIMASO
 70
     1
  9
$DIMSHO
 70
     1
  9
$DIMPOST
  1

  9
$DIMAPOST
  1

  9
$DIMALT
 70
     0
  9
$DIMALTD
 70
     2
  9
$DIMALTF
 40
25.4
  9
$DIMLFAC
 40
1.0
  9
$DIMTOFL
 70
     0
  9
$DIMTVP
 40
0.0
  9
$DIMTIX
 70
     0
  9
$DIMSOXD
 70
     0
  9
$DIMSAH
 70
     0
  9
$DIMBLK1
  1

  9
$DIMBLK2
  1

  9
$DIMSTYLE
  2
Standard
  9
$DIMCLRD
 70
     0
  9
$DIMCLRE
 70
     0
  9
$DIMCLRT
 70
     0
  9
$DIMTFAC
 40
1.0
  9
$DIMGAP
 40
0.09
  9
$DIMJUST
 70
     0
  9
$DIMSD1
 70
     0
  9
$DIMSD2
 70
     0
  9
$DIMTOLJ
 70
     1
  9
$DIMTZIN
 70
     0
  9
$DIMALTZ
 70
     0
  9
$DIMALTTZ
 70
     0
  9
$DIMUPT
 70
     0
  9
$DIMDEC
 70
     4
  9
$DIMTDEC
 70
     4
  9
$DIMALTU
 70
     2
  9
$DIMALTTD
 70
     2
  9
$DIMTXSTY
  7
Standard
  9
$DIMAUNIT
 70
     0
  9
$DIMADEC
 70
     0
  9
$DIMALTRND
 40
0.0
  9
$DIMAZIN
 70
     0
  9
$DIMDSEP
 70
    46
  9
$DIMATFIT
 70
     3
  9
$DIMFRAC
 70
     0
  9
$DIMLDRBLK
  1

  9
$DIMLUNIT
 70
     2
  9
$DIMLWD
 70
    -2
  9
$DIMLWE
 70
    -2
  9
$DIMTMOVE
 70
     0
  9
$DIMFXL
 40
1.0
  9
$DIMFXLON
 70
     0
  9
$DIMJOGANG
 40
0.7853981633974483
  9
$DIMTFILL
 70
     0
  9
$DIMTFILLCLR
 70
     0
  9
$DIMARCSYM
 70
     0
  9
$DIMLTYPE
  6

  9
$DIMLTEX1
  6

  9
$DIMLTEX2
  6

  9
$DIMTXTDIRECTION
 70
     0
  9
$LUNITS
 70
     2
  9
$LUPREC
 70
     4
  9
$SKETCHINC
 40
0.1
  9
$FILLETRAD
 40
0.5
  9
$AUNITS
 70
     0
  9
$AUPREC
 70
     0
  9
$MENU
  1
.
  9
$ELEVATION
 40
0.0
  9
$PELEVATION
 40
0.0
  9
$THICKNESS
 40
0.0
  9
$LIMCHECK
 70
     0
  9
$CHAMFERA
 40
0.0
  9
$CHAMFERB
 40
0.0
  9
$CHAMFERC
 40
0.0
  9
$CHAMFERD
 40
0.0
  9
$SKPOLY
 70
     0
  9
$TDCREATE
 40
2458168.985361759
  9
$TDUCREATE
 40
2458168.943695093
  9
$TDUPDATE
 40
2458168.985361944
  9
$TDUUPDATE
 40
2458168.943695278
  9
$TDINDWG
 40
0.0000000116
  9
$TDUSRTIMER
 40
0.0000000116
  9
$USRTIMER
 70
     1
  9
$ANGBASE
 50
0.0
  9
$ANGDIR
 70
     0
  9
$PDMODE
 70
     0
  9
$PDSIZE
 40
0.0
  9
$PLINEWID
 40
0.0
  9
$SPLFRAME
 70
     0
  9
$SPLINETYPE
 70
     6
  9
$SPLINESEGS
 70
     8
  9
$HANDSEED
  5
276
  9
$SURFTAB1
 70
     6
  9
$SURFTAB2
 70
     6
  9
$SURFTYPE
 70
     6
  9
$SURFU
 70
     6
  9
$SURFV
 70
     6
  9
$UCSBASE
  2

  9
$UCSNAME
  2

  9
$UCSORG
 10
0.0
 20
0.0
 30
0.0
  9
$UCSXDIR
 10
1.0
 20
0.0
 30
0.0
  9
$UCSYDIR
 10
0.0
 20
1.0
 30
0.0
  9
$UCSORTHOREF
  2

  9
$UCSORTHOVIEW
 70
     0
  9
$UCSORGTOP
 10
0.0
 20
0.0
 30
0.0
  9
$UCSORGBOTTOM
 10
0.0
 20
0.0
 30
0.0
  9
$UCSORGLEFT
 10
0.0
 20
0.0
 30
0.0
  9
$UCSORGRIGHT
 10
0.0
 20
0.0
 30
0.0
  9
$UCSORGFRONT
 10
0.0
 20
0.0
 30
0.0
  9
$UCSORGBACK
 10
0.0
 20
0.0
 30
0.0
  9
$PUCSBASE
  2

  9
$PUCSNAME
  2

  9
$PUCSORG
 10
0.0
 20
0.0
 30
0.0
  9
$PUCSXDIR
 10
1.0
 20
0.0
 30
0.0
  9
$PUCSYDIR
 10
0.0
 20
1.0
 30
0.0
  9
$PUCSORTHOREF
  2

  9
$PUCSORTHOVIEW
 70
     0
  9
$PUCSORGTOP
 10
0.0
 20
0.0
 30
0.0
  9
$PUCSORGBOTTOM
 10
0.0
 20
0.0
 30
0.0
  9
$PUCSORGLEFT
 10
0.0
 20
0.0
 30
0.0
  9
$PUCSORGRIGHT
 10
0.0
 20
0.0
 30
0.0
  9
$PUCSORGFRONT
 10
0.0
 20
0.0
 30
0.0
  9
$PUCSORGBACK
 10
0.0
 20
0.0
 30
0.0
  9
$USERI1
 70
     0
  9
$USERI2
 70
     0
  9
$USERI3
 70
     0
  9
$USERI4
 70
     0
  9
$USERI5
 70
     0
  9
$USERR1
 40
0.0
  9
$USERR2
 40
0.0
  9
$USERR3
 40
0.0
  9
$USERR4
 40
0.0
  9
$USERR5
 40
0.0
  9
$WORLDVIEW
 70
     1
  9
$SHADEDGE
 70
     3
  9
$SHADEDIF
 70
    70
  9
$TILEMODE
 70
     1
  9
$MAXACTVP
 70
    64
  9
$PINSBASE
 10
0.0
 20
0.0
 30
0.0
  9
$PLIMCHECK
 70
     0
  9
$PEXTMIN
 10
1.000000000000000E+20
 20
1.000000000000000E+20
 30
1.000000000000000E+20
  9
$PEXTMAX
 10
-1.000000000000000E+20
 20
-1.000000000000000E+20
 30
-1.000000000000000E+20
  9
$PLIMMIN
 10
0.0
 20
0.0
  9
$PLIMMAX
 10
12.0
 20
9.0
  9
$UNITMODE
 70
     0
  9
$VISRETAIN
 70
     1
  9
$PLINEGEN
 70
     0
  9
$PSLTSCALE
 70
     1
  9
$TREEDEPTH
 70
  3020
  9
$CMLSTYLE
  2
Standard
  9
$CMLJUST
 70
     0
  9
$CMLSCALE
 40
1.0
  9
$PROXYGRAPHICS
 70
     1
  9
$MEASUREMENT
 70
     0
  9
$CELWEIGHT
370
    -1
  9
$ENDCAPS
280
     0
  9
$JOINSTYLE
280
     0
  9
$LWDISPLAY
290
     0
  9
$INSUNITS
 70
     1
  9
$HYPERLINKBASE
  1

  9
$STYLESHEET
  1

  9
$XEDIT
290
     1
  9
$CEPSNTYPE
380
     0
  9
$PSTYLEMODE
290
     1
  9
$FINGERPRINTGUID
  2
{9A06CD3B-DEB1-45E4-8CDC-8A42C47B9798}
  9
$VERSIONGUID
  2
{FAEB1C32-E019-11D5-929B-00C0DF256EC4}
  9
$EXTNAMES
290
     1
  9
$PSVPSCALE
 40
0.0
  9
$OLESTARTUP
290
     0
  9
$SORTENTS
280
   127
  9
$INDEXCTL
280
     0
  9
$HIDETEXT
280
     1
  9
$XCLIPFRAME
280
     2
  9
$HALOGAP
280
     0
  9
$OBSCOLOR
 70
   257
  9
$OBSLTYPE
280
     0
  9
$INTERSECTIONDISPLAY
280
     0
  9
$INTERSECTIONCOLOR
 70
   257
  9
$DIMASSOC
280
     2
  9
$PROJECTNAME
  1

  9
$CAMERADISPLAY
290
     0
  9
$LENSLENGTH
 40
50.0
  9
$CAMERAHEIGHT
 40
0.0
  9
$STEPSPERSEC
 40
2.0
  9
$STEPSIZE
 40
6.0
  9
$3DDWFPREC
 40
2.0
  9
$PSOLWIDTH
 40
0.25
  9
$PSOLHEIGHT
 40
4.0
  9
$LOFTANG1
 40
1.570796326794897
  9
$LOFTANG2
 40
1.570796326794897
  9
$LOFTMAG1
 40
0.0
  9
$LOFTMAG2
 40
0.0
  9
$LOFTPARAM
 70
     7
  9
$LOFTNORMALS
280
     1
  9
$LATITUDE
 40
37.795
  9
$LONGITUDE
 40
-122.394
  9
$NORTHDIRECTION
 40
0.0
  9
$TIMEZONE
 70
 -8000
  9
$LIGHTGLYPHDISPLAY
280
     1
  9
$TILEMODELIGHTSYNCH
280
     1
  9
$CMATERIAL
347
44
  9
$SOLIDHIST
280
     0
  9
$SHOWHIST
280
     1
  9
$DWFFRAME
280
     2
  9
$DGNFRAME
280
     2
  9
$REALWORLDSCALE
290
     1
  9
$INTERFERECOLOR
 62
   256
  9
$CSHADOW
280
     0
  9
$SHADOWPLANELOCATION
 40
0.0
  0
ENDSEC
  0
SECTION
  2
CLASSES
  0
CLASS
  1
ACDBDICTIONARYWDFLT
  2
AcDbDictionaryWithDefault
  3
ObjectDBX Classes
 90
        0
 91
        4
280
     0
281
     0
  0
CLASS
  1
VISUALSTYLE
  2
AcDbVisualStyle
  3
ObjectDBX Classes
 90
     4095
 91
        4
280
     0
281
     0
  0
CLASS
  1
MATERIAL
  2
AcDbMaterial
  3
ObjectDBX Classes
 90
     1153
 91
        4
280
     0
281
     0
  0
CLASS
  1
SCALE
  2
AcDbScale
  3
ObjectDBX Classes
 90
     1153
 91
        4
280
     0
281
     0
  0
CLASS
  1
TABLESTYLE
  2
AcDbTableStyle
  3
ObjectDBX Classes
 90
     4095
 91
        4
280
     0
281
     0
  0
CLASS
  1
MLEADERSTYLE
  2
AcDbMLeaderStyle
  3
ACDB_MLEADERSTYLE_CLASS
 90
     4095
 91
        4
280
     0
281
     0
  0
CLASS
  1
SUN
  2
AcDbSun
  3
SCENEOE
 90
     1153
 91
        4
280
     0
281
     0
  0
CLASS
  1
DICTIONARYVAR
  2
AcDbDictionaryVar
  3
ObjectDBX Classes
 90
        0
 91
        4
280
     0
281
     0
  0
CLASS
  1
CELLSTYLEMAP
  2
AcDbCellStyleMap
  3
ObjectDBX Classes
 90
     1152
 91
        4
280
     0
281
     0
  0
ENDSEC
  0
SECTION
  2
TABLES
  0
TABLE
  2
VPORT
  5
8
330
0
100
AcDbSymbolTable
 70
     1
  0
VPORT
  5
29
330
8
100
AcDbSymbolTableRecord
100
AcDbViewportTableRecord
  2
*Active
 70
     0
 10
0.0
 20
0.0
 11
1.0
 21
1.0
 12
-0.0000000000000071
 22
-0.25
 13
0.0
 23
0.0
 14
0.5
 24
0.5
 15
0.5
 25
0.5
 16
0.0
 26
0.0
 36
1.0
 17
0.0
 27
0.0
 37
0.0
 40
7.3280625
 41
1.889952153110047
 42
50.0
 43
0.0
 44
0.0
 50
0.0
 51
0.0
 71
     0
 72
   100
 73
     1
 74
     3
 75
     0
 76
     0
 77
     0
 78
     0
281
     0
 65
     1
110
0.0
120
0.0
130
0.0
111
1.0
121
0.0
131
0.0
112
0.0
122
1.0
132
0.0
 79
     0
146
0.0
348
2F
 60
     3
 61
     5
292
     1
282
     1
141
0.0
142
0.0
 63
   250
361
6D
  0
ENDTAB
  0
TABLE
  2
LTYPE
  5
5
330
0
100
AcDbSymbolTable
 70
     3
  0
LTYPE
  5
14
330
5
100
AcDbSymbolTableRecord
100
AcDbLinetypeTableRecord
  2
ByBlock
 70
     0
  3

 72
    65
 73
     0
 40
0.0
  0
LTYPE
  5
15
330
5
100
AcDbSymbolTableRecord
100
AcDbLinetypeTableRecord
  2
ByLayer
 70
     0
  3

 72
    65
 73
     0
 40
0.0
  0
LTYPE
  5
16
330
5
100
AcDbSymbolTableRecord
100
AcDbLinetypeTableRecord
  2
Continuous
 70
     0
  3
Solid line
 72
    65
 73
     0
 40
0.0
  0
LTYPE
  5
A9
330
5
100
AcDbSymbolTableRecord
100
AcDbLinetypeTableRecord
  2
Dashed
 70
     0
  3

 72
    65
 73
     2
 40
2.0
 49
1.0
 74
     0
 49
-1.0
 74
     0
  0
LTYPE
  5
BE
330
5
100
AcDbSymbolTableRecord
100
AcDbLinetypeTableRecord
  2
Center
 70
     0
  3

 72
    65
 73
     4
 40
1.5
 49
0.45
 74
     0
 49
-0.5
 74
     0
 49
0.05
 74
     0
 49
-0.5
 74
     0
  0
ENDTAB
  0
TABLE
  2
LAYER
  5
2
330
0
100
AcDbSymbolTable
 70
     7
  0
LAYER
  5
10
330
2
100
AcDbSymbolTableRecord
100
AcDbLayerTableRecord
  2
0
 70
     0
 62
     7
  6
Continuous
370
    -3
390
F
347
46
348
0
  0
LAYER
  5
72
330
2
100
AcDbSymbolTableRecord
100
AcDbLayerTableRecord
  2
AM_6
 70
     0
 62
    -2
  6
Continuous
370
    35
390
F
347
46
348
0
  0
LAYER
  5
AA
330
2
100
AcDbSymbolTableRecord
100
AcDbLayerTableRecord
  2
AM_9
 70
     0
 62
     6
  6
Dashed
370
    25
390
F
347
46
348
0
  0
LAYER
  5
BF
330
2
100
AcDbSymbolTableRecord
100
AcDbLayerTableRecord
  2
AM_7
 70
     0
 62
     7
  6
Center
370
    25
390
F
347
46
348
0
  0
LAYER
  5
C1
330
2
100
AcDbSymbolTableRecord
100
AcDbLayerTableRecord
  2
AM_4
 70
     0
 62
     7
  6
Continuous
370
    50
390
F
347
46
348
0
  0
LAYER
  5
DF
330
2
100
AcDbSymbolTableRecord
100
AcDbLayerTableRecord
  2
AM_5
 70
     0
 62
     3
  6
Continuous
370
    25
390
F
347
46
348
0
  0
LAYER
  5
262
330
2
100
AcDbSymbolTableRecord
100
AcDbLayerTableRecord
  2
ConnectionPoints
 70
     0
 62
     7
  6
Continuous
370
    50
390
F
347
46
348
0
  0
ENDTAB
  0
TABLE
  2
STYLE
  5
3
330
0
100
AcDbSymbolTable
 70
     1
  0
STYLE
  5
11
330
3
100
AcDbSymbolTableRecord
100
AcDbTextStyleTableRecord
  2
Standard
 70
     0
 40
0.0
 41
1.0
 50
0.0
 71
     0
 42
0.2
  3
txt
  4

  0
ENDTAB
  0
TABLE
  2
VIEW
  5
6
330
0
100
AcDbSymbolTable
 70
     0
  0
ENDTAB
  0
TABLE
  2
UCS
  5
7
330
0
100
AcDbSymbolTable
 70
     0
  0
ENDTAB
  0
TABLE
  2
APPID
  5
9
330
0
100
AcDbSymbolTable
 70
     1
  0
APPID
  5
12
330
9
100
AcDbSymbolTableRecord
100
AcDbRegAppTableRecord
  2
ACAD
 70
     0
  0
ENDTAB
  0
TABLE
  2
DIMSTYLE
  5
A
330
0
100
AcDbSymbolTable
 70
     1
100
AcDbDimStyleTable
  0
DIMSTYLE
105
27
330
A
100
AcDbSymbolTableRecord
100
AcDbDimStyleTableRecord
  2
Standard
 70
     0
178
     0
340
11
  0
ENDTAB
  0
TABLE
  2
BLOCK_RECORD
  5
1
330
0
100
AcDbSymbolTable
 70
     7
  0
BLOCK_RECORD
  5
1F
330
1
100
AcDbSymbolTableRecord
100
AcDbBlockTableRecord
  2
*Model_Space
340
22
 70
     0
280
     1
281
     0
  0
BLOCK_RECORD
  5
1B
330
1
100
AcDbSymbolTableRecord
100
AcDbBlockTableRecord
  2
*Paper_Space
340
1E
 70
     0
280
     1
281
     0
  0
BLOCK_RECORD
  5
23
330
1
100
AcDbSymbolTableRecord
100
AcDbBlockTableRecord
  2
*Paper_Space0
340
26
 70
     0
280
     1
281
     0
  0
BLOCK_RECORD
  5
6E
330
1
100
AcDbSymbolTableRecord
100
AcDbBlockTableRecord
  2
1_070664_4
340
0
102
{BLKREFS
331
6F
102
}
 70
     0
280
     1
281
     0
  0
BLOCK_RECORD
  5
90
330
1
100
AcDbSymbolTableRecord
100
AcDbBlockTableRecord
  2
2_4_7_16CS2i_1_0_in_070664_4
340
0
102
{BLKREFS
331
91
102
}
 70
     0
280
     1
281
     0
  0
BLOCK_RECORD
  5
E1
330
1
100
AcDbSymbolTableRecord
100
AcDbBlockTableRecord
  2
3_4_7_16CS2i_2_0_in_070664_4
340
0
102
{BLKREFS
331
E2
102
}
 70
     0
280
     1
281
     0
  0
BLOCK_RECORD
  5
12F
330
1
100
AcDbSymbolTableRecord
100
AcDbBlockTableRecord
  2
4_070014i_0_in_070664_4
340
0
102
{BLKREFS
331
130
102
}
 70
     0
280
     1
281
     0
  0
BLOCK_RECORD
  5
18A
330
1
100
AcDbSymbolTableRecord
100
AcDbBlockTableRecord
  2
5_405015E_Inch_0_in_070664_4
340
0
102
{BLKREFS
331
18B
102
}
 70
     0
280
     1
281
     0
  0
BLOCK_RECORD
  5
1DF
330
1
100
AcDbSymbolTableRecord
100
AcDbBlockTableRecord
  2
6_070664H_0_in_070664_4
340
0
102
{BLKREFS
331
1E0
102
}
 70
     0
280
     1
281
     0
  0
ENDTAB
  0
ENDSEC
  0
SECTION
  2
BLOCKS
  0
BLOCK
  5
20
330
1F
100
AcDbEntity
  8
0
100
AcDbBlockBegin
  2
*Model_Space
 70
     0
 10
0.0
 20
0.0
 30
0.0
  3
*Model_Space
  1

  0
ENDBLK
  5
21
330
1F
100
AcDbEntity
  8
0
100
AcDbBlockEnd
  0
BLOCK
  5
1C
330
1B
100
AcDbEntity
 67
     1
  8
0
100
AcDbBlockBegin
  2
*Paper_Space
 70
     0
 10
0.0
 20
0.0
 30
0.0
  3
*Paper_Space
  1

  0
ENDBLK
  5
1D
330
1B
100
AcDbEntity
 67
     1
  8
0
100
AcDbBlockEnd
  0
BLOCK
  5
24
330
23
100
AcDbEntity
  8
0
100
AcDbBlockBegin
  2
*Paper_Space0
 70
     0
 10
0.0
 20
0.0
 30
0.0
  3
*Paper_Space0
  1

  0
ENDBLK
  5
25
330
23
100
AcDbEntity
  8
0
100
AcDbBlockEnd
  0
BLOCK
  5
70
330
6E
100
AcDbEntity
  8
0
100
AcDbBlockBegin
  2
1_070664_4
 70
     2
 10
0.0
 20
0.0
 30
0.0
  3
1_070664_4
  1

  0
ATTDEF
  5
73
330
6E
100
AcDbEntity
  8
AM_6
100
AcDbText
 10
11.78906249999999
 20
3.342187500000001
 30
0.0
 40
0.5
  1
S-2000 Piloted Flange Trident Seal
100
AcDbAttributeDefinition
  3

  2
NN
 70
     8
280
     0
  0
ATTDEF
  5
74
330
6E
100
AcDbEntity
  8
AM_6
100
AcDbText
 10
11.78906249999999
 20
2.842187500000001
 30
0.0
 40
0.5
  1
S-2000 Piloted Flange Bearing -Inch
100
AcDbAttributeDefinition
  3

  2
NT
 70
     8
280
     0
  0
ATTDEF
  5
75
330
6E
100
AcDbEntity
  8
AM_6
100
AcDbText
 10
11.78906249999999
 20
2.342187500000001
 30
0.0
 40
0.5
  1
070664
100
AcDbAttributeDefinition
  3

  2
NB
 70
     8
280
     0
  0
ATTDEF
  5
76
330
6E
100
AcDbEntity
  8
AM_6
100
AcDbText
 10
11.78906249999999
 20
1.842187500000001
 30
0.0
 40
0.5
  1
$PN.
100
AcDbAttributeDefinition
  3

  2
NBSYN
 70
     8
280
     0
  0
ATTDEF
  5
77
330
6E
100
AcDbEntity
  8
AM_6
100
AcDbText
 10
11.78906249999999
 20
1.342187500000001
 30
0.0
 40
0.5
  1
070664
100
AcDbAttributeDefinition
  3

  2
LINA
 70
     8
280
     0
  0
ATTDEF
  5
78
330
6E
100
AcDbEntity
  8
AM_6
100
AcDbText
 10
11.78906249999999
 20
0.8421875000000005
 30
0.0
 40
0.5
  1
4-7/16
100
AcDbAttributeDefinition
  3

  2
SS
 70
     8
280
     0
  0
ATTDEF
  5
79
330
6E
100
AcDbEntity
  8
AM_6
100
AcDbText
 10
11.78906249999999
 20
0.3421875000000005
 30
0.0
 40
0.5
  1
070664
100
AcDbAttributeDefinition
  3

  2
PN
 70
     8
280
     0
  0
ATTDEF
  5
7A
330
6E
100
AcDbEntity
  8
AM_6
100
AcDbText
 10
11.78906249999999
 20
-0.1578124999999995
 30
0.0
 40
0.5
  1
FC-S2-407R
100
AcDbAttributeDefinition
  3

  2
DESCRIPTION
 70
     8
280
     0
  0
ATTDEF
  5
7B
330
6E
100
AcDbEntity
  8
AM_6
100
AcDbText
 10
11.78906249999999
 20
-0.6578124999999995
 30
0.0
 40
0.5
  1
Non-Expansion Type
100
AcDbAttributeDefinition
  3

  2
EF
 70
     8
280
     0
  0
ATTDEF
  5
7C
330
6E
100
AcDbEntity
  8
AM_6
100
AcDbText
 10
11.78906249999999
 20
-1.157812499999999
 30
0.0
 40
0.5
  1
Contact Seal
100
AcDbAttributeDefinition
  3

  2
ST
 70
     8
280
     0
  0
ATTDEF
  5
7D
330
6E
100
AcDbEntity
  8
AM_6
100
AcDbText
 10
11.78906249999999
 20
-1.657812499999999
 30
0.0
 40
0.5
  1
6-17/32
100
AcDbAttributeDefinition
  3

  2
A
 70
     8
280
     0
  0
ATTDEF
  5
7E
330
6E
100
AcDbEntity
  8
AM_6
100
AcDbText
 10
11.78906249999999
 20
-2.157812499999999
 30
0.0
 40
0.5
  1
13-37/64
100
AcDbAttributeDefinition
  3

  2
B
 70
     8
280
     0
  0
ATTDEF
  5
7F
330
6E
100
AcDbEntity
  8
AM_6
100
AcDbText
 10
11.78906249999999
 20
-2.657812499999999
 30
0.0
 40
0.5
  1
4
100
AcDbAttributeDefinition
  3

  2
C
 70
     8
280
     0
  0
ATTDEF
  5
80
330
6E
100
AcDbEntity
  8
AM_6
100
AcDbText
 10
11.78906249999999
 20
-3.157812499999999
 30
0.0
 40
0.5
  1
8-5/16
100
AcDbAttributeDefinition
  3

  2
D
 70
     8
280
     0
  0
ATTDEF
  5
81
330
6E
100
AcDbEntity
  8
AM_6
100
AcDbText
 10
11.78906249999999
 20
-3.657812499999999
 30
0.0
 40
0.5
  1
11-3/4
100
AcDbAttributeDefinition
  3

  2
DD
 70
     8
280
     0
  0
ATTDEF
  5
82
330
6E
100
AcDbEntity
  8
AM_6
100
AcDbText
 10
11.78906249999999
 20
-4.157812499999999
 30
0.0
 40
0.5
  1
1-29/64
100
AcDbAttributeDefinition
  3

  2
E
 70
     8
280
     0
  0
ATTDEF
  5
83
330
6E
100
AcDbEntity
  8
AM_6
100
AcDbText
 10
11.78906249999999
 20
-4.657812499999999
 30
0.0
 40
0.5
  1
3/4
100
AcDbAttributeDefinition
  3

  2
F
 70
     8
280
     0
  0
ATTDEF
  5
84
330
6E
100
AcDbEntity
  8
AM_6
100
AcDbText
 10
11.78906249999999
 20
-5.157812499999999
 30
0.0
 40
0.5
  1
3-17/32
100
AcDbAttributeDefinition
  3

  2
G
 70
     8
280
     0
  0
ATTDEF
  5
85
330
6E
100
AcDbEntity
  8
AM_6
100
AcDbText
 10
11.78906249999999
 20
-5.657812499999999
 30
0.0
 40
0.5
  1
1
100
AcDbAttributeDefinition
  3

  2
H
 70
     8
280
     0
  0
ATTDEF
  5
86
330
6E
100
AcDbEntity
  8
AM_6
100
AcDbText
 10
11.78906249999999
 20
-6.157812499999999
 30
0.0
 40
0.5
  1
10.250
100
AcDbAttributeDefinition
  3

  2
K
 70
     8
280
     0
  0
ATTDEF
  5
87
330
6E
100
AcDbEntity
  8
AM_6
100
AcDbText
 10
11.78906249999999
 20
-6.657812499999999
 30
0.0
 40
0.5
  1
6-29/64
100
AcDbAttributeDefinition
  3

  2
L
 70
     8
280
     0
  0
ATTDEF
  5
88
330
6E
100
AcDbEntity
  8
AM_6
100
AcDbText
 10
11.78906249999999
 20
-7.157812499999999
 30
0.0
 40
0.5
  1
3/4-10
100
AcDbAttributeDefinition
  3

  2
M
 70
     8
280
     0
  0
ATTDEF
  5
89
330
6E
100
AcDbEntity
  8
AM_6
100
AcDbText
 10
11.78906249999999
 20
-7.657812499999999
 30
0.0
 40
0.5
  1
5-1/2
100
AcDbAttributeDefinition
  3

  2
N
 70
     8
280
     0
  0
ATTDEF
  5
8A
330
6E
100
AcDbEntity
  8
AM_6
100
AcDbText
 10
11.78906249999999
 20
-8.157812499999999
 30
0.0
 40
0.5
  1
3
100
AcDbAttributeDefinition
  3

  2
P
 70
     8
280
     0
  0
ATTDEF
  5
8B
330
6E
100
AcDbEntity
  8
AM_6
100
AcDbText
 10
11.78906249999999
 20
-8.657812499999999
 30
0.0
 40
0.5
  1
1-63/64
100
AcDbAttributeDefinition
  3

  2
Q
 70
     8
280
     0
  0
ATTDEF
  5
8C
330
6E
100
AcDbEntity
  8
AM_6
100
AcDbText
 10
11.78906249999999
 20
-9.157812499999999
 30
0.0
 40
0.5
  1
3/8
100
AcDbAttributeDefinition
  3

  2
X
 70
     8
280
     0
  0
ATTDEF
  5
8D
330
6E
100
AcDbEntity
  8
AM_6
100
AcDbText
 10
11.78906249999999
 20
-9.657812499999999
 30
0.0
 40
0.5
  1
0.036
100
AcDbAttributeDefinition
  3

  2
Y
 70
     8
280
     0
  0
ATTDEF
  5
8E
330
6E
100
AcDbEntity
  8
AM_6
100
AcDbText
 10
11.78906249999999
 20
-10.1578125
 30
0.0
 40
0.5
  1
5
100
AcDbAttributeDefinition
  3

  2
Z
 70
     8
280
     0
  0
ATTDEF
  5
8F
330
6E
100
AcDbEntity
  8
AM_6
100
AcDbText
 10
11.78906249999999
 20
-10.6578125
 30
0.0
 40
0.5
  1
baldor
100
AcDbAttributeDefinition
  3

  2
COMPANY
 70
     8
280
     0
  0
INSERT
  5
91
330
6E
100
AcDbEntity
  8
0
100
AcDbBlockReference
  2
2_4_7_16CS2i_1_0_in_070664_4
 10
0.0
 20
0.0
 30
0.0
  0
INSERT
  5
E2
330
6E
100
AcDbEntity
  8
0
100
AcDbBlockReference
  2
3_4_7_16CS2i_2_0_in_070664_4
 10
0.0
 20
0.0
 30
0.0
  0
INSERT
  5
130
330
6E
100
AcDbEntity
  8
0
100
AcDbBlockReference
  2
4_070014i_0_in_070664_4
 10
0.0
 20
0.0
 30
0.0
  0
INSERT
  5
18B
330
6E
100
AcDbEntity
  8
0
100
AcDbBlockReference
  2
5_405015E_Inch_0_in_070664_4
 10
0.0
 20
0.0
 30
0.0
  0
INSERT
  5
1E0
330
6E
100
AcDbEntity
  8
0
100
AcDbBlockReference
  2
6_070664H_0_in_070664_4
 10
0.0
 20
0.0
 30
0.0
  0
ENDBLK
  5
71
330
6E
100
AcDbEntity
  8
0
100
AcDbBlockEnd
  0
BLOCK
  5
92
330
90
100
AcDbEntity
  8
0
100
AcDbBlockBegin
  2
2_4_7_16CS2i_1_0_in_070664_4
 70
     2
 10
0.0
 20
0.0
 30
0.0
  3
2_4_7_16CS2i_1_0_in_070664_4
  1

  0
ATTDEF
  5
94
330
90
100
AcDbEntity
  8
AM_6
100
AcDbText
 10
8.22656
 20
-2.275625
 30
0.0
 40
0.5
  1
S-2000 Collar -Inch
100
AcDbAttributeDefinition
  3

  2
NN
 70
     8
280
     0
  0
ATTDEF
  5
95
330
90
100
AcDbEntity
  8
AM_6
100
AcDbText
 10
8.22656
 20
-2.775625
 30
0.0
 40
0.5
  1
S-2000 Bearings
100
AcDbAttributeDefinition
  3

  2
NT
 70
     8
280
     0
  0
ATTDEF
  5
96
330
90
100
AcDbEntity
  8
AM_6
100
AcDbText
 10
8.22656
 20
-3.275625
 30
0.0
 40
0.5
  1
4-7/16CS2i
100
AcDbAttributeDefinition
  3

  2
NB
 70
     8
280
     0
  0
ATTDEF
  5
97
330
90
100
AcDbEntity
  8
AM_6
100
AcDbText
 10
8.22656
 20
-3.775625
 30
0.0
 40
0.5
  1
$BORE.CS2i
100
AcDbAttributeDefinition
  3

  2
NBSYN
 70
     8
280
     0
  0
ATTDEF
  5
98
330
90
100
AcDbEntity
  8
AM_6
100
AcDbText
 10
8.22656
 20
-4.275625
 30
0.0
 40
0.5
  1
4-7/16CS2i
100
AcDbAttributeDefinition
  3

  2
LINA
 70
     8
280
     0
  0
ATTDEF
  5
99
330
90
100
AcDbEntity
  8
AM_6
100
AcDbText
 10
8.22656
 20
-4.775625
 30
0.0
 40
0.5
  1
4-7/16
100
AcDbAttributeDefinition
  3

  2
BORE
 70
     8
280
     0
  0
ATTDEF
  5
9A
330
90
100
AcDbEntity
  8
AM_6
100
AcDbText
 10
8.22656
 20
-5.275625
 30
0.0
 40
0.5
  1
4.437500
100
AcDbAttributeDefinition
  3

  2
BORE1
 70
     8
280
     0
  0
ATTDEF
  5
9B
330
90
100
AcDbEntity
  8
AM_6
100
AcDbText
 10
8.22656
 20
-5.775625
 30
0.0
 40
0.5
  1
6-29/64
100
AcDbAttributeDefinition
  3

  2
L1
 70
     8
280
     0
  0
ATTDEF
  5
9C
330
90
100
AcDbEntity
  8
AM_6
100
AcDbText
 10
8.22656
 20
-6.275625
 30
0.0
 40
0.5
  1
6.45313
100
AcDbAttributeDefinition
  3

  2
L
 70
     8
280
     0
  0
ATTDEF
  5
9D
330
90
100
AcDbEntity
  8
AM_6
100
AcDbText
 10
8.22656
 20
-6.775625
 30
0.0
 40
0.5
  1
6.45312
100
AcDbAttributeDefinition
  3

  2
L2
 70
     8
280
     0
  0
ATTDEF
  5
9E
330
90
100
AcDbEntity
  8
AM_6
100
AcDbText
 10
8.22656
 20
-7.275625
 30
0.0
 40
0.5
  1
6.75
100
AcDbAttributeDefinition
  3

  2
A
 70
     8
280
     0
  0
ATTDEF
  5
9F
330
90
100
AcDbEntity
  8
AM_6
100
AcDbText
 10
8.22656
 20
-7.775625
 30
0.0
 40
0.5
  1
3.25
100
AcDbAttributeDefinition
  3

  2
B
 70
     8
280
     0
  0
ATTDEF
  5
A0
330
90
100
AcDbEntity
  8
AM_6
100
AcDbText
 10
8.22656
 20
-8.275625
 30
0.0
 40
0.5
  1
5.00
100
AcDbAttributeDefinition
  3

  2
C
 70
     8
280
     0
  0
ATTDEF
  5
A1
330
90
100
AcDbEntity
  8
AM_6
100
AcDbText
 10
8.22656
 20
-8.775625
 30
0.0
 40
0.5
  1
7.00
100
AcDbAttributeDefinition
  3

  2
D
 70
     8
280
     0
  0
ATTDEF
  5
A2
330
90
100
AcDbEntity
  8
AM_6
100
AcDbText
 10
8.22656
 20
-9.275625
 30
0.0
 40
0.5
  1
0.78
100
AcDbAttributeDefinition
  3

  2
E
 70
     8
280
     0
  0
ATTDEF
  5
A3
330
90
100
AcDbEntity
  8
AM_6
100
AcDbText
 10
8.22656
 20
-9.775625
 30
0.0
 40
0.5
  1
0.620
100
AcDbAttributeDefinition
  3

  2
F
 70
     8
280
     0
  0
ATTDEF
  5
A4
330
90
100
AcDbEntity
  8
AM_6
100
AcDbText
 10
8.22656
 20
-10.275625
 30
0.0
 40
0.5
  1
5/8-11
100
AcDbAttributeDefinition
  3

  2
CS
 70
     8
280
     0
  0
ATTDEF
  5
A5
330
90
100
AcDbEntity
  8
AM_6
100
AcDbText
 10
8.22656
 20
-10.775625
 30
0.0
 40
0.5
  1
0.6250
100
AcDbAttributeDefinition
  3

  2
NDM
 70
     8
280
     0
  0
ATTDEF
  5
A6
330
90
100
AcDbEntity
  8
AM_6
100
AcDbText
 10
8.22656
 20
-11.275625
 30
0.0
 40
0.5
  1
0.5270
100
AcDbAttributeDefinition
  3

  2
KDM
 70
     8
280
     0
  0
ATTDEF
  5
A7
330
90
100
AcDbEntity
  8
AM_6
100
AcDbText
 10
8.22656
 20
-11.775625
 30
0.0
 40
0.5
  1
2
100
AcDbAttributeDefinition
  3

  2
DD
 70
     8
280
     0
  0
ATTDEF
  5
A8
330
90
100
AcDbEntity
  8
AM_6
100
AcDbText
 10
8.22656
 20
-12.275625
 30
0.0
 40
0.5
  1
baldor
100
AcDbAttributeDefinition
  3

  2
COMPANY
 70
     8
280
     0
  0
LINE
  5
AB
330
90
100
AcDbEntity
  8
AM_9
100
AcDbLine
 10
2.324485551990041
 20
-2.662703865920447
 30
0.0
 11
2.316951214773503
 21
-2.65330638817814
 31
0.0
  0
LINE
  5
AC
330
90
100
AcDbEntity
  8
AM_9
100
AcDbLine
 10
2.317044978683475
 20
-3.13782666135473
 30
0.0
 11
2.324485551990041
 21
-3.128546134079553
 31
0.0
  0
LWPOLYLINE
  5
AD
330
90
100
AcDbEntity
  8
AM_9
100
AcDbPolyline
 90
       22
 70
     0
 43
0.0
 10
2.248176291504413
 20
-2.627560790336656
 10
2.23421868177197
 20
-2.633561690580129
 10
2.212556679293271
 20
-2.649511846836244
 10
2.191106055235394
 20
-2.67400963061327
 10
2.172315228900317
 20
-2.704444030695508
 10
2.155509657028694
 20
-2.742348027356619
 10
2.14311438793078
 20
-2.782298209141604
 10
2.134176589205053
 20
-2.827390161661826
 10
2.129940188285243
 20
-2.87047062245493
 10
2.129700571780227
 20
-2.915687262630291
 10
2.133264563277511
 20
-2.957248810947482
 10
2.140541905483726
 20
-2.998236573709104
 10
2.150893648423353
 20
-3.03571561649854
 10
2.164317791394345
 20
-3.070388357779449
 10
2.180394291022512
 20
-3.101113759461328
 10
2.198678054056721
 20
-3.126978949484823
 10
2.218745407269537
 20
-3.147140432420793
 10
2.239893686225772
 20
-3.160527687899307
 10
2.261203448401206
 20
-3.16626787397405
 10
2.282325221725054
 20
-3.163830932498214
 10
2.301834351715848
 20
-3.153182715902776
 10
2.316821277264145
 20
-3.13810568102589
  0
LWPOLYLINE
  5
AE
330
90
100
AcDbEntity
  8
AM_9
100
AcDbPolyline
 90
        4
 70
     0
 43
0.0
 10
2.316814419962599
 20
-2.65313576738921
 10
2.314618024084274
 20
-2.650481192188113
 10
2.297029709621241
 20
-2.634594214820762
 10
2.283246949386383
 20
-2.62772720531315
  0
LWPOLYLINE
  5
AF
330
90
100
AcDbEntity
  8
AM_9
100
AcDbPolyline
 90
       13
 70
     0
 43
0.0
 10
2.316821277264145
 20
-3.13810568102589
 10
2.320044395103427
 20
-3.133897110291938
 10
2.335392505757513
 20
-3.107788330753047
 10
2.348697575827198
 20
-3.07371848390803
 10
2.358583414264854
 20
-3.036179143292769
 10
2.366063938353267
 20
-2.992615272575162
 10
2.370343926006321
 20
-2.949911390050191
 10
2.372166329573059
 20
-2.904083310322243
 10
2.371487078751428
 20
-2.861681316374696
 10
2.36844275688463
 20
-2.819030773149242
 10
2.363293859976327
 20
-2.779971790633994
 10
2.355821569673044
 20
-2.743023153368127
 10
2.340113686257207
 20
-2.694022228143253
  0
LINE
  5
B0
330
90
100
AcDbEntity
  8
AM_9
100
AcDbLine
 10
2.272596986253969
 20
-3.158925
 30
0.0
 11
2.879670641757706
 21
-3.158925
 31
0.0
  0
LINE
  5
B1
330
90
100
AcDbEntity
  8
AM_9
100
AcDbLine
 10
2.879670641757706
 20
-2.632325
 30
0.0
 11
2.272596986253969
 21
-2.632325
 31
0.0
  0
ELLIPSE
  5
B2
330
90
100
AcDbEntity
  8
AM_9
100
AcDbEllipse
 10
2.879670641757704
 20
-2.895624999999999
 30
0.0
 11
-4.836742533232522E-17
 21
-0.2633000000000028
 31
0.0
210
0.0
220
0.0
230
1.0
 40
0.4226182617406902
 41
3.471089693705487
 42
5.92762015075212
  0
LINE
  5
B3
330
90
100
AcDbEntity
  8
AM_9
100
AcDbLine
 10
2.827782076021631
 20
-3.12854613407955
 30
0.0
 11
2.860195094815556
 21
-3.168974457623167
 31
0.0
  0
LINE
  5
B4
330
90
100
AcDbEntity
  8
AM_9
100
AcDbLine
 10
2.857319577635255
 20
-2.625862136382764
 30
0.0
 11
2.827782076021631
 21
-2.66270386592045
 31
0.0
  0
LWPOLYLINE
  5
B5
330
90
100
AcDbEntity
  8
AM_9
100
AcDbPolyline
 90
       39
 70
     0
 43
0.0
 10
-0.2004855335474919
 20
-2.70176293604528
 10
-0.2287714115339829
 20
-2.731927086858132
 10
-0.2522235207574053
 20
-2.765986504859066
 10
-0.2718407512406077
 20
-2.80796591532367
 10
-0.283770859357038
 20
-2.852755709932782
 10
-0.2873756260006186
 20
-2.896411541689405
 10
-0.2835012365354689
 20
-2.940044076317279
 10
-0.2725988802545992
 20
-2.981205349753514
 10
-0.2551744219456224
 20
-3.020042343416291
 10
-0.2311352296960708
 20
-3.05634394002715
 10
-0.2016678074271643
 20
-3.088394979336693
 10
-0.1655396803963745
 20
-3.116844514002439
 10
-0.1253505053837697
 20
-3.139245850913378
 10
-0.0796307171673742
 20
-3.15578955108258
 10
-0.0318205490037119
 20
-3.164786448187614
 10
0.0184921463621229
 20
-3.165868196418069
 10
0.068290890829341
 20
-3.158671082574479
 10
0.1165589449859317
 20
-3.143070323439968
 10
0.1614546016346637
 20
-3.11953856174887
 10
0.2008906782845414
 20
-3.089070010730462
 10
0.2343650563525936
 20
-3.052176847804663
 10
0.2594930322064563
 20
-3.011781169484283
 10
0.2770471746647944
 20
-2.967552023532753
 10
0.2858096581686298
 20
-2.923790803003549
 10
0.2868756933141809
 20
-2.879166870743099
 10
0.2805161315886248
 20
-2.836903228914739
 10
0.267296594514554
 20
-2.796272191448044
 10
0.247448555799395
 20
-2.758116300392792
 10
0.2218009032832165
 20
-2.723600868315245
 10
0.1894554972719356
 20
-2.692174868077672
 10
0.1525499724393796
 20
-2.666225058956833
 10
0.1095353573215369
 20
-2.645331849796729
 10
0.0637083966896327
 20
-2.631556137430504
 10
0.0142123022892928
 20
-2.625150129861821
 10
-0.0356723312723043
 20
-2.626894453099533
 10
-0.0853725506742785
 20
-2.637092614248012
 10
-0.1326316164390688
 20
-2.655460484649316
 10
-0.1682163361413054
 20
-2.676199102201326
 10
-0.2004855335474919
 20
-2.70176293604528
  0
LINE
  5
B6
330
90
100
AcDbEntity
  8
AM_9
100
AcDbLine
 10
2.323671975083615
 20
-2.662565449013323
 30
0.0
 11
2.316814419962599
 21
-2.65313576738921
 31
0.0
  0
LWPOLYLINE
  5
B7
330
90
100
AcDbEntity
  8
AM_9
100
AcDbPolyline
 90
        3
 70
     0
 43
0.0
 10
2.340113686257207
 20
-2.694022228143253
 10
2.328286763600369
 20
-2.669996923010357
 10
2.323671975083615
 20
-2.662565449013323
  0
LINE
  5
B8
330
90
100
AcDbEntity
  8
AM_9
100
AcDbLine
 10
2.5
 20
-3.515625
 30
0.0
 11
2.5
 21
-2.275625
 31
0.0
  0
LINE
  5
B9
330
90
100
AcDbEntity
  8
AM_9
100
AcDbLine
 10
-2.5
 20
-2.275625
 30
0.0
 11
-2.5
 21
-3.515625
 31
0.0
  0
LINE
  5
BA
330
90
100
AcDbEntity
  8
AM_9
100
AcDbLine
 10
-0.0438259549227972
 20
-2.62856049474528
 30
0.0
 11
-0.1549716393969374
 21
-2.62856049474528
 31
0.0
  0
LINE
  5
BB
330
90
100
AcDbEntity
  8
AM_9
100
AcDbLine
 10
0.1549716393969333
 20
-2.62856049474528
 30
0.0
 11
0.0405556335919628
 21
-2.62856049474528
 31
0.0
  0
LINE
  5
BC
330
90
100
AcDbEntity
  8
AM_9
100
AcDbLine
 10
2.986375396653855
 20
-2.62856049474528
 30
0.0
 11
2.856697122360206
 21
-2.62856049474528
 31
0.0
  0
ELLIPSE
  5
BD
330
90
100
AcDbEntity
  8
AM_9
100
AcDbEllipse
 10
2.27259698625397
 20
-2.895625
 30
0.0
 11
-4.836742533232473E-17
 21
-0.2633000000000001
 31
0.0
210
0.0
220
0.0
230
1.0
 40
0.4226182617407012
 41
0.0
 42
6.283185307179586
  0
LINE
  5
C0
330
90
100
AcDbEntity
  8
AM_7
100
AcDbLine
 10
-0.276465
 20
-2.895625
 30
0.0
 11
0.276465
 21
-2.895625
 31
0.0
  0
ELLIPSE
  5
C2
330
90
100
AcDbEntity
  8
AM_4
100
AcDbEllipse
 10
2.879670641757706
 20
-2.895625
 30
0.0
 11
-4.836742533232473E-17
 21
-0.2633000000000001
 31
0.0
210
0.0
220
0.0
230
1.0
 40
0.4226182617406995
 41
5.927620150752114
 42
9.754275000885073
  0
LWPOLYLINE
  5
C3
330
90
100
AcDbEntity
  8
AM_4
100
AcDbPolyline
 90
        5
 70
     0
 43
0.0
 10
2.857230717803461
 20
-2.625972986902109
 10
2.870133268127412
 20
-2.616549094510197
 10
2.897146778782862
 20
-2.611935806074766
 10
2.935938550173305
 20
-2.616000027564243
 10
2.986375396653851
 20
-2.628560494745277
  0
LWPOLYLINE
  5
C4
330
90
100
AcDbEntity
  8
AM_4
100
AcDbPolyline
 90
       15
 70
     0
 43
0.0
 10
2.860372356244009
 20
-3.16919555129767
 10
2.857477744843468
 20
-3.165488158718348
 10
2.839151146497043
 20
-3.137116023066943
 10
2.822425122427435
 20
-3.101930103818515
 10
2.80815988286131
 20
-3.0609811564712
 10
2.796848827518389
 20
-3.014659683201819
 10
2.789217112656367
 20
-2.964546270586168
 10
2.785678900596505
 20
-2.911180837769853
 10
2.786620954893802
 20
-2.857533994886098
 10
2.792212768532099
 20
-2.803443497585178
 10
2.801978682415189
 20
-2.753280489763926
 10
2.816112090303225
 20
-2.705827468423491
 10
2.832903826919759
 20
-2.666049580879627
 10
2.852976366150002
 20
-2.631920061246175
 10
2.855387706931781
 20
-2.62856049474528
  0
LINE
  5
C5
330
90
100
AcDbEntity
  8
AM_4
100
AcDbLine
 10
-3.072914285714285
 20
-2.275625
 30
0.0
 11
3.072914285714285
 21
-2.275625
 31
0.0
  0
LINE
  5
C6
330
90
100
AcDbEntity
  8
AM_4
100
AcDbLine
 10
3.072914285714285
 20
-2.404009204413473
 30
0.0
 11
3.072914285714285
 21
-2.275625
 31
0.0
  0
LINE
  5
C7
330
90
100
AcDbEntity
  8
AM_4
100
AcDbLine
 10
-3.072914285714285
 20
-2.275625
 30
0.0
 11
-3.072914285714285
 21
-2.404009204413473
 31
0.0
  0
LINE
  5
C8
330
90
100
AcDbEntity
  8
AM_4
100
AcDbLine
 10
-3.072914285714285
 20
-2.404009204413473
 30
0.0
 11
3.072914285714285
 21
-2.404009204413473
 31
0.0
  0
LINE
  5
C9
330
90
100
AcDbEntity
  8
AM_4
100
AcDbLine
 10
-3.072914285714285
 20
-2.404009204413473
 30
0.0
 11
-3.147863414634147
 21
-2.478958333333333
 31
0.0
  0
LINE
  5
CA
330
90
100
AcDbEntity
  8
AM_4
100
AcDbLine
 10
3.147863414634147
 20
-2.478958333333333
 30
0.0
 11
3.072914285714285
 21
-2.404009204413473
 31
0.0
  0
LINE
  5
CB
330
90
100
AcDbEntity
  8
AM_4
100
AcDbLine
 10
-3.147863414634147
 20
-2.478958333333333
 30
0.0
 11
3.147863414634147
 21
-2.478958333333333
 31
0.0
  0
LINE
  5
CC
330
90
100
AcDbEntity
  8
AM_4
100
AcDbLine
 10
3.147863414634147
 20
-2.583125
 30
0.0
 11
3.147863414634147
 21
-2.478958333333333
 31
0.0
  0
LINE
  5
CD
330
90
100
AcDbEntity
  8
AM_4
100
AcDbLine
 10
-3.147863414634147
 20
-2.478958333333333
 30
0.0
 11
-3.147863414634147
 21
-2.583125
 31
0.0
  0
LWPOLYLINE
  5
CE
330
90
100
AcDbEntity
  8
AM_4
100
AcDbPolyline
 90
       20
 70
     0
 43
0.0
 10
2.986375396653855
 20
-2.628560494745271
 10
2.996499910598927
 20
-2.647908605239229
 10
3.008578308220337
 20
-2.678710387299967
 10
3.018833591055521
 20
-2.714844401432456
 10
3.027646552249137
 20
-2.7592771637208
 10
3.033882790590416
 20
-2.808505120862031
 10
3.037272412988838
 20
-2.860457979063809
 10
3.037724648779595
 20
-2.914826737815234
 10
3.035142880493721
 20
-2.968146627863359
 10
3.029335913712483
 20
-3.020912721891285
 10
3.020679395063113
 20
-3.068446543636782
 10
3.008667192773266
 20
-3.112273055151899
 10
2.994527020776548
 20
-3.14750951856995
 10
2.977274763192616
 20
-3.176315100976485
 10
2.959153559641446
 20
-3.19518208014457
 10
2.938723653163769
 20
-3.206008159691911
 10
2.918651448086296
 20
-3.207813847278149
 10
2.897484314863442
 20
-3.201284794698019
 10
2.877360990694671
 20
-3.187281343286656
 10
2.860372356244009
 20
-3.16919555129767
  0
LINE
  5
CF
330
90
100
AcDbEntity
  8
AM_4
100
AcDbLine
 10
3.22656
 20
-3.308958333333333
 30
0.0
 11
3.22656
 21
-2.62856049474528
 31
0.0
  0
LINE
  5
D0
330
90
100
AcDbEntity
  8
AM_4
100
AcDbLine
 10
-3.22656
 20
-2.62856049474528
 30
0.0
 11
-3.22656
 21
-3.308958333333333
 31
0.0
  0
LINE
  5
D1
330
90
100
AcDbEntity
  8
AM_4
100
AcDbLine
 10
-3.019893333333334
 20
-3.515625
 30
0.0
 11
3.019893333301991
 21
-3.515625
 31
0.0
  0
LINE
  5
D2
330
90
100
AcDbEntity
  8
AM_4
100
AcDbLine
 10
-3.22656
 20
-3.308958333333333
 30
0.0
 11
3.22656
 21
-3.308958333333333
 31
0.0
  0
ARC
  5
D3
330
90
100
AcDbEntity
  8
AM_4
100
AcDbCircle
 10
3.019893333333333
 20
-3.308958333333333
 30
0.0
 40
0.2066666666666674
100
AcDbArc
 50
270.0
 51
0.0000008537736463
  0
ARC
  5
D4
330
90
100
AcDbEntity
  8
AM_4
100
AcDbCircle
 10
-3.019893333333333
 20
-3.308958333333333
 30
0.0
 40
0.2066666666666674
100
AcDbArc
 50
179.9999991462263
 51
270.0
  0
LWPOLYLINE
  5
D5
330
90
100
AcDbEntity
  8
AM_4
100
AcDbPolyline
 90
       33
 70
     0
 43
0.0
 10
0.1549716393969333
 20
-2.628560494745277
 10
0.1611807186241715
 20
-2.632618445623101
 10
0.1995219062239974
 20
-2.663230991497145
 10
0.2324838956122308
 20
-2.69958108233278
 10
0.2602971194098734
 20
-2.742589243849798
 10
0.2808721945460893
 20
-2.789516840296612
 10
0.2940420173994681
 20
-2.841186612531739
 10
0.2986417011306892
 20
-2.894323571723149
 10
0.2942686337159439
 20
-2.948692286362504
 10
0.2809299988206142
 20
-3.001565707861314
 10
0.2587786211887727
 20
-3.051437085551074
 10
0.2284610463572835
 20
-3.096778752591528
 10
0.1915086629364099
 20
-3.135274321523659
 10
0.1484195697285503
 20
-3.166737201670082
 10
0.1024128541504359
 20
-3.189100501406689
 10
0.0532071819604984
 20
-3.203111763229928
 10
0.0045554240433679
 20
-3.208049413699202
 10
-0.0442297750832677
 20
-3.204667826115447
 10
-0.0907180484395466
 20
-3.193298457623017
 10
-0.1347097018402034
 20
-3.174472711434315
 10
-0.1755815836269606
 20
-3.148296234731019
 10
-0.2117315146683223
 20
-3.115908288341223
 10
-0.2433777380106629
 20
-3.076577641299385
 10
-0.2683428458618898
 20
-3.032679971192199
 10
-0.2866192417942265
 20
-2.983236537729465
 10
-0.2966695963443696
 20
-2.931470132696373
 10
-0.2980952649041979
 20
-2.877212058207074
 10
-0.2905594982156016
 20
-2.82346613509394
 10
-0.2739417234868184
 20
-2.771355434535357
 10
-0.2487647926749895
 20
-2.722827434418702
 10
-0.2238065760895936
 20
-2.688842834168937
 10
-0.1944776738653987
 20
-2.658560472918606
 10
-0.1549716393969374
 20
-2.62856049474528
  0
CIRCLE
  5
D6
330
90
100
AcDbEntity
  8
AM_4
100
AcDbCircle
 10
0.0
 20
-2.895625
 30
0.0
 40
0.2633
  0
LWPOLYLINE
  5
D7
330
90
100
AcDbEntity
  8
AM_4
100
AcDbPolyline
 90
        5
 70
     0
 43
0.0
 10
-0.1549716393969374
 20
-2.62856049474528
 10
-0.0812432212758297
 20
-2.616549094510198
 10
-0.0023943729638295
 20
-2.611935806074765
 10
0.0762418415662113
 20
-2.616000027564243
 10
0.1549716393969333
 20
-2.628560494745277
  0
LINE
  5
D8
330
90
100
AcDbEntity
  8
AM_4
100
AcDbLine
 10
0.1549716393969333
 20
-2.628560494745277
 30
0.0
 11
2.855387706931781
 21
-2.62856049474528
 31
0.0
  0
LINE
  5
D9
330
90
100
AcDbEntity
  8
AM_4
100
AcDbLine
 10
2.855387706931781
 20
-2.62856049474528
 30
0.0
 11
2.857230717803461
 21
-2.625972986902109
 31
0.0
  0
LINE
  5
DA
330
90
100
AcDbEntity
  8
AM_4
100
AcDbLine
 10
2.986375396653855
 20
-2.628560494745271
 30
0.0
 11
3.22656
 21
-2.62856049474528
 31
0.0
  0
LINE
  5
DB
330
90
100
AcDbEntity
  8
AM_4
100
AcDbLine
 10
-3.147863414634147
 20
-2.583125
 30
0.0
 11
3.147863414634147
 21
-2.583125
 31
0.0
  0
LINE
  5
DC
330
90
100
AcDbEntity
  8
AM_4
100
AcDbLine
 10
-3.147863414634147
 20
-2.583125
 30
0.0
 11
-3.22656
 21
-2.62856049474528
 31
0.0
  0
LINE
  5
DD
330
90
100
AcDbEntity
  8
AM_4
100
AcDbLine
 10
3.22656
 20
-2.62856049474528
 30
0.0
 11
3.147863414634147
 21
-2.583125
 31
0.0
  0
LINE
  5
DE
330
90
100
AcDbEntity
  8
AM_4
100
AcDbLine
 10
-3.22656
 20
-2.62856049474528
 30
0.0
 11
-0.1549716393969374
 21
-2.62856049474528
 31
0.0
  0
CIRCLE
  5
E0
330
90
100
AcDbEntity
  8
AM_5
100
AcDbCircle
 10
0.0000000000000001
 20
-2.895625
 30
0.0
 40
0.3124999999999999
  0
ENDBLK
  5
93
330
90
100
AcDbEntity
  8
0
100
AcDbBlockEnd
  0
BLOCK
  5
E3
330
E1
100
AcDbEntity
  8
0
100
AcDbBlockBegin
  2
3_4_7_16CS2i_2_0_in_070664_4
 70
     2
 10
0.0
 20
0.0
 30
0.0
  3
3_4_7_16CS2i_2_0_in_070664_4
  1

  0
ATTDEF
  5
E5
330
E1
100
AcDbEntity
  8
AM_6
100
AcDbText
 10
8.226560000000001
 20
3.015625
 30
0.0
 40
0.5
  1
S-2000 Collar -Inch
100
AcDbAttributeDefinition
  3

  2
NN
 70
     8
280
     0
  0
ATTDEF
  5
E6
330
E1
100
AcDbEntity
  8
AM_6
100
AcDbText
 10
8.226560000000001
 20
2.515625
 30
0.0
 40
0.5
  1
S-2000 Bearings
100
AcDbAttributeDefinition
  3

  2
NT
 70
     8
280
     0
  0
ATTDEF
  5
E7
330
E1
100
AcDbEntity
  8
AM_6
100
AcDbText
 10
8.226560000000001
 20
2.015625
 30
0.0
 40
0.5
  1
4-7/16CS2i
100
AcDbAttributeDefinition
  3

  2
NB
 70
     8
280
     0
  0
ATTDEF
  5
E8
330
E1
100
AcDbEntity
  8
AM_6
100
AcDbText
 10
8.226560000000001
 20
1.515625
 30
0.0
 40
0.5
  1
$BORE.CS2i
100
AcDbAttributeDefinition
  3

  2
NBSYN
 70
     8
280
     0
  0
ATTDEF
  5
E9
330
E1
100
AcDbEntity
  8
AM_6
100
AcDbText
 10
8.226560000000001
 20
1.015625
 30
0.0
 40
0.5
  1
4-7/16CS2i
100
AcDbAttributeDefinition
  3

  2
LINA
 70
     8
280
     0
  0
ATTDEF
  5
EA
330
E1
100
AcDbEntity
  8
AM_6
100
AcDbText
 10
8.226560000000001
 20
0.515625
 30
0.0
 40
0.5
  1
4-7/16
100
AcDbAttributeDefinition
  3

  2
BORE
 70
     8
280
     0
  0
ATTDEF
  5
EB
330
E1
100
AcDbEntity
  8
AM_6
100
AcDbText
 10
8.226560000000001
 20
0.015625
 30
0.0
 40
0.5
  1
4.437500
100
AcDbAttributeDefinition
  3

  2
BORE1
 70
     8
280
     0
  0
ATTDEF
  5
EC
330
E1
100
AcDbEntity
  8
AM_6
100
AcDbText
 10
8.226560000000001
 20
-0.484375
 30
0.0
 40
0.5
  1
6-29/64
100
AcDbAttributeDefinition
  3

  2
L1
 70
     8
280
     0
  0
ATTDEF
  5
ED
330
E1
100
AcDbEntity
  8
AM_6
100
AcDbText
 10
8.226560000000001
 20
-0.984375
 30
0.0
 40
0.5
  1
6.45313
100
AcDbAttributeDefinition
  3

  2
L
 70
     8
280
     0
  0
ATTDEF
  5
EE
330
E1
100
AcDbEntity
  8
AM_6
100
AcDbText
 10
8.226560000000001
 20
-1.484375
 30
0.0
 40
0.5
  1
6.45312
100
AcDbAttributeDefinition
  3

  2
L2
 70
     8
280
     0
  0
ATTDEF
  5
EF
330
E1
100
AcDbEntity
  8
AM_6
100
AcDbText
 10
8.226560000000001
 20
-1.984375
 30
0.0
 40
0.5
  1
6.75
100
AcDbAttributeDefinition
  3

  2
A
 70
     8
280
     0
  0
ATTDEF
  5
F0
330
E1
100
AcDbEntity
  8
AM_6
100
AcDbText
 10
8.226560000000001
 20
-2.484375
 30
0.0
 40
0.5
  1
3.25
100
AcDbAttributeDefinition
  3

  2
B
 70
     8
280
     0
  0
ATTDEF
  5
F1
330
E1
100
AcDbEntity
  8
AM_6
100
AcDbText
 10
8.226560000000001
 20
-2.984375
 30
0.0
 40
0.5
  1
5.00
100
AcDbAttributeDefinition
  3

  2
C
 70
     8
280
     0
  0
ATTDEF
  5
F2
330
E1
100
AcDbEntity
  8
AM_6
100
AcDbText
 10
8.226560000000001
 20
-3.484375
 30
0.0
 40
0.5
  1
7.00
100
AcDbAttributeDefinition
  3

  2
D
 70
     8
280
     0
  0
ATTDEF
  5
F3
330
E1
100
AcDbEntity
  8
AM_6
100
AcDbText
 10
8.226560000000001
 20
-3.984375
 30
0.0
 40
0.5
  1
0.78
100
AcDbAttributeDefinition
  3

  2
E
 70
     8
280
     0
  0
ATTDEF
  5
F4
330
E1
100
AcDbEntity
  8
AM_6
100
AcDbText
 10
8.226560000000001
 20
-4.484375
 30
0.0
 40
0.5
  1
0.620
100
AcDbAttributeDefinition
  3

  2
F
 70
     8
280
     0
  0
ATTDEF
  5
F5
330
E1
100
AcDbEntity
  8
AM_6
100
AcDbText
 10
8.226560000000001
 20
-4.984375
 30
0.0
 40
0.5
  1
5/8-11
100
AcDbAttributeDefinition
  3

  2
CS
 70
     8
280
     0
  0
ATTDEF
  5
F6
330
E1
100
AcDbEntity
  8
AM_6
100
AcDbText
 10
8.226560000000001
 20
-5.484375
 30
0.0
 40
0.5
  1
0.6250
100
AcDbAttributeDefinition
  3

  2
NDM
 70
     8
280
     0
  0
ATTDEF
  5
F7
330
E1
100
AcDbEntity
  8
AM_6
100
AcDbText
 10
8.226560000000001
 20
-5.984375
 30
0.0
 40
0.5
  1
0.5270
100
AcDbAttributeDefinition
  3

  2
KDM
 70
     8
280
     0
  0
ATTDEF
  5
F8
330
E1
100
AcDbEntity
  8
AM_6
100
AcDbText
 10
8.226560000000001
 20
-6.484375
 30
0.0
 40
0.5
  1
2
100
AcDbAttributeDefinition
  3

  2
DD
 70
     8
280
     0
  0
ATTDEF
  5
F9
330
E1
100
AcDbEntity
  8
AM_6
100
AcDbText
 10
8.226560000000001
 20
-6.984375
 30
0.0
 40
0.5
  1
baldor
100
AcDbAttributeDefinition
  3

  2
COMPANY
 70
     8
280
     0
  0
LINE
  5
FA
330
E1
100
AcDbEntity
  8
AM_9
100
AcDbLine
 10
2.324485551990041
 20
2.628546134079553
 30
0.0
 11
2.31689069995176
 21
2.638019091147256
 31
0.0
  0
LINE
  5
FB
330
E1
100
AcDbEntity
  8
AM_9
100
AcDbLine
 10
2.316957937173596
 20
2.153314772937598
 30
0.0
 11
2.324485551990041
 21
2.162703865920447
 31
0.0
  0
LWPOLYLINE
  5
FC
330
E1
100
AcDbEntity
  8
AM_9
100
AcDbPolyline
 90
        3
 70
     0
 43
0.0
 10
2.283964027229756
 20
2.127979400560039
 10
2.300522000073958
 20
2.137092614248012
 10
2.316823402383263
 20
2.153146969500423
  0
LWPOLYLINE
  5
FD
330
E1
100
AcDbEntity
  8
AM_9
100
AcDbPolyline
 90
       23
 70
     0
 43
0.0
 10
2.316818059849384
 20
2.638109693598413
 10
2.315894970570229
 20
2.639245850913378
 10
2.298268077557129
 20
2.655789551082581
 10
2.279033869357457
 20
2.664786448187614
 10
2.257886071061365
 20
2.665868196418069
 10
2.236062992567633
 20
2.65867108257448
 10
2.21404012591565
 20
2.643070323439968
 10
2.192805815700117
 20
2.619538561748869
 10
2.173539747643094
 20
2.589070010730463
 10
2.15674439388938
 20
2.552176847804663
 10
2.143865342138973
 20
2.511781169484282
 10
2.13472853720772
 20
2.467552023532753
 10
2.130128291787391
 20
2.423790803003549
 10
2.129563725415936
 20
2.379166870743099
 10
2.132911557287133
 20
2.336903228914739
 10
2.13981714105874
 20
2.296272191448045
 10
2.150067158717076
 20
2.258116300392792
 10
2.163097459890992
 20
2.223600868315245
 10
2.179184573694872
 20
2.192174868077672
 10
2.197076902243251
 20
2.166225058956833
 10
2.217297585664704
 20
2.145331849796729
 10
2.238109319120772
 20
2.131556137430504
 10
2.248267027583781
 20
2.127532639254607
  0
LWPOLYLINE
  5
FE
330
E1
100
AcDbEntity
  8
AM_9
100
AcDbPolyline
 90
        3
 70
     0
 43
0.0
 10
2.323568131944152
 20
2.162408843717649
 10
2.331724041117134
 20
2.176199102201326
 10
2.343200855209431
 20
2.20176293604528
  0
LWPOLYLINE
  5
FF
330
E1
100
AcDbEntity
  8
AM_9
100
AcDbPolyline
 90
        3
 70
     0
 43
0.0
 10
2.316823402383263
 20
2.153146969500423
 10
2.318631165513536
 20
2.155460484649315
 10
2.323568131944152
 20
2.162408843717649
  0
LINE
  5
100
330
E1
100
AcDbEntity
  8
AM_9
100
AcDbLine
 10
2.272596986253969
 20
2.132325
 30
0.0
 11
2.879670641757706
 21
2.132325
 31
0.0
  0
LINE
  5
101
330
E1
100
AcDbEntity
  8
AM_9
100
AcDbLine
 10
2.879670641757706
 20
2.658925
 30
0.0
 11
2.272596986253969
 21
2.658925
 31
0.0
  0
LINE
  5
102
330
E1
100
AcDbEntity
  8
AM_9
100
AcDbLine
 10
2.827782076021631
 20
2.16270386592045
 30
0.0
 11
2.857327067185741
 21
2.12585279476691
 31
0.0
  0
LINE
  5
103
330
E1
100
AcDbEntity
  8
AM_9
100
AcDbLine
 10
2.860240922236433
 20
2.669031617550485
 30
0.0
 11
2.827782076021631
 21
2.62854613407955
 31
0.0
  0
ELLIPSE
  5
104
330
E1
100
AcDbEntity
  8
AM_9
100
AcDbEllipse
 10
2.879670641757681
 20
2.395625000000026
 30
0.0
 11
-4.836742533232979E-17
 21
-0.2633000000000276
 31
0.0
210
0.0
220
0.0
230
1.0
 40
0.4226182617406587
 41
3.486710796639027
 42
5.963474358683561
  0
LWPOLYLINE
  5
105
330
E1
100
AcDbEntity
  8
AM_9
100
AcDbPolyline
 90
       13
 70
     0
 43
0.0
 10
2.343200855209431
 20
2.20176293604528
 10
2.352945376819894
 20
2.231927086858132
 10
2.360802977051097
 20
2.265986504859066
 10
2.367221546978597
 20
2.307965915323669
 10
2.371052644364665
 20
2.352755709932782
 10
2.37220302027534
 20
2.396411541689405
 10
2.37096660087238
 20
2.440044076317279
 10
2.367466211115886
 20
2.481205349753514
 10
2.361777273875156
 20
2.520042343416291
 10
2.353746435249324
 20
2.556343940027149
 10
2.343614043835539
 20
2.588394979336694
 10
2.330754074486079
 20
2.616844514002438
 10
2.316818059849384
 20
2.638109693598413
  0
LWPOLYLINE
  5
106
330
E1
100
AcDbEntity
  8
AM_9
100
AcDbPolyline
 90
       38
 70
     0
 43
0.0
 10
-0.1916979582435595
 20
2.194022228143253
 10
-0.1587481795873096
 20
2.169996923010357
 10
-0.121969957738367
 20
2.150481192188113
 10
-0.0764771609340913
 20
2.134594214820762
 10
-0.0276900255873286
 20
2.126056741069182
 10
0.02196593972045
 20
2.125587089025935
 10
0.0724064489605718
 20
2.133561690580129
 10
0.1197574165413572
 20
2.149511846836244
 10
0.1649816966187541
 20
2.17400963061327
 10
0.2033640746405269
 20
2.204444030695509
 10
0.2367937142355052
 20
2.242348027356619
 10
0.2609423744941723
 20
2.282298209141604
 10
0.2781007693577628
 20
2.327390161661826
 10
0.2861615821499207
 20
2.370470622454929
 10
0.2866161512793263
 20
2.41568726263029
 10
0.2798399921101583
 20
2.457248810947482
 10
0.2659023368588905
 20
2.498236573709105
 10
0.2458356522718607
 20
2.53571561649854
 10
0.2193743120801808
 20
2.570388357779449
 10
0.1869961990258741
 20
2.601113759461328
 10
0.1491961647220107
 20
2.626978949484823
 10
0.1064097399665211
 20
2.647140432420794
 10
0.0596985290568685
 20
2.660527687899307
 10
0.0107545150476589
 20
2.666267873974051
 10
-0.0398555911203682
 20
2.663830932498214
 10
-0.088713326358974
 20
2.653182715902776
 10
-0.1364125279017593
 20
2.633897110291939
 10
-0.1784118371972112
 20
2.607788330753046
 10
-0.2163353456705062
 20
2.57371848390803
 10
-0.2455369406606303
 20
2.536179143292769
 10
-0.2682749777841534
 20
2.492615272575162
 10
-0.2815525480306395
 20
2.449911390050191
 10
-0.2872682951268918
 20
2.404083310322243
 10
-0.285133475636432
 20
2.361681316374696
 10
-0.2756297086276784
 20
2.319030773149242
 10
-0.2597872407378028
 20
2.279971790633994
 10
-0.2372849965845636
 20
2.243023153368127
 10
-0.1916979582435593
 20
2.194022228143253
  0
LINE
  5
107
330
E1
100
AcDbEntity
  8
AM_9
100
AcDbLine
 10
-2.5
 20
3.015625
 30
0.0
 11
-2.5
 21
1.775625
 31
0.0
  0
LINE
  5
108
330
E1
100
AcDbEntity
  8
AM_9
100
AcDbLine
 10
2.5
 20
1.775625
 30
0.0
 11
2.5
 21
3.015625
 31
0.0
  0
LINE
  5
109
330
E1
100
AcDbEntity
  8
AM_9
100
AcDbLine
 10
-3.072914285714285
 20
1.904009204413472
 30
0.0
 11
-3.072914285714285
 21
1.775625
 31
0.0
  0
LINE
  5
10A
330
E1
100
AcDbEntity
  8
AM_9
100
AcDbLine
 10
3.072914285714285
 20
1.775625
 30
0.0
 11
3.072914285714285
 21
1.904009204413472
 31
0.0
  0
LINE
  5
10B
330
E1
100
AcDbEntity
  8
AM_9
100
AcDbLine
 10
3.072914285714285
 20
1.775625
 30
0.0
 11
-3.072914285714285
 21
1.775625
 31
0.0
  0
LINE
  5
10C
330
E1
100
AcDbEntity
  8
AM_9
100
AcDbLine
 10
3.072914285714285
 20
1.904009204413472
 30
0.0
 11
3.147863414634147
 21
1.978958333333333
 31
0.0
  0
LINE
  5
10D
330
E1
100
AcDbEntity
  8
AM_9
100
AcDbLine
 10
-3.147863414634147
 20
1.978958333333333
 30
0.0
 11
-3.072914285714285
 21
1.904009204413472
 31
0.0
  0
LINE
  5
10E
330
E1
100
AcDbEntity
  8
AM_9
100
AcDbLine
 10
3.072914285714285
 20
1.904009204413472
 30
0.0
 11
-3.072914285714285
 21
1.904009204413472
 31
0.0
  0
LINE
  5
10F
330
E1
100
AcDbEntity
  8
AM_9
100
AcDbLine
 10
-3.147863414634147
 20
1.984375
 30
0.0
 11
-3.147863414634147
 21
1.978958333333333
 31
0.0
  0
LINE
  5
110
330
E1
100
AcDbEntity
  8
AM_9
100
AcDbLine
 10
3.147863414634147
 20
1.978958333333333
 30
0.0
 11
3.147863414634147
 21
1.984375
 31
0.0
  0
LINE
  5
111
330
E1
100
AcDbEntity
  8
AM_9
100
AcDbLine
 10
3.147863414634147
 20
1.978958333333333
 30
0.0
 11
-3.147863414634147
 21
1.978958333333333
 31
0.0
  0
LINE
  5
112
330
E1
100
AcDbEntity
  8
AM_9
100
AcDbLine
 10
2.855926890148893
 20
2.12856049474528
 30
0.0
 11
2.986375396653862
 21
2.12856049474528
 31
0.0
  0
LINE
  5
113
330
E1
100
AcDbEntity
  8
AM_9
100
AcDbLine
 10
0.0407926431000415
 20
2.12856049474528
 30
0.0
 11
0.1549716393969366
 21
2.12856049474528
 31
0.0
  0
LINE
  5
114
330
E1
100
AcDbEntity
  8
AM_9
100
AcDbLine
 10
-0.154971639396923
 20
2.12856049474528
 30
0.0
 11
-0.041999385064738
 21
2.12856049474528
 31
0.0
  0
ELLIPSE
  5
115
330
E1
100
AcDbEntity
  8
AM_9
100
AcDbEllipse
 10
2.272596986253969
 20
2.395625
 30
0.0
 11
-4.836742533232465E-17
 21
-0.2632999999999996
 31
0.0
210
0.0
220
0.0
230
1.0
 40
0.4226182617407002
 41
0.0
 42
6.283185307179586
  0
LINE
  5
116
330
E1
100
AcDbEntity
  8
AM_7
100
AcDbLine
 10
-0.2764649999999998
 20
2.395625
 30
0.0
 11
0.276465
 21
2.395625
 31
0.0
  0
ELLIPSE
  5
117
330
E1
100
AcDbEntity
  8
AM_4
100
AcDbEllipse
 10
2.879670641757706
 20
2.395625
 30
0.0
 11
-4.836742533232465E-17
 21
-0.2632999999999996
 31
0.0
210
0.0
220
0.0
230
1.0
 40
0.4226182617407002
 41
5.963474358683351
 42
9.769896103818756
  0
LWPOLYLINE
  5
118
330
E1
100
AcDbEntity
  8
AM_4
100
AcDbPolyline
 90
       20
 70
     0
 43
0.0
 10
2.860374724696068
 20
2.669198506108446
 10
2.87949702602647
 20
2.689100501406689
 10
2.901372499454115
 20
2.703111763229928
 10
2.922323419295145
 20
2.708049413699202
 10
2.942674002531056
 20
2.704667826115447
 10
2.961435851192036
 20
2.693298457623018
 10
2.978637509812972
 20
2.674472711434315
 10
2.994125695146897
 20
2.648296234731019
 10
3.007435087552521
 20
2.615908288341224
 10
3.018781786773852
 20
2.576577641299385
 10
3.02753235236636
 20
2.532679971192199
 10
3.033828564698605
 20
2.483236537729465
 10
3.037247250549346
 20
2.431470132696373
 10
3.037733005713651
 20
2.377212058207074
 10
3.035171031369941
 20
2.32346613509394
 10
3.029472406870979
 20
2.271355434535356
 10
3.02068476205853
 20
2.222827434418701
 10
3.011797716098813
 20
2.188842834168937
 10
3.001129591014966
 20
2.158560472918606
 10
2.986375396653861
 20
2.12856049474528
  0
LINE
  5
119
330
E1
100
AcDbEntity
  8
AM_4
100
AcDbLine
 10
2.857228491826276
 20
2.125975768608173
 30
0.0
 11
2.855387706931781
 21
2.128560494745279
 31
0.0
  0
CIRCLE
  5
11A
330
E1
100
AcDbEntity
  8
AM_4
100
AcDbCircle
 10
0.0000000000000001
 20
2.395625
 30
0.0
 40
0.2632999999999999
  0
LINE
  5
11B
330
E1
100
AcDbEntity
  8
AM_4
100
AcDbLine
 10
-3.147863414634147
 20
2.083125
 30
0.0
 11
-3.147863414634147
 21
1.984375
 31
0.0
  0
LINE
  5
11C
330
E1
100
AcDbEntity
  8
AM_4
100
AcDbLine
 10
3.147863414634147
 20
1.984375
 30
0.0
 11
3.147863414634147
 21
2.083125
 31
0.0
  0
LINE
  5
11D
330
E1
100
AcDbEntity
  8
AM_4
100
AcDbLine
 10
3.019893333333333
 20
3.015625
 30
0.0
 11
-3.019893333333333
 21
3.015625
 31
0.0
  0
ARC
  5
11E
330
E1
100
AcDbEntity
  8
AM_4
100
AcDbCircle
 10
-3.019893333333332
 20
2.808958333333333
 30
0.0
 40
0.2066666666666674
100
AcDbArc
 50
90.0
 51
179.9999991462263
  0
ARC
  5
11F
330
E1
100
AcDbEntity
  8
AM_4
100
AcDbCircle
 10
3.019893333333332
 20
2.808958333333333
 30
0.0
 40
0.2066666666666674
100
AcDbArc
 50
0.0000008537736463
 51
90.0
  0
LWPOLYLINE
  5
120
330
E1
100
AcDbEntity
  8
AM_4
100
AcDbPolyline
 90
       33
 70
     0
 43
0.0
 10
-0.154971639396923
 20
2.128560494745271
 10
-0.1819534878530662
 20
2.147908605239229
 10
-0.2148846107418818
 20
2.178710387299967
 10
-0.2435247882313737
 20
2.214844401432456
 10
-0.2686720140526948
 20
2.2592771637208
 10
-0.2867839559762342
 20
2.308505120862032
 10
-0.2967438389682205
 20
2.360457979063809
 10
-0.2980789656505947
 20
2.414826737815234
 10
-0.2904768672342506
 20
2.468146627863359
 10
-0.2735518056605382
 20
2.520912721891285
 10
-0.2487495687245506
 20
2.568446543636781
 10
-0.2151300869096808
 20
2.6122730551519
 10
-0.1766525605470528
 20
2.647509518569951
 10
-0.1311723489010109
 20
2.676315100976485
 10
-0.0849735278891924
 20
2.69518208014457
 10
-0.0346308742629644
 20
2.706008159691912
 10
0.0132046278550022
 20
2.707813847278149
 10
0.0620679160831201
 20
2.701284794698019
 10
0.1071478044399702
 20
2.687281343286656
 10
0.1504823973127963
 20
2.665488158718348
 10
0.1894398612750945
 20
2.637116023066943
 10
0.2242251608925861
 20
2.601930103818515
 10
0.2533452805762358
 20
2.560981156471201
 10
0.276093542211639
 20
2.514659683201819
 10
0.2912776301536334
 20
2.464546270586168
 10
0.2982733867007212
 20
2.411180837769853
 10
0.2964134422190773
 20
2.357533994886098
 10
0.2853329903654895
 20
2.303443497585178
 10
0.2658131931737009
 20
2.253280489763925
 10
0.2371726956943173
 20
2.205827468423492
 10
0.2025159034235151
 20
2.166049580879627
 10
0.1601359241265997
 20
2.131920061246175
 10
0.1549716393969366
 20
2.12856049474528
  0
LWPOLYLINE
  5
121
330
E1
100
AcDbEntity
  8
AM_4
100
AcDbPolyline
 90
       15
 70
     0
 43
0.0
 10
2.855387706931783
 20
2.128560494745277
 10
2.85248760962094
 20
2.132618445623101
 10
2.834337401994245
 20
2.163230991497145
 10
2.81840376264424
 20
2.199581082332781
 10
2.804719708835713
 20
2.242589243849798
 10
2.794454081055433
 20
2.289516840296612
 10
2.787823121561008
 20
2.34118661253174
 10
2.785492234087731
 20
2.39432357172315
 10
2.787708788143691
 20
2.448692286362504
 10
2.794425073642983
 20
2.501565707861314
 10
2.805472695062327
 20
2.551437085551074
 10
2.820364987853375
 20
2.596778752591529
 10
2.838164036054805
 20
2.63527432152366
 10
2.858436222467633
 20
2.666737201670082
 10
2.860374724696068
 20
2.669198506108446
  0
LINE
  5
122
330
E1
100
AcDbEntity
  8
AM_4
100
AcDbLine
 10
-3.22656
 20
2.808958333333333
 30
0.0
 11
-3.22656
 21
2.12856049474528
 31
0.0
  0
LINE
  5
123
330
E1
100
AcDbEntity
  8
AM_4
100
AcDbLine
 10
3.22656
 20
2.12856049474528
 30
0.0
 11
3.22656
 21
2.808958333333333
 31
0.0
  0
LINE
  5
124
330
E1
100
AcDbEntity
  8
AM_4
100
AcDbLine
 10
3.22656
 20
2.808958333333333
 30
0.0
 11
-3.22656
 21
2.808958333333333
 31
0.0
  0
LWPOLYLINE
  5
125
330
E1
100
AcDbEntity
  8
AM_4
100
AcDbPolyline
 90
        5
 70
     0
 43
0.0
 10
2.986375396653862
 20
2.12856049474528
 10
2.938803006035022
 20
2.116549094510198
 10
2.899170590262721
 20
2.111935806074766
 10
2.871496161064059
 20
2.116000027564243
 10
2.857228491826276
 20
2.125975768608173
  0
LINE
  5
126
330
E1
100
AcDbEntity
  8
AM_4
100
AcDbLine
 10
2.855387706931783
 20
2.128560494745277
 30
0.0
 11
0.1549716393969366
 21
2.12856049474528
 31
0.0
  0
LWPOLYLINE
  5
127
330
E1
100
AcDbEntity
  8
AM_4
100
AcDbPolyline
 90
        5
 70
     0
 43
0.0
 10
0.1549716393969366
 20
2.12856049474528
 10
0.0812432212758226
 20
2.116549094510197
 10
0.0023943729638152
 20
2.111935806074766
 10
-0.0762418415662135
 20
2.116000027564243
 10
-0.154971639396923
 20
2.128560494745271
  0
LINE
  5
128
330
E1
100
AcDbEntity
  8
AM_4
100
AcDbLine
 10
-0.154971639396923
 20
2.128560494745271
 30
0.0
 11
-3.22656
 21
2.12856049474528
 31
0.0
  0
LINE
  5
129
330
E1
100
AcDbEntity
  8
AM_4
100
AcDbLine
 10
3.147863414634147
 20
2.083125
 30
0.0
 11
3.226560000000001
 21
2.12856049474528
 31
0.0
  0
LINE
  5
12A
330
E1
100
AcDbEntity
  8
AM_4
100
AcDbLine
 10
-3.22656
 20
2.12856049474528
 30
0.0
 11
-3.147863414634147
 21
2.083125
 31
0.0
  0
LINE
  5
12B
330
E1
100
AcDbEntity
  8
AM_4
100
AcDbLine
 10
3.226560000000001
 20
2.12856049474528
 30
0.0
 11
2.986375396653862
 21
2.12856049474528
 31
0.0
  0
LINE
  5
12C
330
E1
100
AcDbEntity
  8
AM_4
100
AcDbLine
 10
3.147863414634147
 20
2.083125
 30
0.0
 11
-3.147863414634147
 21
2.083125
 31
0.0
  0
ARC
  5
12D
330
E1
100
AcDbEntity
  8
AM_5
100
AcDbCircle
 10
0.0000000000000004
 20
2.395624999999999
 30
0.0
 40
0.3125000000000001
100
AcDbArc
 50
75.00000000000001
 51
15.00000000000004
  0
ARC
  5
12E
330
E1
100
AcDbEntity
  8
AM_5
100
AcDbCircle
 10
-0.0000000000000121
 20
2.395624999999963
 30
0.0
 40
0.3125000000000381
100
AcDbArc
 50
63.8515706674828
 51
74.99999999999952
  0
ENDBLK
  5
E4
330
E1
100
AcDbEntity
  8
0
100
AcDbBlockEnd
  0
BLOCK
  5
131
330
12F
100
AcDbEntity
  8
0
100
AcDbBlockBegin
  2
4_070014i_0_in_070664_4
 70
     2
 10
0.0
 20
0.0
 30
0.0
  3
4_070014i_0_in_070664_4
  1

  0
ATTDEF
  5
133
330
12F
100
AcDbEntity
  8
AM_6
100
AcDbText
 10
8.937
 20
3.342187500000001
 30
0.0
 40
0.5
  1
S-2000 Insert -Inch
100
AcDbAttributeDefinition
  3

  2
NN
 70
     8
280
     0
  0
ATTDEF
  5
134
330
12F
100
AcDbEntity
  8
AM_6
100
AcDbText
 10
8.937
 20
2.842187500000001
 30
0.0
 40
0.5
  1
S-2000 Bearings
100
AcDbAttributeDefinition
  3

  2
NT
 70
     8
280
     0
  0
ATTDEF
  5
135
330
12F
100
AcDbEntity
  8
AM_6
100
AcDbText
 10
8.937
 20
2.342187500000001
 30
0.0
 40
0.5
  1
070014i
100
AcDbAttributeDefinition
  3

  2
NB
 70
     8
280
     0
  0
ATTDEF
  5
136
330
12F
100
AcDbEntity
  8
AM_6
100
AcDbText
 10
8.937
 20
1.842187500000001
 30
0.0
 40
0.5
  1
$PN.i
100
AcDbAttributeDefinition
  3

  2
NBSYN
 70
     8
280
     0
  0
ATTDEF
  5
137
330
12F
100
AcDbEntity
  8
AM_6
100
AcDbText
 10
8.937
 20
1.342187500000001
 30
0.0
 40
0.5
  1
070014i
100
AcDbAttributeDefinition
  3

  2
LINA
 70
     8
280
     0
  0
ATTDEF
  5
138
330
12F
100
AcDbEntity
  8
AM_6
100
AcDbText
 10
8.937
 20
0.8421875000000005
 30
0.0
 40
0.5
  1
4-7/16
100
AcDbAttributeDefinition
  3

  2
SS
 70
     8
280
     0
  0
ATTDEF
  5
139
330
12F
100
AcDbEntity
  8
AM_6
100
AcDbText
 10
8.937
 20
0.3421875000000005
 30
0.0
 40
0.5
  1
5.00
100
AcDbAttributeDefinition
  3

  2
CC
 70
     8
280
     0
  0
ATTDEF
  5
13A
330
12F
100
AcDbEntity
  8
AM_6
100
AcDbText
 10
8.937
 20
-0.1578124999999995
 30
0.0
 40
0.5
  1
4.437500
100
AcDbAttributeDefinition
  3

  2
SS1
 70
     8
280
     0
  0
ATTDEF
  5
13B
330
12F
100
AcDbEntity
  8
AM_6
100
AcDbText
 10
8.937
 20
-0.6578124999999995
 30
0.0
 40
0.5
  1
070014
100
AcDbAttributeDefinition
  3

  2
PN
 70
     8
280
     0
  0
ATTDEF
  5
13C
330
12F
100
AcDbEntity
  8
AM_6
100
AcDbText
 10
8.937
 20
-1.157812499999999
 30
0.0
 40
0.5
  1
INS-S2-407R
100
AcDbAttributeDefinition
  3

  2
DESCRIPTION
 70
     8
280
     0
  0
ATTDEF
  5
13D
330
12F
100
AcDbEntity
  8
AM_6
100
AcDbText
 10
8.937
 20
-1.657812499999999
 30
0.0
 40
0.5
  1
Contact Seal
100
AcDbAttributeDefinition
  3

  2
ST
 70
     8
280
     0
  0
ATTDEF
  5
13E
330
12F
100
AcDbEntity
  8
AM_6
100
AcDbText
 10
8.937
 20
-2.157812499999999
 30
0.0
 40
0.5
  1
1
100
AcDbAttributeDefinition
  3

  2
ST1
 70
     8
280
     0
  0
ATTDEF
  5
13F
330
12F
100
AcDbEntity
  8
AM_6
100
AcDbText
 10
8.937
 20
-2.657812499999999
 30
0.0
 40
0.5
  1
7.8740
100
AcDbAttributeDefinition
  3

  2
A
 70
     8
280
     0
  0
ATTDEF
  5
140
330
12F
100
AcDbEntity
  8
AM_6
100
AcDbText
 10
8.937
 20
-3.157812499999999
 30
0.0
 40
0.5
  1
2-5/32
100
AcDbAttributeDefinition
  3

  2
B
 70
     8
280
     0
  0
ATTDEF
  5
141
330
12F
100
AcDbEntity
  8
AM_6
100
AcDbText
 10
8.937
 20
-3.657812499999999
 30
0.0
 40
0.5
  1
6-17/32
100
AcDbAttributeDefinition
  3

  2
C
 70
     8
280
     0
  0
ATTDEF
  5
142
330
12F
100
AcDbEntity
  8
AM_6
100
AcDbText
 10
8.937
 20
-4.157812499999999
 30
0.0
 40
0.5
  1
3.266
100
AcDbAttributeDefinition
  3

  2
D
 70
     8
280
     0
  0
ATTDEF
  5
143
330
12F
100
AcDbEntity
  8
AM_6
100
AcDbText
 10
8.937
 20
-4.657812499999999
 30
0.0
 40
0.5
  1
6-29/64
100
AcDbAttributeDefinition
  3

  2
E
 70
     8
280
     0
  0
ATTDEF
  5
144
330
12F
100
AcDbEntity
  8
AM_6
100
AcDbText
 10
8.937
 20
-5.157812499999999
 30
0.0
 40
0.5
  1
0.43750
100
AcDbAttributeDefinition
  3

  2
F
 70
     8
280
     0
  0
ATTDEF
  5
145
330
12F
100
AcDbEntity
  8
AM_6
100
AcDbText
 10
8.937
 20
-5.657812499999999
 30
0.0
 40
0.5
  1
2
100
AcDbAttributeDefinition
  3

  2
DD
 70
     8
280
     0
  0
ATTDEF
  5
146
330
12F
100
AcDbEntity
  8
AM_6
100
AcDbText
 10
8.937
 20
-6.157812499999999
 30
0.0
 40
0.5
  1
baldor
100
AcDbAttributeDefinition
  3

  2
COMPANY
 70
     8
280
     0
  0
LINE
  5
147
330
12F
100
AcDbEntity
  8
AM_9
100
AcDbLine
 10
2.265769467591625
 20
2.785625
 30
0.0
 11
2.010662166385627
 21
2.785625
 31
0.0
  0
LINE
  5
148
330
12F
100
AcDbEntity
  8
AM_9
100
AcDbLine
 10
2.010805980668961
 20
2.005625
 30
0.0
 11
2.265769467591625
 21
2.005625
 31
0.0
  0
LWPOLYLINE
  5
149
330
12F
100
AcDbEntity
  8
AM_9
100
AcDbPolyline
 90
       21
 70
     0
 43
0.0
 10
2.010883452367077
 20
2.785624998777539
 10
1.992637080369742
 20
2.783326460187932
 10
1.963846511410627
 20
2.770952541259199
 10
1.934874597676671
 20
2.748335836839201
 10
1.906642316844467
 20
2.715812112223606
 10
1.880417602268087
 20
2.674509850784742
 10
1.857064509283933
 20
2.624730804049209
 10
1.837993307492582
 20
2.568444289453875
 10
1.824213010542119
 20
2.507040010975738
 10
1.816384413756529
 20
2.442398751407041
 10
1.815023849570296
 20
2.377247729616475
 10
1.819945973882121
 20
2.312620983194444
 10
1.830894232507766
 20
2.25082251132022
 10
1.847217938706389
 20
2.193041700430994
 10
1.86842810107104
 20
2.140401746073042
 10
1.893319418905554
 20
2.09485447931446
 10
1.921159482097264
 20
2.05736042042371
 10
1.950467595558332
 20
2.029445950329588
 10
1.979933548910967
 20
2.012138930682867
 10
2.008647456676044
 20
2.005660292849706
 10
2.010858335313289
 20
2.005625001045221
  0
LWPOLYLINE
  5
14A
330
12F
100
AcDbEntity
  8
AM_9
100
AcDbPolyline
 90
        6
 70
     0
 43
0.0
 10
2.120688109854242
 20
2.152609669612496
 10
2.126716111722927
 20
2.181011965091127
 10
2.135584859885662
 20
2.239027755618053
 10
2.141353117227074
 20
2.30157602388261
 10
2.143626560743487
 20
2.348240885271207
 10
2.144383138759292
 20
2.395624999999999
  0
LWPOLYLINE
  5
14B
330
12F
100
AcDbEntity
  8
AM_9
100
AcDbPolyline
 90
        7
 70
     0
 43
0.0
 10
2.010858335313289
 20
2.005625001045221
 10
2.035295493209872
 20
2.010235731047496
 10
2.059624735854459
 20
2.025408407621372
 10
2.081060729091502
 20
2.050825753495647
 10
2.099414514826627
 20
2.085635416289977
 10
2.114696524089497
 20
2.12959882804516
 10
2.120688109854242
 20
2.152609669612496
  0
LWPOLYLINE
  5
14C
330
12F
100
AcDbEntity
  8
AM_9
100
AcDbPolyline
 90
       21
 70
     0
 43
0.0
 10
2.265783204387584
 20
2.00562500135454
 10
2.247311258350221
 20
2.007990232864151
 10
2.218644363557162
 20
2.020518699057691
 10
2.189964238117227
 20
2.043353232997124
 10
2.162194513097455
 20
2.076122311679949
 10
2.136528697837837
 20
2.11770405070519
 10
2.113849777764381
 20
2.167633316437076
 10
2.09541659512164
 20
2.224030038212915
 10
2.082174709821313
 20
2.285461956083066
 10
2.074717473449861
 20
2.350073771419975
 10
2.073518721305757
 20
2.415333854447165
 10
2.078422346465016
 20
2.48003327812604
 10
2.089205129318325
 20
2.541971153931686
 10
2.105249316332166
 20
2.599835327151315
 10
2.126055398478711
 20
2.652379636571492
 10
2.150502805702975
 20
2.697765952837801
 10
2.17783396176187
 20
2.734936366846314
 10
2.206690727193555
 20
2.762505796168568
 10
2.235843821670368
 20
2.779474697530789
 10
2.2643933853177
 20
2.785611445149262
 10
2.265761144811102
 20
2.785624999502792
  0
LWPOLYLINE
  5
14D
330
12F
100
AcDbEntity
  8
AM_9
100
AcDbPolyline
 90
       11
 70
     0
 43
0.0
 10
2.265761144811102
 20
2.785624999502792
 10
2.291126862745232
 20
2.780680758216103
 10
2.315696239258886
 20
2.765109847233462
 10
2.337517000520263
 20
2.73924145570849
 10
2.356340391291953
 20
2.703943809010775
 10
2.372092646299096
 20
2.659588732736409
 10
2.384565460311587
 20
2.607826460704578
 10
2.393793079604179
 20
2.549639716347659
 10
2.399793556216568
 20
2.487019023199816
 10
2.402086358317878
 20
2.441649649156564
 10
2.402850899037565
 20
2.395624999999999
  0
LINE
  5
14E
330
12F
100
AcDbEntity
  8
AM_9
100
AcDbLine
 10
2.265769467591625
 20
-2.505625
 30
0.0
 11
2.010662166385627
 21
-2.505625
 31
0.0
  0
LINE
  5
14F
330
12F
100
AcDbEntity
  8
AM_9
100
AcDbLine
 10
2.010805980668961
 20
-3.285625
 30
0.0
 11
2.265769467591625
 21
-3.285625
 31
0.0
  0
LWPOLYLINE
  5
150
330
12F
100
AcDbEntity
  8
AM_9
100
AcDbPolyline
 90
       21
 70
     0
 43
0.0
 10
2.010883452367077
 20
-2.50562500122246
 10
1.992637080369742
 20
-2.507923539812068
 10
1.963846511410627
 20
-2.520297458740801
 10
1.934874597676671
 20
-2.542914163160799
 10
1.906642316844467
 20
-2.575437887776393
 10
1.880417602268087
 20
-2.616740149215257
 10
1.857064509283933
 20
-2.666519195950791
 10
1.837993307492582
 20
-2.722805710546125
 10
1.824213010542119
 20
-2.784209989024261
 10
1.816384413756529
 20
-2.848851248592958
 10
1.815023849570296
 20
-2.914002270383524
 10
1.819945973882121
 20
-2.978629016805556
 10
1.830894232507766
 20
-3.040427488679779
 10
1.847217938706389
 20
-3.098208299569005
 10
1.86842810107104
 20
-3.150848253926958
 10
1.893319418905554
 20
-3.196395520685539
 10
1.921159482097264
 20
-3.23388957957629
 10
1.950467595558331
 20
-3.261804049670411
 10
1.979933548910967
 20
-3.279111069317132
 10
2.008647456676044
 20
-3.285589707150293
 10
2.010858335313289
 20
-3.285624998954779
  0
LWPOLYLINE
  5
151
330
12F
100
AcDbEntity
  8
AM_9
100
AcDbPolyline
 90
        6
 70
     0
 43
0.0
 10
2.120688109854242
 20
-3.138640330387503
 10
2.126716111722927
 20
-3.110238034908873
 10
2.135584859885662
 20
-3.052222244381946
 10
2.141353117227074
 20
-2.989673976117388
 10
2.143626560743487
 20
-2.943009114728793
 10
2.144383138759292
 20
-2.895624999999999
  0
LWPOLYLINE
  5
152
330
12F
100
AcDbEntity
  8
AM_9
100
AcDbPolyline
 90
        7
 70
     0
 43
0.0
 10
2.010858335313289
 20
-3.285624998954779
 10
2.035295493209872
 20
-3.281014268952504
 10
2.059624735854459
 20
-3.265841592378627
 10
2.081060729091502
 20
-3.240424246504352
 10
2.099414514826627
 20
-3.205614583710022
 10
2.114696524089497
 20
-3.161651171954839
 10
2.120688109854242
 20
-3.138640330387503
  0
LWPOLYLINE
  5
153
330
12F
100
AcDbEntity
  8
AM_9
100
AcDbPolyline
 90
       21
 70
     0
 43
0.0
 10
2.265783204387584
 20
-3.28562499864546
 10
2.247311258350221
 20
-3.283259767135848
 10
2.218644363557162
 20
-3.270731300942309
 10
2.189964238117227
 20
-3.247896767002875
 10
2.162194513097455
 20
-3.21512768832005
 10
2.136528697837837
 20
-3.17354594929481
 10
2.113849777764381
 20
-3.123616683562923
 10
2.09541659512164
 20
-3.067219961787085
 10
2.082174709821313
 20
-3.005788043916934
 10
2.074717473449861
 20
-2.941176228580024
 10
2.073518721305757
 20
-2.875916145552835
 10
2.078422346465016
 20
-2.811216721873959
 10
2.089205129318325
 20
-2.749278846068313
 10
2.105249316332166
 20
-2.691414672848685
 10
2.126055398478711
 20
-2.638870363428507
 10
2.150502805702975
 20
-2.593484047162198
 10
2.177833961761869
 20
-2.556313633153686
 10
2.206690727193555
 20
-2.528744203831431
 10
2.235843821670368
 20
-2.51177530246921
 10
2.2643933853177
 20
-2.505638554850737
 10
2.265761144811102
 20
-2.505625000497208
  0
LWPOLYLINE
  5
154
330
12F
100
AcDbEntity
  8
AM_9
100
AcDbPolyline
 90
       11
 70
     0
 43
0.0
 10
2.265761144811102
 20
-2.505625000497208
 10
2.291126862745232
 20
-2.510569241783896
 10
2.315696239258886
 20
-2.526140152766537
 10
2.337517000520263
 20
-2.552008544291509
 10
2.356340391291953
 20
-2.587306190989225
 10
2.372092646299096
 20
-2.63166126726359
 10
2.384565460311587
 20
-2.683423539295421
 10
2.393793079604179
 20
-2.74161028365234
 10
2.399793556216568
 20
-2.804230976800184
 10
2.402086358317878
 20
-2.849600350843436
 10
2.402850899037565
 20
-2.895624999999999
  0
LWPOLYLINE
  5
155
330
12F
100
AcDbEntity
  8
AM_9
100
AcDbPolyline
 90
        7
 70
     0
 43
0.0
 10
2.120664689707141
 20
-2.65251067119461
 10
2.107365949351632
 20
-2.606335235677228
 10
2.090393425047168
 20
-2.566613192161694
 10
2.069976167155672
 20
-2.536043509657787
 10
2.046484404751818
 20
-2.515686397687813
 10
2.020553426311557
 20
-2.506356833380841
 10
2.010883452367077
 20
-2.50562500122246
  0
LWPOLYLINE
  5
156
330
12F
100
AcDbEntity
  8
AM_9
100
AcDbPolyline
 90
        6
 70
     0
 43
0.0
 10
2.144383138759292
 20
-2.895624999999999
 10
2.142953650007355
 20
-2.830724590930386
 10
2.13865334762639
 20
-2.767667431241275
 10
2.131382272697179
 20
-2.708301067840065
 10
2.121050883035888
 20
-2.654153040285472
 10
2.120664689707141
 20
-2.65251067119461
  0
LWPOLYLINE
  5
157
330
12F
100
AcDbEntity
  8
AM_9
100
AcDbPolyline
 90
        7
 70
     0
 43
0.0
 10
2.120664689707141
 20
2.63873932880539
 10
2.107365949351632
 20
2.684914764322771
 10
2.090393425047168
 20
2.724636807838305
 10
2.069976167155672
 20
2.755206490342213
 10
2.046484404751818
 20
2.775563602312188
 10
2.020553426311557
 20
2.784893166619159
 10
2.010883452367077
 20
2.785624998777539
  0
LWPOLYLINE
  5
158
330
12F
100
AcDbEntity
  8
AM_9
100
AcDbPolyline
 90
        6
 70
     0
 43
0.0
 10
2.144383138759292
 20
2.395624999999999
 10
2.142953650007355
 20
2.460525409069614
 10
2.13865334762639
 20
2.523582568758725
 10
2.131382272697179
 20
2.582948932159935
 10
2.121050883035888
 20
2.637096959714527
 10
2.120664689707141
 20
2.63873932880539
  0
LINE
  5
159
330
12F
100
AcDbEntity
  8
AM_9
100
AcDbLine
 10
-2.21875
 20
3.015625
 30
0.0
 11
-2.21875
 21
-3.515625
 31
0.0
  0
LINE
  5
15A
330
12F
100
AcDbEntity
  8
AM_9
100
AcDbLine
 10
2.21875
 20
-3.515625
 30
0.0
 11
2.21875
 21
3.015625
 31
0.0
  0
LWPOLYLINE
  5
15B
330
12F
100
AcDbEntity
  8
AM_9
100
AcDbPolyline
 90
       11
 70
     0
 43
0.0
 10
2.402850899037565
 20
-2.895624999999999
 10
2.401313441402158
 20
-2.960646506400926
 10
2.396705519739894
 20
-3.023824353951453
 10
2.388953199728143
 20
-3.083311620187095
 10
2.378019814162874
 20
-3.137557398030443
 10
2.363697455559759
 20
-3.185338594016299
 10
2.346108274285411
 20
-3.224999438616161
 10
2.325194356802712
 20
-3.25544210996393
 10
2.301361453803466
 20
-3.275681915059462
 10
2.275230373669896
 20
-3.284927052014112
 10
2.265783204387584
 20
-3.28562499864546
  0
LWPOLYLINE
  5
15C
330
12F
100
AcDbEntity
  8
AM_9
100
AcDbPolyline
 90
       39
 70
     0
 43
0.0
 10
0.3900000000000002
 20
-2.895624999999999
 10
0.3846962846345249
 20
-2.959724676975727
 10
0.3683271991673026
 20
-3.023824353951453
 10
0.3422992160661122
 20
-3.08252402803526
 10
0.305890037077442
 20
-3.137557398030443
 10
0.2617458609152352
 20
-3.184742803488028
 10
0.208836010271909
 20
-3.224999438616161
 10
0.1512378717215656
 20
-3.255106718807968
 10
0.087502807472018
 20
-3.275681915059462
 10
0.023589815808531
 20
-3.284910911111768
 10
-0.042886913010109
 20
-3.283259767135848
 10
-0.1057312018206749
 20
-3.271019343273251
 10
-0.1673457563629012
 20
-3.247896767002875
 10
-0.2228554812324346
 20
-3.215680361593365
 10
-0.2736054567128944
 20
-3.17354594929481
 10
-0.3158492013923911
 20
-3.124402800452291
 10
-0.3502215999753426
 20
-3.067219961787084
 10
-0.373840008211922
 20
-3.006726972350224
 10
-0.3873307186047221
 20
-2.941176228580024
 10
-0.3895482823296129
 20
-2.876859719984815
 10
-0.3807561458253788
 20
-2.81121672187396
 10
-0.3618370530553301
 20
-2.750112295962743
 10
-0.3322621589720276
 20
-2.691414672848685
 10
-0.2941423656774658
 20
-2.63953855226474
 10
-0.246598549505599
 20
-2.593484047162198
 10
-0.1930394363525759
 20
-2.55675072240921
 10
-0.1322818256704894
 20
-2.528744203831431
 10
-0.0697135829966551
 20
-2.511906331773174
 10
-0.0032515534504866
 20
-2.505638554850737
 10
0.0607390841471662
 20
-2.510383824037508
 10
0.124823666285143
 20
-2.526140152766537
 10
0.1836018297002148
 20
-2.551545985628688
 10
0.238829462190445
 20
-2.587306190989224
 10
0.2864412457463024
 20
-2.630952725790353
 10
0.3272163505615865
 20
-2.683423539295421
 10
0.3579127123463262
 20
-2.740710538632134
 10
0.3791399906674994
 20
-2.804230976800183
 10
0.3872353834875072
 20
-2.849270304711567
 10
0.39
 20
-2.895624999999999
  0
LINE
  5
15D
330
12F
100
AcDbEntity
  8
AM_9
100
AcDbLine
 10
-2.5
 20
-2.275625
 30
0.0
 11
-2.5
 21
-3.515625
 31
0.0
  0
LINE
  5
15E
330
12F
100
AcDbEntity
  8
AM_9
100
AcDbLine
 10
-2.5
 20
-1.838125
 30
0.0
 11
-2.5
 21
-2.015625
 31
0.0
  0
LINE
  5
15F
330
12F
100
AcDbEntity
  8
AM_9
100
AcDbLine
 10
2.5
 20
-2.015625
 30
0.0
 11
2.5
 21
-1.838125
 31
0.0
  0
LINE
  5
160
330
12F
100
AcDbEntity
  8
AM_9
100
AcDbLine
 10
2.5
 20
-3.515625
 30
0.0
 11
2.5
 21
-2.275625
 31
0.0
  0
LWPOLYLINE
  5
161
330
12F
100
AcDbEntity
  8
AM_9
100
AcDbPolyline
 90
       11
 70
     0
 43
0.0
 10
2.402850899037565
 20
2.395624999999999
 10
2.401313441402158
 20
2.330603493599073
 10
2.396705519739894
 20
2.267425646048546
 10
2.388953199728143
 20
2.207938379812903
 10
2.378019814162874
 20
2.153692601969556
 10
2.363697455559759
 20
2.1059114059837
 10
2.346108274285411
 20
2.066250561383839
 10
2.325194356802712
 20
2.035807890036069
 10
2.301361453803466
 20
2.015568084940538
 10
2.275230373669896
 20
2.006322947985888
 10
2.265783204387584
 20
2.00562500135454
  0
LWPOLYLINE
  5
162
330
12F
100
AcDbEntity
  8
AM_9
100
AcDbPolyline
 90
       39
 70
     0
 43
0.0
 10
0.3900000000000002
 20
2.395624999999999
 10
0.3846962846345249
 20
2.331525323024273
 10
0.3683271991673026
 20
2.267425646048546
 10
0.3422992160661124
 20
2.20872597196474
 10
0.3058900370774422
 20
2.153692601969556
 10
0.2617458609152352
 20
2.106507196511971
 10
0.2088360102719092
 20
2.066250561383839
 10
0.1512378717215659
 20
2.036143281192031
 10
0.0875028074720181
 20
2.015568084940538
 10
0.023589815808531
 20
2.006339088888232
 10
-0.042886913010109
 20
2.007990232864151
 10
-0.1057312018206747
 20
2.020230656726748
 10
-0.1673457563629011
 20
2.043353232997124
 10
-0.2228554812324346
 20
2.075569638406634
 10
-0.2736054567128945
 20
2.11770405070519
 10
-0.315849201392391
 20
2.166847199547708
 10
-0.3502215999753424
 20
2.224030038212914
 10
-0.3738400082119219
 20
2.284523027649775
 10
-0.3873307186047221
 20
2.350073771419975
 10
-0.3895482823296129
 20
2.414390280015184
 10
-0.3807561458253788
 20
2.48003327812604
 10
-0.3618370530553301
 20
2.541137704037256
 10
-0.3322621589720276
 20
2.599835327151315
 10
-0.2941423656774661
 20
2.65171144773526
 10
-0.2465985495055992
 20
2.697765952837801
 10
-0.193039436352576
 20
2.73449927759079
 10
-0.1322818256704893
 20
2.762505796168568
 10
-0.0697135829966551
 20
2.779343668226825
 10
-0.003251553450486
 20
2.785611445149262
 10
0.0607390841471666
 20
2.780866175962491
 10
0.1248236662851432
 20
2.765109847233462
 10
0.1836018297002151
 20
2.739704014371311
 10
0.2388294621904453
 20
2.703943809010775
 10
0.2864412457463024
 20
2.660297274209646
 10
0.3272163505615868
 20
2.607826460704578
 10
0.3579127123463262
 20
2.550539461367865
 10
0.3791399906674994
 20
2.487019023199816
 10
0.3872353834875072
 20
2.441979695288432
 10
0.39
 20
2.395624999999999
  0
LINE
  5
163
330
12F
100
AcDbEntity
  8
AM_9
100
AcDbLine
 10
-2.5
 20
3.015625
 30
0.0
 11
-2.5
 21
1.338125
 31
0.0
  0
LINE
  5
164
330
12F
100
AcDbEntity
  8
AM_9
100
AcDbLine
 10
2.5
 20
1.338125
 30
0.0
 11
2.5
 21
3.015625
 31
0.0
  0
LINE
  5
165
330
12F
100
AcDbEntity
  8
AM_9
100
AcDbLine
 10
-3.1496
 20
-1.328125
 30
0.0
 11
-3.1496
 21
-1.6225
 31
0.0
  0
LINE
  5
166
330
12F
100
AcDbEntity
  8
AM_9
100
AcDbLine
 10
3.1496
 20
-1.6225
 30
0.0
 11
3.1496
 21
-1.328125
 31
0.0
  0
LINE
  5
167
330
12F
100
AcDbEntity
  8
AM_9
100
AcDbLine
 10
2.933975000000001
 20
-1.838125
 30
0.0
 11
-2.933975000000001
 21
-1.838125
 31
0.0
  0
ARC
  5
168
330
12F
100
AcDbEntity
  8
AM_9
100
AcDbCircle
 10
-2.933974999999999
 20
-1.6225
 30
0.0
 40
0.2156250000000002
100
AcDbArc
 50
180.0
 51
270.0
  0
ARC
  5
169
330
12F
100
AcDbEntity
  8
AM_9
100
AcDbCircle
 10
2.933974999999999
 20
-1.6225
 30
0.0
 40
0.2156250000000004
100
AcDbArc
 50
270.0
 51
0.0
  0
LINE
  5
16A
330
12F
100
AcDbEntity
  8
AM_9
100
AcDbLine
 10
3.1496
 20
-1.6225
 30
0.0
 11
-3.1496
 21
-1.6225
 31
0.0
  0
LINE
  5
16B
330
12F
100
AcDbEntity
  8
AM_9
100
AcDbLine
 10
2.933975
 20
1.338125
 30
0.0
 11
-2.933975
 21
1.338125
 31
0.0
  0
ARC
  5
16C
330
12F
100
AcDbEntity
  8
AM_9
100
AcDbCircle
 10
-2.933974999999999
 20
1.1225
 30
0.0
 40
0.215625
100
AcDbArc
 50
90.0
 51
180.0
  0
ARC
  5
16D
330
12F
100
AcDbEntity
  8
AM_9
100
AcDbCircle
 10
2.933974999999999
 20
1.1225
 30
0.0
 40
0.2156250000000002
100
AcDbArc
 50
0.0
 51
90.0
  0
LINE
  5
16E
330
12F
100
AcDbEntity
  8
AM_9
100
AcDbLine
 10
-3.1496
 20
1.1225
 30
0.0
 11
-3.1496
 21
0.8281250000000001
 31
0.0
  0
LINE
  5
16F
330
12F
100
AcDbEntity
  8
AM_9
100
AcDbLine
 10
3.1496
 20
0.8281250000000001
 30
0.0
 11
3.1496
 21
1.1225
 31
0.0
  0
LINE
  5
170
330
12F
100
AcDbEntity
  8
AM_9
100
AcDbLine
 10
3.1496
 20
1.1225
 30
0.0
 11
-3.1496
 21
1.1225
 31
0.0
  0
LINE
  5
171
330
12F
100
AcDbEntity
  8
AM_9
100
AcDbLine
 10
-3.77952
 20
-0.1421874999999947
 30
0.0
 11
-3.77952
 21
-0.3578125000000053
 31
0.0
  0
LINE
  5
172
330
12F
100
AcDbEntity
  8
AM_9
100
AcDbLine
 10
3.77952
 20
-0.3578125000000053
 30
0.0
 11
3.77952
 21
-0.1421874999999947
 31
0.0
  0
LINE
  5
173
330
12F
100
AcDbEntity
  8
AM_9
100
AcDbLine
 10
-3.936999999999999
 20
0.6124999999999999
 30
0.0
 11
-3.936999999999999
 21
-0.0512663796080126
 31
0.0
  0
LINE
  5
174
330
12F
100
AcDbEntity
  8
AM_9
100
AcDbLine
 10
3.936999999999999
 20
-0.0512663796080126
 30
0.0
 11
3.936999999999999
 21
0.6124999999999999
 31
0.0
  0
LINE
  5
175
330
12F
100
AcDbEntity
  8
AM_9
100
AcDbLine
 10
-3.77952
 20
-0.3578125000000053
 30
0.0
 11
-3.936999999999999
 21
-0.4487336203919874
 31
0.0
  0
LINE
  5
176
330
12F
100
AcDbEntity
  8
AM_9
100
AcDbLine
 10
3.936999999999999
 20
-0.4487336203919874
 30
0.0
 11
3.77952
 21
-0.3578125000000053
 31
0.0
  0
LINE
  5
177
330
12F
100
AcDbEntity
  8
AM_9
100
AcDbLine
 10
3.77952
 20
-0.3578125000000053
 30
0.0
 11
-3.77952
 21
-0.3578125000000053
 31
0.0
  0
LINE
  5
178
330
12F
100
AcDbEntity
  8
AM_9
100
AcDbLine
 10
-3.936999999999999
 20
-0.4487336203919874
 30
0.0
 11
-3.936999999999999
 21
-1.1125
 31
0.0
  0
LINE
  5
179
330
12F
100
AcDbEntity
  8
AM_9
100
AcDbLine
 10
3.936999999999999
 20
-1.1125
 30
0.0
 11
3.936999999999999
 21
-0.4487336203919874
 31
0.0
  0
LINE
  5
17A
330
12F
100
AcDbEntity
  8
AM_9
100
AcDbLine
 10
3.936999999999999
 20
-0.4487336203919874
 30
0.0
 11
-3.936999999999999
 21
-0.4487336203919874
 31
0.0
  0
LINE
  5
17B
330
12F
100
AcDbEntity
  8
AM_9
100
AcDbLine
 10
3.721374999999999
 20
0.8281250000000001
 30
0.0
 11
-3.721374999999999
 21
0.8281250000000001
 31
0.0
  0
ARC
  5
17C
330
12F
100
AcDbEntity
  8
AM_9
100
AcDbCircle
 10
-3.721374999999999
 20
0.6124999999999996
 30
0.0
 40
0.2156250000000005
100
AcDbArc
 50
90.0
 51
180.0
  0
ARC
  5
17D
330
12F
100
AcDbEntity
  8
AM_9
100
AcDbCircle
 10
3.721374999999999
 20
0.6124999999999996
 30
0.0
 40
0.2156250000000002
100
AcDbArc
 50
0.0
 51
90.0
  0
LINE
  5
17E
330
12F
100
AcDbEntity
  8
AM_9
100
AcDbLine
 10
3.936999999999999
 20
0.6124999999999999
 30
0.0
 11
-3.936999999999999
 21
0.6124999999999999
 31
0.0
  0
LINE
  5
17F
330
12F
100
AcDbEntity
  8
AM_9
100
AcDbLine
 10
3.77952
 20
-0.1421874999999947
 30
0.0
 11
3.936999999999999
 21
-0.0512663796080126
 31
0.0
  0
LINE
  5
180
330
12F
100
AcDbEntity
  8
AM_9
100
AcDbLine
 10
-3.936999999999999
 20
-0.0512663796080126
 30
0.0
 11
-3.77952
 21
-0.1421874999999947
 31
0.0
  0
LINE
  5
181
330
12F
100
AcDbEntity
  8
AM_9
100
AcDbLine
 10
3.936999999999999
 20
-0.0512663796080126
 30
0.0
 11
-3.936999999999999
 21
-0.0512663796080126
 31
0.0
  0
LINE
  5
182
330
12F
100
AcDbEntity
  8
AM_9
100
AcDbLine
 10
3.77952
 20
-0.1421874999999947
 30
0.0
 11
-3.77952
 21
-0.1421874999999947
 31
0.0
  0
LINE
  5
183
330
12F
100
AcDbEntity
  8
AM_9
100
AcDbLine
 10
3.721374999999999
 20
-1.328125
 30
0.0
 11
-3.721374999999999
 21
-1.328125
 31
0.0
  0
ARC
  5
184
330
12F
100
AcDbEntity
  8
AM_9
100
AcDbCircle
 10
-3.721374999999998
 20
-1.112499999999999
 30
0.0
 40
0.2156250000000011
100
AcDbArc
 50
180.0
 51
270.0
  0
ARC
  5
185
330
12F
100
AcDbEntity
  8
AM_9
100
AcDbCircle
 10
3.721374999999998
 20
-1.112499999999999
 30
0.0
 40
0.2156250000000008
100
AcDbArc
 50
270.0
 51
0.0
  0
LINE
  5
186
330
12F
100
AcDbEntity
  8
AM_9
100
AcDbLine
 10
3.936999999999999
 20
-1.1125
 30
0.0
 11
-3.936999999999999
 21
-1.1125
 31
0.0
  0
LINE
  5
187
330
12F
100
AcDbEntity
  8
AM_7
100
AcDbLine
 10
0.0
 20
3.342187500000001
 30
0.0
 11
0.0
 21
-3.8421875
 31
0.0
  0
LINE
  5
188
330
12F
100
AcDbEntity
  8
AM_4
100
AcDbLine
 10
-2.5
 20
-2.015625
 30
0.0
 11
-2.5
 21
-2.275625
 31
0.0
  0
LINE
  5
189
330
12F
100
AcDbEntity
  8
AM_4
100
AcDbLine
 10
2.5
 20
-2.275625
 30
0.0
 11
2.5
 21
-2.015625
 31
0.0
  0
ENDBLK
  5
132
330
12F
100
AcDbEntity
  8
0
100
AcDbBlockEnd
  0
BLOCK
  5
18C
330
18A
100
AcDbEntity
  8
0
100
AcDbBlockBegin
  2
5_405015E_Inch_0_in_070664_4
 70
     2
 10
0.0
 20
0.0
 30
0.0
  3
5_405015E_Inch_0_in_070664_4
  1

  0
ATTDEF
  5
18E
330
18A
100
AcDbEntity
  8
AM_6
100
AcDbText
 10
5.252590742770462
 20
-1.46052465519188
 30
0.0
 40
0.5
  1
405015E -Inch
100
AcDbAttributeDefinition
  3

  2
NN
 70
     8
280
     0
  0
ATTDEF
  5
18F
330
18A
100
AcDbEntity
  8
AM_6
100
AcDbText
 10
5.252590742770462
 20
-1.96052465519188
 30
0.0
 40
0.5
  1
Grease Fitting
100
AcDbAttributeDefinition
  3

  2
NT
 70
     8
280
     0
  0
ATTDEF
  5
190
330
18A
100
AcDbEntity
  8
AM_6
100
AcDbText
 10
5.252590742770462
 20
-2.46052465519188
 30
0.0
 40
0.5
  1
405015E-Inch
100
AcDbAttributeDefinition
  3

  2
NB
 70
     8
280
     0
  0
ATTDEF
  5
191
330
18A
100
AcDbEntity
  8
AM_6
100
AcDbText
 10
5.252590742770462
 20
-2.96052465519188
 30
0.0
 40
0.5
  1
$MN.-Inch
100
AcDbAttributeDefinition
  3

  2
NBSYN
 70
     8
280
     0
  0
ATTDEF
  5
192
330
18A
100
AcDbEntity
  8
AM_6
100
AcDbText
 10
5.252590742770462
 20
-3.46052465519188
 30
0.0
 40
0.5
  1
405015E
100
AcDbAttributeDefinition
  3

  2
LINA
 70
     8
280
     0
  0
ATTDEF
  5
193
330
18A
100
AcDbEntity
  8
AM_6
100
AcDbText
 10
5.252590742770462
 20
-3.96052465519188
 30
0.0
 40
0.5
  1
405015E
100
AcDbAttributeDefinition
  3

  2
MN
 70
     8
280
     0
  0
ATTDEF
  5
194
330
18A
100
AcDbEntity
  8
AM_6
100
AcDbText
 10
5.252590742770462
 20
-4.46052465519188
 30
0.0
 40
0.5
  1
1/8 x 27PTF
100
AcDbAttributeDefinition
  3

  2
T
 70
     8
280
     0
  0
ATTDEF
  5
195
330
18A
100
AcDbEntity
  8
AM_6
100
AcDbText
 10
5.252590742770462
 20
-4.96052465519188
 30
0.0
 40
0.5
  1
baldor
100
AcDbAttributeDefinition
  3

  2
COMPANY
 70
     8
280
     0
  0
LINE
  5
196
330
18A
100
AcDbEntity
  8
AM_9
100
AcDbLine
 10
-0.1262953713852306
 20
-1.959097592120723
 30
0.0
 11
-0.1262953713852306
 21
-1.888200595119512
 31
0.0
  0
LINE
  5
197
330
18A
100
AcDbEntity
  8
AM_9
100
AcDbLine
 10
0.1262953713852306
 20
-1.959097592120723
 30
0.0
 11
0.1262953713852306
 21
-1.888200595119512
 31
0.0
  0
LWPOLYLINE
  5
198
330
18A
100
AcDbEntity
  8
AM_9
100
AcDbPolyline
 90
        3
 70
     0
 43
0.0
 10
0.1262953713852306
 20
-1.888200595119512
 10
0.0634316146914367
 20
-1.882438863375338
 10
0.0
 20
-1.880347823430895
  0
LWPOLYLINE
  5
199
330
18A
100
AcDbEntity
  8
AM_9
100
AcDbPolyline
 90
        4
 70
     0
 43
0.0
 10
0.0
 20
-1.880347823430895
 10
-0.0483998160558989
 20
-1.881575467023343
 10
-0.0967996321117978
 20
-1.885095731945374
 10
-0.1262953713852306
 20
-1.888200595119512
  0
LWPOLYLINE
  5
19A
330
18A
100
AcDbEntity
  8
AM_9
100
AcDbPolyline
 90
        3
 70
     0
 43
0.0
 10
-0.1262953713852306
 20
-1.888200595119512
 10
-0.1577272497321276
 20
-1.855218058238263
 10
-0.1894430570778459
 20
-1.825660323430896
  0
LWPOLYLINE
  5
19B
330
18A
100
AcDbEntity
  8
AM_9
100
AcDbPolyline
 90
        3
 70
     0
 43
0.0
 10
0.1894430570778459
 20
-1.825660323430896
 10
0.1578692142315383
 20
-1.855076801991665
 10
0.1262953713852306
 20
-1.888200595119512
  0
LWPOLYLINE
  5
19C
330
18A
100
AcDbEntity
  8
AM_9
100
AcDbPolyline
 90
        4
 70
     0
 43
0.0
 10
-0.1020015272510723
 20
-1.961703106436106
 10
-0.0967996321117978
 20
-1.962202455294861
 10
-0.0485424412477544
 20
-1.965715560329406
 10
0.0
 20
-1.966950363809339
  0
LINE
  5
19D
330
18A
100
AcDbEntity
  8
AM_9
100
AcDbLine
 10
-0.1050087569988762
 20
-1.961404646424068
 30
0.0
 11
-0.1020015272510723
 21
-1.961703106436106
 31
0.0
  0
LINE
  5
19E
330
18A
100
AcDbEntity
  8
AM_9
100
AcDbLine
 10
0.101866192704947
 20
-1.961716370963898
 30
0.0
 11
0.1050474083588161
 21
-1.961400764381223
 31
0.0
  0
LWPOLYLINE
  5
19F
330
18A
100
AcDbEntity
  8
AM_9
100
AcDbPolyline
 90
        3
 70
     0
 43
0.0
 10
0.0
 20
-1.966950363809339
 10
0.0631476856926153
 20
-1.96487763524857
 10
0.101866192704947
 20
-1.961716370963898
  0
LWPOLYLINE
  5
1A0
330
18A
100
AcDbEntity
  8
AM_9
100
AcDbPolyline
 90
        3
 70
     0
 43
0.0
 10
0.2525907427704612
 20
-1.778825595119512
 10
0.2211588644235643
 20
-1.800284668512413
 10
0.1894430570778459
 20
-1.825660323430896
  0
LWPOLYLINE
  5
1A1
330
18A
100
AcDbEntity
  8
AM_9
100
AcDbPolyline
 90
        3
 70
     0
 43
0.0
 10
-0.1894430570778459
 20
-1.825660323430896
 10
-0.2210168999241536
 20
-1.800389301991665
 10
-0.2525907427704612
 20
-1.778825595119512
  0
LINE
  5
1A2
330
18A
100
AcDbEntity
  8
AM_9
100
AcDbLine
 10
-0.1321931418159853
 20
-1.4947387579258
 30
0.0
 11
-0.1621706131788416
 21
-1.515936031209302
 31
0.0
  0
LINE
  5
1A3
330
18A
100
AcDbEntity
  8
AM_9
100
AcDbLine
 10
0.1621706131788416
 20
-1.515936031209302
 30
0.0
 11
0.1321931418159853
 21
-1.4947387579258
 31
0.0
  0
LINE
  5
1A4
330
18A
100
AcDbEntity
  8
AM_9
100
AcDbLine
 10
-0.1985852938306408
 20
-1.571480162744451
 30
0.0
 11
-0.2057184028850727
 21
-1.769116622653266
 31
0.0
  0
LINE
  5
1A5
330
18A
100
AcDbEntity
  8
AM_9
100
AcDbLine
 10
0.2057184028850727
 20
-1.769116622653266
 30
0.0
 11
0.1985852938306408
 21
-1.571480162744451
 31
0.0
  0
LINE
  5
1A6
330
18A
100
AcDbEntity
  8
AM_9
100
AcDbLine
 10
0.1017810272422101
 20
-1.961408197595183
 30
0.0
 11
0.105
 21
-1.955105802955656
 31
0.0
  0
LINE
  5
1A7
330
18A
100
AcDbEntity
  8
AM_9
100
AcDbLine
 10
-0.105
 20
-1.955105802955655
 30
0.0
 11
-0.1017810272422101
 21
-1.961408197595183
 31
0.0
  0
ELLIPSE
  5
1A8
330
18A
100
AcDbEntity
  8
AM_9
100
AcDbEllipse
 10
0.0
 20
-1.948508031206706
 30
0.0
 11
-0.1050000000000001
 21
1.285879139104722E-17
 31
0.0
210
0.0
220
0.0
230
1.0
 40
0.4999999999999973
 41
0.0
 42
3.141592653589793
  0
LINE
  5
1A9
330
18A
100
AcDbEntity
  8
AM_9
100
AcDbLine
 10
-0.105
 20
-1.966746260019165
 30
0.0
 11
-0.105
 21
-1.974488793320239
 31
0.0
  0
LINE
  5
1AA
330
18A
100
AcDbEntity
  8
AM_9
100
AcDbLine
 10
0.105
 20
-1.974488793320239
 30
0.0
 11
0.105
 21
-1.966746260019165
 31
0.0
  0
ELLIPSE
  5
1AB
330
18A
100
AcDbEntity
  8
AM_9
100
AcDbEllipse
 10
0.0
 20
-1.974488793320239
 30
0.0
 11
-0.1050000000000002
 21
1.285879139104723E-17
 31
0.0
210
0.0
220
0.0
230
1.0
 40
0.4999999999999992
 41
5.990342535451012
 42
9.717620732497954
  0
LINE
  5
1AC
330
18A
100
AcDbEntity
  8
AM_9
100
AcDbLine
 10
0.0976523208201058
 20
-1.954427531068087
 30
0.0
 11
0.1098343496897826
 21
-1.945640677941238
 31
0.0
  0
LINE
  5
1AD
330
18A
100
AcDbEntity
  8
AM_9
100
AcDbLine
 10
-0.1098343496897826
 20
-1.945640677941238
 30
0.0
 11
-0.0976523208201058
 21
-1.954427531068087
 31
0.0
  0
ELLIPSE
  5
1AE
330
18A
100
AcDbEntity
  8
AM_9
100
AcDbEllipse
 10
0.0000000000000021
 20
-1.920581415335644
 30
0.0
 11
-0.1188200907348953
 21
1.770557339659543E-9
 31
0.0
210
0.0
220
0.0
230
1.0
 40
0.4999999999999897
 41
0.25003292153262
 42
2.891559788924861
  0
ELLIPSE
  5
1AF
330
18A
100
AcDbEntity
  8
AM_9
100
AcDbEllipse
 10
0.0
 20
-1.87343938909731
 30
0.0
 11
-0.1725340532830156
 21
2.112932760969639E-17
 31
0.0
210
0.0
220
0.0
230
1.0
 40
0.4999999999999986
 41
0.6061451401950855
 42
2.535447513394709
  0
ELLIPSE
  5
1B0
330
18A
100
AcDbEntity
  8
AM_9
100
AcDbEllipse
 10
-0.0000000000000014
 20
-1.857575363809342
 30
0.0
 11
-0.2187499999999956
 21
3.259629037943257E-9
 31
0.0
210
0.0
220
0.0
230
1.0
 40
0.4999999999999968
 41
1.06524465094412
 42
2.076348028031467
  0
ELLIPSE
  5
1B1
330
18A
100
AcDbEntity
  8
AM_9
100
AcDbEllipse
 10
0.0000000000067822
 20
-1.857575363798908
 30
0.0
 11
-0.2137500000135601
 21
2.617682533343531E-17
 31
0.0
210
0.0
220
0.0
230
1.0
 40
0.500000000018429
 41
1.042972124173178
 42
2.098620529361793
  0
ELLIPSE
  5
1B2
330
18A
100
AcDbEntity
  8
AM_9
100
AcDbEllipse
 10
0.0
 20
-2.026450317547305
 30
0.0
 11
-0.1350000000000004
 21
1.653273178848932E-17
 31
0.0
210
0.0
220
0.0
230
1.0
 40
0.4999999999999977
 41
0.2354336045415604
 42
2.906159049048233
  0
ELLIPSE
  5
1B3
330
18A
100
AcDbEntity
  8
AM_9
100
AcDbEllipse
 10
0.0000000000000067
 20
-1.541476091428008
 30
0.0
 11
-0.1619028724722623
 21
2.412540820283525E-9
 31
0.0
210
0.0
220
0.0
230
1.0
 40
0.4999999999999824
 41
0.0
 42
6.283185307179586
  0
ELLIPSE
  5
1B4
330
18A
100
AcDbEntity
  8
AM_9
100
AcDbEllipse
 10
-0.0000000000000001
 20
-1.770972823430896
 30
0.0
 11
-0.2187499999999996
 21
3.259629037943317E-9
 31
0.0
210
0.0
220
0.0
230
1.0
 40
0.500000000000003
 41
0.0
 42
6.283185307179586
  0
ELLIPSE
  5
1B5
330
18A
100
AcDbEntity
  8
AM_9
100
AcDbEllipse
 10
-0.0000000000005277
 20
-1.770972823440864
 30
0.0
 11
-0.2057518972235973
 21
2.519734023533736E-17
 31
0.0
210
0.0
220
0.0
230
1.0
 40
0.5000000000003544
 41
0.0
 42
6.283185307179586
  0
ELLIPSE
  5
1B6
330
18A
100
AcDbEntity
  8
AM_9
100
AcDbEllipse
 10
-0.0000000000010459
 20
-1.573272001354588
 30
0.0
 11
-0.1986176267822613
 21
2.959633296945593E-9
 31
0.0
210
0.0
220
0.0
230
1.0
 40
0.5000000000000848
 41
0.0
 42
6.283185307179586
  0
LWPOLYLINE
  5
1B7
330
18A
100
AcDbEntity
  8
AM_4
100
AcDbPolyline
 90
        3
 70
     0
 43
0.0
 10
-0.1894430570778459
 20
-1.91226286380934
 10
-0.1578692142315383
 20
-1.93753388524857
 10
-0.1262953713852306
 20
-1.959097592120723
  0
LINE
  5
1B8
330
18A
100
AcDbEntity
  8
AM_4
100
AcDbLine
 10
-0.1262953713852306
 20
-1.959097592120723
 30
0.0
 11
-0.1050087569988762
 21
-1.961404646424068
 31
0.0
  0
LWPOLYLINE
  5
1B9
330
18A
100
AcDbEntity
  8
AM_4
100
AcDbPolyline
 90
        3
 70
     0
 43
0.0
 10
0.1262953713852306
 20
-1.959097592120723
 10
0.1577272497321276
 20
-1.937638518727822
 10
0.1894430570778459
 20
-1.91226286380934
  0
LINE
  5
1BA
330
18A
100
AcDbEntity
  8
AM_4
100
AcDbLine
 10
0.1050474083588161
 20
-1.961400764381223
 30
0.0
 11
0.1262953713852306
 21
-1.959097592120723
 31
0.0
  0
LWPOLYLINE
  5
1BB
330
18A
100
AcDbEntity
  8
AM_4
100
AcDbPolyline
 90
        3
 70
     0
 43
0.0
 10
-0.2525907427704612
 20
-1.849722592120723
 10
-0.2211588644235643
 20
-1.882705129001972
 10
-0.1894430570778459
 20
-1.91226286380934
  0
LWPOLYLINE
  5
1BC
330
18A
100
AcDbEntity
  8
AM_4
100
AcDbPolyline
 90
        3
 70
     0
 43
0.0
 10
0.1894430570778459
 20
-1.91226286380934
 10
0.2210168999241535
 20
-1.88284638524857
 10
0.2525907427704612
 20
-1.849722592120723
  0
LINE
  5
1BD
330
18A
100
AcDbEntity
  8
AM_4
100
AcDbLine
 10
0.105
 20
-1.955105802955656
 30
0.0
 11
0.1151252948555658
 21
-1.935281589200841
 31
0.0
  0
LINE
  5
1BE
330
18A
100
AcDbEntity
  8
AM_4
100
AcDbLine
 10
-0.1151252948555658
 20
-1.935281589200841
 30
0.0
 11
-0.105
 21
-1.955105802955655
 31
0.0
  0
ELLIPSE
  5
1BF
330
18A
100
AcDbEntity
  8
AM_4
100
AcDbEllipse
 10
0.0000000000000141
 20
-1.920581415335724
 30
0.0
 11
-0.1188200907348834
 21
1.455126437928731E-17
 31
0.0
210
0.0
220
0.0
230
1.0
 40
0.4999999999999144
 41
2.891559760492252
 42
6.533218200277066
  0
ELLIPSE
  5
1C0
330
18A
100
AcDbEntity
  8
AM_4
100
AcDbEllipse
 10
0.0
 20
-1.948508031206705
 30
0.0
 11
-0.1050000000000002
 21
1.285879139104723E-17
 31
0.0
210
0.0
220
0.0
230
1.0
 40
0.4999999999999992
 41
3.141592653589793
 42
6.283185307179586
  0
LINE
  5
1C1
330
18A
100
AcDbEntity
  8
AM_4
100
AcDbLine
 10
-0.105
 20
-1.948508031206706
 30
0.0
 11
-0.105
 21
-1.966746260019165
 31
0.0
  0
LINE
  5
1C2
330
18A
100
AcDbEntity
  8
AM_4
100
AcDbLine
 10
0.105
 20
-1.966746260019165
 30
0.0
 11
0.105
 21
-1.948508031206706
 31
0.0
  0
LINE
  5
1C3
330
18A
100
AcDbEntity
  8
AM_4
100
AcDbLine
 10
0.1098343496897826
 20
-1.945640677941238
 30
0.0
 11
0.1417971541629018
 21
-1.922586023299381
 31
0.0
  0
LINE
  5
1C4
330
18A
100
AcDbEntity
  8
AM_4
100
AcDbLine
 10
-0.1417971541629018
 20
-1.922586023299381
 30
0.0
 11
-0.1098343496897826
 21
-1.945640677941238
 31
0.0
  0
ELLIPSE
  5
1C5
330
18A
100
AcDbEntity
  8
AM_4
100
AcDbEllipse
 10
-0.0000000000000029
 20
-1.873439389097306
 30
0.0
 11
-0.1725340532830183
 21
2.112932760969673E-17
 31
0.0
210
0.0
220
0.0
230
1.0
 40
0.5000000000000073
 41
2.535447513394681
 42
6.889330447374718
  0
LINE
  5
1C6
330
18A
100
AcDbEntity
  8
AM_4
100
AcDbLine
 10
-0.2525907427704612
 20
-1.849722592120723
 30
0.0
 11
-0.2525907427704612
 21
-1.778825595119512
 31
0.0
  0
LWPOLYLINE
  5
1C7
330
18A
100
AcDbEntity
  8
AM_4
100
AcDbPolyline
 90
        3
 70
     0
 43
0.0
 10
-0.1894430570778459
 20
-1.80288786380934
 10
-0.2210168999241536
 20
-1.82815888524857
 10
-0.2525907427704612
 20
-1.849722592120723
  0
LWPOLYLINE
  5
1C8
330
18A
100
AcDbEntity
  8
AM_4
100
AcDbPolyline
 90
        3
 70
     0
 43
0.0
 10
-0.1894430570778459
 20
-1.716285323430895
 10
-0.1578692142315383
 20
-1.691014301991665
 10
-0.1262953713852306
 20
-1.669450595119512
  0
LWPOLYLINE
  5
1C9
330
18A
100
AcDbEntity
  8
AM_4
100
AcDbPolyline
 90
        3
 70
     0
 43
0.0
 10
-0.2525907427704612
 20
-1.778825595119512
 10
-0.2211588644235643
 20
-1.745843058238263
 10
-0.1894430570778459
 20
-1.716285323430895
  0
LWPOLYLINE
  5
1CA
330
18A
100
AcDbEntity
  8
AM_4
100
AcDbPolyline
 90
        3
 70
     0
 43
0.0
 10
-0.1262953713852306
 20
-1.740347592120723
 10
-0.1577272497321276
 20
-1.773330129001972
 10
-0.1894430570778459
 20
-1.80288786380934
  0
LINE
  5
1CB
330
18A
100
AcDbEntity
  8
AM_4
100
AcDbLine
 10
-0.1262953713852306
 20
-1.740347592120723
 30
0.0
 11
-0.1262953713852306
 21
-1.669450595119512
 31
0.0
  0
LWPOLYLINE
  5
1CC
330
18A
100
AcDbEntity
  8
AM_4
100
AcDbPolyline
 90
        4
 70
     0
 43
0.0
 10
0.0
 20
-1.748200363809339
 10
-0.0483998160558989
 20
-1.746972720216891
 10
-0.0967996321117978
 20
-1.743452455294861
 10
-0.1262953713852306
 20
-1.740347592120723
  0
LWPOLYLINE
  5
1CD
330
18A
100
AcDbEntity
  8
AM_4
100
AcDbPolyline
 90
        3
 70
     0
 43
0.0
 10
0.0
 20
-1.661597823430895
 10
0.0631476856926153
 20
-1.663670551991665
 10
0.1262953713852306
 20
-1.669450595119512
  0
LWPOLYLINE
  5
1CE
330
18A
100
AcDbEntity
  8
AM_4
100
AcDbPolyline
 90
        4
 70
     0
 43
0.0
 10
-0.1262953713852306
 20
-1.669450595119512
 10
-0.0967996321117978
 20
-1.666345731945374
 10
-0.0485424412477544
 20
-1.662832626910829
 10
0.0
 20
-1.661597823430895
  0
ELLIPSE
  5
1CF
330
18A
100
AcDbEntity
  8
AM_4
100
AcDbEllipse
 10
0.0
 20
-1.85757536380934
 30
0.0
 11
-0.2187499999999993
 21
2.678914873134826E-17
 31
0.0
210
0.0
220
0.0
230
1.0
 40
0.4999999999999966
 41
2.076348015338561
 42
7.348429945430819
  0
LWPOLYLINE
  5
1D0
330
18A
100
AcDbEntity
  8
AM_4
100
AcDbPolyline
 90
        3
 70
     0
 43
0.0
 10
0.1262953713852306
 20
-1.740347592120723
 10
0.0634316146914367
 20
-1.746109323864897
 10
0.0
 20
-1.748200363809339
  0
LINE
  5
1D1
330
18A
100
AcDbEntity
  8
AM_4
100
AcDbLine
 10
0.1262953713852306
 20
-1.740347592120723
 30
0.0
 11
0.1262953713852306
 21
-1.669450595119512
 31
0.0
  0
LWPOLYLINE
  5
1D2
330
18A
100
AcDbEntity
  8
AM_4
100
AcDbPolyline
 90
        3
 70
     0
 43
0.0
 10
0.1894430570778459
 20
-1.80288786380934
 10
0.1578692142315383
 20
-1.77347138524857
 10
0.1262953713852306
 20
-1.740347592120723
  0
LWPOLYLINE
  5
1D3
330
18A
100
AcDbEntity
  8
AM_4
100
AcDbPolyline
 90
        3
 70
     0
 43
0.0
 10
0.2525907427704612
 20
-1.849722592120723
 10
0.2211588644235643
 20
-1.828263518727822
 10
0.1894430570778459
 20
-1.80288786380934
  0
LINE
  5
1D4
330
18A
100
AcDbEntity
  8
AM_4
100
AcDbLine
 10
0.2525907427704612
 20
-1.849722592120723
 30
0.0
 11
0.2525907427704612
 21
-1.778825595119512
 31
0.0
  0
LWPOLYLINE
  5
1D5
330
18A
100
AcDbEntity
  8
AM_4
100
AcDbPolyline
 90
        3
 70
     0
 43
0.0
 10
0.1894430570778459
 20
-1.716285323430895
 10
0.2210168999241536
 20
-1.745701801991665
 10
0.2525907427704612
 20
-1.778825595119512
  0
LWPOLYLINE
  5
1D6
330
18A
100
AcDbEntity
  8
AM_4
100
AcDbPolyline
 90
        3
 70
     0
 43
0.0
 10
0.1262953713852306
 20
-1.669450595119512
 10
0.1577272497321276
 20
-1.690909668512413
 10
0.1894430570778459
 20
-1.716285323430895
  0
ELLIPSE
  5
1D7
330
18A
100
AcDbEntity
  8
AM_4
100
AcDbEllipse
 10
0.000000000000002
 20
-1.857575363809342
 30
0.0
 11
-0.2137499999999982
 21
2.617682533177445E-17
 31
0.0
210
0.0
220
0.0
230
1.0
 40
0.4999999999999941
 41
2.098620529422327
 42
7.326157431347038
  0
LINE
  5
1D8
330
18A
100
AcDbEntity
  8
AM_4
100
AcDbLine
 10
-0.1005298463144155
 20
-1.959333348754011
 30
0.0
 11
-0.1292526595471057
 21
-2.006964745962155
 31
0.0
  0
LINE
  5
1D9
330
18A
100
AcDbEntity
  8
AM_4
100
AcDbLine
 10
0.1292526595471057
 20
-2.006964745962155
 30
0.0
 11
0.1005298463144155
 21
-1.959333348754011
 31
0.0
  0
ELLIPSE
  5
1DA
330
18A
100
AcDbEntity
  8
AM_4
100
AcDbEllipse
 10
0.0
 20
-1.974488793320239
 30
0.0
 11
-0.105
 21
1.285879139104720E-17
 31
0.0
210
0.0
220
0.0
230
1.0
 40
0.5000000000000107
 41
3.434435425318375
 42
5.990342535451005
  0
LINE
  5
1DB
330
18A
100
AcDbEntity
  8
AM_4
100
AcDbLine
 10
0.0998453562378797
 20
-2.107707912291258
 30
0.0
 11
0.1312757938985219
 21
-2.042195681438883
 31
0.0
  0
LINE
  5
1DC
330
18A
100
AcDbEntity
  8
AM_4
100
AcDbLine
 10
-0.1312757938985219
 20
-2.042195681438883
 30
0.0
 11
-0.0998453562378797
 21
-2.107707912291258
 31
0.0
  0
ELLIPSE
  5
1DD
330
18A
100
AcDbEntity
  8
AM_4
100
AcDbEllipse
 10
-0.0000000000000076
 20
-2.026450317547301
 30
0.0
 11
-0.1350000000000076
 21
1.653273178849020E-17
 31
0.0
210
0.0
220
0.0
230
1.0
 40
0.5000000000000039
 41
2.906159049048198
 42
6.518618911721208
  0
ELLIPSE
  5
1DE
330
18A
100
AcDbEntity
  8
AM_4
100
AcDbEllipse
 10
-0.0000000000000001
 20
-2.09573234985006
 30
0.0
 11
-0.1026779019331872
 21
1.530019980326921E-9
 31
0.0
210
0.0
220
0.0
230
1.0
 40
0.5000000000000021
 41
0.0
 42
6.283185307179586
  0
ENDBLK
  5
18D
330
18A
100
AcDbEntity
  8
0
100
AcDbBlockEnd
  0
BLOCK
  5
1E1
330
1DF
100
AcDbEntity
  8
0
100
AcDbBlockBegin
  2
6_070664H_0_in_070664_4
 70
     2
 10
0.0
 20
0.0
 30
0.0
  3
6_070664H_0_in_070664_4
  1

  0
ATTDEF
  5
1E3
330
1DF
100
AcDbEntity
  8
AM_6
100
AcDbText
 10
11.78906249999999
 20
1.984375
 30
0.0
 40
0.5
  1
FC-S2 -(Contact Seal)-Housing
100
AcDbAttributeDefinition
  3

  2
NN
 70
     8
280
     0
  0
ATTDEF
  5
1E4
330
1DF
100
AcDbEntity
  8
AM_6
100
AcDbText
 10
11.78906249999999
 20
1.484375
 30
0.0
 40
0.5
  1
S-2000 Piloted Flange Bearing -Inch
100
AcDbAttributeDefinition
  3

  2
NT
 70
     8
280
     0
  0
ATTDEF
  5
1E5
330
1DF
100
AcDbEntity
  8
AM_6
100
AcDbText
 10
11.78906249999999
 20
0.984375
 30
0.0
 40
0.5
  1
070664H
100
AcDbAttributeDefinition
  3

  2
NB
 70
     8
280
     0
  0
ATTDEF
  5
1E6
330
1DF
100
AcDbEntity
  8
AM_6
100
AcDbText
 10
11.78906249999999
 20
0.484375
 30
0.0
 40
0.5
  1
$PN.H
100
AcDbAttributeDefinition
  3

  2
NBSYN
 70
     8
280
     0
  0
ATTDEF
  5
1E7
330
1DF
100
AcDbEntity
  8
AM_6
100
AcDbText
 10
11.78906249999999
 20
-0.015625
 30
0.0
 40
0.5
  1
070664
100
AcDbAttributeDefinition
  3

  2
LINA
 70
     8
280
     0
  0
ATTDEF
  5
1E8
330
1DF
100
AcDbEntity
  8
AM_6
100
AcDbText
 10
11.78906249999999
 20
-0.515625
 30
0.0
 40
0.5
  1
4-7/16
100
AcDbAttributeDefinition
  3

  2
SS
 70
     8
280
     0
  0
ATTDEF
  5
1E9
330
1DF
100
AcDbEntity
  8
AM_6
100
AcDbText
 10
11.78906249999999
 20
-1.015625
 30
0.0
 40
0.5
  1
070664
100
AcDbAttributeDefinition
  3

  2
PN
 70
     8
280
     0
  0
ATTDEF
  5
1EA
330
1DF
100
AcDbEntity
  8
AM_6
100
AcDbText
 10
11.78906249999999
 20
-1.515625
 30
0.0
 40
0.5
  1
FC-S2-407R
100
AcDbAttributeDefinition
  3

  2
DESCRIPTION
 70
     8
280
     0
  0
ATTDEF
  5
1EB
330
1DF
100
AcDbEntity
  8
AM_6
100
AcDbText
 10
11.78906249999999
 20
-2.015625
 30
0.0
 40
0.5
  1
Non-Expansion Type
100
AcDbAttributeDefinition
  3

  2
EF
 70
     8
280
     0
  0
ATTDEF
  5
1EC
330
1DF
100
AcDbEntity
  8
AM_6
100
AcDbText
 10
11.78906249999999
 20
-2.515625
 30
0.0
 40
0.5
  1
6-17/32
100
AcDbAttributeDefinition
  3

  2
A
 70
     8
280
     0
  0
ATTDEF
  5
1ED
330
1DF
100
AcDbEntity
  8
AM_6
100
AcDbText
 10
11.78906249999999
 20
-3.015625
 30
0.0
 40
0.5
  1
13-37/64
100
AcDbAttributeDefinition
  3

  2
B
 70
     8
280
     0
  0
ATTDEF
  5
1EE
330
1DF
100
AcDbEntity
  8
AM_6
100
AcDbText
 10
11.78906249999999
 20
-3.515625
 30
0.0
 40
0.5
  1
4
100
AcDbAttributeDefinition
  3

  2
C
 70
     8
280
     0
  0
ATTDEF
  5
1EF
330
1DF
100
AcDbEntity
  8
AM_6
100
AcDbText
 10
11.78906249999999
 20
-4.015625
 30
0.0
 40
0.5
  1
11-3/4
100
AcDbAttributeDefinition
  3

  2
DD
 70
     8
280
     0
  0
ATTDEF
  5
1F0
330
1DF
100
AcDbEntity
  8
AM_6
100
AcDbText
 10
11.78906249999999
 20
-4.515625
 30
0.0
 40
0.5
  1
1-29/64
100
AcDbAttributeDefinition
  3

  2
E
 70
     8
280
     0
  0
ATTDEF
  5
1F1
330
1DF
100
AcDbEntity
  8
AM_6
100
AcDbText
 10
11.78906249999999
 20
-5.015625
 30
0.0
 40
0.5
  1
3/4
100
AcDbAttributeDefinition
  3

  2
F
 70
     8
280
     0
  0
ATTDEF
  5
1F2
330
1DF
100
AcDbEntity
  8
AM_6
100
AcDbText
 10
11.78906249999999
 20
-5.515625
 30
0.0
 40
0.5
  1
3-17/32
100
AcDbAttributeDefinition
  3

  2
G
 70
     8
280
     0
  0
ATTDEF
  5
1F3
330
1DF
100
AcDbEntity
  8
AM_6
100
AcDbText
 10
11.78906249999999
 20
-6.015625
 30
0.0
 40
0.5
  1
1
100
AcDbAttributeDefinition
  3

  2
H
 70
     8
280
     0
  0
ATTDEF
  5
1F4
330
1DF
100
AcDbEntity
  8
AM_6
100
AcDbText
 10
11.78906249999999
 20
-6.515625
 30
0.0
 40
0.5
  1
10.250
100
AcDbAttributeDefinition
  3

  2
K
 70
     8
280
     0
  0
ATTDEF
  5
1F5
330
1DF
100
AcDbEntity
  8
AM_6
100
AcDbText
 10
11.78906249999999
 20
-7.015625
 30
0.0
 40
0.5
  1
6-29/64
100
AcDbAttributeDefinition
  3

  2
L
 70
     8
280
     0
  0
ATTDEF
  5
1F6
330
1DF
100
AcDbEntity
  8
AM_6
100
AcDbText
 10
11.78906249999999
 20
-7.515625
 30
0.0
 40
0.5
  1
3/4-10
100
AcDbAttributeDefinition
  3

  2
M
 70
     8
280
     0
  0
ATTDEF
  5
1F7
330
1DF
100
AcDbEntity
  8
AM_6
100
AcDbText
 10
11.78906249999999
 20
-8.015625
 30
0.0
 40
0.5
  1
0.7500
100
AcDbAttributeDefinition
  3

  2
MNDM
 70
     8
280
     0
  0
ATTDEF
  5
1F8
330
1DF
100
AcDbEntity
  8
AM_6
100
AcDbText
 10
11.78906249999999
 20
-8.515625
 30
0.0
 40
0.5
  1
0.6417
100
AcDbAttributeDefinition
  3

  2
MKDM
 70
     8
280
     0
  0
ATTDEF
  5
1F9
330
1DF
100
AcDbEntity
  8
AM_6
100
AcDbText
 10
11.78906249999999
 20
-9.015625
 30
0.0
 40
0.5
  1
5-1/2
100
AcDbAttributeDefinition
  3

  2
N
 70
     8
280
     0
  0
ATTDEF
  5
1FA
330
1DF
100
AcDbEntity
  8
AM_6
100
AcDbText
 10
11.78906249999999
 20
-9.515625
 30
0.0
 40
0.5
  1
5.500000
100
AcDbAttributeDefinition
  3

  2
N1
 70
     8
280
     0
  0
ATTDEF
  5
1FB
330
1DF
100
AcDbEntity
  8
AM_6
100
AcDbText
 10
11.78906249999999
 20
-10.015625
 30
0.0
 40
0.5
  1
3
100
AcDbAttributeDefinition
  3

  2
P
 70
     8
280
     0
  0
ATTDEF
  5
1FC
330
1DF
100
AcDbEntity
  8
AM_6
100
AcDbText
 10
11.78906249999999
 20
-10.515625
 30
0.0
 40
0.5
  1
1-63/64
100
AcDbAttributeDefinition
  3

  2
Q
 70
     8
280
     0
  0
ATTDEF
  5
1FD
330
1DF
100
AcDbEntity
  8
AM_6
100
AcDbText
 10
11.78906249999999
 20
-11.015625
 30
0.0
 40
0.5
  1
1.984375
100
AcDbAttributeDefinition
  3

  2
Q1
 70
     8
280
     0
  0
ATTDEF
  5
1FE
330
1DF
100
AcDbEntity
  8
AM_6
100
AcDbText
 10
11.78906249999999
 20
-11.515625
 30
0.0
 40
0.5
  1
3/8
100
AcDbAttributeDefinition
  3

  2
X
 70
     8
280
     0
  0
ATTDEF
  5
1FF
330
1DF
100
AcDbEntity
  8
AM_6
100
AcDbText
 10
11.78906249999999
 20
-12.015625
 30
0.0
 40
0.5
  1
0.036
100
AcDbAttributeDefinition
  3

  2
Y
 70
     8
280
     0
  0
ATTDEF
  5
200
330
1DF
100
AcDbEntity
  8
AM_6
100
AcDbText
 10
11.78906249999999
 20
-12.515625
 30
0.0
 40
0.5
  1
5
100
AcDbAttributeDefinition
  3

  2
Z
 70
     8
280
     0
  0
ATTDEF
  5
201
330
1DF
100
AcDbEntity
  8
AM_6
100
AcDbText
 10
11.78906249999999
 20
-13.015625
 30
0.0
 40
0.5
  1
baldor
100
AcDbAttributeDefinition
  3

  2
COMPANY
 70
     8
280
     0
  0
LINE
  5
202
330
1DF
100
AcDbEntity
  8
AM_9
100
AcDbLine
 10
-5.408749247233578
 20
-0.0541500000000014
 30
0.0
 11
-5.408749247233576
 21
-0.8458500000000013
 31
0.0
  0
LINE
  5
203
330
1DF
100
AcDbEntity
  8
AM_9
100
AcDbLine
 10
-4.767049247233575
 20
-0.8458500000000002
 30
0.0
 11
-4.767049247233577
 21
-0.0541500000000003
 31
0.0
  0
LINE
  5
204
330
1DF
100
AcDbEntity
  8
AM_9
100
AcDbLine
 10
-4.767049247233577
 20
-0.0541500000000006
 30
0.0
 11
-5.408749247233578
 21
-0.0541500000000011
 31
0.0
  0
LINE
  5
205
330
1DF
100
AcDbEntity
  8
AM_9
100
AcDbLine
 10
-4.767049247233577
 20
-0.0541500000000006
 30
0.0
 11
-4.712899247233577
 21
-0.0000000000000003
 31
0.0
  0
LINE
  5
206
330
1DF
100
AcDbEntity
  8
AM_9
100
AcDbLine
 10
-5.462899247233577
 20
-0.0000000000000014
 30
0.0
 11
-5.408749247233578
 21
-0.0541500000000011
 31
0.0
  0
LINE
  5
207
330
1DF
100
AcDbEntity
  8
AM_9
100
AcDbLine
 10
-4.767049247233575
 20
-0.8458500000000002
 30
0.0
 11
-5.408749247233576
 21
-0.8458500000000013
 31
0.0
  0
LINE
  5
208
330
1DF
100
AcDbEntity
  8
AM_9
100
AcDbLine
 10
-5.408749247233576
 20
-0.8458500000000013
 30
0.0
 11
-5.462899247233576
 21
-0.900000000000001
 31
0.0
  0
LINE
  5
209
330
1DF
100
AcDbEntity
  8
AM_9
100
AcDbLine
 10
-4.712899247233576
 20
-0.8999999999999999
 30
0.0
 11
-4.767049247233575
 21
-0.8458500000000002
 31
0.0
  0
LINE
  5
20A
330
1DF
100
AcDbEntity
  8
AM_9
100
AcDbLine
 10
5.499999999999999
 20
0.0
 30
0.0
 11
5.499999999999999
 21
-1.0
 31
0.0
  0
LINE
  5
20B
330
1DF
100
AcDbEntity
  8
AM_9
100
AcDbLine
 10
6.249999999999999
 20
-1.0
 30
0.0
 11
6.249999999999999
 21
0.0
 31
0.0
  0
LINE
  5
20C
330
1DF
100
AcDbEntity
  8
AM_9
100
AcDbLine
 10
-6.25
 20
0.0
 30
0.0
 11
-6.25
 21
-1.0
 31
0.0
  0
LINE
  5
20D
330
1DF
100
AcDbEntity
  8
AM_9
100
AcDbLine
 10
-5.5
 20
-1.0
 30
0.0
 11
-5.5
 21
0.0
 31
0.0
  0
LINE
  5
20E
330
1DF
100
AcDbEntity
  8
AM_9
100
AcDbLine
 10
-4.862200118613178
 20
-2.015625
 30
0.0
 11
-4.862200118613178
 21
-1.0
 31
0.0
  0
LINE
  5
20F
330
1DF
100
AcDbEntity
  8
AM_9
100
AcDbLine
 10
-4.862200118613178
 20
-1.0
 30
0.0
 11
-4.932443212120458
 21
-1.0
 31
0.0
  0
LINE
  5
210
330
1DF
100
AcDbEntity
  8
AM_9
100
AcDbLine
 10
4.932443212120458
 20
-1.0
 30
0.0
 11
4.862200118613173
 21
-1.0
 31
0.0
  0
LINE
  5
211
330
1DF
100
AcDbEntity
  8
AM_9
100
AcDbLine
 10
4.862200118613173
 20
-1.0
 30
0.0
 11
4.862200118613173
 21
-2.015625
 31
0.0
  0
LINE
  5
212
330
1DF
100
AcDbEntity
  8
AM_9
100
AcDbLine
 10
5.408749247233576
 20
-0.845850000000003
 30
0.0
 11
5.408749247233578
 21
-0.0541500000000014
 31
0.0
  0
LINE
  5
213
330
1DF
100
AcDbEntity
  8
AM_9
100
AcDbLine
 10
4.767049247233577
 20
-0.0541500000000008
 30
0.0
 11
4.767049247233575
 21
-0.8458500000000019
 31
0.0
  0
LINE
  5
214
330
1DF
100
AcDbEntity
  8
AM_9
100
AcDbLine
 10
4.767049247233575
 20
-0.8458500000000019
 30
0.0
 11
5.408749247233576
 21
-0.845850000000003
 31
0.0
  0
LINE
  5
215
330
1DF
100
AcDbEntity
  8
AM_9
100
AcDbLine
 10
4.767049247233575
 20
-0.8458500000000019
 30
0.0
 11
4.712899247233576
 21
-0.9000000000000016
 31
0.0
  0
LINE
  5
216
330
1DF
100
AcDbEntity
  8
AM_9
100
AcDbLine
 10
5.462899247233576
 20
-0.9000000000000027
 30
0.0
 11
5.408749247233576
 21
-0.845850000000003
 31
0.0
  0
LINE
  5
217
330
1DF
100
AcDbEntity
  8
AM_9
100
AcDbLine
 10
4.767049247233577
 20
-0.0541500000000008
 30
0.0
 11
5.408749247233578
 21
-0.0541500000000014
 31
0.0
  0
LINE
  5
218
330
1DF
100
AcDbEntity
  8
AM_9
100
AcDbLine
 10
5.408749247233578
 20
-0.0541500000000014
 30
0.0
 11
5.462899247233577
 21
-0.0000000000000022
 31
0.0
  0
LINE
  5
219
330
1DF
100
AcDbEntity
  8
AM_9
100
AcDbLine
 10
4.712899247233577
 20
-0.0000000000000011
 30
0.0
 11
4.767049247233577
 21
-0.0541500000000008
 31
0.0
  0
LINE
  5
21A
330
1DF
100
AcDbEntity
  8
AM_9
100
AcDbLine
 10
3.936999999999999
 20
-1.626151315789473
 30
0.0
 11
3.936999999999999
 21
1.984375
 31
0.0
  0
LINE
  5
21B
330
1DF
100
AcDbEntity
  8
AM_9
100
AcDbLine
 10
-3.936999999999999
 20
1.984375
 30
0.0
 11
-3.936999999999999
 21
-1.626151315789473
 31
0.0
  0
LINE
  5
21C
330
1DF
100
AcDbEntity
  8
AM_9
100
AcDbLine
 10
-3.587661752873794
 20
-0.8999999999999999
 30
0.0
 11
-3.587661752873794
 21
-1.0
 31
0.0
  0
LINE
  5
21D
330
1DF
100
AcDbEntity
  8
AM_9
100
AcDbLine
 10
-3.56504648566851
 20
-1.0
 30
0.0
 11
-3.56504648566851
 21
-0.8999999999999999
 31
0.0
  0
LINE
  5
21E
330
1DF
100
AcDbEntity
  8
AM_9
100
AcDbLine
 10
-3.56504648566851
 20
-0.8999999999999999
 30
0.0
 11
-4.110801923390562
 21
-0.8999999999999995
 31
0.0
  0
LINE
  5
21F
330
1DF
100
AcDbEntity
  8
AM_9
100
AcDbLine
 10
3.587661752873795
 20
-0.8999999999999999
 30
0.0
 11
3.587661752873795
 21
-1.0
 31
0.0
  0
LINE
  5
220
330
1DF
100
AcDbEntity
  8
AM_9
100
AcDbLine
 10
4.11080192339056
 20
-0.8999999999999995
 30
0.0
 11
3.565046485668511
 21
-0.8999999999999999
 31
0.0
  0
LINE
  5
221
330
1DF
100
AcDbEntity
  8
AM_9
100
AcDbLine
 10
3.565046485668511
 20
-0.8999999999999999
 30
0.0
 11
3.565046485668511
 21
-1.0
 31
0.0
  0
LINE
  5
222
330
1DF
100
AcDbEntity
  8
AM_9
100
AcDbLine
 10
-3.936999999999999
 20
-1.626151315789473
 30
0.0
 11
3.936999999999999
 21
-1.626151315789473
 31
0.0
  0
LINE
  5
223
330
1DF
100
AcDbEntity
  8
AM_9
100
AcDbLine
 10
-3.936999999999999
 20
-1.626151315789473
 30
0.0
 11
-4.078756828082626
 21
-2.015625
 31
0.0
  0
LINE
  5
224
330
1DF
100
AcDbEntity
  8
AM_9
100
AcDbLine
 10
4.078756828082626
 20
-2.015625
 30
0.0
 11
3.936999999999999
 21
-1.626151315789473
 31
0.0
  0
LINE
  5
225
330
1DF
100
AcDbEntity
  8
AM_9
100
AcDbLine
 10
-3.671406952554749
 20
-0.8999999999999999
 30
0.0
 11
-3.671406952554749
 21
-1.0
 31
0.0
  0
LINE
  5
226
330
1DF
100
AcDbEntity
  8
AM_9
100
AcDbLine
 10
3.671406952554751
 20
-0.8999999999999999
 30
0.0
 11
3.671406952554751
 21
-1.0
 31
0.0
  0
LINE
  5
227
330
1DF
100
AcDbEntity
  8
AM_9
100
AcDbLine
 10
2.562500000000002
 20
0.0000000000000003
 30
0.0
 11
2.562500000000002
 21
-0.9999999999999994
 31
0.0
  0
LINE
  5
228
330
1DF
100
AcDbEntity
  8
AM_9
100
AcDbLine
 10
3.312500000000002
 20
-0.9999999999999994
 30
0.0
 11
3.312500000000002
 21
0.0000000000000003
 31
0.0
  0
LINE
  5
229
330
1DF
100
AcDbEntity
  8
AM_9
100
AcDbLine
 10
-3.312499999999999
 20
0.0000000000000003
 30
0.0
 11
-3.312499999999999
 21
-0.9999999999999994
 31
0.0
  0
LINE
  5
22A
330
1DF
100
AcDbEntity
  8
AM_9
100
AcDbLine
 10
-2.5625
 20
-0.9999999999999994
 30
0.0
 11
-2.5625
 21
0.0000000000000003
 31
0.0
  0
LINE
  5
22B
330
1DF
100
AcDbEntity
  8
AM_9
100
AcDbLine
 10
0.1332525797123643
 20
-2.015625
 30
0.0
 11
-0.1332525797123643
 21
-2.015625
 31
0.0
  0
LINE
  5
22C
330
1DF
100
AcDbEntity
  8
AM_9
100
AcDbLine
 10
0.2840673064045182
 20
-0.0000000000000005
 30
0.0
 11
0.2840673064045215
 21
-0.9000000000000005
 31
0.0
  0
LINE
  5
22D
330
1DF
100
AcDbEntity
  8
AM_9
100
AcDbLine
 10
-0.2840673064045355
 20
-0.0000000000000005
 30
0.0
 11
-0.2840673064045355
 21
-0.9000000000000005
 31
0.0
  0
LINE
  5
22E
330
1DF
100
AcDbEntity
  8
AM_5
100
AcDbLine
 10
-5.275399247233575
 20
-0.0000000000000019
 30
0.0
 11
-5.275399247233575
 21
-0.8999999999999999
 31
0.0
  0
LINE
  5
22F
330
1DF
100
AcDbEntity
  8
AM_5
100
AcDbLine
 10
-4.900399247233576
 20
-0.0000000000000003
 30
0.0
 11
-4.900399247233575
 21
-0.8999999999999999
 31
0.0
  0
LINE
  5
230
330
1DF
100
AcDbEntity
  8
AM_5
100
AcDbLine
 10
5.275399247233577
 20
0.0000000000000003
 30
0.0
 11
5.275399247233576
 21
-0.8999999999999999
 31
0.0
  0
LINE
  5
231
330
1DF
100
AcDbEntity
  8
AM_5
100
AcDbLine
 10
4.900399247233577
 20
0.0000000000000003
 30
0.0
 11
4.900399247233576
 21
-0.8999999999999999
 31
0.0
  0
LINE
  5
232
330
1DF
100
AcDbEntity
  8
AM_7
100
AcDbLine
 10
5.874999999999999
 20
-1.05
 30
0.0
 11
5.874999999999999
 21
0.05
 31
0.0
  0
LINE
  5
233
330
1DF
100
AcDbEntity
  8
AM_7
100
AcDbLine
 10
2.937499999999998
 20
-1.05
 30
0.0
 11
2.937499999999998
 21
0.0499999999999997
 31
0.0
  0
LINE
  5
234
330
1DF
100
AcDbEntity
  8
AM_7
100
AcDbLine
 10
-2.937500000000002
 20
-1.05
 30
0.0
 11
-2.937500000000002
 21
0.0499999999999997
 31
0.0
  0
LINE
  5
235
330
1DF
100
AcDbEntity
  8
AM_7
100
AcDbLine
 10
-5.875
 20
-1.05
 30
0.0
 11
-5.875
 21
0.05
 31
0.0
  0
LINE
  5
236
330
1DF
100
AcDbEntity
  8
AM_7
100
AcDbLine
 10
-5.087899247233576
 20
-0.9450000000000013
 30
0.0
 11
-5.087899247233577
 21
0.0449999999999993
 31
0.0
  0
LINE
  5
237
330
1DF
100
AcDbEntity
  8
AM_7
100
AcDbLine
 10
5.087899247233576
 20
-0.9450000000000026
 30
0.0
 11
5.087899247233577
 21
0.0449999999999983
 31
0.0
  0
LINE
  5
238
330
1DF
100
AcDbEntity
  8
AM_4
100
AcDbLine
 10
4.932443212120458
 20
-1.0
 30
0.0
 11
6.789062499999991
 21
-1.0
 31
0.0
  0
LINE
  5
239
330
1DF
100
AcDbEntity
  8
AM_4
100
AcDbLine
 10
5.228235624431001
 20
-0.8999999999999999
 30
0.0
 11
5.228235624431001
 21
-1.0
 31
0.0
  0
LINE
  5
23A
330
1DF
100
AcDbEntity
  8
AM_4
100
AcDbLine
 10
-5.228235624431002
 20
-0.8999999999999999
 30
0.0
 11
-5.228235624431002
 21
-1.0
 31
0.0
  0
LINE
  5
23B
330
1DF
100
AcDbEntity
  8
AM_4
100
AcDbLine
 10
-4.932443212120458
 20
-0.8999999999999999
 30
0.0
 11
-4.932443212120458
 21
-1.0
 31
0.0
  0
LINE
  5
23C
330
1DF
100
AcDbEntity
  8
AM_4
100
AcDbLine
 10
-5.085465948541209
 20
-2.015625
 30
0.0
 11
-5.085465948541209
 21
-1.0
 31
0.0
  0
LINE
  5
23D
330
1DF
100
AcDbEntity
  8
AM_4
100
AcDbLine
 10
5.085465948541208
 20
-2.015625
 30
0.0
 11
5.085465948541208
 21
-1.0
 31
0.0
  0
LINE
  5
23E
330
1DF
100
AcDbEntity
  8
AM_4
100
AcDbLine
 10
4.932443212120458
 20
-0.8999999999999999
 30
0.0
 11
4.932443212120458
 21
-1.0
 31
0.0
  0
LINE
  5
23F
330
1DF
100
AcDbEntity
  8
AM_4
100
AcDbLine
 10
3.092956396773586
 20
-2.015625
 30
0.0
 11
3.092956396773586
 21
-1.0
 31
0.0
  0
LINE
  5
240
330
1DF
100
AcDbEntity
  8
AM_4
100
AcDbLine
 10
-3.09295639677359
 20
-2.015625
 30
0.0
 11
-3.09295639677359
 21
-1.0
 31
0.0
  0
LINE
  5
241
330
1DF
100
AcDbEntity
  8
AM_4
100
AcDbLine
 10
4.88095238095238
 20
1.984375
 30
0.0
 11
-4.88095238095238
 21
1.984375
 31
0.0
  0
LINE
  5
242
330
1DF
100
AcDbEntity
  8
AM_4
100
AcDbLine
 10
4.88095238095238
 20
1.453125
 30
0.0
 11
4.88095238095238
 21
1.984375
 31
0.0
  0
LINE
  5
243
330
1DF
100
AcDbEntity
  8
AM_4
100
AcDbLine
 10
-4.88095238095238
 20
1.984375
 30
0.0
 11
-4.88095238095238
 21
1.453125
 31
0.0
  0
LINE
  5
244
330
1DF
100
AcDbEntity
  8
AM_4
100
AcDbLine
 10
5.125
 20
1.453125
 30
0.0
 11
-5.125
 21
1.453125
 31
0.0
  0
LINE
  5
245
330
1DF
100
AcDbEntity
  8
AM_4
100
AcDbLine
 10
5.125
 20
0.0
 30
0.0
 11
5.125
 21
1.453125
 31
0.0
  0
LINE
  5
246
330
1DF
100
AcDbEntity
  8
AM_4
100
AcDbLine
 10
-5.125
 20
1.453125
 30
0.0
 11
-5.125
 21
0.0
 31
0.0
  0
LINE
  5
247
330
1DF
100
AcDbEntity
  8
AM_4
100
AcDbLine
 10
1.261036284581778
 20
-0.8999999999999995
 30
0.0
 11
1.261036284581778
 21
-0.9999999999999994
 31
0.0
  0
LINE
  5
248
330
1DF
100
AcDbEntity
  8
AM_4
100
AcDbLine
 10
-1.26103625956571
 20
-0.8999999999999995
 30
0.0
 11
-1.26103625956571
 21
-0.9999999999999994
 31
0.0
  0
LINE
  5
249
330
1DF
100
AcDbEntity
  8
AM_4
100
AcDbLine
 10
-1.992509551767623
 20
-2.015625
 30
0.0
 11
-1.992509551767622
 21
-0.9999999999999994
 31
0.0
  0
LINE
  5
24A
330
1DF
100
AcDbEntity
  8
AM_4
100
AcDbLine
 10
1.992509551767621
 20
-2.015625
 30
0.0
 11
1.992509551767621
 21
-0.9999999999999994
 31
0.0
  0
LINE
  5
24B
330
1DF
100
AcDbEntity
  8
AM_4
100
AcDbLine
 10
0.5
 20
-0.9999999999999994
 30
0.0
 11
0.5
 21
-2.015625
 31
0.0
  0
LINE
  5
24C
330
1DF
100
AcDbEntity
  8
AM_4
100
AcDbLine
 10
-0.5
 20
-0.9999999999999994
 30
0.0
 11
-0.5
 21
-2.015625
 31
0.0
  0
LINE
  5
24D
330
1DF
100
AcDbEntity
  8
AM_4
100
AcDbLine
 10
-0.1332525797123643
 20
-2.015625
 30
0.0
 11
-5.085465948541209
 21
-2.015625
 31
0.0
  0
LINE
  5
24E
330
1DF
100
AcDbEntity
  8
AM_4
100
AcDbLine
 10
5.085465948541208
 20
-2.015625
 30
0.0
 11
0.1332525797123643
 21
-2.015625
 31
0.0
  0
LINE
  5
24F
330
1DF
100
AcDbEntity
  8
AM_4
100
AcDbLine
 10
-0.5
 20
-0.9999999999999994
 30
0.0
 11
0.5
 21
-0.9999999999999994
 31
0.0
  0
LINE
  5
250
330
1DF
100
AcDbEntity
  8
AM_4
100
AcDbLine
 10
0.5
 20
-1.474359122634725
 30
0.0
 11
-0.5
 21
-1.474359122634725
 31
0.0
  0
LINE
  5
251
330
1DF
100
AcDbEntity
  8
AM_4
100
AcDbLine
 10
1.640573871557206
 20
-0.8999999999999995
 30
0.0
 11
1.640573871557206
 21
-0.9999999999999994
 31
0.0
  0
LINE
  5
252
330
1DF
100
AcDbEntity
  8
AM_4
100
AcDbLine
 10
-1.640573871557206
 20
-0.8999999999999995
 30
0.0
 11
-1.640573871557206
 21
-0.9999999999999994
 31
0.0
  0
LINE
  5
253
330
1DF
100
AcDbEntity
  8
AM_4
100
AcDbLine
 10
-2.623755787299779
 20
-0.8999999999999995
 30
0.0
 11
2.623755787299778
 21
-0.8999999999999995
 31
0.0
  0
LINE
  5
254
330
1DF
100
AcDbEntity
  8
AM_4
100
AcDbLine
 10
-4.932443212120458
 20
-1.0
 30
0.0
 11
-6.789062500000006
 21
-1.0
 31
0.0
  0
LINE
  5
255
330
1DF
100
AcDbEntity
  8
AM_4
100
AcDbLine
 10
-6.734557710690347
 20
-1.0
 30
0.0
 11
-6.734557710690347
 21
-0.8999999999999999
 31
0.0
  0
LINE
  5
256
330
1DF
100
AcDbEntity
  8
AM_4
100
AcDbLine
 10
-6.734557710690347
 20
-0.8999999999999999
 30
0.0
 11
-4.110801923390562
 21
-0.8999999999999995
 31
0.0
  0
LINE
  5
257
330
1DF
100
AcDbEntity
  8
AM_4
100
AcDbLine
 10
-4.110801923390562
 20
-0.8999999999999995
 30
0.0
 11
-4.110801923390562
 21
-0.9999999999999994
 31
0.0
  0
LINE
  5
258
330
1DF
100
AcDbEntity
  8
AM_4
100
AcDbLine
 10
-1.26103625956571
 20
-0.9999999999999994
 30
0.0
 11
-4.110801923390562
 21
-0.9999999999999994
 31
0.0
  0
LINE
  5
259
330
1DF
100
AcDbEntity
  8
AM_4
100
AcDbLine
 10
-2.623755787299779
 20
-0.9999999999999994
 30
0.0
 11
-2.623755787299779
 21
-0.8999999999999995
 31
0.0
  0
LINE
  5
25A
330
1DF
100
AcDbEntity
  8
AM_4
100
AcDbLine
 10
2.623755787299778
 20
-0.8999999999999995
 30
0.0
 11
2.623755787299778
 21
-0.9999999999999994
 31
0.0
  0
LINE
  5
25B
330
1DF
100
AcDbEntity
  8
AM_4
100
AcDbLine
 10
4.11080192339056
 20
-0.9999999999999994
 30
0.0
 11
1.261036284581778
 21
-0.9999999999999994
 31
0.0
  0
LINE
  5
25C
330
1DF
100
AcDbEntity
  8
AM_4
100
AcDbLine
 10
4.11080192339056
 20
-0.9999999999999994
 30
0.0
 11
4.11080192339056
 21
-0.8999999999999995
 31
0.0
  0
LINE
  5
25D
330
1DF
100
AcDbEntity
  8
AM_4
100
AcDbLine
 10
4.11080192339056
 20
-0.8999999999999995
 30
0.0
 11
6.734557710690333
 21
-0.8999999999999999
 31
0.0
  0
LINE
  5
25E
330
1DF
100
AcDbEntity
  8
AM_4
100
AcDbLine
 10
6.734557710690333
 20
-0.8999999999999999
 30
0.0
 11
6.734557710690333
 21
-1.0
 31
0.0
  0
LINE
  5
25F
330
1DF
100
AcDbEntity
  8
AM_4
100
AcDbLine
 10
-6.789062500000006
 20
0.0
 30
0.0
 11
-6.789062500000006
 21
-1.0
 31
0.0
  0
LINE
  5
260
330
1DF
100
AcDbEntity
  8
AM_4
100
AcDbLine
 10
6.789062499999991
 20
-1.0
 30
0.0
 11
6.789062499999991
 21
0.0
 31
0.0
  0
LINE
  5
261
330
1DF
100
AcDbEntity
  8
AM_4
100
AcDbLine
 10
6.789062499999991
 20
0.0
 30
0.0
 11
-6.789062500000006
 21
0.0
 31
0.0
  0
ENDBLK
  5
1E2
330
1DF
100
AcDbEntity
  8
0
100
AcDbBlockEnd
  0
ENDSEC
  0
SECTION
  2
ENTITIES
  0
INSERT
  5
6F
330
1F
100
AcDbEntity
  8
0
100
AcDbBlockReference
  2
1_070664_4
 10
0.0
 20
0.0
 30
0.0
  0
POINT
  5
263
330
1F
100
AcDbEntity
  8
ConnectionPoints
100
AcDbPoint
 10
0.0000000000000001
 20
3.015625
 30
-0.0000000000000002
  0
POINT
  5
264
330
1F
100
AcDbEntity
  8
ConnectionPoints
100
AcDbPoint
 10
0.0
 20
-3.515625
 30
0.0000000000000002
  0
POINT
  5
265
330
1F
100
AcDbEntity
  8
ConnectionPoints
100
AcDbPoint
 10
0.0
 20
3.015625
 30
-0.0000000000000002
  0
POINT
  5
266
330
1F
100
AcDbEntity
  8
ConnectionPoints
100
AcDbPoint
 10
0.0
 20
-3.515625
 30
0.0000000000000002
  0
POINT
  5
267
330
1F
100
AcDbEntity
  8
ConnectionPoints
100
AcDbPoint
 10
0.0
 20
-1.770972823430895
 30
5.796249999999999
  0
POINT
  5
268
330
1F
100
AcDbEntity
  8
ConnectionPoints
100
AcDbPoint
 10
0.0
 20
1.9375
 30
-0.0000000000000001
  0
POINT
  5
269
330
1F
100
AcDbEntity
  8
ConnectionPoints
100
AcDbPoint
 10
0.0
 20
-1.825099411167423
 30
5.264999999999999
  0
POINT
  5
26A
330
1F
100
AcDbEntity
  8
ConnectionPoints
100
AcDbPoint
 10
0.0
 20
-1.770972823430895
 30
5.796249999999999
  0
POINT
  5
26B
330
1F
100
AcDbEntity
  8
ConnectionPoints
100
AcDbPoint
 10
0.0
 20
-3.140625
 30
0.0000000000000002
  0
POINT
  5
26C
330
1F
100
AcDbEntity
  8
ConnectionPoints
100
AcDbPoint
 10
0.0
 20
-3.515625
 30
0.0000000000000002
  0
ENDSEC
  0
SECTION
  2
OBJECTS
  0
DICTIONARY
  5
C
330
0
100
AcDbDictionary
281
     1
  3
ACAD_DETAILVIEWSTYLE
350
274
  3
ACAD_GROUP
350
D
  3
ACAD_LAYOUT
350
1A
  3
ACAD_MATERIAL
350
43
  3
ACAD_MLEADERSTYLE
350
6B
  3
ACAD_MLINESTYLE
350
17
  3
ACAD_PLOTSETTINGS
350
19
  3
ACAD_PLOTSTYLENAME
350
E
  3
ACAD_SCALELIST
350
47
  3
ACAD_SECTIONVIEWSTYLE
350
275
  3
ACAD_TABLESTYLE
350
69
  3
ACAD_VISUALSTYLE
350
2A
  3
ACDB_RECOMPOSE_DATA
350
271
  3
AcDbVariableDictionary
350
26D
  0
SUN
  5
6D
330
29
100
AcDbSun
 90
        1
290
     0
 63
     7
421
 16777215
 40
1.0
291
     1
 91
  2455826
 92
 54000000
292
     0
 70
     2
 71
   256
280
     1
  0
DICTIONARY
  5
274
102
{ACAD_REACTORS
330
C
102
}
330
C
100
AcDbDictionary
281
     1
  0
DICTIONARY
  5
D
102
{ACAD_REACTORS
330
C
102
}
330
C
100
AcDbDictionary
281
     1
  0
DICTIONARY
  5
1A
102
{ACAD_REACTORS
330
C
102
}
330
C
100
AcDbDictionary
281
     1
  3
Layout1
350
1E
  3
Layout2
350
26
  3
Model
350
22
  0
DICTIONARY
  5
43
102
{ACAD_REACTORS
330
C
102
}
330
C
100
AcDbDictionary
281
     1
  3
ByBlock
350
45
  3
ByLayer
350
44
  3
Global
350
46
  0
DICTIONARY
  5
6B
102
{ACAD_REACTORS
330
C
102
}
330
C
100
AcDbDictionary
281
     1
  3
Standard
350
6C
  0
DICTIONARY
  5
17
102
{ACAD_REACTORS
330
C
102
}
330
C
100
AcDbDictionary
281
     1
  3
Standard
350
18
  0
DICTIONARY
  5
19
102
{ACAD_REACTORS
330
C
102
}
330
C
100
AcDbDictionary
281
     1
  0
ACDBDICTIONARYWDFLT
  5
E
102
{ACAD_REACTORS
330
C
102
}
330
C
100
AcDbDictionary
281
     1
  3
Normal
350
F
100
AcDbDictionaryWithDefault
340
F
  0
DICTIONARY
  5
47
102
{ACAD_REACTORS
330
C
102
}
330
C
100
AcDbDictionary
281
     1
  3
A0
350
48
  3
A1
350
49
  3
A2
350
4A
  3
A3
350
4B
  3
A4
350
4C
  3
A5
350
4D
  3
A6
350
4E
  3
A7
350
4F
  3
A8
350
50
  3
A9
350
51
  3
B0
350
52
  3
B1
350
53
  3
B2
350
54
  3
B3
350
55
  3
B4
350
56
  3
B5
350
57
  3
B6
350
58
  3
B7
350
59
  3
B8
350
5A
  3
B9
350
5B
  3
C0
350
5C
  3
C1
350
5D
  3
C2
350
5E
  3
C3
350
5F
  3
C4
350
60
  3
C5
350
61
  3
C6
350
62
  3
C7
350
63
  3
C8
350
64
  3
C9
350
65
  3
D0
350
66
  3
D1
350
67
  3
D2
350
68
  0
DICTIONARY
  5
275
102
{ACAD_REACTORS
330
C
102
}
330
C
100
AcDbDictionary
281
     1
  0
DICTIONARY
  5
69
102
{ACAD_REACTORS
330
C
102
}
330
C
100
AcDbDictionary
281
     1
  3
Standard
350
6A
  0
DICTIONARY
  5
2A
102
{ACAD_REACTORS
330
C
102
}
330
C
100
AcDbDictionary
281
     1
  3
2dWireframe
350
2F
  3
Basic
350
32
  3
Brighten
350
36
  3
ColorChange
350
3A
  3
Conceptual
350
34
  3
Dim
350
35
  3
EdgeColorOff
350
3D
  3
Facepattern
350
39
  3
Flat
350
2B
  3
FlatWithEdges
350
2C
  3
Gouraud
350
2D
  3
GouraudWithEdges
350
2E
  3
Hidden
350
31
  3
JitterOff
350
3B
  3
Linepattern
350
38
  3
OverhangOff
350
3C
  3
Realistic
350
33
  3
Shaded
350
42
  3
Shaded with edges
350
41
  3
Shades of Gray
350
3E
  3
Sketchy
350
3F
  3
Thicken
350
37
  3
Wireframe
350
30
  3
X-Ray
350
40
  0
XRECORD
  5
271
102
{ACAD_REACTORS
330
C
102
}
330
C
100
AcDbXrecord
280
     1
 90
        1
330
6A
  0
DICTIONARY
  5
26D
102
{ACAD_REACTORS
330
C
102
}
330
C
100
AcDbDictionary
281
     1
  3
CANNOSCALE
350
26E
  3
CMLEADERSTYLE
350
273
  3
CTABLESTYLE
350
272
  0
LAYOUT
  5
1E
102
{ACAD_REACTORS
330
1A
102
}
330
1A
100
AcDbPlotSettings
  1

  2
none_device
  4

  6

 40
0.0
 41
0.0
 42
0.0
 43
0.0
 44
0.0
 45
0.0
 46
0.0
 47
0.0
 48
0.0
 49
0.0
140
0.0
141
0.0
142
1.0
143
1.0
 70
   688
 72
     0
 73
     0
 74
     5
  7

 75
    16
 76
     0
 77
     2
 78
   300
147
1.0
148
0.0
149
0.0
100
AcDbLayout
  1
Layout1
 70
     1
 71
     1
 10
0.0
 20
0.0
 11
12.0
 21
9.0
 12
0.0
 22
0.0
 32
0.0
 14
1.000000000000000E+20
 24
1.000000000000000E+20
 34
1.000000000000000E+20
 15
-1.000000000000000E+20
 25
-1.000000000000000E+20
 35
-1.000000000000000E+20
146
0.0
 13
0.0
 23
0.0
 33
0.0
 16
1.0
 26
0.0
 36
0.0
 17
0.0
 27
1.0
 37
0.0
 76
     0
330
1B
  0
LAYOUT
  5
26
102
{ACAD_REACTORS
330
1A
102
}
330
1A
100
AcDbPlotSettings
  1

  2
none_device
  4

  6

 40
0.0
 41
0.0
 42
0.0
 43
0.0
 44
0.0
 45
0.0
 46
0.0
 47
0.0
 48
0.0
 49
0.0
140
0.0
141
0.0
142
1.0
143
1.0
 70
   688
 72
     0
 73
     0
 74
     5
  7

 75
    16
 76
     0
 77
     2
 78
   300
147
1.0
148
0.0
149
0.0
100
AcDbLayout
  1
Layout2
 70
     1
 71
     2
 10
0.0
 20
0.0
 11
0.0
 21
0.0
 12
0.0
 22
0.0
 32
0.0
 14
0.0
 24
0.0
 34
0.0
 15
0.0
 25
0.0
 35
0.0
146
0.0
 13
0.0
 23
0.0
 33
0.0
 16
1.0
 26
0.0
 36
0.0
 17
0.0
 27
1.0
 37
0.0
 76
     0
330
23
  0
LAYOUT
  5
22
102
{ACAD_REACTORS
330
1A
102
}
330
1A
100
AcDbPlotSettings
  1

  2
none_device
  4
Letter_(8.50_x_11.00_Inches)
  6

 40
6.35
 41
6.35
 42
6.35000508
 43
6.35000508
 44
215.9
 45
279.4
 46
0.0
 47
0.0
 48
0.0
 49
0.0
140
0.0
141
0.0
142
1.0
143
1.0
 70
  1712
 72
     0
 73
     0
 74
     0
  7

 75
     0
 76
     0
 77
     2
 78
   300
147
1.0
148
0.0
149
0.0
100
AcDbLayout
  1
Model
 70
     1
 71
     0
 10
0.0
 20
0.0
 11
12.0
 21
9.0
 12
0.0
 22
0.0
 32
0.0
 14
1.000000000000000E+20
 24
1.000000000000000E+20
 34
1.000000000000000E+20
 15
-1.000000000000000E+20
 25
-1.000000000000000E+20
 35
-1.000000000000000E+20
146
0.0
 13
0.0
 23
0.0
 33
0.0
 16
1.0
 26
0.0
 36
0.0
 17
0.0
 27
1.0
 37
0.0
 76
     0
330
1F
331
29
  0
MATERIAL
  5
45
102
{ACAD_REACTORS
330
43
102
}
330
43
100
AcDbMaterial
  1
ByBlock
 72
     1
 94
      127
  0
MATERIAL
  5
44
102
{ACAD_REACTORS
330
43
102
}
330
43
100
AcDbMaterial
  1
ByLayer
 72
     1
 94
      127
  0
MATERIAL
  5
46
102
{ACAD_REACTORS
330
43
102
}
330
43
100
AcDbMaterial
  1
Global
 72
     1
 94
      127
  0
MLEADERSTYLE
  5
6C
102
{ACAD_REACTORS
330
6B
102
}
330
6B
100
AcDbMLeaderStyle
179
     2
170
     2
171
     1
172
     0
 90
        2
 40
0.0
 41
0.0
173
     1
 91
-1056964608
340
14
 92
       -2
290
     1
 42
0.09
291
     1
 43
0.36
  3
Standard
341
0
 44
0.18
300

342
11
174
     1
178
     6
175
     1
176
     0
 93
-1056964608
 45
0.18
292
     0
297
     0
 46
0.18
343
0
 94
-1056964608
 47
1.0
 49
1.0
140
1.0
293
     1
141
0.0
294
     1
177
     0
142
1.0
295
     0
296
     0
143
0.125
271
     0
272
     9
273
     9
298
     0
  0
MLINESTYLE
  5
18
102
{ACAD_REACTORS
330
17
102
}
330
17
100
AcDbMlineStyle
  2
Standard
 70
     0
  3

 62
   256
 51
90.0
 52
90.0
 71
     2
 49
0.5
 62
   256
  6
BYLAYER
 49
-0.5
 62
   256
  6
BYLAYER
  0
ACDBPLACEHOLDER
  5
F
102
{ACAD_REACTORS
330
E
102
}
330
E
  0
SCALE
  5
48
102
{ACAD_REACTORS
330
47
102
}
330
47
100
AcDbScale
 70
     0
300
1:1
140
1.0
141
1.0
290
     1
  0
SCALE
  5
49
102
{ACAD_REACTORS
330
47
102
}
330
47
100
AcDbScale
 70
     0
300
1:2
140
1.0
141
2.0
290
     0
  0
SCALE
  5
4A
102
{ACAD_REACTORS
330
47
102
}
330
47
100
AcDbScale
 70
     0
300
1:4
140
1.0
141
4.0
290
     0
  0
SCALE
  5
4B
102
{ACAD_REACTORS
330
47
102
}
330
47
100
AcDbScale
 70
     0
300
1:5
140
1.0
141
5.0
290
     0
  0
SCALE
  5
4C
102
{ACAD_REACTORS
330
47
102
}
330
47
100
AcDbScale
 70
     0
300
1:8
140
1.0
141
8.0
290
     0
  0
SCALE
  5
4D
102
{ACAD_REACTORS
330
47
102
}
330
47
100
AcDbScale
 70
     0
300
1:10
140
1.0
141
10.0
290
     0
  0
SCALE
  5
4E
102
{ACAD_REACTORS
330
47
102
}
330
47
100
AcDbScale
 70
     0
300
1:16
140
1.0
141
16.0
290
     0
  0
SCALE
  5
4F
102
{ACAD_REACTORS
330
47
102
}
330
47
100
AcDbScale
 70
     0
300
1:20
140
1.0
141
20.0
290
     0
  0
SCALE
  5
50
102
{ACAD_REACTORS
330
47
102
}
330
47
100
AcDbScale
 70
     0
300
1:30
140
1.0
141
30.0
290
     0
  0
SCALE
  5
51
102
{ACAD_REACTORS
330
47
102
}
330
47
100
AcDbScale
 70
     0
300
1:40
140
1.0
141
40.0
290
     0
  0
SCALE
  5
52
102
{ACAD_REACTORS
330
47
102
}
330
47
100
AcDbScale
 70
     0
300
1:50
140
1.0
141
50.0
290
     0
  0
SCALE
  5
53
102
{ACAD_REACTORS
330
47
102
}
330
47
100
AcDbScale
 70
     0
300
1:100
140
1.0
141
100.0
290
     0
  0
SCALE
  5
54
102
{ACAD_REACTORS
330
47
102
}
330
47
100
AcDbScale
 70
     0
300
2:1
140
2.0
141
1.0
290
     0
  0
SCALE
  5
55
102
{ACAD_REACTORS
330
47
102
}
330
47
100
AcDbScale
 70
     0
300
4:1
140
4.0
141
1.0
290
     0
  0
SCALE
  5
56
102
{ACAD_REACTORS
330
47
102
}
330
47
100
AcDbScale
 70
     0
300
8:1
140
8.0
141
1.0
290
     0
  0
SCALE
  5
57
102
{ACAD_REACTORS
330
47
102
}
330
47
100
AcDbScale
 70
     0
300
10:1
140
10.0
141
1.0
290
     0
  0
SCALE
  5
58
102
{ACAD_REACTORS
330
47
102
}
330
47
100
AcDbScale
 70
     0
300
100:1
140
100.0
141
1.0
290
     0
  0
SCALE
  5
59
102
{ACAD_REACTORS
330
47
102
}
330
47
100
AcDbScale
 70
     0
300
1/128" = 1'-0"
140
0.0078125
141
12.0
290
     0
  0
SCALE
  5
5A
102
{ACAD_REACTORS
330
47
102
}
330
47
100
AcDbScale
 70
     0
300
1/64" = 1'-0"
140
0.015625
141
12.0
290
     0
  0
SCALE
  5
5B
102
{ACAD_REACTORS
330
47
102
}
330
47
100
AcDbScale
 70
     0
300
1/32" = 1'-0"
140
0.03125
141
12.0
290
     0
  0
SCALE
  5
5C
102
{ACAD_REACTORS
330
47
102
}
330
47
100
AcDbScale
 70
     0
300
1/16" = 1'-0"
140
0.0625
141
12.0
290
     0
  0
SCALE
  5
5D
102
{ACAD_REACTORS
330
47
102
}
330
47
100
AcDbScale
 70
     0
300
3/32" = 1'-0"
140
0.09375
141
12.0
290
     0
  0
SCALE
  5
5E
102
{ACAD_REACTORS
330
47
102
}
330
47
100
AcDbScale
 70
     0
300
1/8" = 1'-0"
140
0.125
141
12.0
290
     0
  0
SCALE
  5
5F
102
{ACAD_REACTORS
330
47
102
}
330
47
100
AcDbScale
 70
     0
300
3/16" = 1'-0"
140
0.1875
141
12.0
290
     0
  0
SCALE
  5
60
102
{ACAD_REACTORS
330
47
102
}
330
47
100
AcDbScale
 70
     0
300
1/4" = 1'-0"
140
0.25
141
12.0
290
     0
  0
SCALE
  5
61
102
{ACAD_REACTORS
330
47
102
}
330
47
100
AcDbScale
 70
     0
300
3/8" = 1'-0"
140
0.375
141
12.0
290
     0
  0
SCALE
  5
62
102
{ACAD_REACTORS
330
47
102
}
330
47
100
AcDbScale
 70
     0
300
1/2" = 1'-0"
140
0.5
141
12.0
290
     0
  0
SCALE
  5
63
102
{ACAD_REACTORS
330
47
102
}
330
47
100
AcDbScale
 70
     0
300
3/4" = 1'-0"
140
0.75
141
12.0
290
     0
  0
SCALE
  5
64
102
{ACAD_REACTORS
330
47
102
}
330
47
100
AcDbScale
 70
     0
300
1" = 1'-0"
140
1.0
141
12.0
290
     0
  0
SCALE
  5
65
102
{ACAD_REACTORS
330
47
102
}
330
47
100
AcDbScale
 70
     0
300
1-1/2" = 1'-0"
140
1.5
141
12.0
290
     0
  0
SCALE
  5
66
102
{ACAD_REACTORS
330
47
102
}
330
47
100
AcDbScale
 70
     0
300
3" = 1'-0"
140
3.0
141
12.0
290
     0
  0
SCALE
  5
67
102
{ACAD_REACTORS
330
47
102
}
330
47
100
AcDbScale
 70
     0
300
6" = 1'-0"
140
6.0
141
12.0
290
     0
  0
SCALE
  5
68
102
{ACAD_REACTORS
330
47
102
}
330
47
100
AcDbScale
 70
     0
300
1'-0" = 1'-0"
140
12.0
141
12.0
290
     0
  0
TABLESTYLE
  5
6A
102
{ACAD_REACTORS
330
69
102
}
102
{ACAD_XDICTIONARY
360
26F
102
}
330
69
100
AcDbTableStyle
  3
Standard
 70
     0
 71
     0
 40
0.06
 41
0.06
280
     0
281
     0
  7
Standard
140
0.18
170
     2
 62
     0
 63
   257
283
     0
 90
        4
 91
        0
  1

274
    -2
284
     1
 64
     0
275
    -2
285
     1
 65
     0
276
    -2
286
     1
 66
     0
277
    -2
287
     1
 67
     0
278
    -2
288
     1
 68
     0
279
    -2
289
     1
 69
     0
  7
Standard
140
0.25
170
     5
 62
     0
 63
   257
283
     0
 90
        4
 91
        0
  1

274
    -2
284
     1
 64
     0
275
    -2
285
     1
 65
     0
276
    -2
286
     1
 66
     0
277
    -2
287
     1
 67
     0
278
    -2
288
     1
 68
     0
279
    -2
289
     1
 69
     0
  7
Standard
140
0.18
170
     5
 62
     0
 63
   257
283
     0
 90
        4
 91
        0
  1

274
    -2
284
     1
 64
     0
275
    -2
285
     1
 65
     0
276
    -2
286
     1
 66
     0
277
    -2
287
     1
 67
     0
278
    -2
288
     1
 68
     0
279
    -2
289
     1
 69
     0
  0
VISUALSTYLE
  5
2F
102
{ACAD_REACTORS
330
2A
102
}
330
2A
100
AcDbVisualStyle
  2
2dWireframe
 70
     4
177
     3
291
     0
 70
    58
 90
        0
176
     1
 90
        2
176
     1
 90
        0
176
     1
 90
        0
176
     1
 40
0.6
176
     1
 40
30.0
176
     1
 62
     7
420
 16777215
176
     1
 90
        1
176
     1
 90
        4
176
     1
 62
     7
176
     1
 62
   257
176
     1
 90
        1
176
     1
 90
        1
176
     1
 40
1.0
176
     1
 90
        0
176
     1
 62
   257
176
     1
 40
1.0
176
     1
 90
        1
176
     1
 90
        6
176
     1
 90
        2
176
     1
 62
     7
176
     1
 90
        5
176
     1
 90
        0
176
     1
 90
        0
176
     1
290
     0
176
     1
 90
        1
176
     1
 40
0.0
176
     1
 90
        0
176
     1
290
     1
176
     1
290
     1
176
     1
290
     0
176
     1
290
     0
176
     1
290
     0
176
     1
290
     0
176
     1
290
     0
176
     1
290
     0
176
     1
290
     0
176
     1
 90
       50
176
     1
 40
0.0
176
     1
 40
1.0
176
     1
 90
        0
176
     1
 62
    18
420
        0
176
     1
 90
       50
176
     1
 90
        3
176
     1
 62
     5
420
      255
176
     1
290
     0
176
     1
 90
       50
176
     1
 90
       50
176
     1
 90
       50
176
     1
290
     0
176
     1
 90
       50
176
     1
 62
   256
176
     0
 40
1.0
176
     0
 90
        2
176
     1
  1
strokes_ogs.tif
176
     1
290
     0
176
     1
 40
1.0
176
     1
 40
1.0
176
     1
  0
VISUALSTYLE
  5
32
102
{ACAD_REACTORS
330
2A
102
}
330
2A
100
AcDbVisualStyle
  2
Basic
 70
     7
177
     3
291
     1
 70
    58
 90
        1
176
     1
 90
        0
176
     1
 90
        1
176
     1
 90
        0
176
     1
 40
0.6
176
     1
 40
30.0
176
     1
 62
     7
420
 16777215
176
     1
 90
        0
176
     1
 90
        4
176
     1
 62
     7
176
     1
 62
   257
176
     1
 90
        1
176
     1
 90
        1
176
     1
 40
1.0
176
     1
 90
        8
176
     1
 62
     7
176
     1
 40
1.0
176
     1
 90
        1
176
     1
 90
        6
176
     1
 90
        2
176
     1
 62
     7
176
     1
 90
        5
176
     1
 90
        0
176
     1
 90
        0
176
     1
290
     0
176
     1
 90
        1
176
     1
 40
0.0
176
     1
 90
        0
176
     1
290
     0
176
     1
290
     1
176
     1
290
     1
176
     1
290
     0
176
     1
290
     0
176
     1
290
     0
176
     1
290
     0
176
     1
290
     0
176
     1
290
     0
176
     1
 90
       50
176
     1
 40
0.0
176
     1
 40
1.0
176
     1
 90
        0
176
     1
 62
    18
420
        0
176
     1
 90
       50
176
     1
 90
        3
176
     1
 62
     5
420
      255
176
     1
290
     0
176
     1
 90
       50
176
     1
 90
       50
176
     1
 90
       50
176
     1
290
     0
176
     1
 90
       50
176
     1
 62
   256
176
     0
 40
1.0
176
     0
 90
        2
176
     1
  1
strokes_ogs.tif
176
     1
290
     0
176
     1
 40
1.0
176
     1
 40
1.0
176
     1
  0
VISUALSTYLE
  5
36
102
{ACAD_REACTORS
330
2A
102
}
330
2A
100
AcDbVisualStyle
  2
Brighten
 70
    12
177
     3
291
     1
 70
    58
 90
        2
176
     1
 90
        2
176
     1
 90
        0
176
     1
 90
        0
176
     1
 40
0.6
176
     1
 40
30.0
176
     1
 62
     7
420
 16777215
176
     1
 90
        1
176
     1
 90
        4
176
     1
 62
     7
176
     1
 62
   257
176
     1
 90
        1
176
     1
 90
        1
176
     1
 40
1.0
176
     1
 90
        8
176
     1
 62
     7
176
     1
 40
1.0
176
     1
 90
        1
176
     1
 90
        6
176
     1
 90
        2
176
     1
 62
     7
176
     1
 90
        5
176
     1
 90
        0
176
     1
 90
        0
176
     1
290
     0
176
     1
 90
        1
176
     1
 40
50.0
176
     1
 90
        0
176
     1
290
     0
176
     1
290
     1
176
     1
290
     1
176
     1
290
     0
176
     1
290
     0
176
     1
290
     0
176
     1
290
     0
176
     1
290
     0
176
     1
290
     0
176
     1
 90
       50
176
     1
 40
0.0
176
     1
 40
1.0
176
     1
 90
        0
176
     1
 62
    18
420
        0
176
     1
 90
       50
176
     1
 90
        3
176
     1
 62
     5
420
      255
176
     1
290
     0
176
     1
 90
       50
176
     1
 90
       50
176
     1
 90
       50
176
     1
290
     0
176
     1
 90
       50
176
     1
 62
   256
176
     0
 40
1.0
176
     0
 90
        2
176
     1
  1
strokes_ogs.tif
176
     1
290
     0
176
     1
 40
1.0
176
     1
 40
1.0
176
     1
  0
VISUALSTYLE
  5
3A
102
{ACAD_REACTORS
330
2A
102
}
330
2A
100
AcDbVisualStyle
  2
ColorChange
 70
    16
177
     3
291
     1
 70
    58
 90
        2
176
     1
 90
        2
176
     1
 90
        3
176
     1
 90
        0
176
     1
 40
0.6
176
     1
 40
30.0
176
     1
 62
     8
420
  8421504
176
     1
 90
        1
176
     1
 90
        4
176
     1
 62
     7
176
     1
 62
   257
176
     1
 90
        1
176
     1
 90
        1
176
     1
 40
1.0
176
     1
 90
        8
176
     1
 62
     8
420
  8421504
176
     1
 40
1.0
176
     1
 90
        1
176
     1
 90
        6
176
     1
 90
        2
176
     1
 62
     7
176
     1
 90
        5
176
     1
 90
        0
176
     1
 90
        0
176
     1
290
     0
176
     1
 90
        1
176
     1
 40
0.0
176
     1
 90
        0
176
     1
290
     0
176
     1
290
     1
176
     1
290
     1
176
     1
290
     0
176
     1
290
     0
176
     1
290
     0
176
     1
290
     0
176
     1
290
     0
176
     1
290
     0
176
     1
 90
       50
176
     1
 40
0.0
176
     1
 40
1.0
176
     1
 90
        0
176
     1
 62
    18
420
        0
176
     1
 90
       50
176
     1
 90
        3
176
     1
 62
     5
420
      255
176
     1
290
     0
176
     1
 90
       50
176
     1
 90
       50
176
     1
 90
       50
176
     1
290
     0
176
     1
 90
       50
176
     1
 62
   256
176
     0
 40
1.0
176
     0
 90
        2
176
     1
  1
strokes_ogs.tif
176
     1
290
     0
176
     1
 40
1.0
176
     1
 40
1.0
176
     1
  0
VISUALSTYLE
  5
34
102
{ACAD_REACTORS
330
2A
102
}
330
2A
100
AcDbVisualStyle
  2
Conceptual
 70
     9
177
     3
291
     0
 70
    58
 90
        3
176
     1
 90
        2
176
     1
 90
        0
176
     1
 90
        0
176
     1
 40
0.6
176
     1
 40
30.0
176
     1
 62
     7
420
 16777215
176
     1
 90
        2
176
     1
 90
        2
176
     1
 62
     7
176
     1
 62
   257
176
     1
 90
        1
176
     1
 90
        1
176
     1
 40
179.0
176
     1
 90
        8
176
     1
 62
     7
176
     1
 40
1.0
176
     1
 90
        1
176
     1
 90
        6
176
     1
 90
        2
176
     1
 62
     7
176
     1
 90
        3
176
     1
 90
        0
176
     1
 90
        0
176
     1
290
     0
176
     1
 90
        1
176
     1
 40
0.0
176
     1
 90
        0
176
     1
290
     0
176
     1
290
     1
176
     1
290
     1
176
     1
290
     0
176
     1
290
     0
176
     1
290
     0
176
     1
290
     0
176
     1
290
     0
176
     1
290
     0
176
     1
 90
       50
176
     1
 40
0.0
176
     1
 40
1.0
176
     1
 90
        0
176
     1
 62
    18
420
        0
176
     1
 90
       50
176
     1
 90
        3
176
     1
 62
     5
420
      255
176
     1
290
     0
176
     1
 90
       50
176
     1
 90
       50
176
     1
 90
       50
176
     1
290
     0
176
     1
 90
       50
176
     1
 62
   256
176
     0
 40
1.0
176
     0
 90
        2
176
     1
  1
strokes_ogs.tif
176
     1
290
     0
176
     1
 40
1.0
176
     1
 40
1.0
176
     1
  0
VISUALSTYLE
  5
35
102
{ACAD_REACTORS
330
2A
102
}
330
2A
100
AcDbVisualStyle
  2
Dim
 70
    11
177
     3
291
     1
 70
    58
 90
        2
176
     1
 90
        2
176
     1
 90
        0
176
     1
 90
        0
176
     1
 40
0.6
176
     1
 40
30.0
176
     1
 62
     7
420
 16777215
176
     1
 90
        1
176
     1
 90
        4
176
     1
 62
     7
176
     1
 62
   257
176
     1
 90
        1
176
     1
 90
        1
176
     1
 40
1.0
176
     1
 90
        8
176
     1
 62
     7
176
     1
 40
1.0
176
     1
 90
        1
176
     1
 90
        6
176
     1
 90
        2
176
     1
 62
     7
176
     1
 90
        5
176
     1
 90
        0
176
     1
 90
        0
176
     1
290
     0
176
     1
 90
        1
176
     1
 40
-50.0
176
     1
 90
        0
176
     1
290
     0
176
     1
290
     1
176
     1
290
     1
176
     1
290
     0
176
     1
290
     0
176
     1
290
     0
176
     1
290
     0
176
     1
290
     0
176
     1
290
     0
176
     1
 90
       50
176
     1
 40
0.0
176
     1
 40
1.0
176
     1
 90
        0
176
     1
 62
    18
420
        0
176
     1
 90
       50
176
     1
 90
        3
176
     1
 62
     5
420
      255
176
     1
290
     0
176
     1
 90
       50
176
     1
 90
       50
176
     1
 90
       50
176
     1
290
     0
176
     1
 90
       50
176
     1
 62
   256
176
     0
 40
1.0
176
     0
 90
        2
176
     1
  1
strokes_ogs.tif
176
     1
290
     0
176
     1
 40
1.0
176
     1
 40
1.0
176
     1
  0
VISUALSTYLE
  5
3D
102
{ACAD_REACTORS
330
2A
102
}
330
2A
100
AcDbVisualStyle
  2
EdgeColorOff
 70
    22
177
     3
291
     1
 70
    58
 90
        2
176
     0
 90
        2
176
     0
 90
        0
176
     0
 90
        0
176
     0
 40
0.6
176
     0
 40
30.0
176
     0
 62
     7
420
 16777215
176
     0
 90
        1
176
     0
 90
        4
176
     0
 62
     7
176
     0
 62
   257
176
     0
 90
        1
176
     0
 90
        1
176
     0
 40
1.0
176
     0
 90
        8
176
     2
 62
     7
176
     0
 40
1.0
176
     0
 90
        1
176
     0
 90
        6
176
     0
 90
        2
176
     0
 62
     7
176
     0
 90
        5
176
     0
 90
        0
176
     0
 90
        0
176
     0
290
     0
176
     0
 90
        1
176
     0
 40
0.0
176
     0
 90
        0
176
     0
290
     0
176
     0
290
     1
176
     0
290
     1
176
     0
290
     0
176
     0
290
     0
176
     0
290
     0
176
     0
290
     0
176
     0
290
     0
176
     0
290
     0
176
     0
 90
       50
176
     0
 40
0.0
176
     0
 40
1.0
176
     0
 90
        0
176
     0
 62
    18
420
        0
176
     0
 90
       50
176
     0
 90
        3
176
     0
 62
     5
420
      255
176
     0
290
     0
176
     0
 90
       50
176
     0
 90
       50
176
     0
 90
       50
176
     0
290
     0
176
     0
 90
       50
176
     0
 62
   256
176
     0
 40
1.0
176
     0
 90
        2
176
     0
  1
strokes_ogs.tif
176
     0
290
     0
176
     0
 40
1.0
176
     0
 40
1.0
176
     0
  0
VISUALSTYLE
  5
39
102
{ACAD_REACTORS
330
2A
102
}
330
2A
100
AcDbVisualStyle
  2
Facepattern
 70
    15
177
     3
291
     1
 70
    58
 90
        2
176
     1
 90
        2
176
     1
 90
        0
176
     1
 90
        0
176
     1
 40
0.6
176
     1
 40
30.0
176
     1
 62
     7
420
 16777215
176
     1
 90
        1
176
     1
 90
        4
176
     1
 62
     7
176
     1
 62
   257
176
     1
 90
        1
176
     1
 90
        1
176
     1
 40
1.0
176
     1
 90
        8
176
     1
 62
     7
176
     1
 40
1.0
176
     1
 90
        1
176
     1
 90
        6
176
     1
 90
        2
176
     1
 62
     7
176
     1
 90
        5
176
     1
 90
        0
176
     1
 90
        0
176
     1
290
     0
176
     1
 90
        1
176
     1
 40
0.0
176
     1
 90
        0
176
     1
290
     0
176
     1
290
     1
176
     1
290
     1
176
     1
290
     0
176
     1
290
     0
176
     1
290
     0
176
     1
290
     0
176
     1
290
     0
176
     1
290
     0
176
     1
 90
       50
176
     1
 40
0.0
176
     1
 40
1.0
176
     1
 90
        0
176
     1
 62
    18
420
        0
176
     1
 90
       50
176
     1
 90
        3
176
     1
 62
     5
420
      255
176
     1
290
     0
176
     1
 90
       50
176
     1
 90
       50
176
     1
 90
       50
176
     1
290
     0
176
     1
 90
       50
176
     1
 62
   256
176
     0
 40
1.0
176
     0
 90
        2
176
     1
  1
strokes_ogs.tif
176
     1
290
     0
176
     1
 40
1.0
176
     1
 40
1.0
176
     1
  0
VISUALSTYLE
  5
2B
102
{ACAD_REACTORS
330
2A
102
}
330
2A
100
AcDbVisualStyle
  2
Flat
 70
     0
177
     3
291
     1
 70
    58
 90
        2
176
     1
 90
        1
176
     1
 90
        1
176
     1
 90
        2
176
     1
 40
0.6
176
     1
 40
30.0
176
     1
 62
     7
420
 16777215
176
     1
 90
        0
176
     1
 90
        0
176
     1
 62
     7
176
     1
 62
   257
176
     1
 90
        1
176
     1
 90
        1
176
     1
 40
1.0
176
     1
 90
        8
176
     1
 62
     7
176
     1
 40
1.0
176
     1
 90
        1
176
     1
 90
        6
176
     1
 90
        2
176
     1
 62
     7
176
     1
 90
        5
176
     1
 90
        0
176
     1
 90
        0
176
     1
290
     0
176
     1
 90
       13
176
     1
 40
0.0
176
     1
 90
        0
176
     1
290
     0
176
     1
290
     1
176
     1
290
     1
176
     1
290
     0
176
     1
290
     0
176
     1
290
     0
176
     1
290
     0
176
     1
290
     0
176
     1
290
     0
176
     1
 90
       50
176
     1
 40
0.0
176
     1
 40
1.0
176
     1
 90
        0
176
     1
 62
    18
420
        0
176
     1
 90
       50
176
     1
 90
        3
176
     1
 62
     5
420
      255
176
     1
290
     0
176
     1
 90
       50
176
     1
 90
       50
176
     1
 90
       50
176
     1
290
     0
176
     1
 90
       50
176
     1
 62
   256
176
     0
 40
1.0
176
     0
 90
        2
176
     1
  1
strokes_ogs.tif
176
     1
290
     0
176
     1
 40
1.0
176
     1
 40
1.0
176
     1
  0
VISUALSTYLE
  5
2C
102
{ACAD_REACTORS
330
2A
102
}
330
2A
100
AcDbVisualStyle
  2
FlatWithEdges
 70
     1
177
     3
291
     1
 70
    58
 90
        2
176
     1
 90
        1
176
     1
 90
        1
176
     1
 90
        2
176
     1
 40
0.6
176
     1
 40
30.0
176
     1
 62
     7
420
 16777215
176
     1
 90
        1
176
     1
 90
        0
176
     1
 62
     7
176
     1
 62
   257
176
     1
 90
        1
176
     1
 90
        1
176
     1
 40
1.0
176
     1
 90
        0
176
     1
 62
   257
176
     1
 40
1.0
176
     1
 90
        1
176
     1
 90
        6
176
     1
 90
        2
176
     1
 62
     7
176
     1
 90
        5
176
     1
 90
        0
176
     1
 90
        0
176
     1
290
     0
176
     1
 90
       13
176
     1
 40
0.0
176
     1
 90
        0
176
     1
290
     0
176
     1
290
     1
176
     1
290
     1
176
     1
290
     0
176
     1
290
     0
176
     1
290
     0
176
     1
290
     0
176
     1
290
     0
176
     1
290
     0
176
     1
 90
       50
176
     1
 40
0.0
176
     1
 40
1.0
176
     1
 90
        0
176
     1
 62
    18
420
        0
176
     1
 90
       50
176
     1
 90
        3
176
     1
 62
     5
420
      255
176
     1
290
     0
176
     1
 90
       50
176
     1
 90
       50
176
     1
 90
       50
176
     1
290
     0
176
     1
 90
       50
176
     1
 62
   256
176
     0
 40
1.0
176
     0
 90
        2
176
     1
  1
strokes_ogs.tif
176
     1
290
     0
176
     1
 40
1.0
176
     1
 40
1.0
176
     1
  0
VISUALSTYLE
  5
2D
102
{ACAD_REACTORS
330
2A
102
}
330
2A
100
AcDbVisualStyle
  2
Gouraud
 70
     2
177
     3
291
     1
 70
    58
 90
        2
176
     1
 90
        2
176
     1
 90
        1
176
     1
 90
        2
176
     1
 40
0.6
176
     1
 40
30.0
176
     1
 62
     7
420
 16777215
176
     1
 90
        0
176
     1
 90
        0
176
     1
 62
     7
176
     1
 62
   257
176
     1
 90
        1
176
     1
 90
        1
176
     1
 40
1.0
176
     1
 90
        0
176
     1
 62
     7
176
     1
 40
1.0
176
     1
 90
        1
176
     1
 90
        6
176
     1
 90
        2
176
     1
 62
     7
176
     1
 90
        5
176
     1
 90
        0
176
     1
 90
        0
176
     1
290
     0
176
     1
 90
       13
176
     1
 40
0.0
176
     1
 90
        0
176
     1
290
     0
176
     1
290
     1
176
     1
290
     1
176
     1
290
     0
176
     1
290
     0
176
     1
290
     0
176
     1
290
     0
176
     1
290
     0
176
     1
290
     0
176
     1
 90
       50
176
     1
 40
0.0
176
     1
 40
1.0
176
     1
 90
        0
176
     1
 62
    18
420
        0
176
     1
 90
       50
176
     1
 90
        3
176
     1
 62
     5
420
      255
176
     1
290
     0
176
     1
 90
       50
176
     1
 90
       50
176
     1
 90
       50
176
     1
290
     0
176
     1
 90
       50
176
     1
 62
   256
176
     0
 40
1.0
176
     0
 90
        2
176
     1
  1
strokes_ogs.tif
176
     1
290
     0
176
     1
 40
1.0
176
     1
 40
1.0
176
     1
  0
VISUALSTYLE
  5
2E
102
{ACAD_REACTORS
330
2A
102
}
330
2A
100
AcDbVisualStyle
  2
GouraudWithEdges
 70
     3
177
     3
291
     1
 70
    58
 90
        2
176
     1
 90
        2
176
     1
 90
        1
176
     1
 90
        2
176
     1
 40
0.6
176
     1
 40
30.0
176
     1
 62
     7
420
 16777215
176
     1
 90
        1
176
     1
 90
        0
176
     1
 62
     7
176
     1
 62
   257
176
     1
 90
        1
176
     1
 90
        1
176
     1
 40
1.0
176
     1
 90
        0
176
     1
 62
   257
176
     1
 40
1.0
176
     1
 90
        1
176
     1
 90
        6
176
     1
 90
        2
176
     1
 62
     7
176
     1
 90
        5
176
     1
 90
        0
176
     1
 90
        0
176
     1
290
     0
176
     1
 90
       13
176
     1
 40
0.0
176
     1
 90
        0
176
     1
290
     0
176
     1
290
     1
176
     1
290
     1
176
     1
290
     0
176
     1
290
     0
176
     1
290
     0
176
     1
290
     0
176
     1
290
     0
176
     1
290
     0
176
     1
 90
       50
176
     1
 40
0.0
176
     1
 40
1.0
176
     1
 90
        0
176
     1
 62
    18
420
        0
176
     1
 90
       50
176
     1
 90
        3
176
     1
 62
     5
420
      255
176
     1
290
     0
176
     1
 90
       50
176
     1
 90
       50
176
     1
 90
       50
176
     1
290
     0
176
     1
 90
       50
176
     1
 62
   256
176
     0
 40
1.0
176
     0
 90
        2
176
     1
  1
strokes_ogs.tif
176
     1
290
     0
176
     1
 40
1.0
176
     1
 40
1.0
176
     1
  0
VISUALSTYLE
  5
31
102
{ACAD_REACTORS
330
2A
102
}
330
2A
100
AcDbVisualStyle
  2
Hidden
 70
     6
177
     3
291
     0
 70
    58
 90
        1
176
     1
 90
        2
176
     1
 90
        2
176
     1
 90
        0
176
     1
 40
0.6
176
     1
 40
30.0
176
     1
 62
     7
420
 16777215
176
     1
 90
        2
176
     1
 90
        2
176
     1
 62
     7
176
     1
 62
   257
176
     1
 90
        2
176
     1
 90
        1
176
     1
 40
40.0
176
     1
 90
        0
176
     1
 62
   257
176
     1
 40
1.0
176
     1
 90
        1
176
     1
 90
        6
176
     1
 90
        2
176
     1
 62
     7
176
     1
 90
        3
176
     1
 90
        0
176
     1
 90
        0
176
     1
290
     0
176
     1
 90
        1
176
     1
 40
0.0
176
     1
 90
        0
176
     1
290
     0
176
     1
290
     1
176
     1
290
     1
176
     1
290
     0
176
     1
290
     0
176
     1
290
     0
176
     1
290
     0
176
     1
290
     0
176
     1
290
     0
176
     1
 90
       50
176
     1
 40
0.0
176
     1
 40
1.0
176
     1
 90
        0
176
     1
 62
    18
420
        0
176
     1
 90
       50
176
     1
 90
        3
176
     1
 62
     5
420
      255
176
     1
290
     0
176
     1
 90
       50
176
     1
 90
       50
176
     1
 90
       50
176
     1
290
     0
176
     1
 90
       50
176
     1
 62
   256
176
     0
 40
1.0
176
     0
 90
        2
176
     1
  1
strokes_ogs.tif
176
     1
290
     0
176
     1
 40
1.0
176
     1
 40
1.0
176
     1
  0
VISUALSTYLE
  5
3B
102
{ACAD_REACTORS
330
2A
102
}
330
2A
100
AcDbVisualStyle
  2
JitterOff
 70
    20
177
     3
291
     1
 70
    58
 90
        2
176
     0
 90
        2
176
     0
 90
        0
176
     0
 90
        0
176
     0
 40
0.6
176
     0
 40
30.0
176
     0
 62
     7
420
 16777215
176
     0
 90
        1
176
     0
 90
        4
176
     0
 62
     7
176
     0
 62
   257
176
     0
 90
        1
176
     0
 90
        1
176
     0
 40
1.0
176
     0
 90
       10
176
     2
 62
     7
176
     0
 40
1.0
176
     0
 90
        1
176
     0
 90
        6
176
     0
 90
        2
176
     0
 62
     7
176
     0
 90
        5
176
     0
 90
        0
176
     0
 90
        0
176
     0
290
     0
176
     0
 90
        1
176
     0
 40
0.0
176
     0
 90
        0
176
     0
290
     0
176
     0
290
     1
176
     0
290
     1
176
     0
290
     0
176
     0
290
     0
176
     0
290
     0
176
     0
290
     0
176
     0
290
     0
176
     0
290
     0
176
     0
 90
       50
176
     0
 40
0.0
176
     0
 40
1.0
176
     0
 90
        0
176
     0
 62
    18
420
        0
176
     0
 90
       50
176
     0
 90
        3
176
     0
 62
     5
420
      255
176
     0
290
     0
176
     0
 90
       50
176
     0
 90
       50
176
     0
 90
       50
176
     0
290
     0
176
     0
 90
       50
176
     0
 62
   256
176
     0
 40
1.0
176
     0
 90
        2
176
     0
  1
strokes_ogs.tif
176
     0
290
     0
176
     0
 40
1.0
176
     0
 40
1.0
176
     0
  0
VISUALSTYLE
  5
38
102
{ACAD_REACTORS
330
2A
102
}
330
2A
100
AcDbVisualStyle
  2
Linepattern
 70
    14
177
     3
291
     1
 70
    58
 90
        2
176
     1
 90
        2
176
     1
 90
        0
176
     1
 90
        0
176
     1
 40
0.6
176
     1
 40
30.0
176
     1
 62
     7
420
 16777215
176
     1
 90
        1
176
     1
 90
        4
176
     1
 62
     7
176
     1
 62
   257
176
     1
 90
        7
176
     1
 90
        7
176
     1
 40
1.0
176
     1
 90
        8
176
     1
 62
     7
176
     1
 40
1.0
176
     1
 90
        1
176
     1
 90
        6
176
     1
 90
        2
176
     1
 62
     7
176
     1
 90
        5
176
     1
 90
        0
176
     1
 90
        0
176
     1
290
     0
176
     1
 90
        1
176
     1
 40
0.0
176
     1
 90
        0
176
     1
290
     0
176
     1
290
     1
176
     1
290
     1
176
     1
290
     0
176
     1
290
     0
176
     1
290
     0
176
     1
290
     0
176
     1
290
     0
176
     1
290
     0
176
     1
 90
       50
176
     1
 40
0.0
176
     1
 40
1.0
176
     1
 90
        0
176
     1
 62
    18
420
        0
176
     1
 90
       50
176
     1
 90
        3
176
     1
 62
     5
420
      255
176
     1
290
     0
176
     1
 90
       50
176
     1
 90
       50
176
     1
 90
       50
176
     1
290
     0
176
     1
 90
       50
176
     1
 62
   256
176
     0
 40
1.0
176
     0
 90
        2
176
     1
  1
strokes_ogs.tif
176
     1
290
     0
176
     1
 40
1.0
176
     1
 40
1.0
176
     1
  0
VISUALSTYLE
  5
3C
102
{ACAD_REACTORS
330
2A
102
}
330
2A
100
AcDbVisualStyle
  2
OverhangOff
 70
    21
177
     3
291
     1
 70
    58
 90
        2
176
     0
 90
        2
176
     0
 90
        0
176
     0
 90
        0
176
     0
 40
0.6
176
     0
 40
30.0
176
     0
 62
     7
420
 16777215
176
     0
 90
        1
176
     0
 90
        4
176
     0
 62
     7
176
     0
 62
   257
176
     0
 90
        1
176
     0
 90
        1
176
     0
 40
1.0
176
     0
 90
        9
176
     2
 62
     7
176
     0
 40
1.0
176
     0
 90
        1
176
     0
 90
        6
176
     0
 90
        2
176
     0
 62
     7
176
     0
 90
        5
176
     0
 90
        0
176
     0
 90
        0
176
     0
290
     0
176
     0
 90
        1
176
     0
 40
0.0
176
     0
 90
        0
176
     0
290
     0
176
     0
290
     1
176
     0
290
     1
176
     0
290
     0
176
     0
290
     0
176
     0
290
     0
176
     0
290
     0
176
     0
290
     0
176
     0
290
     0
176
     0
 90
       50
176
     0
 40
0.0
176
     0
 40
1.0
176
     0
 90
        0
176
     0
 62
    18
420
        0
176
     0
 90
       50
176
     0
 90
        3
176
     0
 62
     5
420
      255
176
     0
290
     0
176
     0
 90
       50
176
     0
 90
       50
176
     0
 90
       50
176
     0
290
     0
176
     0
 90
       50
176
     0
 62
   256
176
     0
 40
1.0
176
     0
 90
        2
176
     0
  1
strokes_ogs.tif
176
     0
290
     0
176
     0
 40
1.0
176
     0
 40
1.0
176
     0
  0
VISUALSTYLE
  5
33
102
{ACAD_REACTORS
330
2A
102
}
330
2A
100
AcDbVisualStyle
  2
Realistic
 70
     8
177
     3
291
     0
 70
    58
 90
        2
176
     1
 90
        3
176
     1
 90
        0
176
     1
 90
        2
176
     1
 40
0.6
176
     1
 40
30.0
176
     1
 62
     7
420
 16777215
176
     1
 90
        0
176
     1
 90
        0
176
     1
 62
     7
176
     1
 62
   257
176
     1
 90
        1
176
     1
 90
        1
176
     1
 40
1.0
176
     1
 90
        8
176
     1
 62
   257
176
     1
 40
1.0
176
     1
 90
        1
176
     1
 90
        6
176
     1
 90
        2
176
     1
 62
     7
176
     1
 90
        3
176
     1
 90
        0
176
     1
 90
        0
176
     1
290
     0
176
     1
 90
       13
176
     1
 40
0.0
176
     1
 90
        0
176
     1
290
     0
176
     1
290
     1
176
     1
290
     1
176
     1
290
     0
176
     1
290
     0
176
     1
290
     0
176
     1
290
     0
176
     1
290
     0
176
     1
290
     0
176
     1
 90
       50
176
     1
 40
0.0
176
     1
 40
1.0
176
     1
 90
        0
176
     1
 62
    18
420
        0
176
     1
 90
       50
176
     1
 90
        3
176
     1
 62
     5
420
      255
176
     1
290
     0
176
     1
 90
       50
176
     1
 90
       50
176
     1
 90
       50
176
     1
290
     0
176
     1
 90
       50
176
     1
 62
   256
176
     0
 40
1.0
176
     0
 90
        2
176
     1
  1
strokes_ogs.tif
176
     1
290
     0
176
     1
 40
1.0
176
     1
 40
1.0
176
     1
  0
VISUALSTYLE
  5
42
102
{ACAD_REACTORS
330
2A
102
}
330
2A
100
AcDbVisualStyle
  2
Shaded
 70
    27
177
     3
291
     0
 70
    58
 90
        2
176
     1
 90
        2
176
     1
 90
        1
176
     1
 90
        2
176
     1
 40
0.6
176
     1
 40
30.0
176
     1
 62
     7
420
 16777215
176
     1
 90
        0
176
     1
 90
        4
176
     1
 62
     7
176
     1
 62
   257
176
     1
 90
        1
176
     1
 90
        1
176
     1
 40
1.0
176
     1
 90
        8
176
     1
 62
   257
176
     1
 40
1.0
176
     1
 90
        1
176
     1
 90
        6
176
     1
 90
        2
176
     1
 62
     8
420
  7895160
176
     1
 90
        3
176
     1
 90
        0
176
     1
 90
        0
176
     1
290
     0
176
     1
 90
        5
176
     1
 40
0.0
176
     1
 90
        0
176
     1
290
     0
176
     1
290
     1
176
     1
290
     1
176
     1
290
     0
176
     1
290
     0
176
     1
290
     0
176
     1
290
     0
176
     1
290
     0
176
     1
290
     0
176
     1
 90
       50
176
     1
 40
0.0
176
     1
 40
1.0
176
     1
 90
        0
176
     1
 62
    18
420
        0
176
     1
 90
       50
176
     1
 90
        3
176
     1
 62
     5
420
      255
176
     1
290
     0
176
     1
 90
       50
176
     1
 90
       50
176
     1
 90
       50
176
     1
290
     0
176
     1
 90
       50
176
     1
 62
   256
176
     0
 40
1.0
176
     0
 90
        2
176
     1
  1
strokes_ogs.tif
176
     1
290
     0
176
     1
 40
1.0
176
     1
 40
1.0
176
     1
  0
VISUALSTYLE
  5
41
102
{ACAD_REACTORS
330
2A
102
}
330
2A
100
AcDbVisualStyle
  2
Shaded with edges
 70
    26
177
     3
291
     0
 70
    58
 90
        2
176
     1
 90
        2
176
     1
 90
        1
176
     1
 90
        2
176
     1
 40
0.6
176
     1
 40
30.0
176
     1
 62
     7
420
 16777215
176
     1
 90
        1
176
     1
 90
       10
176
     1
 62
     7
176
     1
 62
   257
176
     1
 90
        2
176
     1
 90
        1
176
     1
 40
1.0
176
     1
 90
        8
176
     1
 62
   257
176
     1
 40
1.0
176
     1
 90
        1
176
     1
 90
        6
176
     1
 90
        2
176
     1
 62
     7
176
     1
 90
        3
176
     1
 90
        0
176
     1
 90
        0
176
     1
290
     0
176
     1
 90
        5
176
     1
 40
0.0
176
     1
 90
        0
176
     1
290
     0
176
     1
290
     1
176
     1
290
     1
176
     1
290
     0
176
     1
290
     0
176
     1
290
     0
176
     1
290
     0
176
     1
290
     0
176
     1
290
     0
176
     1
 90
       50
176
     1
 40
0.0
176
     1
 40
1.0
176
     1
 90
        0
176
     1
 62
    18
420
        0
176
     1
 90
       50
176
     1
 90
        3
176
     1
 62
     5
420
      255
176
     1
290
     0
176
     1
 90
       50
176
     1
 90
       50
176
     1
 90
       50
176
     1
290
     0
176
     1
 90
       50
176
     1
 62
   256
176
     0
 40
1.0
176
     0
 90
        2
176
     1
  1
strokes_ogs.tif
176
     1
290
     0
176
     1
 40
1.0
176
     1
 40
1.0
176
     1
  0
VISUALSTYLE
  5
3E
102
{ACAD_REACTORS
330
2A
102
}
330
2A
100
AcDbVisualStyle
  2
Shades of Gray
 70
    23
177
     3
291
     0
 70
    58
 90
        2
176
     1
 90
        2
176
     1
 90
        3
176
     1
 90
        0
176
     1
 40
0.6
176
     1
 40
30.0
176
     1
 62
     7
420
 16777215
176
     1
 90
        2
176
     1
 90
        2
176
     1
 62
     7
176
     1
 62
     7
176
     1
 90
        1
176
     1
 90
        1
176
     1
 40
40.0
176
     1
 90
        8
176
     1
 62
     7
176
     1
 40
1.0
176
     1
 90
        1
176
     1
 90
        6
176
     1
 90
        2
176
     1
 62
     7
176
     1
 90
        3
176
     1
 90
        0
176
     1
 90
        0
176
     1
290
     0
176
     1
 90
        1
176
     1
 40
0.0
176
     1
 90
        0
176
     1
290
     0
176
     1
290
     1
176
     1
290
     1
176
     1
290
     0
176
     1
290
     0
176
     1
290
     0
176
     1
290
     0
176
     1
290
     0
176
     1
290
     0
176
     1
 90
       50
176
     1
 40
0.0
176
     1
 40
1.0
176
     1
 90
        0
176
     1
 62
    18
420
        0
176
     1
 90
       50
176
     1
 90
        3
176
     1
 62
     5
420
      255
176
     1
290
     0
176
     1
 90
       50
176
     1
 90
       50
176
     1
 90
       50
176
     1
290
     0
176
     1
 90
       50
176
     1
 62
   256
176
     0
 40
1.0
176
     0
 90
        2
176
     1
  1
strokes_ogs.tif
176
     1
290
     0
176
     1
 40
1.0
176
     1
 40
1.0
176
     1
  0
VISUALSTYLE
  5
3F
102
{ACAD_REACTORS
330
2A
102
}
330
2A
100
AcDbVisualStyle
  2
Sketchy
 70
    24
177
     3
291
     0
 70
    58
 90
        1
176
     1
 90
        2
176
     1
 90
        2
176
     1
 90
        0
176
     1
 40
0.6
176
     1
 40
30.0
176
     1
 62
     7
420
 16777215
176
     1
 90
        2
176
     1
 90
        2
176
     1
 62
     7
176
     1
 62
     7
176
     1
 90
        1
176
     1
 90
        1
176
     1
 40
40.0
176
     1
 90
       11
176
     1
 62
     7
176
     1
 40
1.0
176
     1
 90
        1
176
     1
 90
        6
176
     1
 90
        2
176
     1
 62
     7
176
     1
 90
        6
176
     1
 90
        0
176
     1
 90
        0
176
     1
290
     0
176
     1
 90
        1
176
     1
 40
0.0
176
     1
 90
        0
176
     1
290
     0
176
     1
290
     1
176
     1
290
     1
176
     1
290
     0
176
     1
290
     0
176
     1
290
     0
176
     1
290
     0
176
     1
290
     0
176
     1
290
     0
176
     1
 90
       50
176
     1
 40
0.0
176
     1
 40
1.0
176
     1
 90
        0
176
     1
 62
    18
420
        0
176
     1
 90
       50
176
     1
 90
        3
176
     1
 62
     5
420
      255
176
     1
290
     0
176
     1
 90
       50
176
     1
 90
       50
176
     1
 90
       50
176
     1
290
     0
176
     1
 90
       50
176
     1
 62
   256
176
     0
 40
1.0
176
     0
 90
        2
176
     1
  1
strokes_ogs.tif
176
     1
290
     0
176
     1
 40
1.0
176
     1
 40
1.0
176
     1
  0
VISUALSTYLE
  5
37
102
{ACAD_REACTORS
330
2A
102
}
330
2A
100
AcDbVisualStyle
  2
Thicken
 70
    13
177
     3
291
     1
 70
    58
 90
        2
176
     1
 90
        2
176
     1
 90
        0
176
     1
 90
        0
176
     1
 40
0.6
176
     1
 40
30.0
176
     1
 62
     7
420
 16777215
176
     1
 90
        1
176
     1
 90
        4
176
     1
 62
     7
176
     1
 62
   257
176
     1
 90
        1
176
     1
 90
        1
176
     1
 40
1.0
176
     1
 90
       12
176
     1
 62
     7
176
     1
 40
1.0
176
     1
 90
        1
176
     1
 90
        6
176
     1
 90
        2
176
     1
 62
     7
176
     1
 90
        5
176
     1
 90
        0
176
     1
 90
        0
176
     1
290
     0
176
     1
 90
        1
176
     1
 40
0.0
176
     1
 90
        0
176
     1
290
     0
176
     1
290
     1
176
     1
290
     1
176
     1
290
     0
176
     1
290
     0
176
     1
290
     0
176
     1
290
     0
176
     1
290
     0
176
     1
290
     0
176
     1
 90
       50
176
     1
 40
0.0
176
     1
 40
1.0
176
     1
 90
        0
176
     1
 62
    18
420
        0
176
     1
 90
       50
176
     1
 90
        3
176
     1
 62
     5
420
      255
176
     1
290
     0
176
     1
 90
       50
176
     1
 90
       50
176
     1
 90
       50
176
     1
290
     0
176
     1
 90
       50
176
     1
 62
   256
176
     0
 40
1.0
176
     0
 90
        2
176
     1
  1
strokes_ogs.tif
176
     1
290
     0
176
     1
 40
1.0
176
     1
 40
1.0
176
     1
  0
VISUALSTYLE
  5
30
102
{ACAD_REACTORS
330
2A
102
}
330
2A
100
AcDbVisualStyle
  2
Wireframe
 70
     5
177
     3
291
     0
 70
    58
 90
        0
176
     1
 90
        2
176
     1
 90
        0
176
     1
 90
        0
176
     1
 40
0.6
176
     1
 40
30.0
176
     1
 62
     7
420
 16777215
176
     1
 90
        1
176
     1
 90
        4
176
     1
 62
     7
176
     1
 62
   257
176
     1
 90
        1
176
     1
 90
        1
176
     1
 40
1.0
176
     1
 90
        0
176
     1
 62
   257
176
     1
 40
1.0
176
     1
 90
        1
176
     1
 90
        6
176
     1
 90
        2
176
     1
 62
     7
176
     1
 90
        3
176
     1
 90
        0
176
     1
 90
        0
176
     1
290
     0
176
     1
 90
        1
176
     1
 40
0.0
176
     1
 90
        0
176
     1
290
     0
176
     1
290
     1
176
     1
290
     1
176
     1
290
     0
176
     1
290
     0
176
     1
290
     0
176
     1
290
     0
176
     1
290
     0
176
     1
290
     0
176
     1
 90
       50
176
     1
 40
0.0
176
     1
 40
1.0
176
     1
 90
        0
176
     1
 62
    18
420
        0
176
     1
 90
       50
176
     1
 90
        3
176
     1
 62
     5
420
      255
176
     1
290
     0
176
     1
 90
       50
176
     1
 90
       50
176
     1
 90
       50
176
     1
290
     0
176
     1
 90
       50
176
     1
 62
   256
176
     0
 40
1.0
176
     0
 90
        2
176
     1
  1
strokes_ogs.tif
176
     1
290
     0
176
     1
 40
1.0
176
     1
 40
1.0
176
     1
  0
VISUALSTYLE
  5
40
102
{ACAD_REACTORS
330
2A
102
}
330
2A
100
AcDbVisualStyle
  2
X-Ray
 70
    25
177
     3
291
     0
 70
    58
 90
        2
176
     1
 90
        2
176
     1
 90
        1
176
     1
 90
        1
176
     1
 40
0.5
176
     1
 40
30.0
176
     1
 62
     7
420
 16777215
176
     1
 90
        1
176
     1
 90
        0
176
     1
 62
     7
176
     1
 62
   257
176
     1
 90
        1
176
     1
 90
        1
176
     1
 40
1.0
176
     1
 90
        8
176
     1
 62
     7
176
     1
 40
1.0
176
     1
 90
        1
176
     1
 90
        6
176
     1
 90
        2
176
     1
 62
     7
176
     1
 90
        3
176
     1
 90
        0
176
     1
 90
        0
176
     1
290
     0
176
     1
 90
       13
176
     1
 40
0.0
176
     1
 90
        0
176
     1
290
     0
176
     1
290
     1
176
     1
290
     1
176
     1
290
     0
176
     1
290
     0
176
     1
290
     0
176
     1
290
     0
176
     1
290
     0
176
     1
290
     0
176
     1
 90
       50
176
     1
 40
0.0
176
     1
 40
1.0
176
     1
 90
        0
176
     1
 62
    18
420
        0
176
     1
 90
       50
176
     1
 90
        3
176
     1
 62
     5
420
      255
176
     1
290
     0
176
     1
 90
       50
176
     1
 90
       50
176
     1
 90
       50
176
     1
290
     0
176
     1
 90
       50
176
     1
 62
   256
176
     0
 40
1.0
176
     0
 90
        2
176
     1
  1
strokes_ogs.tif
176
     1
290
     0
176
     1
 40
1.0
176
     1
 40
1.0
176
     1
  0
DICTIONARYVAR
  5
26E
102
{ACAD_REACTORS
330
26D
102
}
330
26D
100
DictionaryVariables
280
     0
  1
1:1
  0
DICTIONARYVAR
  5
273
102
{ACAD_REACTORS
330
26D
102
}
330
26D
100
DictionaryVariables
280
     0
  1
Standard
  0
DICTIONARYVAR
  5
272
102
{ACAD_REACTORS
330
26D
102
}
330
26D
100
DictionaryVariables
280
     0
  1
Standard
  0
DICTIONARY
  5
26F
330
6A
100
AcDbDictionary
280
     1
281
     1
  3
ACAD_ROUNDTRIP_2008_TABLESTYLE_CELLSTYLEMAP
360
270
  0
CELLSTYLEMAP
  5
270
102
{ACAD_REACTORS
330
26F
102
}
330
26F
100
AcDbCellStyleMap
 90
        3
300
CELLSTYLE
  1
TABLEFORMAT_BEGIN
 90
        5
170
     1
 91
        0
 92
    32768
 62
   257
 93
        1
300
CONTENTFORMAT
  1
CONTENTFORMAT_BEGIN
 90
        0
 91
        0
 92
        4
 93
        0
300

 40
0.0
140
1.0
 94
        5
 62
     0
340
11
144
0.25
309
CONTENTFORMAT_END
171
     1
301
MARGIN
  1
CELLMARGIN_BEGIN
 40
0.06
 40
0.06
 40
0.06
 40
0.06
 40
0.06
 40
0.06
309
CELLMARGIN_END
 94
        6
 95
        1
302
GRIDFORMAT
  1
GRIDFORMAT_BEGIN
 90
        0
 91
        1
 62
     0
 92
       -2
340
14
 93
        0
 40
0.045
309
GRIDFORMAT_END
 95
        2
302
GRIDFORMAT
  1
GRIDFORMAT_BEGIN
 90
        0
 91
        1
 62
     0
 92
       -2
340
14
 93
        0
 40
0.045
309
GRIDFORMAT_END
 95
        4
302
GRIDFORMAT
  1
GRIDFORMAT_BEGIN
 90
        0
 91
        1
 62
     0
 92
       -2
340
14
 93
        0
 40
0.045
309
GRIDFORMAT_END
 95
        8
302
GRIDFORMAT
  1
GRIDFORMAT_BEGIN
 90
        0
 91
        1
 62
     0
 92
       -2
340
14
 93
        0
 40
0.045
309
GRIDFORMAT_END
 95
       16
302
GRIDFORMAT
  1
GRIDFORMAT_BEGIN
 90
        0
 91
        1
 62
     0
 92
       -2
340
14
 93
        0
 40
0.045
309
GRIDFORMAT_END
 95
       32
302
GRIDFORMAT
  1
GRIDFORMAT_BEGIN
 90
        0
 91
        1
 62
     0
 92
       -2
340
14
 93
        0
 40
0.045
309
GRIDFORMAT_END
309
TABLEFORMAT_END
  1
CELLSTYLE_BEGIN
 90
        1
 91
        1
300
_TITLE
309
CELLSTYLE_END
300
CELLSTYLE
  1
TABLEFORMAT_BEGIN
 90
        5
170
     1
 91
        0
 92
        0
 62
   257
 93
        1
300
CONTENTFORMAT
  1
CONTENTFORMAT_BEGIN
 90
        0
 91
        0
 92
        4
 93
        0
300

 40
0.0
140
1.0
 94
        5
 62
     0
340
11
144
0.18
309
CONTENTFORMAT_END
171
     1
301
MARGIN
  1
CELLMARGIN_BEGIN
 40
0.06
 40
0.06
 40
0.06
 40
0.06
 40
0.06
 40
0.06
309
CELLMARGIN_END
 94
        6
 95
        1
302
GRIDFORMAT
  1
GRIDFORMAT_BEGIN
 90
        0
 91
        1
 62
     0
 92
       -2
340
14
 93
        0
 40
0.045
309
GRIDFORMAT_END
 95
        2
302
GRIDFORMAT
  1
GRIDFORMAT_BEGIN
 90
        0
 91
        1
 62
     0
 92
       -2
340
14
 93
        0
 40
0.045
309
GRIDFORMAT_END
 95
        4
302
GRIDFORMAT
  1
GRIDFORMAT_BEGIN
 90
        0
 91
        1
 62
     0
 92
       -2
340
14
 93
        0
 40
0.045
309
GRIDFORMAT_END
 95
        8
302
GRIDFORMAT
  1
GRIDFORMAT_BEGIN
 90
        0
 91
        1
 62
     0
 92
       -2
340
14
 93
        0
 40
0.045
309
GRIDFORMAT_END
 95
       16
302
GRIDFORMAT
  1
GRIDFORMAT_BEGIN
 90
        0
 91
        1
 62
     0
 92
       -2
340
14
 93
        0
 40
0.045
309
GRIDFORMAT_END
 95
       32
302
GRIDFORMAT
  1
GRIDFORMAT_BEGIN
 90
        0
 91
        1
 62
     0
 92
       -2
340
14
 93
        0
 40
0.045
309
GRIDFORMAT_END
309
TABLEFORMAT_END
  1
CELLSTYLE_BEGIN
 90
        2
 91
        1
300
_HEADER
309
CELLSTYLE_END
300
CELLSTYLE
  1
TABLEFORMAT_BEGIN
 90
        5
170
     1
 91
        0
 92
        0
 62
   257
 93
        1
300
CONTENTFORMAT
  1
CONTENTFORMAT_BEGIN
 90
        0
 91
        0
 92
        4
 93
        0
300

 40
0.0
140
1.0
 94
        2
 62
     0
340
11
144
0.18
309
CONTENTFORMAT_END
171
     1
301
MARGIN
  1
CELLMARGIN_BEGIN
 40
0.06
 40
0.06
 40
0.06
 40
0.06
 40
0.06
 40
0.06
309
CELLMARGIN_END
 94
        6
 95
        1
302
GRIDFORMAT
  1
GRIDFORMAT_BEGIN
 90
        0
 91
        1
 62
     0
 92
       -2
340
14
 93
        0
 40
0.045
309
GRIDFORMAT_END
 95
        2
302
GRIDFORMAT
  1
GRIDFORMAT_BEGIN
 90
        0
 91
        1
 62
     0
 92
       -2
340
14
 93
        0
 40
0.045
309
GRIDFORMAT_END
 95
        4
302
GRIDFORMAT
  1
GRIDFORMAT_BEGIN
 90
        0
 91
        1
 62
     0
 92
       -2
340
14
 93
        0
 40
0.045
309
GRIDFORMAT_END
 95
        8
302
GRIDFORMAT
  1
GRIDFORMAT_BEGIN
 90
        0
 91
        1
 62
     0
 92
       -2
340
14
 93
        0
 40
0.045
309
GRIDFORMAT_END
 95
       16
302
GRIDFORMAT
  1
GRIDFORMAT_BEGIN
 90
        0
 91
        1
 62
     0
 92
       -2
340
14
 93
        0
 40
0.045
309
GRIDFORMAT_END
 95
       32
302
GRIDFORMAT
  1
GRIDFORMAT_BEGIN
 90
        0
 91
        1
 62
     0
 92
       -2
340
14
 93
        0
 40
0.045
309
GRIDFORMAT_END
309
TABLEFORMAT_END
  1
CELLSTYLE_BEGIN
 90
        3
 91
        2
300
_DATA
309
CELLSTYLE_END
  0
ENDSEC
  0
EOF