0
SECTION
  2
HEADER
  9
$ACADVER
  1
AC1027
  9
$ACADMAINTVER
 70
     8
  9
$DWGCODEPAGE
  3
ANSI_1252
  9
$REQUIREDVERSIONS
160
                 0
  9
$COMMENTS
  1
File was created by Cadenas
  9
$CUSTOMPROPERTYTAG
  1
NN
  9
$CUSTOMPROPERTY
  1
S-2000 Piloted Flange Trident Seal
  9
$CUSTOMPROPERTYTAG
  1
NT
  9
$CUSTOMPROPERTY
  1
S-2000 Piloted Flange Bearing -Inch
  9
$CUSTOMPROPERTYTAG
  1
NB
  9
$CUSTOMPROPERTY
  1
070654
  9
$CUSTOMPROPERTYTAG
  1
NBSYN
  9
$CUSTOMPROPERTY
  1
$PN.
  9
$CUSTOMPROPERTYTAG
  1
LINA
  9
$CUSTOMPROPERTY
  1
070654
  9
$CUSTOMPROPERTYTAG
  1
SS
  9
$CUSTOMPROPERTY
  1
2-7/16
  9
$CUSTOMPROPERTYTAG
  1
PN
  9
$CUSTOMPROPERTY
  1
070654
  9
$CUSTOMPROPERTYTAG
  1
DESCRIPTION
  9
$CUSTOMPROPERTY
  1
FC-S2-207R
  9
$CUSTOMPROPERTYTAG
  1
EF
  9
$CUSTOMPROPERTY
  1
Non-Expansion Type
  9
$CUSTOMPROPERTYTAG
  1
ST
  9
$CUSTOMPROPERTY
  1
Contact Seal
  9
$CUSTOMPROPERTYTAG
  1
A
  9
$CUSTOMPROPERTY
  1
3-13/64
  9
$CUSTOMPROPERTYTAG
  1
B
  9
$CUSTOMPROPERTY
  1
7-5/8
  9
$CUSTOMPROPERTYTAG
  1
C
  9
$CUSTOMPROPERTY
  1
2-1/2
  9
$CUSTOMPROPERTYTAG
  1
D
  9
$CUSTOMPROPERTY
  1
4-19/32
  9
$CUSTOMPROPERTYTAG
  1
DD
  9
$CUSTOMPROPERTY
  1
6-1/2
  9
$CUSTOMPROPERTYTAG
  1
E
  9
$CUSTOMPROPERTY
  1
1
  9
$CUSTOMPROPERTYTAG
  1
F
  9
$CUSTOMPROPERTY
  1
1/2
  9
$CUSTOMPROPERTYTAG
  1
G
  9
$CUSTOMPROPERTY
  1
1-41/64
  9
$CUSTOMPROPERTYTAG
  1
H
  9
$CUSTOMPROPERTY
  1
5/8
  9
$CUSTOMPROPERTYTAG
  1
K
  9
$CUSTOMPROPERTY
  1
5.500
  9
$CUSTOMPROPERTYTAG
  1
L
  9
$CUSTOMPROPERTY
  1
4-1/16
  9
$CUSTOMPROPERTYTAG
  1
M
  9
$CUSTOMPROPERTY
  1
1/2-13
  9
$CUSTOMPROPERTYTAG
  1
N
  9
$CUSTOMPROPERTY
  1
3-13/64
  9
$CUSTOMPROPERTYTAG
  1
P
  9
$CUSTOMPROPERTY
  1
1-9/16
  9
$CUSTOMPROPERTYTAG
  1
Q
  9
$CUSTOMPROPERTY
  1
1-9/16
  9
$CUSTOMPROPERTYTAG
  1
X
  9
$CUSTOMPROPERTY
  1
1/4
  9
$CUSTOMPROPERTYTAG
  1
Y
  9
$CUSTOMPROPERTY
  1
0.025
  9
$CUSTOMPROPERTYTAG
  1
Z
  9
$CUSTOMPROPERTY
  1
2-15/16
  9
$CUSTOMPROPERTYTAG
  1
COMPANY
  9
$CUSTOMPROPERTY
  1
baldor
  9
$INSBASE
 10
0.0
 20
0.0
 30
0.0
  9
$EXTMIN
 10
1.000000000000000E+20
 20
1.000000000000000E+20
 30
1.000000000000000E+20
  9
$EXTMAX
 10
-1.000000000000000E+20
 20
-1.000000000000000E+20
 30
-1.000000000000000E+20
  9
$LIMMIN
 10
0.0
 20
0.0
  9
$LIMMAX
 10
12.0
 20
9.0
  9
$ORTHOMODE
 70
     0
  9
$REGENMODE
 70
     1
  9
$FILLMODE
 70
     1
  9
$QTEXTMODE
 70
     0
  9
$MIRRTEXT
 70
     1
  9
$LTSCALE
 40
1.0
  9
$ATTMODE
 70
     1
  9
$TEXTSIZE
 40
0.2
  9
$TRACEWID
 40
0.05
  9
$TEXTSTYLE
  7
Standard
  9
$CLAYER
  8
0
  9
$CELTYPE
  6
ByLayer
  9
$CECOLOR
 62
   256
  9
$CELTSCALE
 40
1.0
  9
$DISPSILH
 70
     0
  9
$DIMSCALE
 40
1.0
  9
$DIMASZ
 40
0.18
  9
$DIMEXO
 40
0.0625
  9
$DIMDLI
 40
0.38
  9
$DIMRND
 40
0.0
  9
$DIMDLE
 40
0.0
  9
$DIMEXE
 40
0.18
  9
$DIMTP
 40
0.0
  9
$DIMTM
 40
0.0
  9
$DIMTXT
 40
0.18
  9
$DIMCEN
 40
0.09
  9
$DIMTSZ
 40
0.0
  9
$DIMTOL
 70
     0
  9
$DIMLIM
 70
     0
  9
$DIMTIH
 70
     1
  9
$DIMTOH
 70
     1
  9
$DIMSE1
 70
     0
  9
$DIMSE2
 70
     0
  9
$DIMTAD
 70
     0
  9
$DIMZIN
 70
     0
  9
$DIMBLK
  1

  9
$DIMASO
 70
     1
  9
$DIMSHO
 70
     1
  9
$DIMPOST
  1

  9
$DIMAPOST
  1

  9
$DIMALT
 70
     0
  9
$DIMALTD
 70
     2
  9
$DIMALTF
 40
25.4
  9
$DIMLFAC
 40
1.0
  9
$DIMTOFL
 70
     0
  9
$DIMTVP
 40
0.0
  9
$DIMTIX
 70
     0
  9
$DIMSOXD
 70
     0
  9
$DIMSAH
 70
     0
  9
$DIMBLK1
  1

  9
$DIMBLK2
  1

  9
$DIMSTYLE
  2
Standard
  9
$DIMCLRD
 70
     0
  9
$DIMCLRE
 70
     0
  9
$DIMCLRT
 70
     0
  9
$DIMTFAC
 40
1.0
  9
$DIMGAP
 40
0.09
  9
$DIMJUST
 70
     0
  9
$DIMSD1
 70
     0
  9
$DIMSD2
 70
     0
  9
$DIMTOLJ
 70
     1
  9
$DIMTZIN
 70
     0
  9
$DIMALTZ
 70
     0
  9
$DIMALTTZ
 70
     0
  9
$DIMUPT
 70
     0
  9
$DIMDEC
 70
     4
  9
$DIMTDEC
 70
     4
  9
$DIMALTU
 70
     2
  9
$DIMALTTD
 70
     2
  9
$DIMTXSTY
  7
Standard
  9
$DIMAUNIT
 70
     0
  9
$DIMADEC
 70
     0
  9
$DIMALTRND
 40
0.0
  9
$DIMAZIN
 70
     0
  9
$DIMDSEP
 70
    46
  9
$DIMATFIT
 70
     3
  9
$DIMFRAC
 70
     0
  9
$DIMLDRBLK
  1

  9
$DIMLUNIT
 70
     2
  9
$DIMLWD
 70
    -2
  9
$DIMLWE
 70
    -2
  9
$DIMTMOVE
 70
     0
  9
$DIMFXL
 40
1.0
  9
$DIMFXLON
 70
     0
  9
$DIMJOGANG
 40
0.7853981633974483
  9
$DIMTFILL
 70
     0
  9
$DIMTFILLCLR
 70
     0
  9
$DIMARCSYM
 70
     0
  9
$DIMLTYPE
  6

  9
$DIMLTEX1
  6

  9
$DIMLTEX2
  6

  9
$DIMTXTDIRECTION
 70
     0
  9
$LUNITS
 70
     2
  9
$LUPREC
 70
     4
  9
$SKETCHINC
 40
0.1
  9
$FILLETRAD
 40
0.5
  9
$AUNITS
 70
     0
  9
$AUPREC
 70
     0
  9
$MENU
  1
.
  9
$ELEVATION
 40
0.0
  9
$PELEVATION
 40
0.0
  9
$THICKNESS
 40
0.0
  9
$LIMCHECK
 70
     0
  9
$CHAMFERA
 40
0.0
  9
$CHAMFERB
 40
0.0
  9
$CHAMFERC
 40
0.0
  9
$CHAMFERD
 40
0.0
  9
$SKPOLY
 70
     0
  9
$TDCREATE
 40
2458168.957458264
  9
$TDUCREATE
 40
2458168.915791597
  9
$TDUPDATE
 40
2458168.957458449
  9
$TDUUPDATE
 40
2458168.915791783
  9
$TDINDWG
 40
0.0000000116
  9
$TDUSRTIMER
 40
0.0000000116
  9
$USRTIMER
 70
     1
  9
$ANGBASE
 50
0.0
  9
$ANGDIR
 70
     0
  9
$PDMODE
 70
     0
  9
$PDSIZE
 40
0.0
  9
$PLINEWID
 40
0.0
  9
$SPLFRAME
 70
     0
  9
$SPLINETYPE
 70
     6
  9
$SPLINESEGS
 70
     8
  9
$HANDSEED
  5
22C
  9
$SURFTAB1
 70
     6
  9
$SURFTAB2
 70
     6
  9
$SURFTYPE
 70
     6
  9
$SURFU
 70
     6
  9
$SURFV
 70
     6
  9
$UCSBASE
  2

  9
$UCSNAME
  2

  9
$UCSORG
 10
0.0
 20
0.0
 30
0.0
  9
$UCSXDIR
 10
1.0
 20
0.0
 30
0.0
  9
$UCSYDIR
 10
0.0
 20
1.0
 30
0.0
  9
$UCSORTHOREF
  2

  9
$UCSORTHOVIEW
 70
     0
  9
$UCSORGTOP
 10
0.0
 20
0.0
 30
0.0
  9
$UCSORGBOTTOM
 10
0.0
 20
0.0
 30
0.0
  9
$UCSORGLEFT
 10
0.0
 20
0.0
 30
0.0
  9
$UCSORGRIGHT
 10
0.0
 20
0.0
 30
0.0
  9
$UCSORGFRONT
 10
0.0
 20
0.0
 30
0.0
  9
$UCSORGBACK
 10
0.0
 20
0.0
 30
0.0
  9
$PUCSBASE
  2

  9
$PUCSNAME
  2

  9
$PUCSORG
 10
0.0
 20
0.0
 30
0.0
  9
$PUCSXDIR
 10
1.0
 20
0.0
 30
0.0
  9
$PUCSYDIR
 10
0.0
 20
1.0
 30
0.0
  9
$PUCSORTHOREF
  2

  9
$PUCSORTHOVIEW
 70
     0
  9
$PUCSORGTOP
 10
0.0
 20
0.0
 30
0.0
  9
$PUCSORGBOTTOM
 10
0.0
 20
0.0
 30
0.0
  9
$PUCSORGLEFT
 10
0.0
 20
0.0
 30
0.0
  9
$PUCSORGRIGHT
 10
0.0
 20
0.0
 30
0.0
  9
$PUCSORGFRONT
 10
0.0
 20
0.0
 30
0.0
  9
$PUCSORGBACK
 10
0.0
 20
0.0
 30
0.0
  9
$USERI1
 70
     0
  9
$USERI2
 70
     0
  9
$USERI3
 70
     0
  9
$USERI4
 70
     0
  9
$USERI5
 70
     0
  9
$USERR1
 40
0.0
  9
$USERR2
 40
0.0
  9
$USERR3
 40
0.0
  9
$USERR4
 40
0.0
  9
$USERR5
 40
0.0
  9
$WORLDVIEW
 70
     1
  9
$SHADEDGE
 70
     3
  9
$SHADEDIF
 70
    70
  9
$TILEMODE
 70
     1
  9
$MAXACTVP
 70
    64
  9
$PINSBASE
 10
0.0
 20
0.0
 30
0.0
  9
$PLIMCHECK
 70
     0
  9
$PEXTMIN
 10
1.000000000000000E+20
 20
1.000000000000000E+20
 30
1.000000000000000E+20
  9
$PEXTMAX
 10
-1.000000000000000E+20
 20
-1.000000000000000E+20
 30
-1.000000000000000E+20
  9
$PLIMMIN
 10
0.0
 20
0.0
  9
$PLIMMAX
 10
12.0
 20
9.0
  9
$UNITMODE
 70
     0
  9
$VISRETAIN
 70
     1
  9
$PLINEGEN
 70
     0
  9
$PSLTSCALE
 70
     1
  9
$TREEDEPTH
 70
  3020
  9
$CMLSTYLE
  2
Standard
  9
$CMLJUST
 70
     0
  9
$CMLSCALE
 40
1.0
  9
$PROXYGRAPHICS
 70
     1
  9
$MEASUREMENT
 70
     0
  9
$CELWEIGHT
370
    -1
  9
$ENDCAPS
280
     0
  9
$JOINSTYLE
280
     0
  9
$LWDISPLAY
290
     0
  9
$INSUNITS
 70
     1
  9
$HYPERLINKBASE
  1

  9
$STYLESHEET
  1

  9
$XEDIT
290
     1
  9
$CEPSNTYPE
380
     0
  9
$PSTYLEMODE
290
     1
  9
$FINGERPRINTGUID
  2
{470737F9-60C3-4E1F-AFB9-BF25F63513D7}
  9
$VERSIONGUID
  2
{FAEB1C32-E019-11D5-929B-00C0DF256EC4}
  9
$EXTNAMES
290
     1
  9
$PSVPSCALE
 40
0.0
  9
$OLESTARTUP
290
     0
  9
$SORTENTS
280
   127
  9
$INDEXCTL
280
     0
  9
$HIDETEXT
280
     1
  9
$XCLIPFRAME
280
     2
  9
$HALOGAP
280
     0
  9
$OBSCOLOR
 70
   257
  9
$OBSLTYPE
280
     0
  9
$INTERSECTIONDISPLAY
280
     0
  9
$INTERSECTIONCOLOR
 70
   257
  9
$DIMASSOC
280
     2
  9
$PROJECTNAME
  1

  9
$CAMERADISPLAY
290
     0
  9
$LENSLENGTH
 40
50.0
  9
$CAMERAHEIGHT
 40
0.0
  9
$STEPSPERSEC
 40
2.0
  9
$STEPSIZE
 40
6.0
  9
$3DDWFPREC
 40
2.0
  9
$PSOLWIDTH
 40
0.25
  9
$PSOLHEIGHT
 40
4.0
  9
$LOFTANG1
 40
1.570796326794897
  9
$LOFTANG2
 40
1.570796326794897
  9
$LOFTMAG1
 40
0.0
  9
$LOFTMAG2
 40
0.0
  9
$LOFTPARAM
 70
     7
  9
$LOFTNORMALS
280
     1
  9
$LATITUDE
 40
37.795
  9
$LONGITUDE
 40
-122.394
  9
$NORTHDIRECTION
 40
0.0
  9
$TIMEZONE
 70
 -8000
  9
$LIGHTGLYPHDISPLAY
280
     1
  9
$TILEMODELIGHTSYNCH
280
     1
  9
$CMATERIAL
347
44
  9
$SOLIDHIST
280
     0
  9
$SHOWHIST
280
     1
  9
$DWFFRAME
280
     2
  9
$DGNFRAME
280
     2
  9
$REALWORLDSCALE
290
     1
  9
$INTERFERECOLOR
 62
   256
  9
$CSHADOW
280
     0
  9
$SHADOWPLANELOCATION
 40
0.0
  0
ENDSEC
  0
SECTION
  2
CLASSES
  0
CLASS
  1
ACDBDICTIONARYWDFLT
  2
AcDbDictionaryWithDefault
  3
ObjectDBX Classes
 90
        0
 91
        4
280
     0
281
     0
  0
CLASS
  1
VISUALSTYLE
  2
AcDbVisualStyle
  3
ObjectDBX Classes
 90
     4095
 91
        4
280
     0
281
     0
  0
CLASS
  1
MATERIAL
  2
AcDbMaterial
  3
ObjectDBX Classes
 90
     1153
 91
        4
280
     0
281
     0
  0
CLASS
  1
SCALE
  2
AcDbScale
  3
ObjectDBX Classes
 90
     1153
 91
        4
280
     0
281
     0
  0
CLASS
  1
TABLESTYLE
  2
AcDbTableStyle
  3
ObjectDBX Classes
 90
     4095
 91
        4
280
     0
281
     0
  0
CLASS
  1
MLEADERSTYLE
  2
AcDbMLeaderStyle
  3
ACDB_MLEADERSTYLE_CLASS
 90
     4095
 91
        4
280
     0
281
     0
  0
CLASS
  1
SUN
  2
AcDbSun
  3
SCENEOE
 90
     1153
 91
        4
280
     0
281
     0
  0
CLASS
  1
DICTIONARYVAR
  2
AcDbDictionaryVar
  3
ObjectDBX Classes
 90
        0
 91
        4
280
     0
281
     0
  0
CLASS
  1
CELLSTYLEMAP
  2
AcDbCellStyleMap
  3
ObjectDBX Classes
 90
     1152
 91
        4
280
     0
281
     0
  0
ENDSEC
  0
SECTION
  2
TABLES
  0
TABLE
  2
VPORT
  5
8
330
0
100
AcDbSymbolTable
 70
     1
  0
VPORT
  5
29
330
8
100
AcDbSymbolTableRecord
100
AcDbViewportTableRecord
  2
*Active
 70
     0
 10
0.0
 20
0.0
 11
1.0
 21
1.0
 12
0.0000000000000036
 22
0.2744218749999998
 13
0.0
 23
0.0
 14
0.5
 24
0.5
 15
0.5
 25
0.5
 16
0.0
 26
0.0
 36
1.0
 17
0.0
 27
0.0
 37
0.0
 40
4.233414375
 41
1.837169554185208
 42
50.0
 43
0.0
 44
0.0
 50
0.0
 51
0.0
 71
     0
 72
   100
 73
     1
 74
     3
 75
     0
 76
     0
 77
     0
 78
     0
281
     0
 65
     1
110
0.0
120
0.0
130
0.0
111
1.0
121
0.0
131
0.0
112
0.0
122
1.0
132
0.0
 79
     0
146
0.0
348
2F
 60
     3
 61
     5
292
     1
282
     1
141
0.0
142
0.0
 63
   250
361
6D
  0
ENDTAB
  0
TABLE
  2
LTYPE
  5
5
330
0
100
AcDbSymbolTable
 70
     3
  0
LTYPE
  5
14
330
5
100
AcDbSymbolTableRecord
100
AcDbLinetypeTableRecord
  2
ByBlock
 70
     0
  3

 72
    65
 73
     0
 40
0.0
  0
LTYPE
  5
15
330
5
100
AcDbSymbolTableRecord
100
AcDbLinetypeTableRecord
  2
ByLayer
 70
     0
  3

 72
    65
 73
     0
 40
0.0
  0
LTYPE
  5
16
330
5
100
AcDbSymbolTableRecord
100
AcDbLinetypeTableRecord
  2
Continuous
 70
     0
  3
Solid line
 72
    65
 73
     0
 40
0.0
  0
LTYPE
  5
A7
330
5
100
AcDbSymbolTableRecord
100
AcDbLinetypeTableRecord
  2
Dashed
 70
     0
  3

 72
    65
 73
     2
 40
2.0
 49
1.0
 74
     0
 49
-1.0
 74
     0
  0
LTYPE
  5
14C
330
5
100
AcDbSymbolTableRecord
100
AcDbLinetypeTableRecord
  2
Center
 70
     0
  3

 72
    65
 73
     4
 40
1.5
 49
0.45
 74
     0
 49
-0.5
 74
     0
 49
0.05
 74
     0
 49
-0.5
 74
     0
  0
ENDTAB
  0
TABLE
  2
LAYER
  5
2
330
0
100
AcDbSymbolTable
 70
     7
  0
LAYER
  5
10
330
2
100
AcDbSymbolTableRecord
100
AcDbLayerTableRecord
  2
0
 70
     0
 62
     7
  6
Continuous
370
    -3
390
F
347
46
348
0
  0
LAYER
  5
72
330
2
100
AcDbSymbolTableRecord
100
AcDbLayerTableRecord
  2
AM_6
 70
     0
 62
    -2
  6
Continuous
370
    35
390
F
347
46
348
0
  0
LAYER
  5
A8
330
2
100
AcDbSymbolTableRecord
100
AcDbLayerTableRecord
  2
AM_9
 70
     0
 62
     6
  6
Dashed
370
    25
390
F
347
46
348
0
  0
LAYER
  5
DF
330
2
100
AcDbSymbolTableRecord
100
AcDbLayerTableRecord
  2
AM_5
 70
     0
 62
     3
  6
Continuous
370
    25
390
F
347
46
348
0
  0
LAYER
  5
E2
330
2
100
AcDbSymbolTableRecord
100
AcDbLayerTableRecord
  2
AM_4
 70
     0
 62
     7
  6
Continuous
370
    50
390
F
347
46
348
0
  0
LAYER
  5
14D
330
2
100
AcDbSymbolTableRecord
100
AcDbLayerTableRecord
  2
AM_7
 70
     0
 62
     7
  6
Center
370
    25
390
F
347
46
348
0
  0
LAYER
  5
218
330
2
100
AcDbSymbolTableRecord
100
AcDbLayerTableRecord
  2
ConnectionPoints
 70
     0
 62
     7
  6
Continuous
370
    50
390
F
347
46
348
0
  0
ENDTAB
  0
TABLE
  2
STYLE
  5
3
330
0
100
AcDbSymbolTable
 70
     1
  0
STYLE
  5
11
330
3
100
AcDbSymbolTableRecord
100
AcDbTextStyleTableRecord
  2
Standard
 70
     0
 40
0.0
 41
1.0
 50
0.0
 71
     0
 42
0.2
  3
txt
  4

  0
ENDTAB
  0
TABLE
  2
VIEW
  5
6
330
0
100
AcDbSymbolTable
 70
     0
  0
ENDTAB
  0
TABLE
  2
UCS
  5
7
330
0
100
AcDbSymbolTable
 70
     0
  0
ENDTAB
  0
TABLE
  2
APPID
  5
9
330
0
100
AcDbSymbolTable
 70
     1
  0
APPID
  5
12
330
9
100
AcDbSymbolTableRecord
100
AcDbRegAppTableRecord
  2
ACAD
 70
     0
  0
ENDTAB
  0
TABLE
  2
DIMSTYLE
  5
A
330
0
100
AcDbSymbolTable
 70
     1
100
AcDbDimStyleTable
  0
DIMSTYLE
105
27
330
A
100
AcDbSymbolTableRecord
100
AcDbDimStyleTableRecord
  2
Standard
 70
     0
178
     0
340
11
  0
ENDTAB
  0
TABLE
  2
BLOCK_RECORD
  5
1
330
0
100
AcDbSymbolTable
 70
     7
  0
BLOCK_RECORD
  5
1F
330
1
100
AcDbSymbolTableRecord
100
AcDbBlockTableRecord
  2
*Model_Space
340
22
 70
     0
280
     1
281
     0
  0
BLOCK_RECORD
  5
1B
330
1
100
AcDbSymbolTableRecord
100
AcDbBlockTableRecord
  2
*Paper_Space
340
1E
 70
     0
280
     1
281
     0
  0
BLOCK_RECORD
  5
23
330
1
100
AcDbSymbolTableRecord
100
AcDbBlockTableRecord
  2
*Paper_Space0
340
26
 70
     0
280
     1
281
     0
  0
BLOCK_RECORD
  5
6E
330
1
100
AcDbSymbolTableRecord
100
AcDbBlockTableRecord
  2
1_070654_4
340
0
102
{BLKREFS
331
6F
102
}
 70
     0
280
     1
281
     0
  0
BLOCK_RECORD
  5
90
330
1
100
AcDbSymbolTableRecord
100
AcDbBlockTableRecord
  2
2_2_7_16_Disc_0_in_070654_4
340
0
102
{BLKREFS
331
91
102
}
 70
     0
280
     1
281
     0
  0
BLOCK_RECORD
  5
B4
330
1
100
AcDbSymbolTableRecord
100
AcDbBlockTableRecord
  2
3_2_7_16CS2i_0_in_070654_4
340
0
102
{BLKREFS
331
B5
102
}
 70
     0
280
     1
281
     0
  0
BLOCK_RECORD
  5
FF
330
1
100
AcDbSymbolTableRecord
100
AcDbBlockTableRecord
  2
4_070008i_0_in_070654_4
340
0
102
{BLKREFS
331
100
102
}
 70
     0
280
     1
281
     0
  0
BLOCK_RECORD
  5
151
330
1
100
AcDbSymbolTableRecord
100
AcDbBlockTableRecord
  2
5_405015E_Inch_0_in_070654_4
340
0
102
{BLKREFS
331
152
102
}
 70
     0
280
     1
281
     0
  0
BLOCK_RECORD
  5
1A6
330
1
100
AcDbSymbolTableRecord
100
AcDbBlockTableRecord
  2
6_070654H_0_in_070654_4
340
0
102
{BLKREFS
331
1A7
102
}
 70
     0
280
     1
281
     0
  0
ENDTAB
  0
ENDSEC
  0
SECTION
  2
BLOCKS
  0
BLOCK
  5
20
330
1F
100
AcDbEntity
  8
0
100
AcDbBlockBegin
  2
*Model_Space
 70
     0
 10
0.0
 20
0.0
 30
0.0
  3
*Model_Space
  1

  0
ENDBLK
  5
21
330
1F
100
AcDbEntity
  8
0
100
AcDbBlockEnd
  0
BLOCK
  5
1C
330
1B
100
AcDbEntity
 67
     1
  8
0
100
AcDbBlockBegin
  2
*Paper_Space
 70
     0
 10
0.0
 20
0.0
 30
0.0
  3
*Paper_Space
  1

  0
ENDBLK
  5
1D
330
1B
100
AcDbEntity
 67
     1
  8
0
100
AcDbBlockEnd
  0
BLOCK
  5
24
330
23
100
AcDbEntity
  8
0
100
AcDbBlockBegin
  2
*Paper_Space0
 70
     0
 10
0.0
 20
0.0
 30
0.0
  3
*Paper_Space0
  1

  0
ENDBLK
  5
25
330
23
100
AcDbEntity
  8
0
100
AcDbBlockEnd
  0
BLOCK
  5
70
330
6E
100
AcDbEntity
  8
0
100
AcDbBlockBegin
  2
1_070654_4
 70
     2
 10
0.0
 20
0.0
 30
0.0
  3
1_070654_4
  1

  0
ATTDEF
  5
73
330
6E
100
AcDbEntity
  8
AM_6
100
AcDbText
 10
8.812500000000004
 20
1.72265625
 30
0.0
 40
0.5
  1
S-2000 Piloted Flange Trident Seal
100
AcDbAttributeDefinition
  3

  2
NN
 70
     8
280
     0
  0
ATTDEF
  5
74
330
6E
100
AcDbEntity
  8
AM_6
100
AcDbText
 10
8.812500000000004
 20
1.22265625
 30
0.0
 40
0.5
  1
S-2000 Piloted Flange Bearing -Inch
100
AcDbAttributeDefinition
  3

  2
NT
 70
     8
280
     0
  0
ATTDEF
  5
75
330
6E
100
AcDbEntity
  8
AM_6
100
AcDbText
 10
8.812500000000004
 20
0.72265625
 30
0.0
 40
0.5
  1
070654
100
AcDbAttributeDefinition
  3

  2
NB
 70
     8
280
     0
  0
ATTDEF
  5
76
330
6E
100
AcDbEntity
  8
AM_6
100
AcDbText
 10
8.812500000000004
 20
0.22265625
 30
0.0
 40
0.5
  1
$PN.
100
AcDbAttributeDefinition
  3

  2
NBSYN
 70
     8
280
     0
  0
ATTDEF
  5
77
330
6E
100
AcDbEntity
  8
AM_6
100
AcDbText
 10
8.812500000000004
 20
-0.27734375
 30
0.0
 40
0.5
  1
070654
100
AcDbAttributeDefinition
  3

  2
LINA
 70
     8
280
     0
  0
ATTDEF
  5
78
330
6E
100
AcDbEntity
  8
AM_6
100
AcDbText
 10
8.812500000000004
 20
-0.77734375
 30
0.0
 40
0.5
  1
2-7/16
100
AcDbAttributeDefinition
  3

  2
SS
 70
     8
280
     0
  0
ATTDEF
  5
79
330
6E
100
AcDbEntity
  8
AM_6
100
AcDbText
 10
8.812500000000004
 20
-1.27734375
 30
0.0
 40
0.5
  1
070654
100
AcDbAttributeDefinition
  3

  2
PN
 70
     8
280
     0
  0
ATTDEF
  5
7A
330
6E
100
AcDbEntity
  8
AM_6
100
AcDbText
 10
8.812500000000004
 20
-1.77734375
 30
0.0
 40
0.5
  1
FC-S2-207R
100
AcDbAttributeDefinition
  3

  2
DESCRIPTION
 70
     8
280
     0
  0
ATTDEF
  5
7B
330
6E
100
AcDbEntity
  8
AM_6
100
AcDbText
 10
8.812500000000004
 20
-2.27734375
 30
0.0
 40
0.5
  1
Non-Expansion Type
100
AcDbAttributeDefinition
  3

  2
EF
 70
     8
280
     0
  0
ATTDEF
  5
7C
330
6E
100
AcDbEntity
  8
AM_6
100
AcDbText
 10
8.812500000000004
 20
-2.77734375
 30
0.0
 40
0.5
  1
Contact Seal
100
AcDbAttributeDefinition
  3

  2
ST
 70
     8
280
     0
  0
ATTDEF
  5
7D
330
6E
100
AcDbEntity
  8
AM_6
100
AcDbText
 10
8.812500000000004
 20
-3.27734375
 30
0.0
 40
0.5
  1
3-13/64
100
AcDbAttributeDefinition
  3

  2
A
 70
     8
280
     0
  0
ATTDEF
  5
7E
330
6E
100
AcDbEntity
  8
AM_6
100
AcDbText
 10
8.812500000000004
 20
-3.77734375
 30
0.0
 40
0.5
  1
7-5/8
100
AcDbAttributeDefinition
  3

  2
B
 70
     8
280
     0
  0
ATTDEF
  5
7F
330
6E
100
AcDbEntity
  8
AM_6
100
AcDbText
 10
8.812500000000004
 20
-4.27734375
 30
0.0
 40
0.5
  1
2-1/2
100
AcDbAttributeDefinition
  3

  2
C
 70
     8
280
     0
  0
ATTDEF
  5
80
330
6E
100
AcDbEntity
  8
AM_6
100
AcDbText
 10
8.812500000000004
 20
-4.77734375
 30
0.0
 40
0.5
  1
4-19/32
100
AcDbAttributeDefinition
  3

  2
D
 70
     8
280
     0
  0
ATTDEF
  5
81
330
6E
100
AcDbEntity
  8
AM_6
100
AcDbText
 10
8.812500000000004
 20
-5.27734375
 30
0.0
 40
0.5
  1
6-1/2
100
AcDbAttributeDefinition
  3

  2
DD
 70
     8
280
     0
  0
ATTDEF
  5
82
330
6E
100
AcDbEntity
  8
AM_6
100
AcDbText
 10
8.812500000000004
 20
-5.77734375
 30
0.0
 40
0.5
  1
1
100
AcDbAttributeDefinition
  3

  2
E
 70
     8
280
     0
  0
ATTDEF
  5
83
330
6E
100
AcDbEntity
  8
AM_6
100
AcDbText
 10
8.812500000000004
 20
-6.27734375
 30
0.0
 40
0.5
  1
1/2
100
AcDbAttributeDefinition
  3

  2
F
 70
     8
280
     0
  0
ATTDEF
  5
84
330
6E
100
AcDbEntity
  8
AM_6
100
AcDbText
 10
8.812500000000004
 20
-6.77734375
 30
0.0
 40
0.5
  1
1-41/64
100
AcDbAttributeDefinition
  3

  2
G
 70
     8
280
     0
  0
ATTDEF
  5
85
330
6E
100
AcDbEntity
  8
AM_6
100
AcDbText
 10
8.812500000000004
 20
-7.27734375
 30
0.0
 40
0.5
  1
5/8
100
AcDbAttributeDefinition
  3

  2
H
 70
     8
280
     0
  0
ATTDEF
  5
86
330
6E
100
AcDbEntity
  8
AM_6
100
AcDbText
 10
8.812500000000004
 20
-7.77734375
 30
0.0
 40
0.5
  1
5.500
100
AcDbAttributeDefinition
  3

  2
K
 70
     8
280
     0
  0
ATTDEF
  5
87
330
6E
100
AcDbEntity
  8
AM_6
100
AcDbText
 10
8.812500000000004
 20
-8.27734375
 30
0.0
 40
0.5
  1
4-1/16
100
AcDbAttributeDefinition
  3

  2
L
 70
     8
280
     0
  0
ATTDEF
  5
88
330
6E
100
AcDbEntity
  8
AM_6
100
AcDbText
 10
8.812500000000004
 20
-8.77734375
 30
0.0
 40
0.5
  1
1/2-13
100
AcDbAttributeDefinition
  3

  2
M
 70
     8
280
     0
  0
ATTDEF
  5
89
330
6E
100
AcDbEntity
  8
AM_6
100
AcDbText
 10
8.812500000000004
 20
-9.27734375
 30
0.0
 40
0.5
  1
3-13/64
100
AcDbAttributeDefinition
  3

  2
N
 70
     8
280
     0
  0
ATTDEF
  5
8A
330
6E
100
AcDbEntity
  8
AM_6
100
AcDbText
 10
8.812500000000004
 20
-9.77734375
 30
0.0
 40
0.5
  1
1-9/16
100
AcDbAttributeDefinition
  3

  2
P
 70
     8
280
     0
  0
ATTDEF
  5
8B
330
6E
100
AcDbEntity
  8
AM_6
100
AcDbText
 10
8.812500000000004
 20
-10.27734375
 30
0.0
 40
0.5
  1
1-9/16
100
AcDbAttributeDefinition
  3

  2
Q
 70
     8
280
     0
  0
ATTDEF
  5
8C
330
6E
100
AcDbEntity
  8
AM_6
100
AcDbText
 10
8.812500000000004
 20
-10.77734375
 30
0.0
 40
0.5
  1
1/4
100
AcDbAttributeDefinition
  3

  2
X
 70
     8
280
     0
  0
ATTDEF
  5
8D
330
6E
100
AcDbEntity
  8
AM_6
100
AcDbText
 10
8.812500000000004
 20
-11.27734375
 30
0.0
 40
0.5
  1
0.025
100
AcDbAttributeDefinition
  3

  2
Y
 70
     8
280
     0
  0
ATTDEF
  5
8E
330
6E
100
AcDbEntity
  8
AM_6
100
AcDbText
 10
8.812500000000004
 20
-11.77734375
 30
0.0
 40
0.5
  1
2-15/16
100
AcDbAttributeDefinition
  3

  2
Z
 70
     8
280
     0
  0
ATTDEF
  5
8F
330
6E
100
AcDbEntity
  8
AM_6
100
AcDbText
 10
8.812500000000004
 20
-12.27734375
 30
0.0
 40
0.5
  1
baldor
100
AcDbAttributeDefinition
  3

  2
COMPANY
 70
     8
280
     0
  0
INSERT
  5
91
330
6E
100
AcDbEntity
  8
0
100
AcDbBlockReference
  2
2_2_7_16_Disc_0_in_070654_4
 10
0.0
 20
0.0
 30
0.0
  0
INSERT
  5
B5
330
6E
100
AcDbEntity
  8
0
100
AcDbBlockReference
  2
3_2_7_16CS2i_0_in_070654_4
 10
0.0
 20
0.0
 30
0.0
  0
INSERT
  5
100
330
6E
100
AcDbEntity
  8
0
100
AcDbBlockReference
  2
4_070008i_0_in_070654_4
 10
0.0
 20
0.0
 30
0.0
  0
INSERT
  5
152
330
6E
100
AcDbEntity
  8
0
100
AcDbBlockReference
  2
5_405015E_Inch_0_in_070654_4
 10
0.0
 20
0.0
 30
0.0
  0
INSERT
  5
1A7
330
6E
100
AcDbEntity
  8
0
100
AcDbBlockReference
  2
6_070654H_0_in_070654_4
 10
0.0
 20
0.0
 30
0.0
  0
ENDBLK
  5
71
330
6E
100
AcDbEntity
  8
0
100
AcDbBlockEnd
  0
BLOCK
  5
92
330
90
100
AcDbEntity
  8
0
100
AcDbBlockBegin
  2
2_2_7_16_Disc_0_in_070654_4
 70
     2
 10
0.0
 20
0.0
 30
0.0
  3
2_2_7_16_Disc_0_in_070654_4
  1

  0
ATTDEF
  5
94
330
90
100
AcDbEntity
  8
AM_6
100
AcDbText
 10
7.36205
 20
1.515625
 30
0.0
 40
0.5
  1
S-2000 -Disc -Inch
100
AcDbAttributeDefinition
  3

  2
NN
 70
     8
280
     0
  0
ATTDEF
  5
95
330
90
100
AcDbEntity
  8
AM_6
100
AcDbText
 10
7.36205
 20
1.015625
 30
0.0
 40
0.5
  1
S-2000 Bearings
100
AcDbAttributeDefinition
  3

  2
NT
 70
     8
280
     0
  0
ATTDEF
  5
96
330
90
100
AcDbEntity
  8
AM_6
100
AcDbText
 10
7.36205
 20
0.515625
 30
0.0
 40
0.5
  1
2-7/16-Disc
100
AcDbAttributeDefinition
  3

  2
NB
 70
     8
280
     0
  0
ATTDEF
  5
97
330
90
100
AcDbEntity
  8
AM_6
100
AcDbText
 10
7.36205
 20
0.015625
 30
0.0
 40
0.5
  1
$SS.-Disc
100
AcDbAttributeDefinition
  3

  2
NBSYN
 70
     8
280
     0
  0
ATTDEF
  5
98
330
90
100
AcDbEntity
  8
AM_6
100
AcDbText
 10
7.36205
 20
-0.484375
 30
0.0
 40
0.5
  1
2-7/16-Disc
100
AcDbAttributeDefinition
  3

  2
LINA
 70
     8
280
     0
  0
ATTDEF
  5
99
330
90
100
AcDbEntity
  8
AM_6
100
AcDbText
 10
7.36205
 20
-0.984375
 30
0.0
 40
0.5
  1
2-7/16
100
AcDbAttributeDefinition
  3

  2
SS
 70
     8
280
     0
  0
ATTDEF
  5
9A
330
90
100
AcDbEntity
  8
AM_6
100
AcDbText
 10
7.36205
 20
-1.484375
 30
0.0
 40
0.5
  1
2.94
100
AcDbAttributeDefinition
  3

  2
CC
 70
     8
280
     0
  0
ATTDEF
  5
9B
330
90
100
AcDbEntity
  8
AM_6
100
AcDbText
 10
7.36205
 20
-1.984375
 30
0.0
 40
0.5
  1
0.41
100
AcDbAttributeDefinition
  3

  2
CSD
 70
     8
280
     0
  0
ATTDEF
  5
9C
330
90
100
AcDbEntity
  8
AM_6
100
AcDbText
 10
7.36205
 20
-2.484375
 30
0.0
 40
0.5
  1
2.437500
100
AcDbAttributeDefinition
  3

  2
SS1
 70
     8
280
     0
  0
ATTDEF
  5
9D
330
90
100
AcDbEntity
  8
AM_6
100
AcDbText
 10
7.36205
 20
-2.984375
 30
0.0
 40
0.5
  1
4.7241
100
AcDbAttributeDefinition
  3

  2
A
 70
     8
280
     0
  0
ATTDEF
  5
9E
330
90
100
AcDbEntity
  8
AM_6
100
AcDbText
 10
7.36205
 20
-3.484375
 30
0.0
 40
0.5
  1
1-9/32
100
AcDbAttributeDefinition
  3

  2
B
 70
     8
280
     0
  0
ATTDEF
  5
9F
330
90
100
AcDbEntity
  8
AM_6
100
AcDbText
 10
7.36205
 20
-3.984375
 30
0.0
 40
0.5
  1
1.281250
100
AcDbAttributeDefinition
  3

  2
B1
 70
     8
280
     0
  0
ATTDEF
  5
A0
330
90
100
AcDbEntity
  8
AM_6
100
AcDbText
 10
7.36205
 20
-4.484375
 30
0.0
 40
0.5
  1
3-13/64
100
AcDbAttributeDefinition
  3

  2
C
 70
     8
280
     0
  0
ATTDEF
  5
A1
330
90
100
AcDbEntity
  8
AM_6
100
AcDbText
 10
7.36205
 20
-4.984375
 30
0.0
 40
0.5
  1
3.203125
100
AcDbAttributeDefinition
  3

  2
C1
 70
     8
280
     0
  0
ATTDEF
  5
A2
330
90
100
AcDbEntity
  8
AM_6
100
AcDbText
 10
7.36205
 20
-5.484375
 30
0.0
 40
0.5
  1
1.208
100
AcDbAttributeDefinition
  3

  2
D
 70
     8
280
     0
  0
ATTDEF
  5
A3
330
90
100
AcDbEntity
  8
AM_6
100
AcDbText
 10
7.36205
 20
-5.984375
 30
0.0
 40
0.5
  1
3-31/32
100
AcDbAttributeDefinition
  3

  2
E
 70
     8
280
     0
  0
ATTDEF
  5
A4
330
90
100
AcDbEntity
  8
AM_6
100
AcDbText
 10
7.36205
 20
-6.484375
 30
0.0
 40
0.5
  1
3.968750
100
AcDbAttributeDefinition
  3

  2
E1
 70
     8
280
     0
  0
ATTDEF
  5
A5
330
90
100
AcDbEntity
  8
AM_6
100
AcDbText
 10
7.36205
 20
-6.984375
 30
0.0
 40
0.5
  1
0.317
100
AcDbAttributeDefinition
  3

  2
F
 70
     8
280
     0
  0
ATTDEF
  5
A6
330
90
100
AcDbEntity
  8
AM_6
100
AcDbText
 10
7.36205
 20
-7.484375
 30
0.0
 40
0.5
  1
baldor
100
AcDbAttributeDefinition
  3

  2
COMPANY
 70
     8
280
     0
  0
LINE
  5
A9
330
90
100
AcDbEntity
  8
AM_9
100
AcDbLine
 10
1.47
 20
1.421875
 30
0.0
 11
1.47
 21
1.515625
 31
0.0
  0
LINE
  5
AA
330
90
100
AcDbEntity
  8
AM_9
100
AcDbLine
 10
-1.47
 20
1.515625
 30
0.0
 11
-1.47
 21
1.421875
 31
0.0
  0
LINE
  5
AB
330
90
100
AcDbEntity
  8
AM_9
100
AcDbLine
 10
2.2683
 20
1.115625
 30
0.0
 11
2.2683
 21
1.421875
 31
0.0
  0
LINE
  5
AC
330
90
100
AcDbEntity
  8
AM_9
100
AcDbLine
 10
-2.2683
 20
1.421875
 30
0.0
 11
-2.2683
 21
1.115625
 31
0.0
  0
LINE
  5
AD
330
90
100
AcDbEntity
  8
AM_9
100
AcDbLine
 10
-2.36205
 20
1.115625
 30
0.0
 11
2.36205
 21
1.115625
 31
0.0
  0
LINE
  5
AE
330
90
100
AcDbEntity
  8
AM_9
100
AcDbLine
 10
2.36205
 20
1.115625
 30
0.0
 11
2.36205
 21
1.421875
 31
0.0
  0
LINE
  5
AF
330
90
100
AcDbEntity
  8
AM_9
100
AcDbLine
 10
-2.36205
 20
1.421875
 30
0.0
 11
-2.36205
 21
1.115625
 31
0.0
  0
LINE
  5
B0
330
90
100
AcDbEntity
  8
AM_9
100
AcDbLine
 10
-2.36205
 20
1.421875
 30
0.0
 11
2.36205
 21
1.421875
 31
0.0
  0
LINE
  5
B1
330
90
100
AcDbEntity
  8
AM_9
100
AcDbLine
 10
-2.2683
 20
1.515625
 30
0.0
 11
2.268299999993967
 21
1.515625
 31
0.0
  0
ARC
  5
B2
330
90
100
AcDbEntity
  8
AM_9
100
AcDbCircle
 10
2.2683
 20
1.421875
 30
0.0
 40
0.0937499999999996
100
AcDbArc
 50
0.0
 51
90.0
  0
ARC
  5
B3
330
90
100
AcDbEntity
  8
AM_9
100
AcDbCircle
 10
-2.2683
 20
1.421875
 30
0.0
 40
0.0937499999999998
100
AcDbArc
 50
90.0
 51
180.0
  0
ENDBLK
  5
93
330
90
100
AcDbEntity
  8
0
100
AcDbBlockEnd
  0
BLOCK
  5
B6
330
B4
100
AcDbEntity
  8
0
100
AcDbBlockBegin
  2
3_2_7_16CS2i_0_in_070654_4
 70
     2
 10
0.0
 20
0.0
 30
0.0
  3
3_2_7_16CS2i_0_in_070654_4
  1

  0
ATTDEF
  5
B8
330
B4
100
AcDbEntity
  8
AM_6
100
AcDbText
 10
6.984375
 20
-1.006625
 30
0.0
 40
0.5
  1
S-2000 Collar -Inch
100
AcDbAttributeDefinition
  3

  2
NN
 70
     8
280
     0
  0
ATTDEF
  5
B9
330
B4
100
AcDbEntity
  8
AM_6
100
AcDbText
 10
6.984375
 20
-1.506625
 30
0.0
 40
0.5
  1
S-2000 Bearings
100
AcDbAttributeDefinition
  3

  2
NT
 70
     8
280
     0
  0
ATTDEF
  5
BA
330
B4
100
AcDbEntity
  8
AM_6
100
AcDbText
 10
6.984375
 20
-2.006625
 30
0.0
 40
0.5
  1
2-7/16CS2i
100
AcDbAttributeDefinition
  3

  2
NB
 70
     8
280
     0
  0
ATTDEF
  5
BB
330
B4
100
AcDbEntity
  8
AM_6
100
AcDbText
 10
6.984375
 20
-2.506625
 30
0.0
 40
0.5
  1
$BORE.CS2i
100
AcDbAttributeDefinition
  3

  2
NBSYN
 70
     8
280
     0
  0
ATTDEF
  5
BC
330
B4
100
AcDbEntity
  8
AM_6
100
AcDbText
 10
6.984375
 20
-3.006625
 30
0.0
 40
0.5
  1
2-7/16CS2i
100
AcDbAttributeDefinition
  3

  2
LINA
 70
     8
280
     0
  0
ATTDEF
  5
BD
330
B4
100
AcDbEntity
  8
AM_6
100
AcDbText
 10
6.984375
 20
-3.506625
 30
0.0
 40
0.5
  1
2-7/16
100
AcDbAttributeDefinition
  3

  2
BORE
 70
     8
280
     0
  0
ATTDEF
  5
BE
330
B4
100
AcDbEntity
  8
AM_6
100
AcDbText
 10
6.984375
 20
-4.006625
 30
0.0
 40
0.5
  1
2.437500
100
AcDbAttributeDefinition
  3

  2
BORE1
 70
     8
280
     0
  0
ATTDEF
  5
BF
330
B4
100
AcDbEntity
  8
AM_6
100
AcDbText
 10
6.984375
 20
-4.506625
 30
0.0
 40
0.5
  1
4-1/16
100
AcDbAttributeDefinition
  3

  2
L1
 70
     8
280
     0
  0
ATTDEF
  5
C0
330
B4
100
AcDbEntity
  8
AM_6
100
AcDbText
 10
6.984375
 20
-5.006625
 30
0.0
 40
0.5
  1
4.06250
100
AcDbAttributeDefinition
  3

  2
L
 70
     8
280
     0
  0
ATTDEF
  5
C1
330
B4
100
AcDbEntity
  8
AM_6
100
AcDbText
 10
6.984375
 20
-5.506625
 30
0.0
 40
0.5
  1
3.96875
100
AcDbAttributeDefinition
  3

  2
L2
 70
     8
280
     0
  0
ATTDEF
  5
C2
330
B4
100
AcDbEntity
  8
AM_6
100
AcDbText
 10
6.984375
 20
-6.006625
 30
0.0
 40
0.5
  1
4.00
100
AcDbAttributeDefinition
  3

  2
A
 70
     8
280
     0
  0
ATTDEF
  5
C3
330
B4
100
AcDbEntity
  8
AM_6
100
AcDbText
 10
6.984375
 20
-6.506625
 30
0.0
 40
0.5
  1
1.70
100
AcDbAttributeDefinition
  3

  2
B
 70
     8
280
     0
  0
ATTDEF
  5
C4
330
B4
100
AcDbEntity
  8
AM_6
100
AcDbText
 10
6.984375
 20
-7.006625
 30
0.0
 40
0.5
  1
2.94
100
AcDbAttributeDefinition
  3

  2
C
 70
     8
280
     0
  0
ATTDEF
  5
C5
330
B4
100
AcDbEntity
  8
AM_6
100
AcDbText
 10
6.984375
 20
-7.506625
 30
0.0
 40
0.5
  1
4.12
100
AcDbAttributeDefinition
  3

  2
D
 70
     8
280
     0
  0
ATTDEF
  5
C6
330
B4
100
AcDbEntity
  8
AM_6
100
AcDbText
 10
6.984375
 20
-8.006625
 30
0.0
 40
0.5
  1
0.41
100
AcDbAttributeDefinition
  3

  2
E
 70
     8
280
     0
  0
ATTDEF
  5
C7
330
B4
100
AcDbEntity
  8
AM_6
100
AcDbText
 10
6.984375
 20
-8.506625
 30
0.0
 40
0.5
  1
0.317
100
AcDbAttributeDefinition
  3

  2
F
 70
     8
280
     0
  0
ATTDEF
  5
C8
330
B4
100
AcDbEntity
  8
AM_6
100
AcDbText
 10
6.984375
 20
-9.006625
 30
0.0
 40
0.5
  1
3/8-16
100
AcDbAttributeDefinition
  3

  2
CS
 70
     8
280
     0
  0
ATTDEF
  5
C9
330
B4
100
AcDbEntity
  8
AM_6
100
AcDbText
 10
6.984375
 20
-9.506625
 30
0.0
 40
0.5
  1
0.3750
100
AcDbAttributeDefinition
  3

  2
NDM
 70
     8
280
     0
  0
ATTDEF
  5
CA
330
B4
100
AcDbEntity
  8
AM_6
100
AcDbText
 10
6.984375
 20
-10.006625
 30
0.0
 40
0.5
  1
0.3070
100
AcDbAttributeDefinition
  3

  2
KDM
 70
     8
280
     0
  0
ATTDEF
  5
CB
330
B4
100
AcDbEntity
  8
AM_6
100
AcDbText
 10
6.984375
 20
-10.506625
 30
0.0
 40
0.5
  1
2
100
AcDbAttributeDefinition
  3

  2
DD
 70
     8
280
     0
  0
ATTDEF
  5
CC
330
B4
100
AcDbEntity
  8
AM_6
100
AcDbText
 10
6.984375
 20
-11.006625
 30
0.0
 40
0.5
  1
baldor
100
AcDbAttributeDefinition
  3

  2
COMPANY
 70
     8
280
     0
  0
LINE
  5
CD
330
B4
100
AcDbEntity
  8
AM_9
100
AcDbLine
 10
1.370573096629555
 20
-1.187702735467822
 30
0.0
 11
1.362943640073037
 21
-1.178186616648717
 31
0.0
  0
LINE
  5
CE
330
B4
100
AcDbEntity
  8
AM_9
100
AcDbLine
 10
1.363002366930395
 20
-1.46899013412988
 30
0.0
 11
1.370573096629555
 21
-1.459547264532177
 31
0.0
  0
LWPOLYLINE
  5
CF
330
B4
100
AcDbEntity
  8
AM_9
100
AcDbPolyline
 90
       22
 70
     0
 43
0.0
 10
1.319766005028324
 20
-1.163439686588543
 10
1.313458235211242
 20
-1.166304019343004
 10
1.300212399266799
 20
-1.176027011676166
 10
1.287467625967343
 20
-1.190499026234257
 10
1.275952008629166
 20
-1.209086621957356
 10
1.265957458711347
 20
-1.231494816854495
 10
1.258363344261786
 20
-1.255900405848487
 10
1.253046103606413
 20
-1.28254674398531
 10
1.250467930555333
 20
-1.308797826139211
 10
1.250317936966781
 20
-1.335502379624312
 10
1.252504891835034
 20
-1.36074589620609
 10
1.256814525415928
 20
-1.384961015025138
 10
1.263126712121887
 20
-1.40769915960223
 10
1.271086964458086
 20
-1.428216196266354
 10
1.28088369137668
 20
-1.446880087034341
 10
1.291736354734563
 20
-1.462224152053086
 10
1.30397260176277
 20
-1.474503021810583
 10
1.316527776949461
 20
-1.482479740441029
 10
1.329523629178863
 20
-1.485995073700269
 10
1.342050610996702
 20
-1.4846012598253
 10
1.353939848551234
 20
-1.478123321371626
 10
1.362874446005802
 20
-1.469149688122723
  0
LWPOLYLINE
  5
D0
330
B4
100
AcDbEntity
  8
AM_9
100
AcDbPolyline
 90
        4
 70
     0
 43
0.0
 10
1.362870758955028
 20
-1.178095713784022
 10
1.361722345582697
 20
-1.176702262917383
 10
1.35103406399326
 20
-1.16702080257175
 10
1.344390126916869
 20
-1.163491297483091
  0
LWPOLYLINE
  5
D1
330
B4
100
AcDbEntity
  8
AM_9
100
AcDbPolyline
 90
       12
 70
     0
 43
0.0
 10
1.367507470424592
 20
-1.462695283893906
 10
1.374063062848139
 20
-1.4508134259221
 10
1.381919814639623
 20
-1.430678118707598
 10
1.38792744612551
 20
-1.407743876585748
 10
1.392333523157499
 20
-1.381997362384886
 10
1.394923028277636
 20
-1.355948361674165
 10
1.395996704930882
 20
-1.328878692110981
 10
1.395582298384875
 20
-1.303100178627994
 10
1.393800834805257
 20
-1.277907242319745
 10
1.390694314034126
 20
-1.254207022152445
 10
1.38631075514024
 20
-1.232354825610209
 10
1.376953389882087
 20
-1.202914438370363
  0
LWPOLYLINE
  5
D2
330
B4
100
AcDbEntity
  8
AM_9
100
AcDbPolyline
 90
        3
 70
     0
 43
0.0
 10
1.362874446005802
 20
-1.469149688122723
 10
1.364719250926726
 20
-1.466745512588063
 10
1.367507470424592
 20
-1.462695283893906
  0
LINE
  5
D3
330
B4
100
AcDbEntity
  8
AM_9
100
AcDbLine
 10
1.340293270859148
 20
-1.477275
 30
0.0
 11
1.798449194050572
 21
-1.477275
 31
0.0
  0
LINE
  5
D4
330
B4
100
AcDbEntity
  8
AM_9
100
AcDbLine
 10
1.798419829738785
 20
-1.169975
 30
0.0
 11
1.340293270859148
 21
-1.169975
 31
0.0
  0
LWPOLYLINE
  5
D5
330
B4
100
AcDbEntity
  8
AM_9
100
AcDbPolyline
 90
        5
 70
     0
 43
0.0
 10
-0.0297327284186658
 20
-1.163562386423437
 10
-0.0505692376377667
 20
-1.168278510283509
 10
-0.0794294786535825
 20
-1.179403789329426
 10
-0.1007080854076395
 20
-1.191721508212433
 10
-0.1203997891174551
 20
-1.207264819734367
  0
LWPOLYLINE
  5
D6
330
B4
100
AcDbEntity
  8
AM_9
100
AcDbPolyline
 90
       34
 70
     0
 43
0.0
 10
-0.1203997891174551
 20
-1.207264819734367
 10
-0.1372296735781088
 20
-1.225127292455359
 10
-0.1515019595327708
 20
-1.245786958540254
 10
-0.1631682951265867
 20
-1.270548525823132
 10
-0.1704843477765803
 20
-1.297865172729329
 10
-0.1726772085485024
 20
-1.323634687192519
 10
-0.1703441373534041
 20
-1.350190268728921
 10
-0.1639532413147657
 20
-1.374522011353679
 10
-0.1533986900799313
 20
-1.398108942158415
 10
-0.13922265208257
 20
-1.419616999372007
 10
-0.1213664561682597
 20
-1.439092316343776
 10
-0.100006665742607
 20
-1.456000933542745
 10
-0.0756079461070765
 20
-1.469658645202893
 10
-0.0485346204402695
 20
-1.479547265681338
 10
-0.0194379493571095
 20
-1.485087694819539
 10
0.0103829531401279
 20
-1.485829694987159
 10
0.0407534256545685
 20
-1.481515339424633
 10
0.0693814756037794
 20
-1.472378413306856
 10
0.0968140168912324
 20
-1.45808961965297
 10
0.1202208485808588
 20
-1.440148936179176
 10
0.1407203522010067
 20
-1.417665770599331
 10
0.1556576988351674
 20
-1.393847462372668
 10
0.1664282947795937
 20
-1.366856656816433
 10
0.1716792036591155
 20
-1.34103285885086
 10
0.1723629232003215
 20
-1.313846677539698
 10
0.1686660074888883
 20
-1.288876116569449
 10
0.1606637967266597
 20
-1.264186129721633
 10
0.1489786988876092
 20
-1.241596313926028
 10
0.1334463894552746
 20
-1.220630878699985
 10
0.114341111997039
 20
-1.201971267382887
 10
0.0919564811328841
 20
-1.186168745800936
 10
0.0664994555385478
 20
-1.173706910056275
 10
0.0386345759420251
 20
-1.165261785972306
 10
0.0297438856852194
 20
-1.163564229740329
  0
LINE
  5
D7
330
B4
100
AcDbEntity
  8
AM_9
100
AcDbLine
 10
1.369216751953874
 20
-1.187308137962611
 30
0.0
 11
1.362870758955028
 21
-1.178095713784022
 31
0.0
  0
LWPOLYLINE
  5
D8
330
B4
100
AcDbEntity
  8
AM_9
100
AcDbPolyline
 90
        3
 70
     0
 43
0.0
 10
1.376953389882087
 20
-1.202914438370363
 10
1.369812117787199
 20
-1.188330728926734
 10
1.369216751953874
 20
-1.187308137962611
  0
LINE
  5
D9
330
B4
100
AcDbEntity
  8
AM_9
100
AcDbLine
 10
1.47
 20
-1.640625
 30
0.0
 11
1.47
 21
-1.006625
 31
0.0
  0
LINE
  5
DA
330
B4
100
AcDbEntity
  8
AM_9
100
AcDbLine
 10
-1.47
 20
-1.006625
 30
0.0
 11
-1.47
 21
-1.640625
 31
0.0
  0
LINE
  5
DB
330
B4
100
AcDbEntity
  8
AM_9
100
AcDbLine
 10
-0.1217596651274968
 20
-1.006625
 30
0.0
 11
0.1217596651274968
 21
-1.006625
 31
0.0
  0
LINE
  5
DC
330
B4
100
AcDbEntity
  8
AM_9
100
AcDbLine
 10
-0.1331933777019092
 20
-1.027530342624854
 30
0.0
 11
0.1331933777019092
 21
-1.027530342624854
 31
0.0
  0
LINE
  5
DD
330
B4
100
AcDbEntity
  8
AM_9
100
AcDbLine
 10
-0.1219955480164113
 20
-1.073625
 30
0.0
 11
0.1219955480164113
 21
-1.073625
 31
0.0
  0
LINE
  5
DE
330
B4
100
AcDbEntity
  8
AM_9
100
AcDbLine
 10
-0.0856602658532589
 20
-1.136125
 30
0.0
 11
0.0856602658532589
 21
-1.136125
 31
0.0
  0
ARC
  5
E0
330
B4
100
AcDbEntity
  8
AM_5
100
AcDbCircle
 10
0.0000000000000001
 20
-1.323624999999999
 30
0.0
 40
0.1874999999999996
100
AcDbArc
 50
74.99999999999996
 51
14.99999999999987
  0
ELLIPSE
  5
E1
330
B4
100
AcDbEntity
  8
AM_9
100
AcDbEllipse
 10
1.340293270859148
 20
-1.323625
 30
0.0
 11
-2.822504710334864E-17
 21
-0.1536500000000001
 31
0.0
210
0.0
220
0.0
230
1.0
 40
0.4226182617407018
 41
0.0
 42
6.283185307179586
  0
LWPOLYLINE
  5
E3
330
B4
100
AcDbEntity
  8
AM_4
100
AcDbPolyline
 90
       20
 70
     0
 43
0.0
 10
1.798448400926248
 20
-1.169975000681053
 10
1.805809189250787
 20
-1.170982813250999
 10
1.816150321275724
 20
-1.176092611782737
 10
1.825730138495744
 20
-1.185334574499235
 10
1.834322554701013
 20
-1.198517339881111
 10
1.841758701682838
 20
-1.215208186685994
 10
1.847901212093323
 20
-1.235038744745505
 10
1.852648572696537
 20
-1.257370851109963
 10
1.855914657455737
 20
-1.281606781430096
 10
1.85767386653891
 20
-1.307034015791484
 10
1.857887950996726
 20
-1.332871550930556
 10
1.856578541065335
 20
-1.358447908379543
 10
1.853748510216699
 20
-1.382997747165491
 10
1.849451135831668
 20
-1.405879263081642
 10
1.843714921903975
 20
-1.426461169796078
 10
1.836653878060594
 20
-1.444151833304738
 10
1.828353745136256
 20
-1.458435824437439
 10
1.819010015188052
 20
-1.468915838997032
 10
1.808826833608244
 20
-1.47523100638957
 10
1.798451980148296
 20
-1.477274999882941
  0
LWPOLYLINE
  5
E4
330
B4
100
AcDbEntity
  8
AM_4
100
AcDbPolyline
 90
       11
 70
     0
 43
0.0
 10
1.798451980148296
 20
-1.477274999882941
 10
1.798061677162696
 20
-1.47727219110597
 10
1.787028889913483
 20
-1.474931042296196
 10
1.776033281578342
 20
-1.468346711665555
 10
1.765423599735523
 20
-1.457650397453845
 10
1.755549558640244
 20
-1.443200728112164
 10
1.746748516963849
 20
-1.425305556472105
 10
1.739354410963826
 20
-1.404546029897143
 10
1.733666749864641
 20
-1.381441596584467
 10
1.729892621157302
 20
-1.356698663061273
 10
1.728119893508289
 20
-1.323625
  0
LINE
  5
E5
330
B4
100
AcDbEntity
  8
AM_4
100
AcDbLine
 10
0.1217596651274968
 20
-1.006625
 30
0.0
 11
1.889880952380952
 21
-1.006625
 31
0.0
  0
LINE
  5
E6
330
B4
100
AcDbEntity
  8
AM_4
100
AcDbLine
 10
-1.889880952380952
 20
-1.006625
 30
0.0
 11
-0.1217596651274968
 21
-1.006625
 31
0.0
  0
LINE
  5
E7
330
B4
100
AcDbEntity
  8
AM_4
100
AcDbLine
 10
1.889880952380952
 20
-1.027530342624854
 30
0.0
 11
1.889880952380952
 21
-1.006625
 31
0.0
  0
LINE
  5
E8
330
B4
100
AcDbEntity
  8
AM_4
100
AcDbLine
 10
-1.889880952380952
 20
-1.006625
 30
0.0
 11
-1.889880952380952
 21
-1.027530342624854
 31
0.0
  0
LINE
  5
E9
330
B4
100
AcDbEntity
  8
AM_4
100
AcDbLine
 10
0.1331933777019092
 20
-1.027530342624854
 30
0.0
 11
1.889880952380952
 21
-1.027530342624854
 31
0.0
  0
LINE
  5
EA
330
B4
100
AcDbEntity
  8
AM_4
100
AcDbLine
 10
-1.889880952380952
 20
-1.027530342624854
 30
0.0
 11
-0.1331933777019092
 21
-1.027530342624854
 31
0.0
  0
LINE
  5
EB
330
B4
100
AcDbEntity
  8
AM_4
100
AcDbLine
 10
-1.889880952380952
 20
-1.027530342624854
 30
0.0
 11
-1.935975609756098
 21
-1.073625
 31
0.0
  0
LINE
  5
EC
330
B4
100
AcDbEntity
  8
AM_4
100
AcDbLine
 10
1.935975609756098
 20
-1.073625
 30
0.0
 11
1.889880952380952
 21
-1.027530342624854
 31
0.0
  0
LINE
  5
ED
330
B4
100
AcDbEntity
  8
AM_4
100
AcDbLine
 10
0.1219955480164113
 20
-1.073625
 30
0.0
 11
1.935975609756098
 21
-1.073625
 31
0.0
  0
LINE
  5
EE
330
B4
100
AcDbEntity
  8
AM_4
100
AcDbLine
 10
-1.935975609756098
 20
-1.073625
 30
0.0
 11
-0.1219955480164113
 21
-1.073625
 31
0.0
  0
LINE
  5
EF
330
B4
100
AcDbEntity
  8
AM_4
100
AcDbLine
 10
1.935975609756098
 20
-1.136125
 30
0.0
 11
1.935975609756098
 21
-1.073625
 31
0.0
  0
LINE
  5
F0
330
B4
100
AcDbEntity
  8
AM_4
100
AcDbLine
 10
-1.935975609756098
 20
-1.073625
 30
0.0
 11
-1.935975609756098
 21
-1.136125
 31
0.0
  0
LINE
  5
F1
330
B4
100
AcDbEntity
  8
AM_4
100
AcDbLine
 10
0.0856602658532589
 20
-1.136125
 30
0.0
 11
1.935975609756098
 21
-1.136125
 31
0.0
  0
LINE
  5
F2
330
B4
100
AcDbEntity
  8
AM_4
100
AcDbLine
 10
-1.935975609756098
 20
-1.136125
 30
0.0
 11
-0.0856602658532589
 21
-1.136125
 31
0.0
  0
LINE
  5
F3
330
B4
100
AcDbEntity
  8
AM_4
100
AcDbLine
 10
-1.935975609756098
 20
-1.136125
 30
0.0
 11
-1.984375
 21
-1.16406840098593
 31
0.0
  0
LINE
  5
F4
330
B4
100
AcDbEntity
  8
AM_4
100
AcDbLine
 10
1.984375
 20
-1.16406840098593
 30
0.0
 11
1.935975609756098
 21
-1.136125
 31
0.0
  0
LINE
  5
F5
330
B4
100
AcDbEntity
  8
AM_4
100
AcDbLine
 10
-1.878708333333333
 20
-1.640625
 30
0.0
 11
1.8787083333331
 21
-1.640625
 31
0.0
  0
ARC
  5
F6
330
B4
100
AcDbEntity
  8
AM_4
100
AcDbCircle
 10
1.878708333333334
 20
-1.534958333333333
 30
0.0
 40
0.1056666666666664
100
AcDbArc
 50
270.0
 51
0.0
  0
ARC
  5
F7
330
B4
100
AcDbEntity
  8
AM_4
100
AcDbCircle
 10
-1.878708333333333
 20
-1.534958333333333
 30
0.0
 40
0.1056666666666668
100
AcDbArc
 50
180.0
 51
270.0
  0
LWPOLYLINE
  5
F8
330
B4
100
AcDbEntity
  8
AM_4
100
AcDbPolyline
 90
       38
 70
     0
 43
0.0
 10
0.0
 20
-1.477275
 10
-0.0253864268906885
 20
-1.475163285029637
 10
-0.0507728537813769
 20
-1.468643756783027
 10
-0.0740262784538164
 20
-1.458266867924795
 10
-0.0958203615198608
 20
-1.44373653490903
 10
-0.1143678027603874
 20
-1.426232641975445
 10
-0.1301601216302282
 20
-1.405274649339137
 10
-0.1418866174830835
 20
-1.38258693924227
 10
-0.1498610317182339
 20
-1.357536556619337
 10
-0.1534056974734496
 20
-1.33228609015566
 10
-0.1526421295231124
 20
-1.306055059913323
 10
-0.1476497545558803
 20
-1.281105916289408
 10
-0.1382905866346437
 20
-1.256662053916019
 10
-0.1253338405664514
 20
-1.23474445708501
 10
-0.1084172881712892
 20
-1.214748858786308
 10
-0.0888987268616731
 20
-1.198304056569248
 10
-0.0662543890832565
 20
-1.184993551810188
 10
-0.0423821659204989
 20
-1.175935885601249
 10
-0.0165915302232083
 20
-1.170873425131351
 10
0.00887607280925
 20
-1.170231591303652
 10
0.0348225805430855
 20
-1.173973035815361
 10
0.0590387133527745
 20
-1.181770310878882
 10
0.082254741447417
 20
-1.193846419296485
 10
0.1025722287748135
 20
-1.209225435384712
 10
0.1205271181000702
 20
-1.228327905067931
 10
0.1346455019439965
 20
-1.249605331625647
 10
0.1452909154254987
 20
-1.273636277323574
 10
0.1515605672598288
 20
-1.29837194173216
 10
0.1536471876925706
 20
-1.324554631197834
 10
0.1513850255008234
 20
-1.34990991114908
 10
0.1447217274806528
 20
-1.375238410030879
 10
0.1342184896985184
 20
-1.398416172761554
 10
0.1195761817666805
 20
-1.4201126119204
 10
0.1019683641109169
 20
-1.438563136493261
 10
0.0809213287987628
 20
-1.454239168624397
 10
0.0581685532523521
 20
-1.465838719143155
 10
0.0330740667994354
 20
-1.473673087643083
 10
0.0
 20
-1.477275
  0
LINE
  5
F9
330
B4
100
AcDbEntity
  8
AM_4
100
AcDbLine
 10
-1.984375
 20
-1.534958333333333
 30
0.0
 11
1.984375
 21
-1.534958333333333
 31
0.0
  0
LINE
  5
FA
330
B4
100
AcDbEntity
  8
AM_4
100
AcDbLine
 10
-1.984375
 20
-1.16406840098593
 30
0.0
 11
1.984375
 21
-1.16406840098593
 31
0.0
  0
LWPOLYLINE
  5
FB
330
B4
100
AcDbEntity
  8
AM_4
100
AcDbPolyline
 90
       11
 70
     0
 43
0.0
 10
1.728119893508289
 20
-1.323625
 10
1.72919883795411
 20
-1.297875271415994
 10
1.732357931553432
 20
-1.272852417019945
 10
1.737500738903282
 20
-1.249283416855346
 10
1.744395451546023
 20
-1.227805157735215
 10
1.752818165168681
 20
-1.209022082769835
 10
1.762424713099947
 20
-1.193465038706732
 10
1.772897928253394
 20
-1.181610044534593
 10
1.783860089522099
 20
-1.17376404543096
 10
1.794933804621747
 20
-1.170214352109345
 10
1.798448400926248
 20
-1.169975000681053
  0
LINE
  5
FC
330
B4
100
AcDbEntity
  8
AM_4
100
AcDbLine
 10
1.984375
 20
-1.534958333333333
 30
0.0
 11
1.984375
 21
-1.16406840098593
 31
0.0
  0
LINE
  5
FD
330
B4
100
AcDbEntity
  8
AM_4
100
AcDbLine
 10
-1.984375
 20
-1.16406840098593
 30
0.0
 11
-1.984375
 21
-1.534958333333333
 31
0.0
  0
CIRCLE
  5
FE
330
B4
100
AcDbEntity
  8
AM_5
100
AcDbCircle
 10
0.0000000000000001
 20
-1.323625
 30
0.0
 40
0.1874999999999999
  0
ENDBLK
  5
B7
330
B4
100
AcDbEntity
  8
0
100
AcDbBlockEnd
  0
BLOCK
  5
101
330
FF
100
AcDbEntity
  8
0
100
AcDbBlockBegin
  2
4_070008i_0_in_070654_4
 70
     2
 10
0.0
 20
0.0
 30
0.0
  3
4_070008i_0_in_070654_4
  1

  0
ATTDEF
  5
103
330
FF
100
AcDbEntity
  8
AM_6
100
AcDbText
 10
7.36205
 20
1.72265625
 30
0.0
 40
0.5
  1
S-2000 Insert -Inch
100
AcDbAttributeDefinition
  3

  2
NN
 70
     8
280
     0
  0
ATTDEF
  5
104
330
FF
100
AcDbEntity
  8
AM_6
100
AcDbText
 10
7.36205
 20
1.22265625
 30
0.0
 40
0.5
  1
S-2000 Bearings
100
AcDbAttributeDefinition
  3

  2
NT
 70
     8
280
     0
  0
ATTDEF
  5
105
330
FF
100
AcDbEntity
  8
AM_6
100
AcDbText
 10
7.36205
 20
0.72265625
 30
0.0
 40
0.5
  1
070008i
100
AcDbAttributeDefinition
  3

  2
NB
 70
     8
280
     0
  0
ATTDEF
  5
106
330
FF
100
AcDbEntity
  8
AM_6
100
AcDbText
 10
7.36205
 20
0.22265625
 30
0.0
 40
0.5
  1
$PN.i
100
AcDbAttributeDefinition
  3

  2
NBSYN
 70
     8
280
     0
  0
ATTDEF
  5
107
330
FF
100
AcDbEntity
  8
AM_6
100
AcDbText
 10
7.36205
 20
-0.27734375
 30
0.0
 40
0.5
  1
070008i
100
AcDbAttributeDefinition
  3

  2
LINA
 70
     8
280
     0
  0
ATTDEF
  5
108
330
FF
100
AcDbEntity
  8
AM_6
100
AcDbText
 10
7.36205
 20
-0.77734375
 30
0.0
 40
0.5
  1
2-7/16
100
AcDbAttributeDefinition
  3

  2
SS
 70
     8
280
     0
  0
ATTDEF
  5
109
330
FF
100
AcDbEntity
  8
AM_6
100
AcDbText
 10
7.36205
 20
-1.27734375
 30
0.0
 40
0.5
  1
2.94
100
AcDbAttributeDefinition
  3

  2
CC
 70
     8
280
     0
  0
ATTDEF
  5
10A
330
FF
100
AcDbEntity
  8
AM_6
100
AcDbText
 10
7.36205
 20
-1.77734375
 30
0.0
 40
0.5
  1
2.437500
100
AcDbAttributeDefinition
  3

  2
SS1
 70
     8
280
     0
  0
ATTDEF
  5
10B
330
FF
100
AcDbEntity
  8
AM_6
100
AcDbText
 10
7.36205
 20
-2.27734375
 30
0.0
 40
0.5
  1
070008
100
AcDbAttributeDefinition
  3

  2
PN
 70
     8
280
     0
  0
ATTDEF
  5
10C
330
FF
100
AcDbEntity
  8
AM_6
100
AcDbText
 10
7.36205
 20
-2.77734375
 30
0.0
 40
0.5
  1
INS-S2-207R
100
AcDbAttributeDefinition
  3

  2
DESCRIPTION
 70
     8
280
     0
  0
ATTDEF
  5
10D
330
FF
100
AcDbEntity
  8
AM_6
100
AcDbText
 10
7.36205
 20
-3.27734375
 30
0.0
 40
0.5
  1
Contact Seal
100
AcDbAttributeDefinition
  3

  2
ST
 70
     8
280
     0
  0
ATTDEF
  5
10E
330
FF
100
AcDbEntity
  8
AM_6
100
AcDbText
 10
7.36205
 20
-3.77734375
 30
0.0
 40
0.5
  1
1
100
AcDbAttributeDefinition
  3

  2
ST1
 70
     8
280
     0
  0
ATTDEF
  5
10F
330
FF
100
AcDbEntity
  8
AM_6
100
AcDbText
 10
7.36205
 20
-4.27734375
 30
0.0
 40
0.5
  1
4.7241
100
AcDbAttributeDefinition
  3

  2
A
 70
     8
280
     0
  0
ATTDEF
  5
110
330
FF
100
AcDbEntity
  8
AM_6
100
AcDbText
 10
7.36205
 20
-4.77734375
 30
0.0
 40
0.5
  1
1-9/32
100
AcDbAttributeDefinition
  3

  2
B
 70
     8
280
     0
  0
ATTDEF
  5
111
330
FF
100
AcDbEntity
  8
AM_6
100
AcDbText
 10
7.36205
 20
-5.27734375
 30
0.0
 40
0.5
  1
3-13/64
100
AcDbAttributeDefinition
  3

  2
C
 70
     8
280
     0
  0
ATTDEF
  5
112
330
FF
100
AcDbEntity
  8
AM_6
100
AcDbText
 10
7.36205
 20
-5.77734375
 30
0.0
 40
0.5
  1
1.208
100
AcDbAttributeDefinition
  3

  2
D
 70
     8
280
     0
  0
ATTDEF
  5
113
330
FF
100
AcDbEntity
  8
AM_6
100
AcDbText
 10
7.36205
 20
-6.27734375
 30
0.0
 40
0.5
  1
3-31/32
100
AcDbAttributeDefinition
  3

  2
E
 70
     8
280
     0
  0
ATTDEF
  5
114
330
FF
100
AcDbEntity
  8
AM_6
100
AcDbText
 10
7.36205
 20
-6.77734375
 30
0.0
 40
0.5
  1
0.34375
100
AcDbAttributeDefinition
  3

  2
F
 70
     8
280
     0
  0
ATTDEF
  5
115
330
FF
100
AcDbEntity
  8
AM_6
100
AcDbText
 10
7.36205
 20
-7.27734375
 30
0.0
 40
0.5
  1
2
100
AcDbAttributeDefinition
  3

  2
DD
 70
     8
280
     0
  0
ATTDEF
  5
116
330
FF
100
AcDbEntity
  8
AM_6
100
AcDbText
 10
7.36205
 20
-7.77734375
 30
0.0
 40
0.5
  1
baldor
100
AcDbAttributeDefinition
  3

  2
COMPANY
 70
     8
280
     0
  0
LINE
  5
117
330
FF
100
AcDbEntity
  8
AM_9
100
AcDbLine
 10
1.332272446943875
 20
-1.118625
 30
0.0
 11
1.104458266192005
 21
-1.118625
 31
0.0
  0
LINE
  5
118
330
FF
100
AcDbEntity
  8
AM_9
100
AcDbLine
 10
1.104534722396004
 20
-1.528625
 30
0.0
 11
1.332272446943875
 21
-1.528625
 31
0.0
  0
LWPOLYLINE
  5
119
330
FF
100
AcDbEntity
  8
AM_9
100
AcDbPolyline
 90
       21
 70
     0
 43
0.0
 10
1.104569619821105
 20
-1.118625000669993
 10
1.094931128467441
 20
-1.119847044956707
 10
1.079821545021566
 20
-1.126383415961445
 10
1.064650438772503
 20
-1.138316953348352
 10
1.049902755151483
 20
-1.155463867244258
 10
1.036230031545063
 20
-1.177232300099845
 10
1.024091098813451
 20
-1.203429719063554
 10
1.014196028176797
 20
-1.233039457501145
 10
1.00706247855446
 20
-1.265321751471267
 10
1.003023764245674
 20
-1.29929358579052
 10
1.002342510102828
 20
-1.333562183116765
 10
1.004927446644613
 20
-1.367547614838396
 10
1.010650638802965
 20
-1.400060670341081
 10
1.019176584577286
 20
-1.430450237305716
 10
1.030245646176242
 20
-1.458100420978763
 10
1.043241419139136
 20
-1.482008753634779
 10
1.057772927911255
 20
-1.50164977450744
 10
1.073087194259603
 20
-1.516250841356008
 10
1.088511874315733
 20
-1.525277513744123
 10
1.103570798769614
 20
-1.52861162145982
 10
1.104556991204386
 20
-1.528624999568045
  0
LWPOLYLINE
  5
11A
330
FF
100
AcDbEntity
  8
AM_9
100
AcDbPolyline
 90
       11
 70
     0
 43
0.0
 10
1.104556991204386
 20
-1.528624999568045
 10
1.117594432479565
 20
-1.526132684036891
 10
1.130430134903845
 20
-1.518074551522779
 10
1.141774276191843
 20
-1.504620308349226
 10
1.151515378289319
 20
-1.486221315116115
 10
1.159642084529728
 20
-1.463030325639816
 10
1.166050827977468
 20
-1.435932114121199
 10
1.170784598892302
 20
-1.405400705588854
 10
1.173863421450654
 20
-1.37250739127923
 10
1.175062272492738
 20
-1.34824842504986
 10
1.175461567401798
 20
-1.323625
  0
LWPOLYLINE
  5
11B
330
FF
100
AcDbEntity
  8
AM_9
100
AcDbPolyline
 90
       21
 70
     0
 43
0.0
 10
1.33227992806566
 20
-1.528624999235699
 10
1.322484519753496
 20
-1.527355209059696
 10
1.307476580024336
 20
-1.520708612012716
 10
1.292535745256103
 20
-1.508619593424448
 10
1.278146616819186
 20
-1.491298337945753
 10
1.264903732586876
 20
-1.469331653008368
 10
1.253274252271301
 20
-1.443028889476539
 10
1.243858159770482
 20
-1.413342634597043
 10
1.237124383126524
 20
-1.381040224658343
 10
1.233357859461284
 20
-1.34708846083227
 10
1.232790325309992
 20
-1.312741274228122
 10
1.235350877507819
 20
-1.278703073454837
 10
1.240935527503694
 20
-1.246092286314386
 10
1.249234697637844
 20
-1.215645023359241
 10
1.259984413163226
 20
-1.18806530108056
 10
1.272632178715926
 20
-1.164273575512461
 10
1.28677451853363
 20
-1.144862670881196
 10
1.301747191318942
 20
-1.130506463371869
 10
1.316938967536532
 20
-1.121718948853534
 10
1.33188092404375
 20
-1.118627090498295
 10
1.332269890195177
 20
-1.118625000089267
  0
LWPOLYLINE
  5
11C
330
FF
100
AcDbEntity
  8
AM_9
100
AcDbPolyline
 90
       11
 70
     0
 43
0.0
 10
1.332269890195177
 20
-1.118625000089267
 10
1.345975800620106
 20
-1.121359149912956
 10
1.359002493254403
 20
-1.129701611128521
 10
1.370647220752903
 20
-1.143477085301832
 10
1.380753620768268
 20
-1.162223098465075
 10
1.389245449046793
 20
-1.185689603808705
 10
1.396004047691731
 20
-1.213031823356912
 10
1.40101409445907
 20
-1.243682727275543
 10
1.404270457600154
 20
-1.276625707716885
 10
1.405485076174092
 20
-1.299964959032957
 10
1.405890623028544
 20
-1.323625
  0
LWPOLYLINE
  5
11D
330
FF
100
AcDbEntity
  8
AM_9
100
AcDbPolyline
 90
       11
 70
     0
 43
0.0
 10
1.175461567401798
 20
-1.323625
 10
1.174688387641965
 20
-1.28948540648739
 10
1.172365911505428
 20
-1.256314783775384
 10
1.168446841157104
 20
-1.225084147180743
 10
1.162894738545294
 20
-1.19660130500495
 10
1.155572673945597
 20
-1.171473906634479
 10
1.146526644412504
 20
-1.150607110081896
 10
1.135694217158819
 20
-1.134564964585988
 10
1.12327713357505
 20
-1.123888940349555
 10
1.109606067799191
 20
-1.119002561660186
 10
1.104569619821105
 20
-1.118625000669993
  0
LINE
  5
11E
330
FF
100
AcDbEntity
  8
AM_9
100
AcDbLine
 10
-1.21875
 20
1.5625
 30
0.0
 11
-1.21875
 21
-1.640625
 31
0.0
  0
LINE
  5
11F
330
FF
100
AcDbEntity
  8
AM_9
100
AcDbLine
 10
1.21875
 20
-1.640625
 30
0.0
 11
1.21875
 21
1.5625
 31
0.0
  0
LINE
  5
120
330
FF
100
AcDbEntity
  8
AM_9
100
AcDbLine
 10
-1.47
 20
1.5625
 30
0.0
 11
-1.47
 21
1.371875
 31
0.0
  0
LINE
  5
121
330
FF
100
AcDbEntity
  8
AM_9
100
AcDbLine
 10
1.47
 20
1.371875
 30
0.0
 11
1.47
 21
1.5625
 31
0.0
  0
LWPOLYLINE
  5
122
330
FF
100
AcDbEntity
  8
AM_9
100
AcDbPolyline
 90
       11
 70
     0
 43
0.0
 10
1.405890623028544
 20
-1.323625
 10
1.405035365780322
 20
-1.357850322904128
 10
1.402479054278472
 20
-1.391106371322097
 10
1.398194231252277
 20
-1.422422566945057
 10
1.392184934276705
 20
-1.450974516563767
 10
1.384379043130069
 20
-1.476075744071456
 10
1.374865411534359
 20
-1.496898994117106
 10
1.363655882634405
 20
-1.512851374366815
 10
1.350979522916503
 20
-1.523444507838594
 10
1.337158605461955
 20
-1.528271122837449
 10
1.33227992806566
 20
-1.528624999235699
  0
LWPOLYLINE
  5
123
330
FF
100
AcDbEntity
  8
AM_9
100
AcDbPolyline
 90
        9
 70
     0
 43
0.0
 10
0.0839966164255443
 20
-1.13662348014238
 10
0.0973793085471208
 20
-1.143230237695534
 10
0.1263899765840246
 20
-1.162223098465075
 10
0.1513112674025117
 20
-1.185314116997087
 10
0.1726098180289598
 20
-1.213031823356912
 10
0.1885697209198567
 20
-1.243210695599555
 10
0.1995396364757796
 20
-1.276625707716885
 10
0.2036112318224778
 20
-1.299803449342388
 10
0.2050000000000001
 20
-1.323625
  0
LWPOLYLINE
  5
124
330
FF
100
AcDbEntity
  8
AM_9
100
AcDbPolyline
 90
        7
 70
     0
 43
0.0
 10
-0.0837910632061951
 20
-1.136531286244632
 10
-0.0687766734482645
 20
-1.130506463371869
 10
-0.0358589283899704
 20
-1.12178561520426
 10
-0.0009257969166899
 20
-1.118627090498295
 10
0.0327604635176695
 20
-1.121259607627422
 10
0.0664734476960605
 20
-1.12970161112852
 10
0.0839966164255443
 20
-1.13662348014238
  0
LWPOLYLINE
  5
125
330
FF
100
AcDbEntity
  8
AM_9
100
AcDbPolyline
 90
       27
 70
     0
 43
0.0
 10
0.2050000000000001
 20
-1.323625
 10
0.2022042683306224
 20
-1.357365685661049
 10
0.1935749584127278
 20
-1.391106371322097
 10
0.1798500751283857
 20
-1.422006657214717
 10
0.1606458858202564
 20
-1.450974516563767
 10
0.1374017519036985
 20
-1.475762301717213
 10
0.1095496369811647
 20
-1.496898994117106
 10
0.0792752790872424
 20
-1.512676395460705
 10
0.0457948063337105
 20
-1.523444507838594
 10
0.0121751037202358
 20
-1.528263136351467
 10
-0.0227816135620965
 20
-1.527355209059696
 10
-0.0558821314104723
 20
-1.520861374406504
 10
-0.0883289329932342
 20
-1.508619593424448
 10
-0.1175252605760592
 20
-1.491591702433933
 10
-0.1442032290522611
 20
-1.469331653008368
 10
-0.1663389312221284
 20
-1.443443028526095
 10
-0.1843251096359675
 20
-1.413342634597043
 10
-0.1966515669066932
 20
-1.381531486969444
 10
-0.2036528075077104
 20
-1.34708846083227
 10
-0.2047366120992951
 20
-1.313236560940028
 10
-0.2000175505186256
 20
-1.278703073454837
 10
-0.1899519196475668
 20
-1.246532404880855
 10
-0.1742564909685179
 20
-1.215645023359241
 10
-0.1540902145684011
 20
-1.188416990717029
 10
-0.1289655904254784
 20
-1.164273575512461
 10
-0.1007485855957664
 20
-1.1450900664423
 10
-0.0837910632061951
 20
-1.136531286244632
  0
LINE
  5
126
330
FF
100
AcDbEntity
  8
AM_9
100
AcDbLine
 10
-1.47
 20
-1.006625
 30
0.0
 11
-1.47
 21
-1.640625
 31
0.0
  0
LINE
  5
127
330
FF
100
AcDbEntity
  8
AM_9
100
AcDbLine
 10
-1.47
 20
-0.6628750000000001
 30
0.0
 11
-1.47
 21
-0.9374999999999999
 31
0.0
  0
LINE
  5
128
330
FF
100
AcDbEntity
  8
AM_9
100
AcDbLine
 10
1.47
 20
-0.9374999999999999
 30
0.0
 11
1.47
 21
-0.6628750000000001
 31
0.0
  0
LINE
  5
129
330
FF
100
AcDbEntity
  8
AM_9
100
AcDbLine
 10
1.47
 20
-1.640625
 30
0.0
 11
1.47
 21
-1.006625
 31
0.0
  0
LINE
  5
12A
330
FF
100
AcDbEntity
  8
AM_9
100
AcDbLine
 10
-1.88964
 20
1.243749999999999
 30
0.0
 11
-1.88964
 21
0.9951249999999999
 31
0.0
  0
LINE
  5
12B
330
FF
100
AcDbEntity
  8
AM_9
100
AcDbLine
 10
1.88964
 20
0.9951249999999999
 30
0.0
 11
1.88964
 21
1.243749999999999
 31
0.0
  0
LINE
  5
12C
330
FF
100
AcDbEntity
  8
AM_9
100
AcDbLine
 10
1.761515
 20
1.371875
 30
0.0
 11
-1.761515
 21
1.371875
 31
0.0
  0
ARC
  5
12D
330
FF
100
AcDbEntity
  8
AM_9
100
AcDbCircle
 10
-1.761515000000001
 20
1.243750000000001
 30
0.0
 40
0.1281249999999992
100
AcDbArc
 50
90.0
 51
180.0
  0
ARC
  5
12E
330
FF
100
AcDbEntity
  8
AM_9
100
AcDbCircle
 10
1.761515000000001
 20
1.243750000000001
 30
0.0
 40
0.1281249999999992
100
AcDbArc
 50
0.0
 51
90.0
  0
LINE
  5
12F
330
FF
100
AcDbEntity
  8
AM_9
100
AcDbLine
 10
1.88964
 20
1.243749999999999
 30
0.0
 11
-1.88964
 21
1.243749999999999
 31
0.0
  0
LINE
  5
130
330
FF
100
AcDbEntity
  8
AM_9
100
AcDbLine
 10
-1.88964
 20
-0.286125
 30
0.0
 11
-1.88964
 21
-0.5347499999999998
 31
0.0
  0
LINE
  5
131
330
FF
100
AcDbEntity
  8
AM_9
100
AcDbLine
 10
1.88964
 20
-0.5347499999999998
 30
0.0
 11
1.88964
 21
-0.286125
 31
0.0
  0
LINE
  5
132
330
FF
100
AcDbEntity
  8
AM_9
100
AcDbLine
 10
1.761515
 20
-0.662875
 30
0.0
 11
-1.761515
 21
-0.662875
 31
0.0
  0
ARC
  5
133
330
FF
100
AcDbEntity
  8
AM_9
100
AcDbCircle
 10
-1.761514999999989
 20
-0.5347499999999885
 30
0.0
 40
0.1281250000000114
100
AcDbArc
 50
180.0
 51
270.0
  0
ARC
  5
134
330
FF
100
AcDbEntity
  8
AM_9
100
AcDbCircle
 10
1.761515
 20
-0.5347500000000001
 30
0.0
 40
0.1281249999999999
100
AcDbArc
 50
270.0
 51
0.0
  0
LINE
  5
135
330
FF
100
AcDbEntity
  8
AM_9
100
AcDbLine
 10
1.88964
 20
-0.5347499999999998
 30
0.0
 11
-1.88964
 21
-0.5347499999999998
 31
0.0
  0
LINE
  5
136
330
FF
100
AcDbEntity
  8
AM_9
100
AcDbLine
 10
-2.267568
 20
0.4185625000000014
 30
0.0
 11
-2.267568
 21
0.2904374999999986
 31
0.0
  0
LINE
  5
137
330
FF
100
AcDbEntity
  8
AM_9
100
AcDbLine
 10
2.267568
 20
0.2904374999999986
 30
0.0
 11
2.267568
 21
0.4185625000000014
 31
0.0
  0
LINE
  5
138
330
FF
100
AcDbEntity
  8
AM_9
100
AcDbLine
 10
-2.36205
 20
0.8669999999999998
 30
0.0
 11
-2.36205
 21
0.4731117081335759
 31
0.0
  0
LINE
  5
139
330
FF
100
AcDbEntity
  8
AM_9
100
AcDbLine
 10
2.36205
 20
0.4731117081335759
 30
0.0
 11
2.36205
 21
0.8669999999999998
 31
0.0
  0
LINE
  5
13A
330
FF
100
AcDbEntity
  8
AM_9
100
AcDbLine
 10
2.233925001909211
 20
0.9951249999999999
 30
0.0
 11
-2.233925001909211
 21
0.9951249999999999
 31
0.0
  0
ARC
  5
13B
330
FF
100
AcDbEntity
  8
AM_9
100
AcDbCircle
 10
-2.233925
 20
0.8670000000000003
 30
0.0
 40
0.1281249999999996
100
AcDbArc
 50
90.0
 51
180.0
  0
ARC
  5
13C
330
FF
100
AcDbEntity
  8
AM_9
100
AcDbCircle
 10
2.233925
 20
0.8670000000000003
 30
0.0
 40
0.1281249999999998
100
AcDbArc
 50
0.0
 51
90.0
  0
LINE
  5
13D
330
FF
100
AcDbEntity
  8
AM_9
100
AcDbLine
 10
2.36205
 20
0.8669999999999998
 30
0.0
 11
-2.36205
 21
0.8669999999999998
 31
0.0
  0
LINE
  5
13E
330
FF
100
AcDbEntity
  8
AM_9
100
AcDbLine
 10
-2.36205
 20
0.2358882918664241
 30
0.0
 11
-2.36205
 21
-0.1580000000000006
 31
0.0
  0
LINE
  5
13F
330
FF
100
AcDbEntity
  8
AM_9
100
AcDbLine
 10
2.36205
 20
-0.1580000000000006
 30
0.0
 11
2.36205
 21
0.2358882918664241
 31
0.0
  0
LINE
  5
140
330
FF
100
AcDbEntity
  8
AM_9
100
AcDbLine
 10
2.267568
 20
0.4185625000000014
 30
0.0
 11
2.36205
 21
0.4731117081335759
 31
0.0
  0
LINE
  5
141
330
FF
100
AcDbEntity
  8
AM_9
100
AcDbLine
 10
-2.36205
 20
0.4731117081335759
 30
0.0
 11
-2.267568
 21
0.4185625000000014
 31
0.0
  0
LINE
  5
142
330
FF
100
AcDbEntity
  8
AM_9
100
AcDbLine
 10
2.36205
 20
0.4731117081335759
 30
0.0
 11
-2.36205
 21
0.4731117081335759
 31
0.0
  0
LINE
  5
143
330
FF
100
AcDbEntity
  8
AM_9
100
AcDbLine
 10
2.267568
 20
0.4185625000000014
 30
0.0
 11
-2.267568
 21
0.4185625000000014
 31
0.0
  0
LINE
  5
144
330
FF
100
AcDbEntity
  8
AM_9
100
AcDbLine
 10
-2.267568
 20
0.2904374999999986
 30
0.0
 11
-2.36205
 21
0.2358882918664241
 31
0.0
  0
LINE
  5
145
330
FF
100
AcDbEntity
  8
AM_9
100
AcDbLine
 10
2.36205
 20
0.2358882918664241
 30
0.0
 11
2.267568
 21
0.2904374999999986
 31
0.0
  0
LINE
  5
146
330
FF
100
AcDbEntity
  8
AM_9
100
AcDbLine
 10
2.267568
 20
0.2904374999999986
 30
0.0
 11
-2.267568
 21
0.2904374999999986
 31
0.0
  0
LINE
  5
147
330
FF
100
AcDbEntity
  8
AM_9
100
AcDbLine
 10
2.36205
 20
0.2358882918664241
 30
0.0
 11
-2.36205
 21
0.2358882918664241
 31
0.0
  0
LINE
  5
148
330
FF
100
AcDbEntity
  8
AM_9
100
AcDbLine
 10
2.233925
 20
-0.2861250000000002
 30
0.0
 11
-2.233925
 21
-0.2861250000000002
 31
0.0
  0
ARC
  5
149
330
FF
100
AcDbEntity
  8
AM_9
100
AcDbCircle
 10
-2.233925000000001
 20
-0.1580000000000014
 30
0.0
 40
0.1281249999999989
100
AcDbArc
 50
180.0
 51
270.0
  0
ARC
  5
14A
330
FF
100
AcDbEntity
  8
AM_9
100
AcDbCircle
 10
2.233925000000001
 20
-0.1580000000000018
 30
0.0
 40
0.1281249999999985
100
AcDbArc
 50
270.0
 51
0.0
  0
LINE
  5
14B
330
FF
100
AcDbEntity
  8
AM_9
100
AcDbLine
 10
2.36205
 20
-0.1580000000000006
 30
0.0
 11
-2.36205
 21
-0.1580000000000006
 31
0.0
  0
LINE
  5
14E
330
FF
100
AcDbEntity
  8
AM_7
100
AcDbLine
 10
0.0
 20
1.72265625
 30
0.0
 11
0.0
 21
-1.80078125
 31
0.0
  0
LINE
  5
14F
330
FF
100
AcDbEntity
  8
AM_4
100
AcDbLine
 10
-1.47
 20
-0.9374999999999999
 30
0.0
 11
-1.47
 21
-1.006625
 31
0.0
  0
LINE
  5
150
330
FF
100
AcDbEntity
  8
AM_4
100
AcDbLine
 10
1.47
 20
-1.006625
 30
0.0
 11
1.47
 21
-0.9374999999999999
 31
0.0
  0
ENDBLK
  5
102
330
FF
100
AcDbEntity
  8
0
100
AcDbBlockEnd
  0
BLOCK
  5
153
330
151
100
AcDbEntity
  8
0
100
AcDbBlockBegin
  2
5_405015E_Inch_0_in_070654_4
 70
     2
 10
0.0
 20
0.0
 30
0.0
  3
5_405015E_Inch_0_in_070654_4
  1

  0
ATTDEF
  5
155
330
151
100
AcDbEntity
  8
AM_6
100
AcDbText
 10
5.252590742770462
 20
-0.4726106347527645
 30
0.0
 40
0.5
  1
405015E -Inch
100
AcDbAttributeDefinition
  3

  2
NN
 70
     8
280
     0
  0
ATTDEF
  5
156
330
151
100
AcDbEntity
  8
AM_6
100
AcDbText
 10
5.252590742770462
 20
-0.9726106347527645
 30
0.0
 40
0.5
  1
Grease Fitting
100
AcDbAttributeDefinition
  3

  2
NT
 70
     8
280
     0
  0
ATTDEF
  5
157
330
151
100
AcDbEntity
  8
AM_6
100
AcDbText
 10
5.252590742770462
 20
-1.472610634752765
 30
0.0
 40
0.5
  1
405015E-Inch
100
AcDbAttributeDefinition
  3

  2
NB
 70
     8
280
     0
  0
ATTDEF
  5
158
330
151
100
AcDbEntity
  8
AM_6
100
AcDbText
 10
5.252590742770462
 20
-1.972610634752765
 30
0.0
 40
0.5
  1
$MN.-Inch
100
AcDbAttributeDefinition
  3

  2
NBSYN
 70
     8
280
     0
  0
ATTDEF
  5
159
330
151
100
AcDbEntity
  8
AM_6
100
AcDbText
 10
5.252590742770462
 20
-2.472610634752765
 30
0.0
 40
0.5
  1
405015E
100
AcDbAttributeDefinition
  3

  2
LINA
 70
     8
280
     0
  0
ATTDEF
  5
15A
330
151
100
AcDbEntity
  8
AM_6
100
AcDbText
 10
5.252590742770462
 20
-2.972610634752765
 30
0.0
 40
0.5
  1
405015E
100
AcDbAttributeDefinition
  3

  2
MN
 70
     8
280
     0
  0
ATTDEF
  5
15B
330
151
100
AcDbEntity
  8
AM_6
100
AcDbText
 10
5.252590742770462
 20
-3.472610634752765
 30
0.0
 40
0.5
  1
1/8 x 27PTF
100
AcDbAttributeDefinition
  3

  2
T
 70
     8
280
     0
  0
ATTDEF
  5
15C
330
151
100
AcDbEntity
  8
AM_6
100
AcDbText
 10
5.252590742770462
 20
-3.972610634752765
 30
0.0
 40
0.5
  1
baldor
100
AcDbAttributeDefinition
  3

  2
COMPANY
 70
     8
280
     0
  0
LINE
  5
15D
330
151
100
AcDbEntity
  8
AM_9
100
AcDbLine
 10
-0.1262953713852306
 20
-0.9711835716816025
 30
0.0
 11
-0.1262953713852306
 21
-0.900286574680391
 31
0.0
  0
LINE
  5
15E
330
151
100
AcDbEntity
  8
AM_9
100
AcDbLine
 10
0.1262953713852306
 20
-0.9711835716816025
 30
0.0
 11
0.1262953713852306
 21
-0.900286574680391
 31
0.0
  0
LWPOLYLINE
  5
15F
330
151
100
AcDbEntity
  8
AM_9
100
AcDbPolyline
 90
        4
 70
     0
 43
0.0
 10
0.0
 20
-0.8924338029917748
 10
-0.0483998160558989
 20
-0.8936614465842226
 10
-0.0967996321117978
 20
-0.8971817115062533
 10
-0.1262953713852306
 20
-0.900286574680391
  0
LWPOLYLINE
  5
160
330
151
100
AcDbEntity
  8
AM_9
100
AcDbPolyline
 90
        3
 70
     0
 43
0.0
 10
0.1262953713852306
 20
-0.900286574680391
 10
0.0634316146914367
 20
-0.894524842936217
 10
0.0
 20
-0.8924338029917748
  0
LWPOLYLINE
  5
161
330
151
100
AcDbEntity
  8
AM_9
100
AcDbPolyline
 90
        3
 70
     0
 43
0.0
 10
0.1894430570778459
 20
-0.8377463029917748
 10
0.1578692142315383
 20
-0.8671627815525443
 10
0.1262953713852306
 20
-0.900286574680391
  0
LWPOLYLINE
  5
162
330
151
100
AcDbEntity
  8
AM_9
100
AcDbPolyline
 90
        3
 70
     0
 43
0.0
 10
-0.1262953713852306
 20
-0.900286574680391
 10
-0.1577272497321276
 20
-0.8673040377991423
 10
-0.1894430570778459
 20
-0.8377463029917748
  0
LINE
  5
163
330
151
100
AcDbEntity
  8
AM_9
100
AcDbLine
 10
0.101866192704947
 20
-0.9738023505247777
 30
0.0
 11
0.1050474083588161
 21
-0.9734867439421029
 31
0.0
  0
LWPOLYLINE
  5
164
330
151
100
AcDbEntity
  8
AM_9
100
AcDbPolyline
 90
        3
 70
     0
 43
0.0
 10
0.0
 20
-0.9790363433702186
 10
0.0631476856926153
 20
-0.9769636148094492
 10
0.101866192704947
 20
-0.9738023505247777
  0
LWPOLYLINE
  5
165
330
151
100
AcDbEntity
  8
AM_9
100
AcDbPolyline
 90
        4
 70
     0
 43
0.0
 10
-0.1018734810627779
 20
-0.9738016365405499
 10
-0.0967996321117978
 20
-0.9742884348557401
 10
-0.0485424412477544
 20
-0.9778015398902851
 10
0.0
 20
-0.9790363433702186
  0
LINE
  5
166
330
151
100
AcDbEntity
  8
AM_9
100
AcDbLine
 10
-0.1050087569988762
 20
-0.9734906259849476
 30
0.0
 11
-0.1018734810627779
 21
-0.9738016365405499
 31
0.0
  0
LWPOLYLINE
  5
167
330
151
100
AcDbEntity
  8
AM_9
100
AcDbPolyline
 90
        3
 70
     0
 43
0.0
 10
0.2525907427704612
 20
-0.790911574680391
 10
0.2211588644235643
 20
-0.8123706480732917
 10
0.1894430570778459
 20
-0.8377463029917748
  0
LWPOLYLINE
  5
168
330
151
100
AcDbEntity
  8
AM_9
100
AcDbPolyline
 90
        3
 70
     0
 43
0.0
 10
-0.1894430570778459
 20
-0.8377463029917748
 10
-0.2210168999241536
 20
-0.8124752815525443
 10
-0.2525907427704612
 20
-0.790911574680391
  0
LINE
  5
169
330
151
100
AcDbEntity
  8
AM_9
100
AcDbLine
 10
-0.1321931418159853
 20
-0.5068247374866796
 30
0.0
 11
-0.1621706131788416
 21
-0.5280220107701806
 31
0.0
  0
LINE
  5
16A
330
151
100
AcDbEntity
  8
AM_9
100
AcDbLine
 10
0.1621706131788416
 20
-0.5280220107701806
 30
0.0
 11
0.1321931418159853
 21
-0.5068247374866796
 31
0.0
  0
LINE
  5
16B
330
151
100
AcDbEntity
  8
AM_9
100
AcDbLine
 10
-0.1985852938306408
 20
-0.5835661423053304
 30
0.0
 11
-0.2057184028850727
 21
-0.7812026022141453
 31
0.0
  0
LINE
  5
16C
330
151
100
AcDbEntity
  8
AM_9
100
AcDbLine
 10
0.2057184028850727
 20
-0.7812026022141453
 30
0.0
 11
0.1985852938306408
 21
-0.5835661423053304
 31
0.0
  0
LINE
  5
16D
330
151
100
AcDbEntity
  8
AM_9
100
AcDbLine
 10
0.1017810272422101
 20
-0.9734941771560618
 30
0.0
 11
0.105
 21
-0.9671917825165344
 31
0.0
  0
LINE
  5
16E
330
151
100
AcDbEntity
  8
AM_9
100
AcDbLine
 10
-0.105
 20
-0.9671917825165344
 30
0.0
 11
-0.1017810272422101
 21
-0.9734941771560618
 31
0.0
  0
ELLIPSE
  5
16F
330
151
100
AcDbEntity
  8
AM_9
100
AcDbEllipse
 10
0.0
 20
-0.960594010767585
 30
0.0
 11
-0.1049999999999998
 21
1.285879139104718E-17
 31
0.0
210
0.0
220
0.0
230
1.0
 40
0.5000000000000074
 41
0.0
 42
3.141592653589793
  0
LINE
  5
170
330
151
100
AcDbEntity
  8
AM_9
100
AcDbLine
 10
-0.105
 20
-0.9788322395800443
 30
0.0
 11
-0.105
 21
-0.9865747728811178
 31
0.0
  0
LINE
  5
171
330
151
100
AcDbEntity
  8
AM_9
100
AcDbLine
 10
0.105
 20
-0.9865747728811178
 30
0.0
 11
0.105
 21
-0.9788322395800443
 31
0.0
  0
ELLIPSE
  5
172
330
151
100
AcDbEntity
  8
AM_9
100
AcDbEllipse
 10
0.0
 20
-0.9865747728811178
 30
0.0
 11
-0.1050000000000002
 21
1.285879139104723E-17
 31
0.0
210
0.0
220
0.0
230
1.0
 40
0.5000000000000012
 41
5.990342535451011
 42
9.717620732497956
  0
LINE
  5
173
330
151
100
AcDbEntity
  8
AM_9
100
AcDbLine
 10
0.0976523208201058
 20
-0.966513510628967
 30
0.0
 11
0.1098343496897825
 21
-0.9577266575021169
 31
0.0
  0
LINE
  5
174
330
151
100
AcDbEntity
  8
AM_9
100
AcDbLine
 10
-0.1098343496897825
 20
-0.9577266575021169
 30
0.0
 11
-0.0976523208201058
 21
-0.966513510628967
 31
0.0
  0
ELLIPSE
  5
175
330
151
100
AcDbEntity
  8
AM_9
100
AcDbEllipse
 10
-0.0000000000000023
 20
-0.93266739489653
 30
0.0
 11
-0.1188200907348999
 21
1.455126437928933E-17
 31
0.0
210
0.0
220
0.0
230
1.0
 40
0.4999999999999665
 41
0.2500328930986804
 42
2.891559760491123
  0
ELLIPSE
  5
176
330
151
100
AcDbEntity
  8
AM_9
100
AcDbEllipse
 10
0.0
 20
-0.8855253686581896
 30
0.0
 11
-0.1725340532830152
 21
2.112932760969635E-17
 31
0.0
210
0.0
220
0.0
230
1.0
 40
0.5000000000000002
 41
0.6061451401950846
 42
2.535447513394709
  0
ELLIPSE
  5
177
330
151
100
AcDbEntity
  8
AM_9
100
AcDbEllipse
 10
-0.0000000000000016
 20
-0.8696613433702207
 30
0.0
 11
-0.2187499999999946
 21
2.678914873134769E-17
 31
0.0
210
0.0
220
0.0
230
1.0
 40
0.5000000000000028
 41
1.065244638251228
 42
2.076348015338578
  0
ELLIPSE
  5
178
330
151
100
AcDbEntity
  8
AM_9
100
AcDbEllipse
 10
-0.0000000000017379
 20
-0.8696613433698085
 30
0.0
 11
-0.2137499999964943
 21
2.617682533134535E-17
 31
0.0
210
0.0
220
0.0
230
1.0
 40
0.5000000000078387
 41
1.042972124169602
 42
2.098620529434238
  0
ELLIPSE
  5
179
330
151
100
AcDbEntity
  8
AM_9
100
AcDbEllipse
 10
0.0
 20
-1.038536297108184
 30
0.0
 11
-0.1350000000000003
 21
1.653273178848930E-17
 31
0.0
210
0.0
220
0.0
230
1.0
 40
0.4999999999999983
 41
0.2354336045415639
 42
2.906159049048231
  0
ELLIPSE
  5
17A
330
151
100
AcDbEntity
  8
AM_9
100
AcDbEllipse
 10
0.0000000000000023
 20
-0.5535620709888974
 30
0.0
 11
-0.1619028724722666
 21
1.982738345459234E-17
 31
0.0
210
0.0
220
0.0
230
1.0
 40
0.4999999999999973
 41
0.0
 42
6.283185307179586
  0
ELLIPSE
  5
17B
330
151
100
AcDbEntity
  8
AM_9
100
AcDbEllipse
 10
-0.000000000000001
 20
-0.7830588029917759
 30
0.0
 11
-0.2187500000000016
 21
3.259629037943347E-9
 31
0.0
210
0.0
220
0.0
230
1.0
 40
0.5000000000000014
 41
0.0
 42
6.283185307179586
  0
ELLIPSE
  5
17C
330
151
100
AcDbEntity
  8
AM_9
100
AcDbEllipse
 10
-0.0000000000003819
 20
-0.7830588029926094
 30
0.0
 11
-0.2057518972234515
 21
2.519734023531951E-17
 31
0.0
210
0.0
220
0.0
230
1.0
 40
0.5000000000000061
 41
0.0
 42
6.283185307179586
  0
ELLIPSE
  5
17D
330
151
100
AcDbEntity
  8
AM_9
100
AcDbEllipse
 10
-0.000000000001018
 20
-0.5853579809123988
 30
0.0
 11
-0.1986176267822334
 21
2.432364408931057E-17
 31
0.0
210
0.0
220
0.0
230
1.0
 40
0.4999999999999221
 41
0.0
 42
6.283185307179586
  0
LWPOLYLINE
  5
17E
330
151
100
AcDbEntity
  8
AM_4
100
AcDbPolyline
 90
        3
 70
     0
 43
0.0
 10
0.1262953713852306
 20
-0.9711835716816025
 10
0.1577272497321276
 20
-0.9497244982887016
 10
0.1894430570778459
 20
-0.9243488433702186
  0
LINE
  5
17F
330
151
100
AcDbEntity
  8
AM_4
100
AcDbLine
 10
0.1050474083588161
 20
-0.9734867439421029
 30
0.0
 11
0.1262953713852306
 21
-0.9711835716816025
 31
0.0
  0
LWPOLYLINE
  5
180
330
151
100
AcDbEntity
  8
AM_4
100
AcDbPolyline
 90
        3
 70
     0
 43
0.0
 10
-0.1894430570778459
 20
-0.9243488433702186
 10
-0.1578692142315383
 20
-0.949619864809449
 10
-0.1262953713852306
 20
-0.9711835716816025
  0
LINE
  5
181
330
151
100
AcDbEntity
  8
AM_4
100
AcDbLine
 10
-0.1262953713852306
 20
-0.9711835716816025
 30
0.0
 11
-0.1050087569988762
 21
-0.9734906259849476
 31
0.0
  0
LWPOLYLINE
  5
182
330
151
100
AcDbEntity
  8
AM_4
100
AcDbPolyline
 90
        3
 70
     0
 43
0.0
 10
-0.2525907427704612
 20
-0.8618085716816025
 10
-0.2211588644235643
 20
-0.8947911085628512
 10
-0.1894430570778459
 20
-0.9243488433702186
  0
LWPOLYLINE
  5
183
330
151
100
AcDbEntity
  8
AM_4
100
AcDbPolyline
 90
        3
 70
     0
 43
0.0
 10
0.1894430570778459
 20
-0.9243488433702186
 10
0.2210168999241535
 20
-0.8949323648094492
 10
0.2525907427704612
 20
-0.8618085716816025
  0
LINE
  5
184
330
151
100
AcDbEntity
  8
AM_4
100
AcDbLine
 10
0.105
 20
-0.9671917825165344
 30
0.0
 11
0.1151252948555658
 21
-0.9473675687617202
 31
0.0
  0
LINE
  5
185
330
151
100
AcDbEntity
  8
AM_4
100
AcDbLine
 10
-0.1151252948555658
 20
-0.9473675687617202
 30
0.0
 11
-0.105
 21
-0.9671917825165344
 31
0.0
  0
ELLIPSE
  5
186
330
151
100
AcDbEntity
  8
AM_4
100
AcDbEllipse
 10
-0.0000000000000028
 20
-0.9326673948965074
 30
0.0
 11
-0.1188200907349004
 21
1.770557339659619E-9
 31
0.0
210
0.0
220
0.0
230
1.0
 40
0.5000000000000151
 41
2.891559788924627
 42
6.533218228712461
  0
ELLIPSE
  5
187
330
151
100
AcDbEntity
  8
AM_4
100
AcDbEllipse
 10
0.0
 20
-0.9605940107675848
 30
0.0
 11
-0.1049999999999999
 21
1.564621938212794E-9
 31
0.0
210
0.0
220
0.0
230
1.0
 40
0.5000000000000024
 41
3.141592679399361
 42
6.283185332989154
  0
LINE
  5
188
330
151
100
AcDbEntity
  8
AM_4
100
AcDbLine
 10
-0.105
 20
-0.9605940107675847
 30
0.0
 11
-0.105
 21
-0.9788322395800443
 31
0.0
  0
LINE
  5
189
330
151
100
AcDbEntity
  8
AM_4
100
AcDbLine
 10
0.105
 20
-0.9788322395800443
 30
0.0
 11
0.105
 21
-0.9605940107675847
 31
0.0
  0
LINE
  5
18A
330
151
100
AcDbEntity
  8
AM_4
100
AcDbLine
 10
0.1098343496897825
 20
-0.9577266575021169
 30
0.0
 11
0.1417971541629018
 21
-0.9346720028602604
 31
0.0
  0
LINE
  5
18B
330
151
100
AcDbEntity
  8
AM_4
100
AcDbLine
 10
-0.1417971541629018
 20
-0.9346720028602604
 30
0.0
 11
-0.1098343496897825
 21
-0.9577266575021169
 31
0.0
  0
ELLIPSE
  5
18C
330
151
100
AcDbEntity
  8
AM_4
100
AcDbEllipse
 10
-0.0000000000000003
 20
-0.8855253686581902
 30
0.0
 11
-0.1725340532830156
 21
2.112932760969640E-17
 31
0.0
210
0.0
220
0.0
230
1.0
 40
0.4999999999999977
 41
2.535447513394713
 42
6.889330447374668
  0
LWPOLYLINE
  5
18D
330
151
100
AcDbEntity
  8
AM_4
100
AcDbPolyline
 90
        3
 70
     0
 43
0.0
 10
0.2525907427704612
 20
-0.8618085716816025
 10
0.2211588644235643
 20
-0.8403494982887015
 10
0.1894430570778459
 20
-0.8149738433702187
  0
LINE
  5
18E
330
151
100
AcDbEntity
  8
AM_4
100
AcDbLine
 10
0.2525907427704612
 20
-0.8618085716816025
 30
0.0
 11
0.2525907427704612
 21
-0.790911574680391
 31
0.0
  0
LWPOLYLINE
  5
18F
330
151
100
AcDbEntity
  8
AM_4
100
AcDbPolyline
 90
        3
 70
     0
 43
0.0
 10
0.1894430570778459
 20
-0.7283713029917748
 10
0.2210168999241536
 20
-0.7577877815525443
 10
0.2525907427704612
 20
-0.790911574680391
  0
LWPOLYLINE
  5
190
330
151
100
AcDbEntity
  8
AM_4
100
AcDbPolyline
 90
        3
 70
     0
 43
0.0
 10
0.1262953713852306
 20
-0.681536574680391
 10
0.1577272497321276
 20
-0.7029956480732918
 10
0.1894430570778459
 20
-0.7283713029917748
  0
LWPOLYLINE
  5
191
330
151
100
AcDbEntity
  8
AM_4
100
AcDbPolyline
 90
        3
 70
     0
 43
0.0
 10
0.1894430570778459
 20
-0.8149738433702187
 10
0.1578692142315383
 20
-0.7855573648094492
 10
0.1262953713852306
 20
-0.7524335716816024
  0
LINE
  5
192
330
151
100
AcDbEntity
  8
AM_4
100
AcDbLine
 10
-0.2525907427704612
 20
-0.8618085716816025
 30
0.0
 11
-0.2525907427704612
 21
-0.790911574680391
 31
0.0
  0
LWPOLYLINE
  5
193
330
151
100
AcDbEntity
  8
AM_4
100
AcDbPolyline
 90
        3
 70
     0
 43
0.0
 10
-0.1894430570778459
 20
-0.8149738433702187
 10
-0.2210168999241536
 20
-0.8402448648094492
 10
-0.2525907427704612
 20
-0.8618085716816025
  0
LWPOLYLINE
  5
194
330
151
100
AcDbEntity
  8
AM_4
100
AcDbPolyline
 90
        3
 70
     0
 43
0.0
 10
-0.1262953713852306
 20
-0.7524335716816024
 10
-0.1577272497321276
 20
-0.7854161085628512
 10
-0.1894430570778459
 20
-0.8149738433702187
  0
LWPOLYLINE
  5
195
330
151
100
AcDbEntity
  8
AM_4
100
AcDbPolyline
 90
        3
 70
     0
 43
0.0
 10
-0.1894430570778459
 20
-0.7283713029917748
 10
-0.1578692142315383
 20
-0.7031002815525443
 10
-0.1262953713852306
 20
-0.681536574680391
  0
LWPOLYLINE
  5
196
330
151
100
AcDbEntity
  8
AM_4
100
AcDbPolyline
 90
        3
 70
     0
 43
0.0
 10
-0.2525907427704612
 20
-0.790911574680391
 10
-0.2211588644235643
 20
-0.7579290377991423
 10
-0.1894430570778459
 20
-0.7283713029917748
  0
LINE
  5
197
330
151
100
AcDbEntity
  8
AM_4
100
AcDbLine
 10
-0.1262953713852306
 20
-0.7524335716816024
 30
0.0
 11
-0.1262953713852306
 21
-0.681536574680391
 31
0.0
  0
LWPOLYLINE
  5
198
330
151
100
AcDbEntity
  8
AM_4
100
AcDbPolyline
 90
        4
 70
     0
 43
0.0
 10
0.0
 20
-0.7602863433702187
 10
-0.0483998160558989
 20
-0.7590586997777707
 10
-0.0967996321117978
 20
-0.7555384348557402
 10
-0.1262953713852306
 20
-0.7524335716816024
  0
LWPOLYLINE
  5
199
330
151
100
AcDbEntity
  8
AM_4
100
AcDbPolyline
 90
        3
 70
     0
 43
0.0
 10
0.1262953713852306
 20
-0.7524335716816024
 10
0.0634316146914367
 20
-0.7581953034257765
 10
0.0
 20
-0.7602863433702187
  0
LINE
  5
19A
330
151
100
AcDbEntity
  8
AM_4
100
AcDbLine
 10
0.1262953713852306
 20
-0.7524335716816024
 30
0.0
 11
0.1262953713852306
 21
-0.681536574680391
 31
0.0
  0
LWPOLYLINE
  5
19B
330
151
100
AcDbEntity
  8
AM_4
100
AcDbPolyline
 90
        3
 70
     0
 43
0.0
 10
0.0
 20
-0.6736838029917748
 10
0.0631476856926153
 20
-0.6757565315525443
 10
0.1262953713852306
 20
-0.681536574680391
  0
LWPOLYLINE
  5
19C
330
151
100
AcDbEntity
  8
AM_4
100
AcDbPolyline
 90
        4
 70
     0
 43
0.0
 10
-0.1262953713852306
 20
-0.681536574680391
 10
-0.0967996321117978
 20
-0.6784317115062533
 10
-0.0485424412477544
 20
-0.6749186064717083
 10
0.0
 20
-0.6736838029917748
  0
ELLIPSE
  5
19D
330
151
100
AcDbEntity
  8
AM_4
100
AcDbEllipse
 10
-0.0000000000000008
 20
-0.8696613433702202
 30
0.0
 11
-0.2187500000000014
 21
2.678914873134852E-17
 31
0.0
210
0.0
220
0.0
230
1.0
 40
0.5000000000000034
 41
2.076348015338573
 42
7.348429945430812
  0
ELLIPSE
  5
19E
330
151
100
AcDbEntity
  8
AM_4
100
AcDbEllipse
 10
-0.0000000000000002
 20
-0.8696613433702178
 30
0.0
 11
-0.2137500000000001
 21
2.617682533177469E-17
 31
0.0
210
0.0
220
0.0
230
1.0
 40
0.5000000000000027
 41
2.098620529422325
 42
7.326157431347056
  0
LINE
  5
19F
330
151
100
AcDbEntity
  8
AM_4
100
AcDbLine
 10
-0.1005298463144155
 20
-0.9714193283148901
 30
0.0
 11
-0.1292526595471057
 21
-1.019050725523034
 31
0.0
  0
LINE
  5
1A0
330
151
100
AcDbEntity
  8
AM_4
100
AcDbLine
 10
0.1292526595471057
 20
-1.019050725523034
 30
0.0
 11
0.1005298463144155
 21
-0.9714193283148901
 31
0.0
  0
ELLIPSE
  5
1A1
330
151
100
AcDbEntity
  8
AM_4
100
AcDbEllipse
 10
0.0
 20
-0.9865747728811177
 30
0.0
 11
-0.1049999999999999
 21
1.564621938212795E-9
 31
0.0
210
0.0
220
0.0
230
1.0
 40
0.5000000000000033
 41
3.434435453258043
 42
5.990342563390691
  0
LINE
  5
1A2
330
151
100
AcDbEntity
  8
AM_4
100
AcDbLine
 10
0.0998453562378797
 20
-1.119793891852138
 30
0.0
 11
0.1312757938985219
 21
-1.054281660999762
 31
0.0
  0
LINE
  5
1A3
330
151
100
AcDbEntity
  8
AM_4
100
AcDbLine
 10
-0.1312757938985219
 20
-1.054281660999762
 30
0.0
 11
-0.0998453562378797
 21
-1.119793891852138
 31
0.0
  0
ELLIPSE
  5
1A4
330
151
100
AcDbEntity
  8
AM_4
100
AcDbEllipse
 10
-0.0000000000000085
 20
-1.038536297108159
 30
0.0
 11
-0.1350000000000086
 21
1.653273178849032E-17
 31
0.0
210
0.0
220
0.0
230
1.0
 40
0.5000000000000218
 41
2.906159049047891
 42
6.51861891172152
  0
ELLIPSE
  5
1A5
330
151
100
AcDbEntity
  8
AM_4
100
AcDbEllipse
 10
-0.0000000000000001
 20
-1.107818329410939
 30
0.0
 11
-0.1026779019331875
 21
1.257441639456439E-17
 31
0.0
210
0.0
220
0.0
230
1.0
 40
0.4999999999999963
 41
0.0
 42
6.283185307179586
  0
ENDBLK
  5
154
330
151
100
AcDbEntity
  8
0
100
AcDbBlockEnd
  0
BLOCK
  5
1A8
330
1A6
100
AcDbEntity
  8
0
100
AcDbBlockBegin
  2
6_070654H_0_in_070654_4
 70
     2
 10
0.0
 20
0.0
 30
0.0
  3
6_070654H_0_in_070654_4
  1

  0
ATTDEF
  5
1AA
330
1A6
100
AcDbEntity
  8
AM_6
100
AcDbText
 10
8.812500000000004
 20
1.5625
 30
0.0
 40
0.5
  1
FC-S2 -(Contact Seal)-Housing
100
AcDbAttributeDefinition
  3

  2
NN
 70
     8
280
     0
  0
ATTDEF
  5
1AB
330
1A6
100
AcDbEntity
  8
AM_6
100
AcDbText
 10
8.812500000000004
 20
1.0625
 30
0.0
 40
0.5
  1
S-2000 Piloted Flange Bearing -Inch
100
AcDbAttributeDefinition
  3

  2
NT
 70
     8
280
     0
  0
ATTDEF
  5
1AC
330
1A6
100
AcDbEntity
  8
AM_6
100
AcDbText
 10
8.812500000000004
 20
0.5625
 30
0.0
 40
0.5
  1
070654H
100
AcDbAttributeDefinition
  3

  2
NB
 70
     8
280
     0
  0
ATTDEF
  5
1AD
330
1A6
100
AcDbEntity
  8
AM_6
100
AcDbText
 10
8.812500000000004
 20
0.0625
 30
0.0
 40
0.5
  1
$PN.H
100
AcDbAttributeDefinition
  3

  2
NBSYN
 70
     8
280
     0
  0
ATTDEF
  5
1AE
330
1A6
100
AcDbEntity
  8
AM_6
100
AcDbText
 10
8.812500000000004
 20
-0.4375
 30
0.0
 40
0.5
  1
070654
100
AcDbAttributeDefinition
  3

  2
LINA
 70
     8
280
     0
  0
ATTDEF
  5
1AF
330
1A6
100
AcDbEntity
  8
AM_6
100
AcDbText
 10
8.812500000000004
 20
-0.9375
 30
0.0
 40
0.5
  1
2-7/16
100
AcDbAttributeDefinition
  3

  2
SS
 70
     8
280
     0
  0
ATTDEF
  5
1B0
330
1A6
100
AcDbEntity
  8
AM_6
100
AcDbText
 10
8.812500000000004
 20
-1.4375
 30
0.0
 40
0.5
  1
070654
100
AcDbAttributeDefinition
  3

  2
PN
 70
     8
280
     0
  0
ATTDEF
  5
1B1
330
1A6
100
AcDbEntity
  8
AM_6
100
AcDbText
 10
8.812500000000004
 20
-1.9375
 30
0.0
 40
0.5
  1
FC-S2-207R
100
AcDbAttributeDefinition
  3

  2
DESCRIPTION
 70
     8
280
     0
  0
ATTDEF
  5
1B2
330
1A6
100
AcDbEntity
  8
AM_6
100
AcDbText
 10
8.812500000000004
 20
-2.4375
 30
0.0
 40
0.5
  1
Non-Expansion Type
100
AcDbAttributeDefinition
  3

  2
EF
 70
     8
280
     0
  0
ATTDEF
  5
1B3
330
1A6
100
AcDbEntity
  8
AM_6
100
AcDbText
 10
8.812500000000004
 20
-2.9375
 30
0.0
 40
0.5
  1
3-13/64
100
AcDbAttributeDefinition
  3

  2
A
 70
     8
280
     0
  0
ATTDEF
  5
1B4
330
1A6
100
AcDbEntity
  8
AM_6
100
AcDbText
 10
8.812500000000004
 20
-3.4375
 30
0.0
 40
0.5
  1
7-5/8
100
AcDbAttributeDefinition
  3

  2
B
 70
     8
280
     0
  0
ATTDEF
  5
1B5
330
1A6
100
AcDbEntity
  8
AM_6
100
AcDbText
 10
8.812500000000004
 20
-3.9375
 30
0.0
 40
0.5
  1
2-1/2
100
AcDbAttributeDefinition
  3

  2
C
 70
     8
280
     0
  0
ATTDEF
  5
1B6
330
1A6
100
AcDbEntity
  8
AM_6
100
AcDbText
 10
8.812500000000004
 20
-4.4375
 30
0.0
 40
0.5
  1
6-1/2
100
AcDbAttributeDefinition
  3

  2
DD
 70
     8
280
     0
  0
ATTDEF
  5
1B7
330
1A6
100
AcDbEntity
  8
AM_6
100
AcDbText
 10
8.812500000000004
 20
-4.9375
 30
0.0
 40
0.5
  1
1
100
AcDbAttributeDefinition
  3

  2
E
 70
     8
280
     0
  0
ATTDEF
  5
1B8
330
1A6
100
AcDbEntity
  8
AM_6
100
AcDbText
 10
8.812500000000004
 20
-5.4375
 30
0.0
 40
0.5
  1
1/2
100
AcDbAttributeDefinition
  3

  2
F
 70
     8
280
     0
  0
ATTDEF
  5
1B9
330
1A6
100
AcDbEntity
  8
AM_6
100
AcDbText
 10
8.812500000000004
 20
-5.9375
 30
0.0
 40
0.5
  1
1-41/64
100
AcDbAttributeDefinition
  3

  2
G
 70
     8
280
     0
  0
ATTDEF
  5
1BA
330
1A6
100
AcDbEntity
  8
AM_6
100
AcDbText
 10
8.812500000000004
 20
-6.4375
 30
0.0
 40
0.5
  1
5/8
100
AcDbAttributeDefinition
  3

  2
H
 70
     8
280
     0
  0
ATTDEF
  5
1BB
330
1A6
100
AcDbEntity
  8
AM_6
100
AcDbText
 10
8.812500000000004
 20
-6.9375
 30
0.0
 40
0.5
  1
5.500
100
AcDbAttributeDefinition
  3

  2
K
 70
     8
280
     0
  0
ATTDEF
  5
1BC
330
1A6
100
AcDbEntity
  8
AM_6
100
AcDbText
 10
8.812500000000004
 20
-7.4375
 30
0.0
 40
0.5
  1
4-1/16
100
AcDbAttributeDefinition
  3

  2
L
 70
     8
280
     0
  0
ATTDEF
  5
1BD
330
1A6
100
AcDbEntity
  8
AM_6
100
AcDbText
 10
8.812500000000004
 20
-7.9375
 30
0.0
 40
0.5
  1
1/2-13
100
AcDbAttributeDefinition
  3

  2
M
 70
     8
280
     0
  0
ATTDEF
  5
1BE
330
1A6
100
AcDbEntity
  8
AM_6
100
AcDbText
 10
8.812500000000004
 20
-8.4375
 30
0.0
 40
0.5
  1
0.5000
100
AcDbAttributeDefinition
  3

  2
MNDM
 70
     8
280
     0
  0
ATTDEF
  5
1BF
330
1A6
100
AcDbEntity
  8
AM_6
100
AcDbText
 10
8.812500000000004
 20
-8.9375
 30
0.0
 40
0.5
  1
0.4167
100
AcDbAttributeDefinition
  3

  2
MKDM
 70
     8
280
     0
  0
ATTDEF
  5
1C0
330
1A6
100
AcDbEntity
  8
AM_6
100
AcDbText
 10
8.812500000000004
 20
-9.4375
 30
0.0
 40
0.5
  1
3-13/64
100
AcDbAttributeDefinition
  3

  2
N
 70
     8
280
     0
  0
ATTDEF
  5
1C1
330
1A6
100
AcDbEntity
  8
AM_6
100
AcDbText
 10
8.812500000000004
 20
-9.9375
 30
0.0
 40
0.5
  1
3.203125
100
AcDbAttributeDefinition
  3

  2
N1
 70
     8
280
     0
  0
ATTDEF
  5
1C2
330
1A6
100
AcDbEntity
  8
AM_6
100
AcDbText
 10
8.812500000000004
 20
-10.4375
 30
0.0
 40
0.5
  1
1-9/16
100
AcDbAttributeDefinition
  3

  2
P
 70
     8
280
     0
  0
ATTDEF
  5
1C3
330
1A6
100
AcDbEntity
  8
AM_6
100
AcDbText
 10
8.812500000000004
 20
-10.9375
 30
0.0
 40
0.5
  1
1-9/16
100
AcDbAttributeDefinition
  3

  2
Q
 70
     8
280
     0
  0
ATTDEF
  5
1C4
330
1A6
100
AcDbEntity
  8
AM_6
100
AcDbText
 10
8.812500000000004
 20
-11.4375
 30
0.0
 40
0.5
  1
1.562500
100
AcDbAttributeDefinition
  3

  2
Q1
 70
     8
280
     0
  0
ATTDEF
  5
1C5
330
1A6
100
AcDbEntity
  8
AM_6
100
AcDbText
 10
8.812500000000004
 20
-11.9375
 30
0.0
 40
0.5
  1
1/4
100
AcDbAttributeDefinition
  3

  2
X
 70
     8
280
     0
  0
ATTDEF
  5
1C6
330
1A6
100
AcDbEntity
  8
AM_6
100
AcDbText
 10
8.812500000000004
 20
-12.4375
 30
0.0
 40
0.5
  1
0.025
100
AcDbAttributeDefinition
  3

  2
Y
 70
     8
280
     0
  0
ATTDEF
  5
1C7
330
1A6
100
AcDbEntity
  8
AM_6
100
AcDbText
 10
8.812500000000004
 20
-12.9375
 30
0.0
 40
0.5
  1
2-15/16
100
AcDbAttributeDefinition
  3

  2
Z
 70
     8
280
     0
  0
ATTDEF
  5
1C8
330
1A6
100
AcDbEntity
  8
AM_6
100
AcDbText
 10
8.812500000000004
 20
-13.4375
 30
0.0
 40
0.5
  1
baldor
100
AcDbAttributeDefinition
  3

  2
COMPANY
 70
     8
280
     0
  0
LINE
  5
1C9
330
1A6
100
AcDbEntity
  8
AM_9
100
AcDbLine
 10
-3.04165
 20
-0.5208499999999989
 30
0.0
 11
-3.04165
 21
-0.0416500000000009
 31
0.0
  0
LINE
  5
1CA
330
1A6
100
AcDbEntity
  8
AM_9
100
AcDbLine
 10
-3.45835
 20
-0.0416500000000009
 30
0.0
 11
-3.45835
 21
-0.5208499999999989
 31
0.0
  0
LINE
  5
1CB
330
1A6
100
AcDbEntity
  8
AM_9
100
AcDbLine
 10
3.04165
 20
-0.0416500000000001
 30
0.0
 11
3.04165
 21
-0.5208499999999997
 31
0.0
  0
LINE
  5
1CC
330
1A6
100
AcDbEntity
  8
AM_9
100
AcDbLine
 10
3.45835
 20
-0.5208499999999997
 30
0.0
 11
3.45835
 21
-0.0416500000000001
 31
0.0
  0
LINE
  5
1CD
330
1A6
100
AcDbEntity
  8
AM_9
100
AcDbLine
 10
3.45835
 20
-0.0416500000000001
 30
0.0
 11
3.04165
 21
-0.0416500000000001
 31
0.0
  0
LINE
  5
1CE
330
1A6
100
AcDbEntity
  8
AM_9
100
AcDbLine
 10
3.45835
 20
-0.0416500000000001
 30
0.0
 11
3.5
 21
0.0
 31
0.0
  0
LINE
  5
1CF
330
1A6
100
AcDbEntity
  8
AM_9
100
AcDbLine
 10
3.0
 20
0.0
 30
0.0
 11
3.04165
 21
-0.0416500000000001
 31
0.0
  0
LINE
  5
1D0
330
1A6
100
AcDbEntity
  8
AM_9
100
AcDbLine
 10
-3.45835
 20
-0.0416500000000009
 30
0.0
 11
-3.04165
 21
-0.0416500000000009
 31
0.0
  0
LINE
  5
1D1
330
1A6
100
AcDbEntity
  8
AM_9
100
AcDbLine
 10
-3.04165
 20
-0.0416500000000009
 30
0.0
 11
-3.0
 21
0.0
 31
0.0
  0
LINE
  5
1D2
330
1A6
100
AcDbEntity
  8
AM_9
100
AcDbLine
 10
-3.5
 20
0.0
 30
0.0
 11
-3.45835
 21
-0.0416500000000009
 31
0.0
  0
LINE
  5
1D3
330
1A6
100
AcDbEntity
  8
AM_9
100
AcDbLine
 10
3.45835
 20
-0.5208499999999997
 30
0.0
 11
3.04165
 21
-0.5208499999999997
 31
0.0
  0
LINE
  5
1D4
330
1A6
100
AcDbEntity
  8
AM_9
100
AcDbLine
 10
3.04165
 20
-0.5208499999999997
 30
0.0
 11
3.0
 21
-0.5624999999999998
 31
0.0
  0
LINE
  5
1D5
330
1A6
100
AcDbEntity
  8
AM_9
100
AcDbLine
 10
3.5
 20
-0.5624999999999998
 30
0.0
 11
3.45835
 21
-0.5208499999999997
 31
0.0
  0
LINE
  5
1D6
330
1A6
100
AcDbEntity
  8
AM_9
100
AcDbLine
 10
-3.45835
 20
-0.5208499999999989
 30
0.0
 11
-3.04165
 21
-0.5208499999999989
 31
0.0
  0
LINE
  5
1D7
330
1A6
100
AcDbEntity
  8
AM_9
100
AcDbLine
 10
-3.45835
 20
-0.5208499999999989
 30
0.0
 11
-3.5
 21
-0.5624999999999998
 31
0.0
  0
LINE
  5
1D8
330
1A6
100
AcDbEntity
  8
AM_9
100
AcDbLine
 10
-3.0
 20
-0.5624999999999998
 30
0.0
 11
-3.04165
 21
-0.5208499999999989
 31
0.0
  0
LINE
  5
1D9
330
1A6
100
AcDbEntity
  8
AM_9
100
AcDbLine
 10
2.503097332388137
 20
-0.5625000000000001
 30
0.0
 11
2.503097332388137
 21
-0.625
 31
0.0
  0
LINE
  5
1DA
330
1A6
100
AcDbEntity
  8
AM_9
100
AcDbLine
 10
2.457885343460385
 20
-0.5625000000000001
 30
0.0
 11
2.457885343460385
 21
-0.625
 31
0.0
  0
LINE
  5
1DB
330
1A6
100
AcDbEntity
  8
AM_9
100
AcDbLine
 10
-2.503097332388136
 20
-0.5625000000000001
 30
0.0
 11
-2.503097332388136
 21
-0.625
 31
0.0
  0
LINE
  5
1DC
330
1A6
100
AcDbEntity
  8
AM_9
100
AcDbLine
 10
-2.457885343460384
 20
-0.625
 30
0.0
 11
-2.457885343460384
 21
-0.5625000000000001
 31
0.0
  0
LINE
  5
1DD
330
1A6
100
AcDbEntity
  8
AM_9
100
AcDbLine
 10
-2.482228231505353
 20
-0.5625000000000001
 30
0.0
 11
-2.482228231505353
 21
-0.625
 31
0.0
  0
LINE
  5
1DE
330
1A6
100
AcDbEntity
  8
AM_9
100
AcDbLine
 10
-2.75
 20
-0.5625000000000001
 30
0.0
 11
-2.75
 21
-0.6249999999999999
 31
0.0
  0
LINE
  5
1DF
330
1A6
100
AcDbEntity
  8
AM_9
100
AcDbLine
 10
2.482228231505352
 20
-0.5625000000000001
 30
0.0
 11
2.482228231505353
 21
-0.625
 31
0.0
  0
LINE
  5
1E0
330
1A6
100
AcDbEntity
  8
AM_9
100
AcDbLine
 10
2.75
 20
-0.6249999999999999
 30
0.0
 11
2.75
 21
-0.5625000000000001
 31
0.0
  0
LINE
  5
1E1
330
1A6
100
AcDbEntity
  8
AM_9
100
AcDbLine
 10
-3.075846386450072
 20
-0.5624999999999998
 30
0.0
 11
-2.457885343460384
 21
-0.5625000000000001
 31
0.0
  0
LINE
  5
1E2
330
1A6
100
AcDbEntity
  8
AM_9
100
AcDbLine
 10
2.457885343460385
 20
-0.5625000000000001
 30
0.0
 11
3.075846386450076
 21
-0.5624999999999998
 31
0.0
  0
LINE
  5
1E3
330
1A6
100
AcDbEntity
  8
AM_9
100
AcDbLine
 10
2.36205
 20
-0.6940789473684212
 30
0.0
 11
2.36205
 21
1.5625
 31
0.0
  0
LINE
  5
1E4
330
1A6
100
AcDbEntity
  8
AM_9
100
AcDbLine
 10
-2.36205
 20
1.5625
 30
0.0
 11
-2.36205
 21
-0.6940789473684212
 31
0.0
  0
LINE
  5
1E5
330
1A6
100
AcDbEntity
  8
AM_9
100
AcDbLine
 10
-2.36205
 20
-0.6940789473684212
 30
0.0
 11
2.36205
 21
-0.6940789473684212
 31
0.0
  0
LINE
  5
1E6
330
1A6
100
AcDbEntity
  8
AM_9
100
AcDbLine
 10
-2.36205
 20
-0.6940789473684212
 30
0.0
 11
-2.450648017551642
 21
-0.9375
 31
0.0
  0
LINE
  5
1E7
330
1A6
100
AcDbEntity
  8
AM_9
100
AcDbLine
 10
2.450648017551642
 20
-0.9375
 30
0.0
 11
2.36205
 21
-0.6940789473684212
 31
0.0
  0
LINE
  5
1E8
330
1A6
100
AcDbEntity
  8
AM_9
100
AcDbLine
 10
2.04809703885628
 20
0.0000000000000003
 30
0.0
 11
2.04809703885628
 21
-0.6249999999999998
 31
0.0
  0
LINE
  5
1E9
330
1A6
100
AcDbEntity
  8
AM_9
100
AcDbLine
 10
2.54809703885628
 20
-0.6249999999999998
 30
0.0
 11
2.54809703885628
 21
0.0000000000000003
 31
0.0
  0
LINE
  5
1EA
330
1A6
100
AcDbEntity
  8
AM_9
100
AcDbLine
 10
-2.54809703885628
 20
0.0000000000000003
 30
0.0
 11
-2.54809703885628
 21
-0.6249999999999998
 31
0.0
  0
LINE
  5
1EB
330
1A6
100
AcDbEntity
  8
AM_9
100
AcDbLine
 10
-2.04809703885628
 20
-0.6249999999999998
 30
0.0
 11
-2.04809703885628
 21
0.0000000000000003
 31
0.0
  0
LINE
  5
1EC
330
1A6
100
AcDbEntity
  8
AM_9
100
AcDbLine
 10
0.1730060606187039
 20
-0.9375
 30
0.0
 11
-0.1730118829888045
 21
-0.9375
 31
0.0
  0
LINE
  5
1ED
330
1A6
100
AcDbEntity
  8
AM_9
100
AcDbLine
 10
0.1920942672421524
 20
-0.0000000000000003
 30
0.0
 11
0.1920942672421548
 21
-0.5625000000000003
 31
0.0
  0
LINE
  5
1EE
330
1A6
100
AcDbEntity
  8
AM_9
100
AcDbLine
 10
-0.1920942672421465
 20
-0.0000000000000003
 30
0.0
 11
-0.1920942672421465
 21
-0.5625000000000003
 31
0.0
  0
LINE
  5
1EF
330
1A6
100
AcDbEntity
  8
AM_5
100
AcDbLine
 10
3.5
 20
0.0
 30
0.0
 11
3.5
 21
-0.5624999999999998
 31
0.0
  0
LINE
  5
1F0
330
1A6
100
AcDbEntity
  8
AM_5
100
AcDbLine
 10
3.0
 20
0.0000000000000005
 30
0.0
 11
3.0
 21
-0.5625000000000001
 31
0.0
  0
LINE
  5
1F1
330
1A6
100
AcDbEntity
  8
AM_5
100
AcDbLine
 10
-3.5
 20
0.0
 30
0.0
 11
-3.5
 21
-0.5624999999999998
 31
0.0
  0
LINE
  5
1F2
330
1A6
100
AcDbEntity
  8
AM_5
100
AcDbLine
 10
-3.0
 20
0.0000000000000005
 30
0.0
 11
-3.0
 21
-0.5625000000000001
 31
0.0
  0
LINE
  5
1F3
330
1A6
100
AcDbEntity
  8
AM_7
100
AcDbLine
 10
2.29809703885628
 20
-0.6562500000000001
 30
0.0
 11
2.29809703885628
 21
0.0312499999999999
 31
0.0
  0
LINE
  5
1F4
330
1A6
100
AcDbEntity
  8
AM_7
100
AcDbLine
 10
-2.29809703885628
 20
-0.6562500000000001
 30
0.0
 11
-2.29809703885628
 21
0.0312499999999999
 31
0.0
  0
LINE
  5
1F5
330
1A6
100
AcDbEntity
  8
AM_7
100
AcDbLine
 10
3.25
 20
0.028125
 30
0.0
 11
3.25
 21
-0.5906249999999997
 31
0.0
  0
LINE
  5
1F6
330
1A6
100
AcDbEntity
  8
AM_7
100
AcDbLine
 10
-3.25
 20
0.028125
 30
0.0
 11
-3.25
 21
-0.5906249999999997
 31
0.0
  0
LINE
  5
1F7
330
1A6
100
AcDbEntity
  8
AM_4
100
AcDbLine
 10
-2.75
 20
-0.6249999999999999
 30
0.0
 11
-2.75
 21
-0.9375
 31
0.0
  0
LINE
  5
1F8
330
1A6
100
AcDbEntity
  8
AM_4
100
AcDbLine
 10
2.75
 20
-0.9375
 30
0.0
 11
2.75
 21
-0.6249999999999999
 31
0.0
  0
LINE
  5
1F9
330
1A6
100
AcDbEntity
  8
AM_4
100
AcDbLine
 10
-2.174033584587679
 20
-0.9375
 30
0.0
 11
-2.174033584587679
 21
-0.625
 31
0.0
  0
LINE
  5
1FA
330
1A6
100
AcDbEntity
  8
AM_4
100
AcDbLine
 10
2.174033584587679
 20
-0.9375
 30
0.0
 11
2.174033584587679
 21
-0.625
 31
0.0
  0
LINE
  5
1FB
330
1A6
100
AcDbEntity
  8
AM_4
100
AcDbLine
 10
2.619047619047619
 20
1.5625
 30
0.0
 11
-2.619047619047619
 21
1.5625
 31
0.0
  0
LINE
  5
1FC
330
1A6
100
AcDbEntity
  8
AM_4
100
AcDbLine
 10
2.619047619047619
 20
1.0
 30
0.0
 11
2.619047619047619
 21
1.5625
 31
0.0
  0
LINE
  5
1FD
330
1A6
100
AcDbEntity
  8
AM_4
100
AcDbLine
 10
-2.619047619047619
 20
1.5625
 30
0.0
 11
-2.619047619047619
 21
1.0
 31
0.0
  0
LINE
  5
1FE
330
1A6
100
AcDbEntity
  8
AM_4
100
AcDbLine
 10
-1.183656625342759
 20
-0.5624999999999998
 30
0.0
 11
-1.183656625342759
 21
-0.6249999999999998
 31
0.0
  0
LINE
  5
1FF
330
1A6
100
AcDbEntity
  8
AM_4
100
AcDbLine
 10
-1.684065905208239
 20
-0.9375
 30
0.0
 11
-1.684065905208239
 21
-0.625
 31
0.0
  0
LINE
  5
200
330
1A6
100
AcDbEntity
  8
AM_4
100
AcDbLine
 10
1.684065905208238
 20
-0.9375
 30
0.0
 11
1.684065905208238
 21
-0.625
 31
0.0
  0
LINE
  5
201
330
1A6
100
AcDbEntity
  8
AM_4
100
AcDbLine
 10
1.183656625342759
 20
-0.5624999999999998
 30
0.0
 11
1.183656625342759
 21
-0.6249999999999998
 31
0.0
  0
LINE
  5
202
330
1A6
100
AcDbEntity
  8
AM_4
100
AcDbLine
 10
2.75
 20
1.0
 30
0.0
 11
-2.75
 21
1.0
 31
0.0
  0
LINE
  5
203
330
1A6
100
AcDbEntity
  8
AM_4
100
AcDbLine
 10
2.75
 20
0.0
 30
0.0
 11
2.75
 21
1.0
 31
0.0
  0
LINE
  5
204
330
1A6
100
AcDbEntity
  8
AM_4
100
AcDbLine
 10
-2.75
 20
1.0
 30
0.0
 11
-2.75
 21
0.0
 31
0.0
  0
LINE
  5
205
330
1A6
100
AcDbEntity
  8
AM_4
100
AcDbLine
 10
-1.434655882188953
 20
-0.5624999999999998
 30
0.0
 11
-1.434655882188953
 21
-0.6249999999999998
 31
0.0
  0
LINE
  5
206
330
1A6
100
AcDbEntity
  8
AM_4
100
AcDbLine
 10
1.434655882188954
 20
-0.5624999999999998
 30
0.0
 11
1.434655882188954
 21
-0.6249999999999998
 31
0.0
  0
LINE
  5
207
330
1A6
100
AcDbEntity
  8
AM_4
100
AcDbLine
 10
-0.5
 20
-0.5624999999999998
 30
0.0
 11
-0.5
 21
-0.9375
 31
0.0
  0
LINE
  5
208
330
1A6
100
AcDbEntity
  8
AM_4
100
AcDbLine
 10
0.5
 20
-0.5624999999999998
 30
0.0
 11
0.5
 21
-0.9375
 31
0.0
  0
LINE
  5
209
330
1A6
100
AcDbEntity
  8
AM_4
100
AcDbLine
 10
-0.1730118829888045
 20
-0.9375
 30
0.0
 11
-2.75
 21
-0.9375
 31
0.0
  0
LINE
  5
20A
330
1A6
100
AcDbEntity
  8
AM_4
100
AcDbLine
 10
2.75
 20
-0.9375
 30
0.0
 11
0.1730060606187039
 21
-0.9375
 31
0.0
  0
LINE
  5
20B
330
1A6
100
AcDbEntity
  8
AM_4
100
AcDbLine
 10
0.5
 20
-0.5766560817564832
 30
0.0
 11
-0.5
 21
-0.5766560817564832
 31
0.0
  0
LINE
  5
20C
330
1A6
100
AcDbEntity
  8
AM_4
100
AcDbLine
 10
-2.252626302110939
 20
-0.5624999999999998
 30
0.0
 11
2.252626302110944
 21
-0.5624999999999998
 31
0.0
  0
LINE
  5
20D
330
1A6
100
AcDbEntity
  8
AM_4
100
AcDbLine
 10
-3.075846386450072
 20
-0.5624999999999998
 30
0.0
 11
-3.075846386450073
 21
-0.6249999999999998
 31
0.0
  0
LINE
  5
20E
330
1A6
100
AcDbEntity
  8
AM_4
100
AcDbLine
 10
-1.183656625342759
 20
-0.6249999999999998
 30
0.0
 11
-3.075846386450073
 21
-0.6249999999999998
 31
0.0
  0
LINE
  5
20F
330
1A6
100
AcDbEntity
  8
AM_4
100
AcDbLine
 10
-2.25262630211094
 20
-0.6249999999999998
 30
0.0
 11
-2.252626302110939
 21
-0.5624999999999998
 31
0.0
  0
LINE
  5
210
330
1A6
100
AcDbEntity
  8
AM_4
100
AcDbLine
 10
2.252626302110944
 20
-0.5624999999999998
 30
0.0
 11
2.252626302110944
 21
-0.6249999999999998
 31
0.0
  0
LINE
  5
211
330
1A6
100
AcDbEntity
  8
AM_4
100
AcDbLine
 10
3.075846386450076
 20
-0.6249999999999998
 30
0.0
 11
1.183656625342759
 21
-0.6249999999999998
 31
0.0
  0
LINE
  5
212
330
1A6
100
AcDbEntity
  8
AM_4
100
AcDbLine
 10
3.075846386450076
 20
-0.6249999999999998
 30
0.0
 11
3.075846386450076
 21
-0.5624999999999998
 31
0.0
  0
LINE
  5
213
330
1A6
100
AcDbEntity
  8
AM_4
100
AcDbLine
 10
3.075846386450076
 20
-0.5624999999999998
 30
0.0
 11
3.812500000000003
 21
-0.5625000000000001
 31
0.0
  0
LINE
  5
214
330
1A6
100
AcDbEntity
  8
AM_4
100
AcDbLine
 10
-3.812499999999996
 20
0.0
 30
0.0
 11
-3.812499999999996
 21
-0.5625000000000001
 31
0.0
  0
LINE
  5
215
330
1A6
100
AcDbEntity
  8
AM_4
100
AcDbLine
 10
3.812500000000003
 20
-0.5625000000000001
 30
0.0
 11
3.812500000000003
 21
0.0
 31
0.0
  0
LINE
  5
216
330
1A6
100
AcDbEntity
  8
AM_4
100
AcDbLine
 10
3.812500000000003
 20
0.0
 30
0.0
 11
-3.812499999999996
 21
0.0
 31
0.0
  0
LINE
  5
217
330
1A6
100
AcDbEntity
  8
AM_4
100
AcDbLine
 10
-3.812499999999996
 20
-0.5625000000000001
 30
0.0
 11
-3.075846386450072
 21
-0.5624999999999998
 31
0.0
  0
ENDBLK
  5
1A9
330
1A6
100
AcDbEntity
  8
0
100
AcDbBlockEnd
  0
ENDSEC
  0
SECTION
  2
ENTITIES
  0
INSERT
  5
6F
330
1F
100
AcDbEntity
  8
0
100
AcDbBlockReference
  2
1_070654_4
 10
0.0
 20
0.0
 30
0.0
  0
POINT
  5
219
330
1F
100
AcDbEntity
  8
ConnectionPoints
100
AcDbPoint
 10
0.0
 20
-1.640625
 30
0.0000000000000001
  0
POINT
  5
21A
330
1F
100
AcDbEntity
  8
ConnectionPoints
100
AcDbPoint
 10
0.0
 20
-1.640625
 30
0.0000000000000001
  0
POINT
  5
21B
330
1F
100
AcDbEntity
  8
ConnectionPoints
100
AcDbPoint
 10
0.0
 20
2.349625
 30
-0.0000000000000001
  0
POINT
  5
21C
330
1F
100
AcDbEntity
  8
ConnectionPoints
100
AcDbPoint
 10
0.0
 20
-1.640625
 30
0.0000000000000001
  0
POINT
  5
21D
330
1F
100
AcDbEntity
  8
ConnectionPoints
100
AcDbPoint
 10
0.0
 20
-0.7830588029917747
 30
3.202500000000001
  0
POINT
  5
21E
330
1F
100
AcDbEntity
  8
ConnectionPoints
100
AcDbPoint
 10
0.0
 20
1.515625
 30
-0.0000000000000001
  0
POINT
  5
21F
330
1F
100
AcDbEntity
  8
ConnectionPoints
100
AcDbPoint
 10
0.0
 20
-0.8191431948161267
 30
2.848333333333334
  0
POINT
  5
220
330
1F
100
AcDbEntity
  8
ConnectionPoints
100
AcDbPoint
 10
0.0
 20
-0.7830588029917749
 30
3.202500000000001
  0
POINT
  5
221
330
1F
100
AcDbEntity
  8
ConnectionPoints
100
AcDbPoint
 10
0.0
 20
-1.390625
 30
0.0000000000000001
  0
POINT
  5
222
330
1F
100
AcDbEntity
  8
ConnectionPoints
100
AcDbPoint
 10
0.0
 20
-1.640625
 30
0.0000000000000001
  0
ENDSEC
  0
SECTION
  2
OBJECTS
  0
DICTIONARY
  5
C
330
0
100
AcDbDictionary
281
     1
  3
ACAD_DETAILVIEWSTYLE
350
22A
  3
ACAD_GROUP
350
D
  3
ACAD_LAYOUT
350
1A
  3
ACAD_MATERIAL
350
43
  3
ACAD_MLEADERSTYLE
350
6B
  3
ACAD_MLINESTYLE
350
17
  3
ACAD_PLOTSETTINGS
350
19
  3
ACAD_PLOTSTYLENAME
350
E
  3
ACAD_SCALELIST
350
47
  3
ACAD_SECTIONVIEWSTYLE
350
22B
  3
ACAD_TABLESTYLE
350
69
  3
ACAD_VISUALSTYLE
350
2A
  3
ACDB_RECOMPOSE_DATA
350
227
  3
AcDbVariableDictionary
350
223
  0
SUN
  5
6D
330
29
100
AcDbSun
 90
        1
290
     0
 63
     7
421
 16777215
 40
1.0
291
     1
 91
  2455826
 92
 54000000
292
     0
 70
     2
 71
   256
280
     1
  0
DICTIONARY
  5
22A
102
{ACAD_REACTORS
330
C
102
}
330
C
100
AcDbDictionary
281
     1
  0
DICTIONARY
  5
D
102
{ACAD_REACTORS
330
C
102
}
330
C
100
AcDbDictionary
281
     1
  0
DICTIONARY
  5
1A
102
{ACAD_REACTORS
330
C
102
}
330
C
100
AcDbDictionary
281
     1
  3
Layout1
350
1E
  3
Layout2
350
26
  3
Model
350
22
  0
DICTIONARY
  5
43
102
{ACAD_REACTORS
330
C
102
}
330
C
100
AcDbDictionary
281
     1
  3
ByBlock
350
45
  3
ByLayer
350
44
  3
Global
350
46
  0
DICTIONARY
  5
6B
102
{ACAD_REACTORS
330
C
102
}
330
C
100
AcDbDictionary
281
     1
  3
Standard
350
6C
  0
DICTIONARY
  5
17
102
{ACAD_REACTORS
330
C
102
}
330
C
100
AcDbDictionary
281
     1
  3
Standard
350
18
  0
DICTIONARY
  5
19
102
{ACAD_REACTORS
330
C
102
}
330
C
100
AcDbDictionary
281
     1
  0
ACDBDICTIONARYWDFLT
  5
E
102
{ACAD_REACTORS
330
C
102
}
330
C
100
AcDbDictionary
281
     1
  3
Normal
350
F
100
AcDbDictionaryWithDefault
340
F
  0
DICTIONARY
  5
47
102
{ACAD_REACTORS
330
C
102
}
330
C
100
AcDbDictionary
281
     1
  3
A0
350
48
  3
A1
350
49
  3
A2
350
4A
  3
A3
350
4B
  3
A4
350
4C
  3
A5
350
4D
  3
A6
350
4E
  3
A7
350
4F
  3
A8
350
50
  3
A9
350
51
  3
B0
350
52
  3
B1
350
53
  3
B2
350
54
  3
B3
350
55
  3
B4
350
56
  3
B5
350
57
  3
B6
350
58
  3
B7
350
59
  3
B8
350
5A
  3
B9
350
5B
  3
C0
350
5C
  3
C1
350
5D
  3
C2
350
5E
  3
C3
350
5F
  3
C4
350
60
  3
C5
350
61
  3
C6
350
62
  3
C7
350
63
  3
C8
350
64
  3
C9
350
65
  3
D0
350
66
  3
D1
350
67
  3
D2
350
68
  0
DICTIONARY
  5
22B
102
{ACAD_REACTORS
330
C
102
}
330
C
100
AcDbDictionary
281
     1
  0
DICTIONARY
  5
69
102
{ACAD_REACTORS
330
C
102
}
330
C
100
AcDbDictionary
281
     1
  3
Standard
350
6A
  0
DICTIONARY
  5
2A
102
{ACAD_REACTORS
330
C
102
}
330
C
100
AcDbDictionary
281
     1
  3
2dWireframe
350
2F
  3
Basic
350
32
  3
Brighten
350
36
  3
ColorChange
350
3A
  3
Conceptual
350
34
  3
Dim
350
35
  3
EdgeColorOff
350
3D
  3
Facepattern
350
39
  3
Flat
350
2B
  3
FlatWithEdges
350
2C
  3
Gouraud
350
2D
  3
GouraudWithEdges
350
2E
  3
Hidden
350
31
  3
JitterOff
350
3B
  3
Linepattern
350
38
  3
OverhangOff
350
3C
  3
Realistic
350
33
  3
Shaded
350
42
  3
Shaded with edges
350
41
  3
Shades of Gray
350
3E
  3
Sketchy
350
3F
  3
Thicken
350
37
  3
Wireframe
350
30
  3
X-Ray
350
40
  0
XRECORD
  5
227
102
{ACAD_REACTORS
330
C
102
}
330
C
100
AcDbXrecord
280
     1
 90
        1
330
6A
  0
DICTIONARY
  5
223
102
{ACAD_REACTORS
330
C
102
}
330
C
100
AcDbDictionary
281
     1
  3
CANNOSCALE
350
224
  3
CMLEADERSTYLE
350
229
  3
CTABLESTYLE
350
228
  0
LAYOUT
  5
1E
102
{ACAD_REACTORS
330
1A
102
}
330
1A
100
AcDbPlotSettings
  1

  2
none_device
  4

  6

 40
0.0
 41
0.0
 42
0.0
 43
0.0
 44
0.0
 45
0.0
 46
0.0
 47
0.0
 48
0.0
 49
0.0
140
0.0
141
0.0
142
1.0
143
1.0
 70
   688
 72
     0
 73
     0
 74
     5
  7

 75
    16
 76
     0
 77
     2
 78
   300
147
1.0
148
0.0
149
0.0
100
AcDbLayout
  1
Layout1
 70
     1
 71
     1
 10
0.0
 20
0.0
 11
12.0
 21
9.0
 12
0.0
 22
0.0
 32
0.0
 14
1.000000000000000E+20
 24
1.000000000000000E+20
 34
1.000000000000000E+20
 15
-1.000000000000000E+20
 25
-1.000000000000000E+20
 35
-1.000000000000000E+20
146
0.0
 13
0.0
 23
0.0
 33
0.0
 16
1.0
 26
0.0
 36
0.0
 17
0.0
 27
1.0
 37
0.0
 76
     0
330
1B
  0
LAYOUT
  5
26
102
{ACAD_REACTORS
330
1A
102
}
330
1A
100
AcDbPlotSettings
  1

  2
none_device
  4

  6

 40
0.0
 41
0.0
 42
0.0
 43
0.0
 44
0.0
 45
0.0
 46
0.0
 47
0.0
 48
0.0
 49
0.0
140
0.0
141
0.0
142
1.0
143
1.0
 70
   688
 72
     0
 73
     0
 74
     5
  7

 75
    16
 76
     0
 77
     2
 78
   300
147
1.0
148
0.0
149
0.0
100
AcDbLayout
  1
Layout2
 70
     1
 71
     2
 10
0.0
 20
0.0
 11
0.0
 21
0.0
 12
0.0
 22
0.0
 32
0.0
 14
0.0
 24
0.0
 34
0.0
 15
0.0
 25
0.0
 35
0.0
146
0.0
 13
0.0
 23
0.0
 33
0.0
 16
1.0
 26
0.0
 36
0.0
 17
0.0
 27
1.0
 37
0.0
 76
     0
330
23
  0
LAYOUT
  5
22
102
{ACAD_REACTORS
330
1A
102
}
330
1A
100
AcDbPlotSettings
  1

  2
none_device
  4
Letter_(8.50_x_11.00_Inches)
  6

 40
6.35
 41
6.35
 42
6.35000508
 43
6.35000508
 44
215.9
 45
279.4
 46
0.0
 47
0.0
 48
0.0
 49
0.0
140
0.0
141
0.0
142
1.0
143
1.0
 70
  1712
 72
     0
 73
     0
 74
     0
  7

 75
     0
 76
     0
 77
     2
 78
   300
147
1.0
148
0.0
149
0.0
100
AcDbLayout
  1
Model
 70
     1
 71
     0
 10
0.0
 20
0.0
 11
12.0
 21
9.0
 12
0.0
 22
0.0
 32
0.0
 14
1.000000000000000E+20
 24
1.000000000000000E+20
 34
1.000000000000000E+20
 15
-1.000000000000000E+20
 25
-1.000000000000000E+20
 35
-1.000000000000000E+20
146
0.0
 13
0.0
 23
0.0
 33
0.0
 16
1.0
 26
0.0
 36
0.0
 17
0.0
 27
1.0
 37
0.0
 76
     0
330
1F
331
29
  0
MATERIAL
  5
45
102
{ACAD_REACTORS
330
43
102
}
330
43
100
AcDbMaterial
  1
ByBlock
 72
     1
 94
      127
  0
MATERIAL
  5
44
102
{ACAD_REACTORS
330
43
102
}
330
43
100
AcDbMaterial
  1
ByLayer
 72
     1
 94
      127
  0
MATERIAL
  5
46
102
{ACAD_REACTORS
330
43
102
}
330
43
100
AcDbMaterial
  1
Global
 72
     1
 94
      127
  0
MLEADERSTYLE
  5
6C
102
{ACAD_REACTORS
330
6B
102
}
330
6B
100
AcDbMLeaderStyle
179
     2
170
     2
171
     1
172
     0
 90
        2
 40
0.0
 41
0.0
173
     1
 91
-1056964608
340
14
 92
       -2
290
     1
 42
0.09
291
     1
 43
0.36
  3
Standard
341
0
 44
0.18
300

342
11
174
     1
178
     6
175
     1
176
     0
 93
-1056964608
 45
0.18
292
     0
297
     0
 46
0.18
343
0
 94
-1056964608
 47
1.0
 49
1.0
140
1.0
293
     1
141
0.0
294
     1
177
     0
142
1.0
295
     0
296
     0
143
0.125
271
     0
272
     9
273
     9
298
     0
  0
MLINESTYLE
  5
18
102
{ACAD_REACTORS
330
17
102
}
330
17
100
AcDbMlineStyle
  2
Standard
 70
     0
  3

 62
   256
 51
90.0
 52
90.0
 71
     2
 49
0.5
 62
   256
  6
BYLAYER
 49
-0.5
 62
   256
  6
BYLAYER
  0
ACDBPLACEHOLDER
  5
F
102
{ACAD_REACTORS
330
E
102
}
330
E
  0
SCALE
  5
48
102
{ACAD_REACTORS
330
47
102
}
330
47
100
AcDbScale
 70
     0
300
1:1
140
1.0
141
1.0
290
     1
  0
SCALE
  5
49
102
{ACAD_REACTORS
330
47
102
}
330
47
100
AcDbScale
 70
     0
300
1:2
140
1.0
141
2.0
290
     0
  0
SCALE
  5
4A
102
{ACAD_REACTORS
330
47
102
}
330
47
100
AcDbScale
 70
     0
300
1:4
140
1.0
141
4.0
290
     0
  0
SCALE
  5
4B
102
{ACAD_REACTORS
330
47
102
}
330
47
100
AcDbScale
 70
     0
300
1:5
140
1.0
141
5.0
290
     0
  0
SCALE
  5
4C
102
{ACAD_REACTORS
330
47
102
}
330
47
100
AcDbScale
 70
     0
300
1:8
140
1.0
141
8.0
290
     0
  0
SCALE
  5
4D
102
{ACAD_REACTORS
330
47
102
}
330
47
100
AcDbScale
 70
     0
300
1:10
140
1.0
141
10.0
290
     0
  0
SCALE
  5
4E
102
{ACAD_REACTORS
330
47
102
}
330
47
100
AcDbScale
 70
     0
300
1:16
140
1.0
141
16.0
290
     0
  0
SCALE
  5
4F
102
{ACAD_REACTORS
330
47
102
}
330
47
100
AcDbScale
 70
     0
300
1:20
140
1.0
141
20.0
290
     0
  0
SCALE
  5
50
102
{ACAD_REACTORS
330
47
102
}
330
47
100
AcDbScale
 70
     0
300
1:30
140
1.0
141
30.0
290
     0
  0
SCALE
  5
51
102
{ACAD_REACTORS
330
47
102
}
330
47
100
AcDbScale
 70
     0
300
1:40
140
1.0
141
40.0
290
     0
  0
SCALE
  5
52
102
{ACAD_REACTORS
330
47
102
}
330
47
100
AcDbScale
 70
     0
300
1:50
140
1.0
141
50.0
290
     0
  0
SCALE
  5
53
102
{ACAD_REACTORS
330
47
102
}
330
47
100
AcDbScale
 70
     0
300
1:100
140
1.0
141
100.0
290
     0
  0
SCALE
  5
54
102
{ACAD_REACTORS
330
47
102
}
330
47
100
AcDbScale
 70
     0
300
2:1
140
2.0
141
1.0
290
     0
  0
SCALE
  5
55
102
{ACAD_REACTORS
330
47
102
}
330
47
100
AcDbScale
 70
     0
300
4:1
140
4.0
141
1.0
290
     0
  0
SCALE
  5
56
102
{ACAD_REACTORS
330
47
102
}
330
47
100
AcDbScale
 70
     0
300
8:1
140
8.0
141
1.0
290
     0
  0
SCALE
  5
57
102
{ACAD_REACTORS
330
47
102
}
330
47
100
AcDbScale
 70
     0
300
10:1
140
10.0
141
1.0
290
     0
  0
SCALE
  5
58
102
{ACAD_REACTORS
330
47
102
}
330
47
100
AcDbScale
 70
     0
300
100:1
140
100.0
141
1.0
290
     0
  0
SCALE
  5
59
102
{ACAD_REACTORS
330
47
102
}
330
47
100
AcDbScale
 70
     0
300
1/128" = 1'-0"
140
0.0078125
141
12.0
290
     0
  0
SCALE
  5
5A
102
{ACAD_REACTORS
330
47
102
}
330
47
100
AcDbScale
 70
     0
300
1/64" = 1'-0"
140
0.015625
141
12.0
290
     0
  0
SCALE
  5
5B
102
{ACAD_REACTORS
330
47
102
}
330
47
100
AcDbScale
 70
     0
300
1/32" = 1'-0"
140
0.03125
141
12.0
290
     0
  0
SCALE
  5
5C
102
{ACAD_REACTORS
330
47
102
}
330
47
100
AcDbScale
 70
     0
300
1/16" = 1'-0"
140
0.0625
141
12.0
290
     0
  0
SCALE
  5
5D
102
{ACAD_REACTORS
330
47
102
}
330
47
100
AcDbScale
 70
     0
300
3/32" = 1'-0"
140
0.09375
141
12.0
290
     0
  0
SCALE
  5
5E
102
{ACAD_REACTORS
330
47
102
}
330
47
100
AcDbScale
 70
     0
300
1/8" = 1'-0"
140
0.125
141
12.0
290
     0
  0
SCALE
  5
5F
102
{ACAD_REACTORS
330
47
102
}
330
47
100
AcDbScale
 70
     0
300
3/16" = 1'-0"
140
0.1875
141
12.0
290
     0
  0
SCALE
  5
60
102
{ACAD_REACTORS
330
47
102
}
330
47
100
AcDbScale
 70
     0
300
1/4" = 1'-0"
140
0.25
141
12.0
290
     0
  0
SCALE
  5
61
102
{ACAD_REACTORS
330
47
102
}
330
47
100
AcDbScale
 70
     0
300
3/8" = 1'-0"
140
0.375
141
12.0
290
     0
  0
SCALE
  5
62
102
{ACAD_REACTORS
330
47
102
}
330
47
100
AcDbScale
 70
     0
300
1/2" = 1'-0"
140
0.5
141
12.0
290
     0
  0
SCALE
  5
63
102
{ACAD_REACTORS
330
47
102
}
330
47
100
AcDbScale
 70
     0
300
3/4" = 1'-0"
140
0.75
141
12.0
290
     0
  0
SCALE
  5
64
102
{ACAD_REACTORS
330
47
102
}
330
47
100
AcDbScale
 70
     0
300
1" = 1'-0"
140
1.0
141
12.0
290
     0
  0
SCALE
  5
65
102
{ACAD_REACTORS
330
47
102
}
330
47
100
AcDbScale
 70
     0
300
1-1/2" = 1'-0"
140
1.5
141
12.0
290
     0
  0
SCALE
  5
66
102
{ACAD_REACTORS
330
47
102
}
330
47
100
AcDbScale
 70
     0
300
3" = 1'-0"
140
3.0
141
12.0
290
     0
  0
SCALE
  5
67
102
{ACAD_REACTORS
330
47
102
}
330
47
100
AcDbScale
 70
     0
300
6" = 1'-0"
140
6.0
141
12.0
290
     0
  0
SCALE
  5
68
102
{ACAD_REACTORS
330
47
102
}
330
47
100
AcDbScale
 70
     0
300
1'-0" = 1'-0"
140
12.0
141
12.0
290
     0
  0
TABLESTYLE
  5
6A
102
{ACAD_REACTORS
330
69
102
}
102
{ACAD_XDICTIONARY
360
225
102
}
330
69
100
AcDbTableStyle
  3
Standard
 70
     0
 71
     0
 40
0.06
 41
0.06
280
     0
281
     0
  7
Standard
140
0.18
170
     2
 62
     0
 63
   257
283
     0
 90
        4
 91
        0
  1

274
    -2
284
     1
 64
     0
275
    -2
285
     1
 65
     0
276
    -2
286
     1
 66
     0
277
    -2
287
     1
 67
     0
278
    -2
288
     1
 68
     0
279
    -2
289
     1
 69
     0
  7
Standard
140
0.25
170
     5
 62
     0
 63
   257
283
     0
 90
        4
 91
        0
  1

274
    -2
284
     1
 64
     0
275
    -2
285
     1
 65
     0
276
    -2
286
     1
 66
     0
277
    -2
287
     1
 67
     0
278
    -2
288
     1
 68
     0
279
    -2
289
     1
 69
     0
  7
Standard
140
0.18
170
     5
 62
     0
 63
   257
283
     0
 90
        4
 91
        0
  1

274
    -2
284
     1
 64
     0
275
    -2
285
     1
 65
     0
276
    -2
286
     1
 66
     0
277
    -2
287
     1
 67
     0
278
    -2
288
     1
 68
     0
279
    -2
289
     1
 69
     0
  0
VISUALSTYLE
  5
2F
102
{ACAD_REACTORS
330
2A
102
}
330
2A
100
AcDbVisualStyle
  2
2dWireframe
 70
     4
177
     3
291
     0
 70
    58
 90
        0
176
     1
 90
        2
176
     1
 90
        0
176
     1
 90
        0
176
     1
 40
0.6
176
     1
 40
30.0
176
     1
 62
     7
420
 16777215
176
     1
 90
        1
176
     1
 90
        4
176
     1
 62
     7
176
     1
 62
   257
176
     1
 90
        1
176
     1
 90
        1
176
     1
 40
1.0
176
     1
 90
        0
176
     1
 62
   257
176
     1
 40
1.0
176
     1
 90
        1
176
     1
 90
        6
176
     1
 90
        2
176
     1
 62
     7
176
     1
 90
        5
176
     1
 90
        0
176
     1
 90
        0
176
     1
290
     0
176
     1
 90
        1
176
     1
 40
0.0
176
     1
 90
        0
176
     1
290
     1
176
     1
290
     1
176
     1
290
     0
176
     1
290
     0
176
     1
290
     0
176
     1
290
     0
176
     1
290
     0
176
     1
290
     0
176
     1
290
     0
176
     1
 90
       50
176
     1
 40
0.0
176
     1
 40
1.0
176
     1
 90
        0
176
     1
 62
    18
420
        0
176
     1
 90
       50
176
     1
 90
        3
176
     1
 62
     5
420
      255
176
     1
290
     0
176
     1
 90
       50
176
     1
 90
       50
176
     1
 90
       50
176
     1
290
     0
176
     1
 90
       50
176
     1
 62
   256
176
     0
 40
1.0
176
     0
 90
        2
176
     1
  1
strokes_ogs.tif
176
     1
290
     0
176
     1
 40
1.0
176
     1
 40
1.0
176
     1
  0
VISUALSTYLE
  5
32
102
{ACAD_REACTORS
330
2A
102
}
330
2A
100
AcDbVisualStyle
  2
Basic
 70
     7
177
     3
291
     1
 70
    58
 90
        1
176
     1
 90
        0
176
     1
 90
        1
176
     1
 90
        0
176
     1
 40
0.6
176
     1
 40
30.0
176
     1
 62
     7
420
 16777215
176
     1
 90
        0
176
     1
 90
        4
176
     1
 62
     7
176
     1
 62
   257
176
     1
 90
        1
176
     1
 90
        1
176
     1
 40
1.0
176
     1
 90
        8
176
     1
 62
     7
176
     1
 40
1.0
176
     1
 90
        1
176
     1
 90
        6
176
     1
 90
        2
176
     1
 62
     7
176
     1
 90
        5
176
     1
 90
        0
176
     1
 90
        0
176
     1
290
     0
176
     1
 90
        1
176
     1
 40
0.0
176
     1
 90
        0
176
     1
290
     0
176
     1
290
     1
176
     1
290
     1
176
     1
290
     0
176
     1
290
     0
176
     1
290
     0
176
     1
290
     0
176
     1
290
     0
176
     1
290
     0
176
     1
 90
       50
176
     1
 40
0.0
176
     1
 40
1.0
176
     1
 90
        0
176
     1
 62
    18
420
        0
176
     1
 90
       50
176
     1
 90
        3
176
     1
 62
     5
420
      255
176
     1
290
     0
176
     1
 90
       50
176
     1
 90
       50
176
     1
 90
       50
176
     1
290
     0
176
     1
 90
       50
176
     1
 62
   256
176
     0
 40
1.0
176
     0
 90
        2
176
     1
  1
strokes_ogs.tif
176
     1
290
     0
176
     1
 40
1.0
176
     1
 40
1.0
176
     1
  0
VISUALSTYLE
  5
36
102
{ACAD_REACTORS
330
2A
102
}
330
2A
100
AcDbVisualStyle
  2
Brighten
 70
    12
177
     3
291
     1
 70
    58
 90
        2
176
     1
 90
        2
176
     1
 90
        0
176
     1
 90
        0
176
     1
 40
0.6
176
     1
 40
30.0
176
     1
 62
     7
420
 16777215
176
     1
 90
        1
176
     1
 90
        4
176
     1
 62
     7
176
     1
 62
   257
176
     1
 90
        1
176
     1
 90
        1
176
     1
 40
1.0
176
     1
 90
        8
176
     1
 62
     7
176
     1
 40
1.0
176
     1
 90
        1
176
     1
 90
        6
176
     1
 90
        2
176
     1
 62
     7
176
     1
 90
        5
176
     1
 90
        0
176
     1
 90
        0
176
     1
290
     0
176
     1
 90
        1
176
     1
 40
50.0
176
     1
 90
        0
176
     1
290
     0
176
     1
290
     1
176
     1
290
     1
176
     1
290
     0
176
     1
290
     0
176
     1
290
     0
176
     1
290
     0
176
     1
290
     0
176
     1
290
     0
176
     1
 90
       50
176
     1
 40
0.0
176
     1
 40
1.0
176
     1
 90
        0
176
     1
 62
    18
420
        0
176
     1
 90
       50
176
     1
 90
        3
176
     1
 62
     5
420
      255
176
     1
290
     0
176
     1
 90
       50
176
     1
 90
       50
176
     1
 90
       50
176
     1
290
     0
176
     1
 90
       50
176
     1
 62
   256
176
     0
 40
1.0
176
     0
 90
        2
176
     1
  1
strokes_ogs.tif
176
     1
290
     0
176
     1
 40
1.0
176
     1
 40
1.0
176
     1
  0
VISUALSTYLE
  5
3A
102
{ACAD_REACTORS
330
2A
102
}
330
2A
100
AcDbVisualStyle
  2
ColorChange
 70
    16
177
     3
291
     1
 70
    58
 90
        2
176
     1
 90
        2
176
     1
 90
        3
176
     1
 90
        0
176
     1
 40
0.6
176
     1
 40
30.0
176
     1
 62
     8
420
  8421504
176
     1
 90
        1
176
     1
 90
        4
176
     1
 62
     7
176
     1
 62
   257
176
     1
 90
        1
176
     1
 90
        1
176
     1
 40
1.0
176
     1
 90
        8
176
     1
 62
     8
420
  8421504
176
     1
 40
1.0
176
     1
 90
        1
176
     1
 90
        6
176
     1
 90
        2
176
     1
 62
     7
176
     1
 90
        5
176
     1
 90
        0
176
     1
 90
        0
176
     1
290
     0
176
     1
 90
        1
176
     1
 40
0.0
176
     1
 90
        0
176
     1
290
     0
176
     1
290
     1
176
     1
290
     1
176
     1
290
     0
176
     1
290
     0
176
     1
290
     0
176
     1
290
     0
176
     1
290
     0
176
     1
290
     0
176
     1
 90
       50
176
     1
 40
0.0
176
     1
 40
1.0
176
     1
 90
        0
176
     1
 62
    18
420
        0
176
     1
 90
       50
176
     1
 90
        3
176
     1
 62
     5
420
      255
176
     1
290
     0
176
     1
 90
       50
176
     1
 90
       50
176
     1
 90
       50
176
     1
290
     0
176
     1
 90
       50
176
     1
 62
   256
176
     0
 40
1.0
176
     0
 90
        2
176
     1
  1
strokes_ogs.tif
176
     1
290
     0
176
     1
 40
1.0
176
     1
 40
1.0
176
     1
  0
VISUALSTYLE
  5
34
102
{ACAD_REACTORS
330
2A
102
}
330
2A
100
AcDbVisualStyle
  2
Conceptual
 70
     9
177
     3
291
     0
 70
    58
 90
        3
176
     1
 90
        2
176
     1
 90
        0
176
     1
 90
        0
176
     1
 40
0.6
176
     1
 40
30.0
176
     1
 62
     7
420
 16777215
176
     1
 90
        2
176
     1
 90
        2
176
     1
 62
     7
176
     1
 62
   257
176
     1
 90
        1
176
     1
 90
        1
176
     1
 40
179.0
176
     1
 90
        8
176
     1
 62
     7
176
     1
 40
1.0
176
     1
 90
        1
176
     1
 90
        6
176
     1
 90
        2
176
     1
 62
     7
176
     1
 90
        3
176
     1
 90
        0
176
     1
 90
        0
176
     1
290
     0
176
     1
 90
        1
176
     1
 40
0.0
176
     1
 90
        0
176
     1
290
     0
176
     1
290
     1
176
     1
290
     1
176
     1
290
     0
176
     1
290
     0
176
     1
290
     0
176
     1
290
     0
176
     1
290
     0
176
     1
290
     0
176
     1
 90
       50
176
     1
 40
0.0
176
     1
 40
1.0
176
     1
 90
        0
176
     1
 62
    18
420
        0
176
     1
 90
       50
176
     1
 90
        3
176
     1
 62
     5
420
      255
176
     1
290
     0
176
     1
 90
       50
176
     1
 90
       50
176
     1
 90
       50
176
     1
290
     0
176
     1
 90
       50
176
     1
 62
   256
176
     0
 40
1.0
176
     0
 90
        2
176
     1
  1
strokes_ogs.tif
176
     1
290
     0
176
     1
 40
1.0
176
     1
 40
1.0
176
     1
  0
VISUALSTYLE
  5
35
102
{ACAD_REACTORS
330
2A
102
}
330
2A
100
AcDbVisualStyle
  2
Dim
 70
    11
177
     3
291
     1
 70
    58
 90
        2
176
     1
 90
        2
176
     1
 90
        0
176
     1
 90
        0
176
     1
 40
0.6
176
     1
 40
30.0
176
     1
 62
     7
420
 16777215
176
     1
 90
        1
176
     1
 90
        4
176
     1
 62
     7
176
     1
 62
   257
176
     1
 90
        1
176
     1
 90
        1
176
     1
 40
1.0
176
     1
 90
        8
176
     1
 62
     7
176
     1
 40
1.0
176
     1
 90
        1
176
     1
 90
        6
176
     1
 90
        2
176
     1
 62
     7
176
     1
 90
        5
176
     1
 90
        0
176
     1
 90
        0
176
     1
290
     0
176
     1
 90
        1
176
     1
 40
-50.0
176
     1
 90
        0
176
     1
290
     0
176
     1
290
     1
176
     1
290
     1
176
     1
290
     0
176
     1
290
     0
176
     1
290
     0
176
     1
290
     0
176
     1
290
     0
176
     1
290
     0
176
     1
 90
       50
176
     1
 40
0.0
176
     1
 40
1.0
176
     1
 90
        0
176
     1
 62
    18
420
        0
176
     1
 90
       50
176
     1
 90
        3
176
     1
 62
     5
420
      255
176
     1
290
     0
176
     1
 90
       50
176
     1
 90
       50
176
     1
 90
       50
176
     1
290
     0
176
     1
 90
       50
176
     1
 62
   256
176
     0
 40
1.0
176
     0
 90
        2
176
     1
  1
strokes_ogs.tif
176
     1
290
     0
176
     1
 40
1.0
176
     1
 40
1.0
176
     1
  0
VISUALSTYLE
  5
3D
102
{ACAD_REACTORS
330
2A
102
}
330
2A
100
AcDbVisualStyle
  2
EdgeColorOff
 70
    22
177
     3
291
     1
 70
    58
 90
        2
176
     0
 90
        2
176
     0
 90
        0
176
     0
 90
        0
176
     0
 40
0.6
176
     0
 40
30.0
176
     0
 62
     7
420
 16777215
176
     0
 90
        1
176
     0
 90
        4
176
     0
 62
     7
176
     0
 62
   257
176
     0
 90
        1
176
     0
 90
        1
176
     0
 40
1.0
176
     0
 90
        8
176
     2
 62
     7
176
     0
 40
1.0
176
     0
 90
        1
176
     0
 90
        6
176
     0
 90
        2
176
     0
 62
     7
176
     0
 90
        5
176
     0
 90
        0
176
     0
 90
        0
176
     0
290
     0
176
     0
 90
        1
176
     0
 40
0.0
176
     0
 90
        0
176
     0
290
     0
176
     0
290
     1
176
     0
290
     1
176
     0
290
     0
176
     0
290
     0
176
     0
290
     0
176
     0
290
     0
176
     0
290
     0
176
     0
290
     0
176
     0
 90
       50
176
     0
 40
0.0
176
     0
 40
1.0
176
     0
 90
        0
176
     0
 62
    18
420
        0
176
     0
 90
       50
176
     0
 90
        3
176
     0
 62
     5
420
      255
176
     0
290
     0
176
     0
 90
       50
176
     0
 90
       50
176
     0
 90
       50
176
     0
290
     0
176
     0
 90
       50
176
     0
 62
   256
176
     0
 40
1.0
176
     0
 90
        2
176
     0
  1
strokes_ogs.tif
176
     0
290
     0
176
     0
 40
1.0
176
     0
 40
1.0
176
     0
  0
VISUALSTYLE
  5
39
102
{ACAD_REACTORS
330
2A
102
}
330
2A
100
AcDbVisualStyle
  2
Facepattern
 70
    15
177
     3
291
     1
 70
    58
 90
        2
176
     1
 90
        2
176
     1
 90
        0
176
     1
 90
        0
176
     1
 40
0.6
176
     1
 40
30.0
176
     1
 62
     7
420
 16777215
176
     1
 90
        1
176
     1
 90
        4
176
     1
 62
     7
176
     1
 62
   257
176
     1
 90
        1
176
     1
 90
        1
176
     1
 40
1.0
176
     1
 90
        8
176
     1
 62
     7
176
     1
 40
1.0
176
     1
 90
        1
176
     1
 90
        6
176
     1
 90
        2
176
     1
 62
     7
176
     1
 90
        5
176
     1
 90
        0
176
     1
 90
        0
176
     1
290
     0
176
     1
 90
        1
176
     1
 40
0.0
176
     1
 90
        0
176
     1
290
     0
176
     1
290
     1
176
     1
290
     1
176
     1
290
     0
176
     1
290
     0
176
     1
290
     0
176
     1
290
     0
176
     1
290
     0
176
     1
290
     0
176
     1
 90
       50
176
     1
 40
0.0
176
     1
 40
1.0
176
     1
 90
        0
176
     1
 62
    18
420
        0
176
     1
 90
       50
176
     1
 90
        3
176
     1
 62
     5
420
      255
176
     1
290
     0
176
     1
 90
       50
176
     1
 90
       50
176
     1
 90
       50
176
     1
290
     0
176
     1
 90
       50
176
     1
 62
   256
176
     0
 40
1.0
176
     0
 90
        2
176
     1
  1
strokes_ogs.tif
176
     1
290
     0
176
     1
 40
1.0
176
     1
 40
1.0
176
     1
  0
VISUALSTYLE
  5
2B
102
{ACAD_REACTORS
330
2A
102
}
330
2A
100
AcDbVisualStyle
  2
Flat
 70
     0
177
     3
291
     1
 70
    58
 90
        2
176
     1
 90
        1
176
     1
 90
        1
176
     1
 90
        2
176
     1
 40
0.6
176
     1
 40
30.0
176
     1
 62
     7
420
 16777215
176
     1
 90
        0
176
     1
 90
        0
176
     1
 62
     7
176
     1
 62
   257
176
     1
 90
        1
176
     1
 90
        1
176
     1
 40
1.0
176
     1
 90
        8
176
     1
 62
     7
176
     1
 40
1.0
176
     1
 90
        1
176
     1
 90
        6
176
     1
 90
        2
176
     1
 62
     7
176
     1
 90
        5
176
     1
 90
        0
176
     1
 90
        0
176
     1
290
     0
176
     1
 90
       13
176
     1
 40
0.0
176
     1
 90
        0
176
     1
290
     0
176
     1
290
     1
176
     1
290
     1
176
     1
290
     0
176
     1
290
     0
176
     1
290
     0
176
     1
290
     0
176
     1
290
     0
176
     1
290
     0
176
     1
 90
       50
176
     1
 40
0.0
176
     1
 40
1.0
176
     1
 90
        0
176
     1
 62
    18
420
        0
176
     1
 90
       50
176
     1
 90
        3
176
     1
 62
     5
420
      255
176
     1
290
     0
176
     1
 90
       50
176
     1
 90
       50
176
     1
 90
       50
176
     1
290
     0
176
     1
 90
       50
176
     1
 62
   256
176
     0
 40
1.0
176
     0
 90
        2
176
     1
  1
strokes_ogs.tif
176
     1
290
     0
176
     1
 40
1.0
176
     1
 40
1.0
176
     1
  0
VISUALSTYLE
  5
2C
102
{ACAD_REACTORS
330
2A
102
}
330
2A
100
AcDbVisualStyle
  2
FlatWithEdges
 70
     1
177
     3
291
     1
 70
    58
 90
        2
176
     1
 90
        1
176
     1
 90
        1
176
     1
 90
        2
176
     1
 40
0.6
176
     1
 40
30.0
176
     1
 62
     7
420
 16777215
176
     1
 90
        1
176
     1
 90
        0
176
     1
 62
     7
176
     1
 62
   257
176
     1
 90
        1
176
     1
 90
        1
176
     1
 40
1.0
176
     1
 90
        0
176
     1
 62
   257
176
     1
 40
1.0
176
     1
 90
        1
176
     1
 90
        6
176
     1
 90
        2
176
     1
 62
     7
176
     1
 90
        5
176
     1
 90
        0
176
     1
 90
        0
176
     1
290
     0
176
     1
 90
       13
176
     1
 40
0.0
176
     1
 90
        0
176
     1
290
     0
176
     1
290
     1
176
     1
290
     1
176
     1
290
     0
176
     1
290
     0
176
     1
290
     0
176
     1
290
     0
176
     1
290
     0
176
     1
290
     0
176
     1
 90
       50
176
     1
 40
0.0
176
     1
 40
1.0
176
     1
 90
        0
176
     1
 62
    18
420
        0
176
     1
 90
       50
176
     1
 90
        3
176
     1
 62
     5
420
      255
176
     1
290
     0
176
     1
 90
       50
176
     1
 90
       50
176
     1
 90
       50
176
     1
290
     0
176
     1
 90
       50
176
     1
 62
   256
176
     0
 40
1.0
176
     0
 90
        2
176
     1
  1
strokes_ogs.tif
176
     1
290
     0
176
     1
 40
1.0
176
     1
 40
1.0
176
     1
  0
VISUALSTYLE
  5
2D
102
{ACAD_REACTORS
330
2A
102
}
330
2A
100
AcDbVisualStyle
  2
Gouraud
 70
     2
177
     3
291
     1
 70
    58
 90
        2
176
     1
 90
        2
176
     1
 90
        1
176
     1
 90
        2
176
     1
 40
0.6
176
     1
 40
30.0
176
     1
 62
     7
420
 16777215
176
     1
 90
        0
176
     1
 90
        0
176
     1
 62
     7
176
     1
 62
   257
176
     1
 90
        1
176
     1
 90
        1
176
     1
 40
1.0
176
     1
 90
        0
176
     1
 62
     7
176
     1
 40
1.0
176
     1
 90
        1
176
     1
 90
        6
176
     1
 90
        2
176
     1
 62
     7
176
     1
 90
        5
176
     1
 90
        0
176
     1
 90
        0
176
     1
290
     0
176
     1
 90
       13
176
     1
 40
0.0
176
     1
 90
        0
176
     1
290
     0
176
     1
290
     1
176
     1
290
     1
176
     1
290
     0
176
     1
290
     0
176
     1
290
     0
176
     1
290
     0
176
     1
290
     0
176
     1
290
     0
176
     1
 90
       50
176
     1
 40
0.0
176
     1
 40
1.0
176
     1
 90
        0
176
     1
 62
    18
420
        0
176
     1
 90
       50
176
     1
 90
        3
176
     1
 62
     5
420
      255
176
     1
290
     0
176
     1
 90
       50
176
     1
 90
       50
176
     1
 90
       50
176
     1
290
     0
176
     1
 90
       50
176
     1
 62
   256
176
     0
 40
1.0
176
     0
 90
        2
176
     1
  1
strokes_ogs.tif
176
     1
290
     0
176
     1
 40
1.0
176
     1
 40
1.0
176
     1
  0
VISUALSTYLE
  5
2E
102
{ACAD_REACTORS
330
2A
102
}
330
2A
100
AcDbVisualStyle
  2
GouraudWithEdges
 70
     3
177
     3
291
     1
 70
    58
 90
        2
176
     1
 90
        2
176
     1
 90
        1
176
     1
 90
        2
176
     1
 40
0.6
176
     1
 40
30.0
176
     1
 62
     7
420
 16777215
176
     1
 90
        1
176
     1
 90
        0
176
     1
 62
     7
176
     1
 62
   257
176
     1
 90
        1
176
     1
 90
        1
176
     1
 40
1.0
176
     1
 90
        0
176
     1
 62
   257
176
     1
 40
1.0
176
     1
 90
        1
176
     1
 90
        6
176
     1
 90
        2
176
     1
 62
     7
176
     1
 90
        5
176
     1
 90
        0
176
     1
 90
        0
176
     1
290
     0
176
     1
 90
       13
176
     1
 40
0.0
176
     1
 90
        0
176
     1
290
     0
176
     1
290
     1
176
     1
290
     1
176
     1
290
     0
176
     1
290
     0
176
     1
290
     0
176
     1
290
     0
176
     1
290
     0
176
     1
290
     0
176
     1
 90
       50
176
     1
 40
0.0
176
     1
 40
1.0
176
     1
 90
        0
176
     1
 62
    18
420
        0
176
     1
 90
       50
176
     1
 90
        3
176
     1
 62
     5
420
      255
176
     1
290
     0
176
     1
 90
       50
176
     1
 90
       50
176
     1
 90
       50
176
     1
290
     0
176
     1
 90
       50
176
     1
 62
   256
176
     0
 40
1.0
176
     0
 90
        2
176
     1
  1
strokes_ogs.tif
176
     1
290
     0
176
     1
 40
1.0
176
     1
 40
1.0
176
     1
  0
VISUALSTYLE
  5
31
102
{ACAD_REACTORS
330
2A
102
}
330
2A
100
AcDbVisualStyle
  2
Hidden
 70
     6
177
     3
291
     0
 70
    58
 90
        1
176
     1
 90
        2
176
     1
 90
        2
176
     1
 90
        0
176
     1
 40
0.6
176
     1
 40
30.0
176
     1
 62
     7
420
 16777215
176
     1
 90
        2
176
     1
 90
        2
176
     1
 62
     7
176
     1
 62
   257
176
     1
 90
        2
176
     1
 90
        1
176
     1
 40
40.0
176
     1
 90
        0
176
     1
 62
   257
176
     1
 40
1.0
176
     1
 90
        1
176
     1
 90
        6
176
     1
 90
        2
176
     1
 62
     7
176
     1
 90
        3
176
     1
 90
        0
176
     1
 90
        0
176
     1
290
     0
176
     1
 90
        1
176
     1
 40
0.0
176
     1
 90
        0
176
     1
290
     0
176
     1
290
     1
176
     1
290
     1
176
     1
290
     0
176
     1
290
     0
176
     1
290
     0
176
     1
290
     0
176
     1
290
     0
176
     1
290
     0
176
     1
 90
       50
176
     1
 40
0.0
176
     1
 40
1.0
176
     1
 90
        0
176
     1
 62
    18
420
        0
176
     1
 90
       50
176
     1
 90
        3
176
     1
 62
     5
420
      255
176
     1
290
     0
176
     1
 90
       50
176
     1
 90
       50
176
     1
 90
       50
176
     1
290
     0
176
     1
 90
       50
176
     1
 62
   256
176
     0
 40
1.0
176
     0
 90
        2
176
     1
  1
strokes_ogs.tif
176
     1
290
     0
176
     1
 40
1.0
176
     1
 40
1.0
176
     1
  0
VISUALSTYLE
  5
3B
102
{ACAD_REACTORS
330
2A
102
}
330
2A
100
AcDbVisualStyle
  2
JitterOff
 70
    20
177
     3
291
     1
 70
    58
 90
        2
176
     0
 90
        2
176
     0
 90
        0
176
     0
 90
        0
176
     0
 40
0.6
176
     0
 40
30.0
176
     0
 62
     7
420
 16777215
176
     0
 90
        1
176
     0
 90
        4
176
     0
 62
     7
176
     0
 62
   257
176
     0
 90
        1
176
     0
 90
        1
176
     0
 40
1.0
176
     0
 90
       10
176
     2
 62
     7
176
     0
 40
1.0
176
     0
 90
        1
176
     0
 90
        6
176
     0
 90
        2
176
     0
 62
     7
176
     0
 90
        5
176
     0
 90
        0
176
     0
 90
        0
176
     0
290
     0
176
     0
 90
        1
176
     0
 40
0.0
176
     0
 90
        0
176
     0
290
     0
176
     0
290
     1
176
     0
290
     1
176
     0
290
     0
176
     0
290
     0
176
     0
290
     0
176
     0
290
     0
176
     0
290
     0
176
     0
290
     0
176
     0
 90
       50
176
     0
 40
0.0
176
     0
 40
1.0
176
     0
 90
        0
176
     0
 62
    18
420
        0
176
     0
 90
       50
176
     0
 90
        3
176
     0
 62
     5
420
      255
176
     0
290
     0
176
     0
 90
       50
176
     0
 90
       50
176
     0
 90
       50
176
     0
290
     0
176
     0
 90
       50
176
     0
 62
   256
176
     0
 40
1.0
176
     0
 90
        2
176
     0
  1
strokes_ogs.tif
176
     0
290
     0
176
     0
 40
1.0
176
     0
 40
1.0
176
     0
  0
VISUALSTYLE
  5
38
102
{ACAD_REACTORS
330
2A
102
}
330
2A
100
AcDbVisualStyle
  2
Linepattern
 70
    14
177
     3
291
     1
 70
    58
 90
        2
176
     1
 90
        2
176
     1
 90
        0
176
     1
 90
        0
176
     1
 40
0.6
176
     1
 40
30.0
176
     1
 62
     7
420
 16777215
176
     1
 90
        1
176
     1
 90
        4
176
     1
 62
     7
176
     1
 62
   257
176
     1
 90
        7
176
     1
 90
        7
176
     1
 40
1.0
176
     1
 90
        8
176
     1
 62
     7
176
     1
 40
1.0
176
     1
 90
        1
176
     1
 90
        6
176
     1
 90
        2
176
     1
 62
     7
176
     1
 90
        5
176
     1
 90
        0
176
     1
 90
        0
176
     1
290
     0
176
     1
 90
        1
176
     1
 40
0.0
176
     1
 90
        0
176
     1
290
     0
176
     1
290
     1
176
     1
290
     1
176
     1
290
     0
176
     1
290
     0
176
     1
290
     0
176
     1
290
     0
176
     1
290
     0
176
     1
290
     0
176
     1
 90
       50
176
     1
 40
0.0
176
     1
 40
1.0
176
     1
 90
        0
176
     1
 62
    18
420
        0
176
     1
 90
       50
176
     1
 90
        3
176
     1
 62
     5
420
      255
176
     1
290
     0
176
     1
 90
       50
176
     1
 90
       50
176
     1
 90
       50
176
     1
290
     0
176
     1
 90
       50
176
     1
 62
   256
176
     0
 40
1.0
176
     0
 90
        2
176
     1
  1
strokes_ogs.tif
176
     1
290
     0
176
     1
 40
1.0
176
     1
 40
1.0
176
     1
  0
VISUALSTYLE
  5
3C
102
{ACAD_REACTORS
330
2A
102
}
330
2A
100
AcDbVisualStyle
  2
OverhangOff
 70
    21
177
     3
291
     1
 70
    58
 90
        2
176
     0
 90
        2
176
     0
 90
        0
176
     0
 90
        0
176
     0
 40
0.6
176
     0
 40
30.0
176
     0
 62
     7
420
 16777215
176
     0
 90
        1
176
     0
 90
        4
176
     0
 62
     7
176
     0
 62
   257
176
     0
 90
        1
176
     0
 90
        1
176
     0
 40
1.0
176
     0
 90
        9
176
     2
 62
     7
176
     0
 40
1.0
176
     0
 90
        1
176
     0
 90
        6
176
     0
 90
        2
176
     0
 62
     7
176
     0
 90
        5
176
     0
 90
        0
176
     0
 90
        0
176
     0
290
     0
176
     0
 90
        1
176
     0
 40
0.0
176
     0
 90
        0
176
     0
290
     0
176
     0
290
     1
176
     0
290
     1
176
     0
290
     0
176
     0
290
     0
176
     0
290
     0
176
     0
290
     0
176
     0
290
     0
176
     0
290
     0
176
     0
 90
       50
176
     0
 40
0.0
176
     0
 40
1.0
176
     0
 90
        0
176
     0
 62
    18
420
        0
176
     0
 90
       50
176
     0
 90
        3
176
     0
 62
     5
420
      255
176
     0
290
     0
176
     0
 90
       50
176
     0
 90
       50
176
     0
 90
       50
176
     0
290
     0
176
     0
 90
       50
176
     0
 62
   256
176
     0
 40
1.0
176
     0
 90
        2
176
     0
  1
strokes_ogs.tif
176
     0
290
     0
176
     0
 40
1.0
176
     0
 40
1.0
176
     0
  0
VISUALSTYLE
  5
33
102
{ACAD_REACTORS
330
2A
102
}
330
2A
100
AcDbVisualStyle
  2
Realistic
 70
     8
177
     3
291
     0
 70
    58
 90
        2
176
     1
 90
        3
176
     1
 90
        0
176
     1
 90
        2
176
     1
 40
0.6
176
     1
 40
30.0
176
     1
 62
     7
420
 16777215
176
     1
 90
        0
176
     1
 90
        0
176
     1
 62
     7
176
     1
 62
   257
176
     1
 90
        1
176
     1
 90
        1
176
     1
 40
1.0
176
     1
 90
        8
176
     1
 62
   257
176
     1
 40
1.0
176
     1
 90
        1
176
     1
 90
        6
176
     1
 90
        2
176
     1
 62
     7
176
     1
 90
        3
176
     1
 90
        0
176
     1
 90
        0
176
     1
290
     0
176
     1
 90
       13
176
     1
 40
0.0
176
     1
 90
        0
176
     1
290
     0
176
     1
290
     1
176
     1
290
     1
176
     1
290
     0
176
     1
290
     0
176
     1
290
     0
176
     1
290
     0
176
     1
290
     0
176
     1
290
     0
176
     1
 90
       50
176
     1
 40
0.0
176
     1
 40
1.0
176
     1
 90
        0
176
     1
 62
    18
420
        0
176
     1
 90
       50
176
     1
 90
        3
176
     1
 62
     5
420
      255
176
     1
290
     0
176
     1
 90
       50
176
     1
 90
       50
176
     1
 90
       50
176
     1
290
     0
176
     1
 90
       50
176
     1
 62
   256
176
     0
 40
1.0
176
     0
 90
        2
176
     1
  1
strokes_ogs.tif
176
     1
290
     0
176
     1
 40
1.0
176
     1
 40
1.0
176
     1
  0
VISUALSTYLE
  5
42
102
{ACAD_REACTORS
330
2A
102
}
330
2A
100
AcDbVisualStyle
  2
Shaded
 70
    27
177
     3
291
     0
 70
    58
 90
        2
176
     1
 90
        2
176
     1
 90
        1
176
     1
 90
        2
176
     1
 40
0.6
176
     1
 40
30.0
176
     1
 62
     7
420
 16777215
176
     1
 90
        0
176
     1
 90
        4
176
     1
 62
     7
176
     1
 62
   257
176
     1
 90
        1
176
     1
 90
        1
176
     1
 40
1.0
176
     1
 90
        8
176
     1
 62
   257
176
     1
 40
1.0
176
     1
 90
        1
176
     1
 90
        6
176
     1
 90
        2
176
     1
 62
     8
420
  7895160
176
     1
 90
        3
176
     1
 90
        0
176
     1
 90
        0
176
     1
290
     0
176
     1
 90
        5
176
     1
 40
0.0
176
     1
 90
        0
176
     1
290
     0
176
     1
290
     1
176
     1
290
     1
176
     1
290
     0
176
     1
290
     0
176
     1
290
     0
176
     1
290
     0
176
     1
290
     0
176
     1
290
     0
176
     1
 90
       50
176
     1
 40
0.0
176
     1
 40
1.0
176
     1
 90
        0
176
     1
 62
    18
420
        0
176
     1
 90
       50
176
     1
 90
        3
176
     1
 62
     5
420
      255
176
     1
290
     0
176
     1
 90
       50
176
     1
 90
       50
176
     1
 90
       50
176
     1
290
     0
176
     1
 90
       50
176
     1
 62
   256
176
     0
 40
1.0
176
     0
 90
        2
176
     1
  1
strokes_ogs.tif
176
     1
290
     0
176
     1
 40
1.0
176
     1
 40
1.0
176
     1
  0
VISUALSTYLE
  5
41
102
{ACAD_REACTORS
330
2A
102
}
330
2A
100
AcDbVisualStyle
  2
Shaded with edges
 70
    26
177
     3
291
     0
 70
    58
 90
        2
176
     1
 90
        2
176
     1
 90
        1
176
     1
 90
        2
176
     1
 40
0.6
176
     1
 40
30.0
176
     1
 62
     7
420
 16777215
176
     1
 90
        1
176
     1
 90
       10
176
     1
 62
     7
176
     1
 62
   257
176
     1
 90
        2
176
     1
 90
        1
176
     1
 40
1.0
176
     1
 90
        8
176
     1
 62
   257
176
     1
 40
1.0
176
     1
 90
        1
176
     1
 90
        6
176
     1
 90
        2
176
     1
 62
     7
176
     1
 90
        3
176
     1
 90
        0
176
     1
 90
        0
176
     1
290
     0
176
     1
 90
        5
176
     1
 40
0.0
176
     1
 90
        0
176
     1
290
     0
176
     1
290
     1
176
     1
290
     1
176
     1
290
     0
176
     1
290
     0
176
     1
290
     0
176
     1
290
     0
176
     1
290
     0
176
     1
290
     0
176
     1
 90
       50
176
     1
 40
0.0
176
     1
 40
1.0
176
     1
 90
        0
176
     1
 62
    18
420
        0
176
     1
 90
       50
176
     1
 90
        3
176
     1
 62
     5
420
      255
176
     1
290
     0
176
     1
 90
       50
176
     1
 90
       50
176
     1
 90
       50
176
     1
290
     0
176
     1
 90
       50
176
     1
 62
   256
176
     0
 40
1.0
176
     0
 90
        2
176
     1
  1
strokes_ogs.tif
176
     1
290
     0
176
     1
 40
1.0
176
     1
 40
1.0
176
     1
  0
VISUALSTYLE
  5
3E
102
{ACAD_REACTORS
330
2A
102
}
330
2A
100
AcDbVisualStyle
  2
Shades of Gray
 70
    23
177
     3
291
     0
 70
    58
 90
        2
176
     1
 90
        2
176
     1
 90
        3
176
     1
 90
        0
176
     1
 40
0.6
176
     1
 40
30.0
176
     1
 62
     7
420
 16777215
176
     1
 90
        2
176
     1
 90
        2
176
     1
 62
     7
176
     1
 62
     7
176
     1
 90
        1
176
     1
 90
        1
176
     1
 40
40.0
176
     1
 90
        8
176
     1
 62
     7
176
     1
 40
1.0
176
     1
 90
        1
176
     1
 90
        6
176
     1
 90
        2
176
     1
 62
     7
176
     1
 90
        3
176
     1
 90
        0
176
     1
 90
        0
176
     1
290
     0
176
     1
 90
        1
176
     1
 40
0.0
176
     1
 90
        0
176
     1
290
     0
176
     1
290
     1
176
     1
290
     1
176
     1
290
     0
176
     1
290
     0
176
     1
290
     0
176
     1
290
     0
176
     1
290
     0
176
     1
290
     0
176
     1
 90
       50
176
     1
 40
0.0
176
     1
 40
1.0
176
     1
 90
        0
176
     1
 62
    18
420
        0
176
     1
 90
       50
176
     1
 90
        3
176
     1
 62
     5
420
      255
176
     1
290
     0
176
     1
 90
       50
176
     1
 90
       50
176
     1
 90
       50
176
     1
290
     0
176
     1
 90
       50
176
     1
 62
   256
176
     0
 40
1.0
176
     0
 90
        2
176
     1
  1
strokes_ogs.tif
176
     1
290
     0
176
     1
 40
1.0
176
     1
 40
1.0
176
     1
  0
VISUALSTYLE
  5
3F
102
{ACAD_REACTORS
330
2A
102
}
330
2A
100
AcDbVisualStyle
  2
Sketchy
 70
    24
177
     3
291
     0
 70
    58
 90
        1
176
     1
 90
        2
176
     1
 90
        2
176
     1
 90
        0
176
     1
 40
0.6
176
     1
 40
30.0
176
     1
 62
     7
420
 16777215
176
     1
 90
        2
176
     1
 90
        2
176
     1
 62
     7
176
     1
 62
     7
176
     1
 90
        1
176
     1
 90
        1
176
     1
 40
40.0
176
     1
 90
       11
176
     1
 62
     7
176
     1
 40
1.0
176
     1
 90
        1
176
     1
 90
        6
176
     1
 90
        2
176
     1
 62
     7
176
     1
 90
        6
176
     1
 90
        0
176
     1
 90
        0
176
     1
290
     0
176
     1
 90
        1
176
     1
 40
0.0
176
     1
 90
        0
176
     1
290
     0
176
     1
290
     1
176
     1
290
     1
176
     1
290
     0
176
     1
290
     0
176
     1
290
     0
176
     1
290
     0
176
     1
290
     0
176
     1
290
     0
176
     1
 90
       50
176
     1
 40
0.0
176
     1
 40
1.0
176
     1
 90
        0
176
     1
 62
    18
420
        0
176
     1
 90
       50
176
     1
 90
        3
176
     1
 62
     5
420
      255
176
     1
290
     0
176
     1
 90
       50
176
     1
 90
       50
176
     1
 90
       50
176
     1
290
     0
176
     1
 90
       50
176
     1
 62
   256
176
     0
 40
1.0
176
     0
 90
        2
176
     1
  1
strokes_ogs.tif
176
     1
290
     0
176
     1
 40
1.0
176
     1
 40
1.0
176
     1
  0
VISUALSTYLE
  5
37
102
{ACAD_REACTORS
330
2A
102
}
330
2A
100
AcDbVisualStyle
  2
Thicken
 70
    13
177
     3
291
     1
 70
    58
 90
        2
176
     1
 90
        2
176
     1
 90
        0
176
     1
 90
        0
176
     1
 40
0.6
176
     1
 40
30.0
176
     1
 62
     7
420
 16777215
176
     1
 90
        1
176
     1
 90
        4
176
     1
 62
     7
176
     1
 62
   257
176
     1
 90
        1
176
     1
 90
        1
176
     1
 40
1.0
176
     1
 90
       12
176
     1
 62
     7
176
     1
 40
1.0
176
     1
 90
        1
176
     1
 90
        6
176
     1
 90
        2
176
     1
 62
     7
176
     1
 90
        5
176
     1
 90
        0
176
     1
 90
        0
176
     1
290
     0
176
     1
 90
        1
176
     1
 40
0.0
176
     1
 90
        0
176
     1
290
     0
176
     1
290
     1
176
     1
290
     1
176
     1
290
     0
176
     1
290
     0
176
     1
290
     0
176
     1
290
     0
176
     1
290
     0
176
     1
290
     0
176
     1
 90
       50
176
     1
 40
0.0
176
     1
 40
1.0
176
     1
 90
        0
176
     1
 62
    18
420
        0
176
     1
 90
       50
176
     1
 90
        3
176
     1
 62
     5
420
      255
176
     1
290
     0
176
     1
 90
       50
176
     1
 90
       50
176
     1
 90
       50
176
     1
290
     0
176
     1
 90
       50
176
     1
 62
   256
176
     0
 40
1.0
176
     0
 90
        2
176
     1
  1
strokes_ogs.tif
176
     1
290
     0
176
     1
 40
1.0
176
     1
 40
1.0
176
     1
  0
VISUALSTYLE
  5
30
102
{ACAD_REACTORS
330
2A
102
}
330
2A
100
AcDbVisualStyle
  2
Wireframe
 70
     5
177
     3
291
     0
 70
    58
 90
        0
176
     1
 90
        2
176
     1
 90
        0
176
     1
 90
        0
176
     1
 40
0.6
176
     1
 40
30.0
176
     1
 62
     7
420
 16777215
176
     1
 90
        1
176
     1
 90
        4
176
     1
 62
     7
176
     1
 62
   257
176
     1
 90
        1
176
     1
 90
        1
176
     1
 40
1.0
176
     1
 90
        0
176
     1
 62
   257
176
     1
 40
1.0
176
     1
 90
        1
176
     1
 90
        6
176
     1
 90
        2
176
     1
 62
     7
176
     1
 90
        3
176
     1
 90
        0
176
     1
 90
        0
176
     1
290
     0
176
     1
 90
        1
176
     1
 40
0.0
176
     1
 90
        0
176
     1
290
     0
176
     1
290
     1
176
     1
290
     1
176
     1
290
     0
176
     1
290
     0
176
     1
290
     0
176
     1
290
     0
176
     1
290
     0
176
     1
290
     0
176
     1
 90
       50
176
     1
 40
0.0
176
     1
 40
1.0
176
     1
 90
        0
176
     1
 62
    18
420
        0
176
     1
 90
       50
176
     1
 90
        3
176
     1
 62
     5
420
      255
176
     1
290
     0
176
     1
 90
       50
176
     1
 90
       50
176
     1
 90
       50
176
     1
290
     0
176
     1
 90
       50
176
     1
 62
   256
176
     0
 40
1.0
176
     0
 90
        2
176
     1
  1
strokes_ogs.tif
176
     1
290
     0
176
     1
 40
1.0
176
     1
 40
1.0
176
     1
  0
VISUALSTYLE
  5
40
102
{ACAD_REACTORS
330
2A
102
}
330
2A
100
AcDbVisualStyle
  2
X-Ray
 70
    25
177
     3
291
     0
 70
    58
 90
        2
176
     1
 90
        2
176
     1
 90
        1
176
     1
 90
        1
176
     1
 40
0.5
176
     1
 40
30.0
176
     1
 62
     7
420
 16777215
176
     1
 90
        1
176
     1
 90
        0
176
     1
 62
     7
176
     1
 62
   257
176
     1
 90
        1
176
     1
 90
        1
176
     1
 40
1.0
176
     1
 90
        8
176
     1
 62
     7
176
     1
 40
1.0
176
     1
 90
        1
176
     1
 90
        6
176
     1
 90
        2
176
     1
 62
     7
176
     1
 90
        3
176
     1
 90
        0
176
     1
 90
        0
176
     1
290
     0
176
     1
 90
       13
176
     1
 40
0.0
176
     1
 90
        0
176
     1
290
     0
176
     1
290
     1
176
     1
290
     1
176
     1
290
     0
176
     1
290
     0
176
     1
290
     0
176
     1
290
     0
176
     1
290
     0
176
     1
290
     0
176
     1
 90
       50
176
     1
 40
0.0
176
     1
 40
1.0
176
     1
 90
        0
176
     1
 62
    18
420
        0
176
     1
 90
       50
176
     1
 90
        3
176
     1
 62
     5
420
      255
176
     1
290
     0
176
     1
 90
       50
176
     1
 90
       50
176
     1
 90
       50
176
     1
290
     0
176
     1
 90
       50
176
     1
 62
   256
176
     0
 40
1.0
176
     0
 90
        2
176
     1
  1
strokes_ogs.tif
176
     1
290
     0
176
     1
 40
1.0
176
     1
 40
1.0
176
     1
  0
DICTIONARYVAR
  5
224
102
{ACAD_REACTORS
330
223
102
}
330
223
100
DictionaryVariables
280
     0
  1
1:1
  0
DICTIONARYVAR
  5
229
102
{ACAD_REACTORS
330
223
102
}
330
223
100
DictionaryVariables
280
     0
  1
Standard
  0
DICTIONARYVAR
  5
228
102
{ACAD_REACTORS
330
223
102
}
330
223
100
DictionaryVariables
280
     0
  1
Standard
  0
DICTIONARY
  5
225
330
6A
100
AcDbDictionary
280
     1
281
     1
  3
ACAD_ROUNDTRIP_2008_TABLESTYLE_CELLSTYLEMAP
360
226
  0
CELLSTYLEMAP
  5
226
102
{ACAD_REACTORS
330
225
102
}
330
225
100
AcDbCellStyleMap
 90
        3
300
CELLSTYLE
  1
TABLEFORMAT_BEGIN
 90
        5
170
     1
 91
        0
 92
    32768
 62
   257
 93
        1
300
CONTENTFORMAT
  1
CONTENTFORMAT_BEGIN
 90
        0
 91
        0
 92
        4
 93
        0
300

 40
0.0
140
1.0
 94
        5
 62
     0
340
11
144
0.25
309
CONTENTFORMAT_END
171
     1
301
MARGIN
  1
CELLMARGIN_BEGIN
 40
0.06
 40
0.06
 40
0.06
 40
0.06
 40
0.06
 40
0.06
309
CELLMARGIN_END
 94
        6
 95
        1
302
GRIDFORMAT
  1
GRIDFORMAT_BEGIN
 90
        0
 91
        1
 62
     0
 92
       -2
340
14
 93
        0
 40
0.045
309
GRIDFORMAT_END
 95
        2
302
GRIDFORMAT
  1
GRIDFORMAT_BEGIN
 90
        0
 91
        1
 62
     0
 92
       -2
340
14
 93
        0
 40
0.045
309
GRIDFORMAT_END
 95
        4
302
GRIDFORMAT
  1
GRIDFORMAT_BEGIN
 90
        0
 91
        1
 62
     0
 92
       -2
340
14
 93
        0
 40
0.045
309
GRIDFORMAT_END
 95
        8
302
GRIDFORMAT
  1
GRIDFORMAT_BEGIN
 90
        0
 91
        1
 62
     0
 92
       -2
340
14
 93
        0
 40
0.045
309
GRIDFORMAT_END
 95
       16
302
GRIDFORMAT
  1
GRIDFORMAT_BEGIN
 90
        0
 91
        1
 62
     0
 92
       -2
340
14
 93
        0
 40
0.045
309
GRIDFORMAT_END
 95
       32
302
GRIDFORMAT
  1
GRIDFORMAT_BEGIN
 90
        0
 91
        1
 62
     0
 92
       -2
340
14
 93
        0
 40
0.045
309
GRIDFORMAT_END
309
TABLEFORMAT_END
  1
CELLSTYLE_BEGIN
 90
        1
 91
        1
300
_TITLE
309
CELLSTYLE_END
300
CELLSTYLE
  1
TABLEFORMAT_BEGIN
 90
        5
170
     1
 91
        0
 92
        0
 62
   257
 93
        1
300
CONTENTFORMAT
  1
CONTENTFORMAT_BEGIN
 90
        0
 91
        0
 92
        4
 93
        0
300

 40
0.0
140
1.0
 94
        5
 62
     0
340
11
144
0.18
309
CONTENTFORMAT_END
171
     1
301
MARGIN
  1
CELLMARGIN_BEGIN
 40
0.06
 40
0.06
 40
0.06
 40
0.06
 40
0.06
 40
0.06
309
CELLMARGIN_END
 94
        6
 95
        1
302
GRIDFORMAT
  1
GRIDFORMAT_BEGIN
 90
        0
 91
        1
 62
     0
 92
       -2
340
14
 93
        0
 40
0.045
309
GRIDFORMAT_END
 95
        2
302
GRIDFORMAT
  1
GRIDFORMAT_BEGIN
 90
        0
 91
        1
 62
     0
 92
       -2
340
14
 93
        0
 40
0.045
309
GRIDFORMAT_END
 95
        4
302
GRIDFORMAT
  1
GRIDFORMAT_BEGIN
 90
        0
 91
        1
 62
     0
 92
       -2
340
14
 93
        0
 40
0.045
309
GRIDFORMAT_END
 95
        8
302
GRIDFORMAT
  1
GRIDFORMAT_BEGIN
 90
        0
 91
        1
 62
     0
 92
       -2
340
14
 93
        0
 40
0.045
309
GRIDFORMAT_END
 95
       16
302
GRIDFORMAT
  1
GRIDFORMAT_BEGIN
 90
        0
 91
        1
 62
     0
 92
       -2
340
14
 93
        0
 40
0.045
309
GRIDFORMAT_END
 95
       32
302
GRIDFORMAT
  1
GRIDFORMAT_BEGIN
 90
        0
 91
        1
 62
     0
 92
       -2
340
14
 93
        0
 40
0.045
309
GRIDFORMAT_END
309
TABLEFORMAT_END
  1
CELLSTYLE_BEGIN
 90
        2
 91
        1
300
_HEADER
309
CELLSTYLE_END
300
CELLSTYLE
  1
TABLEFORMAT_BEGIN
 90
        5
170
     1
 91
        0
 92
        0
 62
   257
 93
        1
300
CONTENTFORMAT
  1
CONTENTFORMAT_BEGIN
 90
        0
 91
        0
 92
        4
 93
        0
300

 40
0.0
140
1.0
 94
        2
 62
     0
340
11
144
0.18
309
CONTENTFORMAT_END
171
     1
301
MARGIN
  1
CELLMARGIN_BEGIN
 40
0.06
 40
0.06
 40
0.06
 40
0.06
 40
0.06
 40
0.06
309
CELLMARGIN_END
 94
        6
 95
        1
302
GRIDFORMAT
  1
GRIDFORMAT_BEGIN
 90
        0
 91
        1
 62
     0
 92
       -2
340
14
 93
        0
 40
0.045
309
GRIDFORMAT_END
 95
        2
302
GRIDFORMAT
  1
GRIDFORMAT_BEGIN
 90
        0
 91
        1
 62
     0
 92
       -2
340
14
 93
        0
 40
0.045
309
GRIDFORMAT_END
 95
        4
302
GRIDFORMAT
  1
GRIDFORMAT_BEGIN
 90
        0
 91
        1
 62
     0
 92
       -2
340
14
 93
        0
 40
0.045
309
GRIDFORMAT_END
 95
        8
302
GRIDFORMAT
  1
GRIDFORMAT_BEGIN
 90
        0
 91
        1
 62
     0
 92
       -2
340
14
 93
        0
 40
0.045
309
GRIDFORMAT_END
 95
       16
302
GRIDFORMAT
  1
GRIDFORMAT_BEGIN
 90
        0
 91
        1
 62
     0
 92
       -2
340
14
 93
        0
 40
0.045
309
GRIDFORMAT_END
 95
       32
302
GRIDFORMAT
  1
GRIDFORMAT_BEGIN
 90
        0
 91
        1
 62
     0
 92
       -2
340
14
 93
        0
 40
0.045
309
GRIDFORMAT_END
309
TABLEFORMAT_END
  1
CELLSTYLE_BEGIN
 90
        3
 91
        2
300
_DATA
309
CELLSTYLE_END
  0
ENDSEC
  0
EOF