0
SECTION
  2
HEADER
  9
$ACADVER
  1
AC1027
  9
$ACADMAINTVER
 70
     8
  9
$DWGCODEPAGE
  3
ANSI_1252
  9
$REQUIREDVERSIONS
160
                 0
  9
$COMMENTS
  1
File was created by Cadenas
  9
$CUSTOMPROPERTYTAG
  1
NN
  9
$CUSTOMPROPERTY
  1
S-2000 Piloted Flange Trident Seal
  9
$CUSTOMPROPERTYTAG
  1
NT
  9
$CUSTOMPROPERTY
  1
S-2000 Piloted Flange Bearing -Inch
  9
$CUSTOMPROPERTYTAG
  1
NB
  9
$CUSTOMPROPERTY
  1
070649
  9
$CUSTOMPROPERTYTAG
  1
NBSYN
  9
$CUSTOMPROPERTY
  1
$PN.
  9
$CUSTOMPROPERTYTAG
  1
LINA
  9
$CUSTOMPROPERTY
  1
070649
  9
$CUSTOMPROPERTYTAG
  1
SS
  9
$CUSTOMPROPERTY
  1
1-3/4
  9
$CUSTOMPROPERTYTAG
  1
PN
  9
$CUSTOMPROPERTY
  1
070649
  9
$CUSTOMPROPERTYTAG
  1
DESCRIPTION
  9
$CUSTOMPROPERTY
  1
FC-S2-112R
  9
$CUSTOMPROPERTYTAG
  1
EF
  9
$CUSTOMPROPERTY
  1
Non-Expansion Type
  9
$CUSTOMPROPERTYTAG
  1
ST
  9
$CUSTOMPROPERTY
  1
Contact Seal
  9
$CUSTOMPROPERTYTAG
  1
A
  9
$CUSTOMPROPERTY
  1
2-43/64
  9
$CUSTOMPROPERTYTAG
  1
B
  9
$CUSTOMPROPERTY
  1
6-1/8
  9
$CUSTOMPROPERTYTAG
  1
C
  9
$CUSTOMPROPERTY
  1
1-29/32
  9
$CUSTOMPROPERTYTAG
  1
D
  9
$CUSTOMPROPERTY
  1
3-5/8
  9
$CUSTOMPROPERTYTAG
  1
DD
  9
$CUSTOMPROPERTY
  1
5-1/8
  9
$CUSTOMPROPERTYTAG
  1
E
  9
$CUSTOMPROPERTY
  1
7/8
  9
$CUSTOMPROPERTYTAG
  1
F
  9
$CUSTOMPROPERTY
  1
7/16
  9
$CUSTOMPROPERTYTAG
  1
G
  9
$CUSTOMPROPERTY
  1
1-29/64
  9
$CUSTOMPROPERTYTAG
  1
H
  9
$CUSTOMPROPERTY
  1
1/2
  9
$CUSTOMPROPERTYTAG
  1
K
  9
$CUSTOMPROPERTY
  1
4.250
  9
$CUSTOMPROPERTYTAG
  1
L
  9
$CUSTOMPROPERTY
  1
3-3/16
  9
$CUSTOMPROPERTYTAG
  1
M
  9
$CUSTOMPROPERTY
  1
7/16-14
  9
$CUSTOMPROPERTYTAG
  1
N
  9
$CUSTOMPROPERTY
  1
2-23/32
  9
$CUSTOMPROPERTYTAG
  1
P
  9
$CUSTOMPROPERTY
  1
1-7/32
  9
$CUSTOMPROPERTYTAG
  1
Q
  9
$CUSTOMPROPERTY
  1
1-17/64
  9
$CUSTOMPROPERTYTAG
  1
X
  9
$CUSTOMPROPERTY
  1
1/4
  9
$CUSTOMPROPERTYTAG
  1
Y
  9
$CUSTOMPROPERTY
  1
0.020
  9
$CUSTOMPROPERTYTAG
  1
Z
  9
$CUSTOMPROPERTY
  1
2-5/64
  9
$CUSTOMPROPERTYTAG
  1
COMPANY
  9
$CUSTOMPROPERTY
  1
baldor
  9
$INSBASE
 10
0.0
 20
0.0
 30
0.0
  9
$EXTMIN
 10
1.000000000000000E+20
 20
1.000000000000000E+20
 30
1.000000000000000E+20
  9
$EXTMAX
 10
-1.000000000000000E+20
 20
-1.000000000000000E+20
 30
-1.000000000000000E+20
  9
$LIMMIN
 10
0.0
 20
0.0
  9
$LIMMAX
 10
12.0
 20
9.0
  9
$ORTHOMODE
 70
     0
  9
$REGENMODE
 70
     1
  9
$FILLMODE
 70
     1
  9
$QTEXTMODE
 70
     0
  9
$MIRRTEXT
 70
     1
  9
$LTSCALE
 40
1.0
  9
$ATTMODE
 70
     1
  9
$TEXTSIZE
 40
0.2
  9
$TRACEWID
 40
0.05
  9
$TEXTSTYLE
  7
Standard
  9
$CLAYER
  8
0
  9
$CELTYPE
  6
ByLayer
  9
$CECOLOR
 62
   256
  9
$CELTSCALE
 40
1.0
  9
$DISPSILH
 70
     0
  9
$DIMSCALE
 40
1.0
  9
$DIMASZ
 40
0.18
  9
$DIMEXO
 40
0.0625
  9
$DIMDLI
 40
0.38
  9
$DIMRND
 40
0.0
  9
$DIMDLE
 40
0.0
  9
$DIMEXE
 40
0.18
  9
$DIMTP
 40
0.0
  9
$DIMTM
 40
0.0
  9
$DIMTXT
 40
0.18
  9
$DIMCEN
 40
0.09
  9
$DIMTSZ
 40
0.0
  9
$DIMTOL
 70
     0
  9
$DIMLIM
 70
     0
  9
$DIMTIH
 70
     1
  9
$DIMTOH
 70
     1
  9
$DIMSE1
 70
     0
  9
$DIMSE2
 70
     0
  9
$DIMTAD
 70
     0
  9
$DIMZIN
 70
     0
  9
$DIMBLK
  1

  9
$DIMASO
 70
     1
  9
$DIMSHO
 70
     1
  9
$DIMPOST
  1

  9
$DIMAPOST
  1

  9
$DIMALT
 70
     0
  9
$DIMALTD
 70
     2
  9
$DIMALTF
 40
25.4
  9
$DIMLFAC
 40
1.0
  9
$DIMTOFL
 70
     0
  9
$DIMTVP
 40
0.0
  9
$DIMTIX
 70
     0
  9
$DIMSOXD
 70
     0
  9
$DIMSAH
 70
     0
  9
$DIMBLK1
  1

  9
$DIMBLK2
  1

  9
$DIMSTYLE
  2
Standard
  9
$DIMCLRD
 70
     0
  9
$DIMCLRE
 70
     0
  9
$DIMCLRT
 70
     0
  9
$DIMTFAC
 40
1.0
  9
$DIMGAP
 40
0.09
  9
$DIMJUST
 70
     0
  9
$DIMSD1
 70
     0
  9
$DIMSD2
 70
     0
  9
$DIMTOLJ
 70
     1
  9
$DIMTZIN
 70
     0
  9
$DIMALTZ
 70
     0
  9
$DIMALTTZ
 70
     0
  9
$DIMUPT
 70
     0
  9
$DIMDEC
 70
     4
  9
$DIMTDEC
 70
     4
  9
$DIMALTU
 70
     2
  9
$DIMALTTD
 70
     2
  9
$DIMTXSTY
  7
Standard
  9
$DIMAUNIT
 70
     0
  9
$DIMADEC
 70
     0
  9
$DIMALTRND
 40
0.0
  9
$DIMAZIN
 70
     0
  9
$DIMDSEP
 70
    46
  9
$DIMATFIT
 70
     3
  9
$DIMFRAC
 70
     0
  9
$DIMLDRBLK
  1

  9
$DIMLUNIT
 70
     2
  9
$DIMLWD
 70
    -2
  9
$DIMLWE
 70
    -2
  9
$DIMTMOVE
 70
     0
  9
$DIMFXL
 40
1.0
  9
$DIMFXLON
 70
     0
  9
$DIMJOGANG
 40
0.7853981633974483
  9
$DIMTFILL
 70
     0
  9
$DIMTFILLCLR
 70
     0
  9
$DIMARCSYM
 70
     0
  9
$DIMLTYPE
  6

  9
$DIMLTEX1
  6

  9
$DIMLTEX2
  6

  9
$DIMTXTDIRECTION
 70
     0
  9
$LUNITS
 70
     2
  9
$LUPREC
 70
     4
  9
$SKETCHINC
 40
0.1
  9
$FILLETRAD
 40
0.5
  9
$AUNITS
 70
     0
  9
$AUPREC
 70
     0
  9
$MENU
  1
.
  9
$ELEVATION
 40
0.0
  9
$PELEVATION
 40
0.0
  9
$THICKNESS
 40
0.0
  9
$LIMCHECK
 70
     0
  9
$CHAMFERA
 40
0.0
  9
$CHAMFERB
 40
0.0
  9
$CHAMFERC
 40
0.0
  9
$CHAMFERD
 40
0.0
  9
$SKPOLY
 70
     0
  9
$TDCREATE
 40
2458168.98542713
  9
$TDUCREATE
 40
2458168.943760463
  9
$TDUPDATE
 40
2458168.98542713
  9
$TDUUPDATE
 40
2458168.943760463
  9
$TDINDWG
 40
0.0000000116
  9
$TDUSRTIMER
 40
0.0000000116
  9
$USRTIMER
 70
     1
  9
$ANGBASE
 50
0.0
  9
$ANGDIR
 70
     0
  9
$PDMODE
 70
     0
  9
$PDSIZE
 40
0.0
  9
$PLINEWID
 40
0.0
  9
$SPLFRAME
 70
     0
  9
$SPLINETYPE
 70
     6
  9
$SPLINESEGS
 70
     8
  9
$HANDSEED
  5
22C
  9
$SURFTAB1
 70
     6
  9
$SURFTAB2
 70
     6
  9
$SURFTYPE
 70
     6
  9
$SURFU
 70
     6
  9
$SURFV
 70
     6
  9
$UCSBASE
  2

  9
$UCSNAME
  2

  9
$UCSORG
 10
0.0
 20
0.0
 30
0.0
  9
$UCSXDIR
 10
1.0
 20
0.0
 30
0.0
  9
$UCSYDIR
 10
0.0
 20
1.0
 30
0.0
  9
$UCSORTHOREF
  2

  9
$UCSORTHOVIEW
 70
     0
  9
$UCSORGTOP
 10
0.0
 20
0.0
 30
0.0
  9
$UCSORGBOTTOM
 10
0.0
 20
0.0
 30
0.0
  9
$UCSORGLEFT
 10
0.0
 20
0.0
 30
0.0
  9
$UCSORGRIGHT
 10
0.0
 20
0.0
 30
0.0
  9
$UCSORGFRONT
 10
0.0
 20
0.0
 30
0.0
  9
$UCSORGBACK
 10
0.0
 20
0.0
 30
0.0
  9
$PUCSBASE
  2

  9
$PUCSNAME
  2

  9
$PUCSORG
 10
0.0
 20
0.0
 30
0.0
  9
$PUCSXDIR
 10
1.0
 20
0.0
 30
0.0
  9
$PUCSYDIR
 10
0.0
 20
1.0
 30
0.0
  9
$PUCSORTHOREF
  2

  9
$PUCSORTHOVIEW
 70
     0
  9
$PUCSORGTOP
 10
0.0
 20
0.0
 30
0.0
  9
$PUCSORGBOTTOM
 10
0.0
 20
0.0
 30
0.0
  9
$PUCSORGLEFT
 10
0.0
 20
0.0
 30
0.0
  9
$PUCSORGRIGHT
 10
0.0
 20
0.0
 30
0.0
  9
$PUCSORGFRONT
 10
0.0
 20
0.0
 30
0.0
  9
$PUCSORGBACK
 10
0.0
 20
0.0
 30
0.0
  9
$USERI1
 70
     0
  9
$USERI2
 70
     0
  9
$USERI3
 70
     0
  9
$USERI4
 70
     0
  9
$USERI5
 70
     0
  9
$USERR1
 40
0.0
  9
$USERR2
 40
0.0
  9
$USERR3
 40
0.0
  9
$USERR4
 40
0.0
  9
$USERR5
 40
0.0
  9
$WORLDVIEW
 70
     1
  9
$SHADEDGE
 70
     3
  9
$SHADEDIF
 70
    70
  9
$TILEMODE
 70
     1
  9
$MAXACTVP
 70
    64
  9
$PINSBASE
 10
0.0
 20
0.0
 30
0.0
  9
$PLIMCHECK
 70
     0
  9
$PEXTMIN
 10
1.000000000000000E+20
 20
1.000000000000000E+20
 30
1.000000000000000E+20
  9
$PEXTMAX
 10
-1.000000000000000E+20
 20
-1.000000000000000E+20
 30
-1.000000000000000E+20
  9
$PLIMMIN
 10
0.0
 20
0.0
  9
$PLIMMAX
 10
12.0
 20
9.0
  9
$UNITMODE
 70
     0
  9
$VISRETAIN
 70
     1
  9
$PLINEGEN
 70
     0
  9
$PSLTSCALE
 70
     1
  9
$TREEDEPTH
 70
  3020
  9
$CMLSTYLE
  2
Standard
  9
$CMLJUST
 70
     0
  9
$CMLSCALE
 40
1.0
  9
$PROXYGRAPHICS
 70
     1
  9
$MEASUREMENT
 70
     0
  9
$CELWEIGHT
370
    -1
  9
$ENDCAPS
280
     0
  9
$JOINSTYLE
280
     0
  9
$LWDISPLAY
290
     0
  9
$INSUNITS
 70
     1
  9
$HYPERLINKBASE
  1

  9
$STYLESHEET
  1

  9
$XEDIT
290
     1
  9
$CEPSNTYPE
380
     0
  9
$PSTYLEMODE
290
     1
  9
$FINGERPRINTGUID
  2
{4DC6823A-F92E-4D5E-9CD7-568C5C85B922}
  9
$VERSIONGUID
  2
{FAEB1C32-E019-11D5-929B-00C0DF256EC4}
  9
$EXTNAMES
290
     1
  9
$PSVPSCALE
 40
0.0
  9
$OLESTARTUP
290
     0
  9
$SORTENTS
280
   127
  9
$INDEXCTL
280
     0
  9
$HIDETEXT
280
     1
  9
$XCLIPFRAME
280
     2
  9
$HALOGAP
280
     0
  9
$OBSCOLOR
 70
   257
  9
$OBSLTYPE
280
     0
  9
$INTERSECTIONDISPLAY
280
     0
  9
$INTERSECTIONCOLOR
 70
   257
  9
$DIMASSOC
280
     2
  9
$PROJECTNAME
  1

  9
$CAMERADISPLAY
290
     0
  9
$LENSLENGTH
 40
50.0
  9
$CAMERAHEIGHT
 40
0.0
  9
$STEPSPERSEC
 40
2.0
  9
$STEPSIZE
 40
6.0
  9
$3DDWFPREC
 40
2.0
  9
$PSOLWIDTH
 40
0.25
  9
$PSOLHEIGHT
 40
4.0
  9
$LOFTANG1
 40
1.570796326794897
  9
$LOFTANG2
 40
1.570796326794897
  9
$LOFTMAG1
 40
0.0
  9
$LOFTMAG2
 40
0.0
  9
$LOFTPARAM
 70
     7
  9
$LOFTNORMALS
280
     1
  9
$LATITUDE
 40
37.795
  9
$LONGITUDE
 40
-122.394
  9
$NORTHDIRECTION
 40
0.0
  9
$TIMEZONE
 70
 -8000
  9
$LIGHTGLYPHDISPLAY
280
     1
  9
$TILEMODELIGHTSYNCH
280
     1
  9
$CMATERIAL
347
44
  9
$SOLIDHIST
280
     0
  9
$SHOWHIST
280
     1
  9
$DWFFRAME
280
     2
  9
$DGNFRAME
280
     2
  9
$REALWORLDSCALE
290
     1
  9
$INTERFERECOLOR
 62
   256
  9
$CSHADOW
280
     0
  9
$SHADOWPLANELOCATION
 40
0.0
  0
ENDSEC
  0
SECTION
  2
CLASSES
  0
CLASS
  1
ACDBDICTIONARYWDFLT
  2
AcDbDictionaryWithDefault
  3
ObjectDBX Classes
 90
        0
 91
        4
280
     0
281
     0
  0
CLASS
  1
VISUALSTYLE
  2
AcDbVisualStyle
  3
ObjectDBX Classes
 90
     4095
 91
        4
280
     0
281
     0
  0
CLASS
  1
MATERIAL
  2
AcDbMaterial
  3
ObjectDBX Classes
 90
     1153
 91
        4
280
     0
281
     0
  0
CLASS
  1
SCALE
  2
AcDbScale
  3
ObjectDBX Classes
 90
     1153
 91
        4
280
     0
281
     0
  0
CLASS
  1
TABLESTYLE
  2
AcDbTableStyle
  3
ObjectDBX Classes
 90
     4095
 91
        4
280
     0
281
     0
  0
CLASS
  1
MLEADERSTYLE
  2
AcDbMLeaderStyle
  3
ACDB_MLEADERSTYLE_CLASS
 90
     4095
 91
        4
280
     0
281
     0
  0
CLASS
  1
SUN
  2
AcDbSun
  3
SCENEOE
 90
     1153
 91
        4
280
     0
281
     0
  0
CLASS
  1
DICTIONARYVAR
  2
AcDbDictionaryVar
  3
ObjectDBX Classes
 90
        0
 91
        4
280
     0
281
     0
  0
CLASS
  1
CELLSTYLEMAP
  2
AcDbCellStyleMap
  3
ObjectDBX Classes
 90
     1152
 91
        4
280
     0
281
     0
  0
ENDSEC
  0
SECTION
  2
TABLES
  0
TABLE
  2
VPORT
  5
8
330
0
100
AcDbSymbolTable
 70
     1
  0
VPORT
  5
29
330
8
100
AcDbSymbolTableRecord
100
AcDbViewportTableRecord
  2
*Active
 70
     0
 10
0.0
 20
0.0
 11
1.0
 21
1.0
 12
0.0000000000000071
 22
0.1827187500000003
 13
0.0
 23
0.0
 14
0.5
 24
0.5
 15
0.5
 25
0.5
 16
0.0
 26
0.0
 36
1.0
 17
0.0
 27
0.0
 37
0.0
 40
3.608058750000001
 41
1.731540541018075
 42
50.0
 43
0.0
 44
0.0
 50
0.0
 51
0.0
 71
     0
 72
   100
 73
     1
 74
     3
 75
     0
 76
     0
 77
     0
 78
     0
281
     0
 65
     1
110
0.0
120
0.0
130
0.0
111
1.0
121
0.0
131
0.0
112
0.0
122
1.0
132
0.0
 79
     0
146
0.0
348
2F
 60
     3
 61
     5
292
     1
282
     1
141
0.0
142
0.0
 63
   250
361
6D
  0
ENDTAB
  0
TABLE
  2
LTYPE
  5
5
330
0
100
AcDbSymbolTable
 70
     3
  0
LTYPE
  5
14
330
5
100
AcDbSymbolTableRecord
100
AcDbLinetypeTableRecord
  2
ByBlock
 70
     0
  3

 72
    65
 73
     0
 40
0.0
  0
LTYPE
  5
15
330
5
100
AcDbSymbolTableRecord
100
AcDbLinetypeTableRecord
  2
ByLayer
 70
     0
  3

 72
    65
 73
     0
 40
0.0
  0
LTYPE
  5
16
330
5
100
AcDbSymbolTableRecord
100
AcDbLinetypeTableRecord
  2
Continuous
 70
     0
  3
Solid line
 72
    65
 73
     0
 40
0.0
  0
LTYPE
  5
A7
330
5
100
AcDbSymbolTableRecord
100
AcDbLinetypeTableRecord
  2
Dashed
 70
     0
  3

 72
    65
 73
     2
 40
2.0
 49
1.0
 74
     0
 49
-1.0
 74
     0
  0
LTYPE
  5
E0
330
5
100
AcDbSymbolTableRecord
100
AcDbLinetypeTableRecord
  2
Center
 70
     0
  3

 72
    65
 73
     4
 40
1.5
 49
0.45
 74
     0
 49
-0.5
 74
     0
 49
0.05
 74
     0
 49
-0.5
 74
     0
  0
ENDTAB
  0
TABLE
  2
LAYER
  5
2
330
0
100
AcDbSymbolTable
 70
     7
  0
LAYER
  5
10
330
2
100
AcDbSymbolTableRecord
100
AcDbLayerTableRecord
  2
0
 70
     0
 62
     7
  6
Continuous
370
    -3
390
F
347
46
348
0
  0
LAYER
  5
72
330
2
100
AcDbSymbolTableRecord
100
AcDbLayerTableRecord
  2
AM_6
 70
     0
 62
    -2
  6
Continuous
370
    35
390
F
347
46
348
0
  0
LAYER
  5
A8
330
2
100
AcDbSymbolTableRecord
100
AcDbLayerTableRecord
  2
AM_9
 70
     0
 62
     6
  6
Dashed
370
    25
390
F
347
46
348
0
  0
LAYER
  5
E1
330
2
100
AcDbSymbolTableRecord
100
AcDbLayerTableRecord
  2
AM_7
 70
     0
 62
     7
  6
Center
370
    25
390
F
347
46
348
0
  0
LAYER
  5
E3
330
2
100
AcDbSymbolTableRecord
100
AcDbLayerTableRecord
  2
AM_4
 70
     0
 62
     7
  6
Continuous
370
    50
390
F
347
46
348
0
  0
LAYER
  5
F9
330
2
100
AcDbSymbolTableRecord
100
AcDbLayerTableRecord
  2
AM_5
 70
     0
 62
     3
  6
Continuous
370
    25
390
F
347
46
348
0
  0
LAYER
  5
218
330
2
100
AcDbSymbolTableRecord
100
AcDbLayerTableRecord
  2
ConnectionPoints
 70
     0
 62
     7
  6
Continuous
370
    50
390
F
347
46
348
0
  0
ENDTAB
  0
TABLE
  2
STYLE
  5
3
330
0
100
AcDbSymbolTable
 70
     1
  0
STYLE
  5
11
330
3
100
AcDbSymbolTableRecord
100
AcDbTextStyleTableRecord
  2
Standard
 70
     0
 40
0.0
 41
1.0
 50
0.0
 71
     0
 42
0.2
  3
txt
  4

  0
ENDTAB
  0
TABLE
  2
VIEW
  5
6
330
0
100
AcDbSymbolTable
 70
     0
  0
ENDTAB
  0
TABLE
  2
UCS
  5
7
330
0
100
AcDbSymbolTable
 70
     0
  0
ENDTAB
  0
TABLE
  2
APPID
  5
9
330
0
100
AcDbSymbolTable
 70
     1
  0
APPID
  5
12
330
9
100
AcDbSymbolTableRecord
100
AcDbRegAppTableRecord
  2
ACAD
 70
     0
  0
ENDTAB
  0
TABLE
  2
DIMSTYLE
  5
A
330
0
100
AcDbSymbolTable
 70
     1
100
AcDbDimStyleTable
  0
DIMSTYLE
105
27
330
A
100
AcDbSymbolTableRecord
100
AcDbDimStyleTableRecord
  2
Standard
 70
     0
178
     0
340
11
  0
ENDTAB
  0
TABLE
  2
BLOCK_RECORD
  5
1
330
0
100
AcDbSymbolTable
 70
     7
  0
BLOCK_RECORD
  5
1F
330
1
100
AcDbSymbolTableRecord
100
AcDbBlockTableRecord
  2
*Model_Space
340
22
 70
     0
280
     1
281
     0
  0
BLOCK_RECORD
  5
1B
330
1
100
AcDbSymbolTableRecord
100
AcDbBlockTableRecord
  2
*Paper_Space
340
1E
 70
     0
280
     1
281
     0
  0
BLOCK_RECORD
  5
23
330
1
100
AcDbSymbolTableRecord
100
AcDbBlockTableRecord
  2
*Paper_Space0
340
26
 70
     0
280
     1
281
     0
  0
BLOCK_RECORD
  5
6E
330
1
100
AcDbSymbolTableRecord
100
AcDbBlockTableRecord
  2
1_070649_4
340
0
102
{BLKREFS
331
6F
102
}
 70
     0
280
     1
281
     0
  0
BLOCK_RECORD
  5
90
330
1
100
AcDbSymbolTableRecord
100
AcDbBlockTableRecord
  2
2_1_3_4_Disc_0_in_070649_4
340
0
102
{BLKREFS
331
91
102
}
 70
     0
280
     1
281
     0
  0
BLOCK_RECORD
  5
B4
330
1
100
AcDbSymbolTableRecord
100
AcDbBlockTableRecord
  2
3_1_3_4CS2i_0_in_070649_4
340
0
102
{BLKREFS
331
B5
102
}
 70
     0
280
     1
281
     0
  0
BLOCK_RECORD
  5
FB
330
1
100
AcDbSymbolTableRecord
100
AcDbBlockTableRecord
  2
4_070004i_0_in_070649_4
340
0
102
{BLKREFS
331
FC
102
}
 70
     0
280
     1
281
     0
  0
BLOCK_RECORD
  5
14D
330
1
100
AcDbSymbolTableRecord
100
AcDbBlockTableRecord
  2
5_405015E_Inch_0_in_070649_4
340
0
102
{BLKREFS
331
14E
102
}
 70
     0
280
     1
281
     0
  0
BLOCK_RECORD
  5
1A6
330
1
100
AcDbSymbolTableRecord
100
AcDbBlockTableRecord
  2
6_070649H_0_in_070649_4
340
0
102
{BLKREFS
331
1A7
102
}
 70
     0
280
     1
281
     0
  0
ENDTAB
  0
ENDSEC
  0
SECTION
  2
BLOCKS
  0
BLOCK
  5
20
330
1F
100
AcDbEntity
  8
0
100
AcDbBlockBegin
  2
*Model_Space
 70
     0
 10
0.0
 20
0.0
 30
0.0
  3
*Model_Space
  1

  0
ENDBLK
  5
21
330
1F
100
AcDbEntity
  8
0
100
AcDbBlockEnd
  0
BLOCK
  5
1C
330
1B
100
AcDbEntity
 67
     1
  8
0
100
AcDbBlockBegin
  2
*Paper_Space
 70
     0
 10
0.0
 20
0.0
 30
0.0
  3
*Paper_Space
  1

  0
ENDBLK
  5
1D
330
1B
100
AcDbEntity
 67
     1
  8
0
100
AcDbBlockEnd
  0
BLOCK
  5
24
330
23
100
AcDbEntity
  8
0
100
AcDbBlockBegin
  2
*Paper_Space0
 70
     0
 10
0.0
 20
0.0
 30
0.0
  3
*Paper_Space0
  1

  0
ENDBLK
  5
25
330
23
100
AcDbEntity
  8
0
100
AcDbBlockEnd
  0
BLOCK
  5
70
330
6E
100
AcDbEntity
  8
0
100
AcDbBlockBegin
  2
1_070649_4
 70
     2
 10
0.0
 20
0.0
 30
0.0
  3
1_070649_4
  1

  0
ATTDEF
  5
73
330
6E
100
AcDbEntity
  8
AM_6
100
AcDbText
 10
8.062500000000007
 20
1.365953947368421
 30
0.0
 40
0.5
  1
S-2000 Piloted Flange Trident Seal
100
AcDbAttributeDefinition
  3

  2
NN
 70
     8
280
     0
  0
ATTDEF
  5
74
330
6E
100
AcDbEntity
  8
AM_6
100
AcDbText
 10
8.062500000000007
 20
0.865953947368421
 30
0.0
 40
0.5
  1
S-2000 Piloted Flange Bearing -Inch
100
AcDbAttributeDefinition
  3

  2
NT
 70
     8
280
     0
  0
ATTDEF
  5
75
330
6E
100
AcDbEntity
  8
AM_6
100
AcDbText
 10
8.062500000000007
 20
0.365953947368421
 30
0.0
 40
0.5
  1
070649
100
AcDbAttributeDefinition
  3

  2
NB
 70
     8
280
     0
  0
ATTDEF
  5
76
330
6E
100
AcDbEntity
  8
AM_6
100
AcDbText
 10
8.062500000000007
 20
-0.134046052631579
 30
0.0
 40
0.5
  1
$PN.
100
AcDbAttributeDefinition
  3

  2
NBSYN
 70
     8
280
     0
  0
ATTDEF
  5
77
330
6E
100
AcDbEntity
  8
AM_6
100
AcDbText
 10
8.062500000000007
 20
-0.634046052631579
 30
0.0
 40
0.5
  1
070649
100
AcDbAttributeDefinition
  3

  2
LINA
 70
     8
280
     0
  0
ATTDEF
  5
78
330
6E
100
AcDbEntity
  8
AM_6
100
AcDbText
 10
8.062500000000007
 20
-1.134046052631579
 30
0.0
 40
0.5
  1
1-3/4
100
AcDbAttributeDefinition
  3

  2
SS
 70
     8
280
     0
  0
ATTDEF
  5
79
330
6E
100
AcDbEntity
  8
AM_6
100
AcDbText
 10
8.062500000000007
 20
-1.634046052631579
 30
0.0
 40
0.5
  1
070649
100
AcDbAttributeDefinition
  3

  2
PN
 70
     8
280
     0
  0
ATTDEF
  5
7A
330
6E
100
AcDbEntity
  8
AM_6
100
AcDbText
 10
8.062500000000007
 20
-2.134046052631579
 30
0.0
 40
0.5
  1
FC-S2-112R
100
AcDbAttributeDefinition
  3

  2
DESCRIPTION
 70
     8
280
     0
  0
ATTDEF
  5
7B
330
6E
100
AcDbEntity
  8
AM_6
100
AcDbText
 10
8.062500000000007
 20
-2.634046052631579
 30
0.0
 40
0.5
  1
Non-Expansion Type
100
AcDbAttributeDefinition
  3

  2
EF
 70
     8
280
     0
  0
ATTDEF
  5
7C
330
6E
100
AcDbEntity
  8
AM_6
100
AcDbText
 10
8.062500000000007
 20
-3.134046052631579
 30
0.0
 40
0.5
  1
Contact Seal
100
AcDbAttributeDefinition
  3

  2
ST
 70
     8
280
     0
  0
ATTDEF
  5
7D
330
6E
100
AcDbEntity
  8
AM_6
100
AcDbText
 10
8.062500000000007
 20
-3.634046052631579
 30
0.0
 40
0.5
  1
2-43/64
100
AcDbAttributeDefinition
  3

  2
A
 70
     8
280
     0
  0
ATTDEF
  5
7E
330
6E
100
AcDbEntity
  8
AM_6
100
AcDbText
 10
8.062500000000007
 20
-4.134046052631579
 30
0.0
 40
0.5
  1
6-1/8
100
AcDbAttributeDefinition
  3

  2
B
 70
     8
280
     0
  0
ATTDEF
  5
7F
330
6E
100
AcDbEntity
  8
AM_6
100
AcDbText
 10
8.062500000000007
 20
-4.634046052631579
 30
0.0
 40
0.5
  1
1-29/32
100
AcDbAttributeDefinition
  3

  2
C
 70
     8
280
     0
  0
ATTDEF
  5
80
330
6E
100
AcDbEntity
  8
AM_6
100
AcDbText
 10
8.062500000000007
 20
-5.134046052631579
 30
0.0
 40
0.5
  1
3-5/8
100
AcDbAttributeDefinition
  3

  2
D
 70
     8
280
     0
  0
ATTDEF
  5
81
330
6E
100
AcDbEntity
  8
AM_6
100
AcDbText
 10
8.062500000000007
 20
-5.634046052631579
 30
0.0
 40
0.5
  1
5-1/8
100
AcDbAttributeDefinition
  3

  2
DD
 70
     8
280
     0
  0
ATTDEF
  5
82
330
6E
100
AcDbEntity
  8
AM_6
100
AcDbText
 10
8.062500000000007
 20
-6.134046052631579
 30
0.0
 40
0.5
  1
7/8
100
AcDbAttributeDefinition
  3

  2
E
 70
     8
280
     0
  0
ATTDEF
  5
83
330
6E
100
AcDbEntity
  8
AM_6
100
AcDbText
 10
8.062500000000007
 20
-6.634046052631579
 30
0.0
 40
0.5
  1
7/16
100
AcDbAttributeDefinition
  3

  2
F
 70
     8
280
     0
  0
ATTDEF
  5
84
330
6E
100
AcDbEntity
  8
AM_6
100
AcDbText
 10
8.062500000000007
 20
-7.134046052631579
 30
0.0
 40
0.5
  1
1-29/64
100
AcDbAttributeDefinition
  3

  2
G
 70
     8
280
     0
  0
ATTDEF
  5
85
330
6E
100
AcDbEntity
  8
AM_6
100
AcDbText
 10
8.062500000000007
 20
-7.634046052631579
 30
0.0
 40
0.5
  1
1/2
100
AcDbAttributeDefinition
  3

  2
H
 70
     8
280
     0
  0
ATTDEF
  5
86
330
6E
100
AcDbEntity
  8
AM_6
100
AcDbText
 10
8.062500000000007
 20
-8.134046052631579
 30
0.0
 40
0.5
  1
4.250
100
AcDbAttributeDefinition
  3

  2
K
 70
     8
280
     0
  0
ATTDEF
  5
87
330
6E
100
AcDbEntity
  8
AM_6
100
AcDbText
 10
8.062500000000007
 20
-8.634046052631579
 30
0.0
 40
0.5
  1
3-3/16
100
AcDbAttributeDefinition
  3

  2
L
 70
     8
280
     0
  0
ATTDEF
  5
88
330
6E
100
AcDbEntity
  8
AM_6
100
AcDbText
 10
8.062500000000007
 20
-9.134046052631579
 30
0.0
 40
0.5
  1
7/16-14
100
AcDbAttributeDefinition
  3

  2
M
 70
     8
280
     0
  0
ATTDEF
  5
89
330
6E
100
AcDbEntity
  8
AM_6
100
AcDbText
 10
8.062500000000007
 20
-9.634046052631579
 30
0.0
 40
0.5
  1
2-23/32
100
AcDbAttributeDefinition
  3

  2
N
 70
     8
280
     0
  0
ATTDEF
  5
8A
330
6E
100
AcDbEntity
  8
AM_6
100
AcDbText
 10
8.062500000000007
 20
-10.13404605263158
 30
0.0
 40
0.5
  1
1-7/32
100
AcDbAttributeDefinition
  3

  2
P
 70
     8
280
     0
  0
ATTDEF
  5
8B
330
6E
100
AcDbEntity
  8
AM_6
100
AcDbText
 10
8.062500000000007
 20
-10.63404605263158
 30
0.0
 40
0.5
  1
1-17/64
100
AcDbAttributeDefinition
  3

  2
Q
 70
     8
280
     0
  0
ATTDEF
  5
8C
330
6E
100
AcDbEntity
  8
AM_6
100
AcDbText
 10
8.062500000000007
 20
-11.13404605263158
 30
0.0
 40
0.5
  1
1/4
100
AcDbAttributeDefinition
  3

  2
X
 70
     8
280
     0
  0
ATTDEF
  5
8D
330
6E
100
AcDbEntity
  8
AM_6
100
AcDbText
 10
8.062500000000007
 20
-11.63404605263158
 30
0.0
 40
0.5
  1
0.020
100
AcDbAttributeDefinition
  3

  2
Y
 70
     8
280
     0
  0
ATTDEF
  5
8E
330
6E
100
AcDbEntity
  8
AM_6
100
AcDbText
 10
8.062500000000007
 20
-12.13404605263158
 30
0.0
 40
0.5
  1
2-5/64
100
AcDbAttributeDefinition
  3

  2
Z
 70
     8
280
     0
  0
ATTDEF
  5
8F
330
6E
100
AcDbEntity
  8
AM_6
100
AcDbText
 10
8.062500000000007
 20
-12.63404605263158
 30
0.0
 40
0.5
  1
baldor
100
AcDbAttributeDefinition
  3

  2
COMPANY
 70
     8
280
     0
  0
INSERT
  5
91
330
6E
100
AcDbEntity
  8
0
100
AcDbBlockReference
  2
2_1_3_4_Disc_0_in_070649_4
 10
0.0
 20
0.0
 30
0.0
  0
INSERT
  5
B5
330
6E
100
AcDbEntity
  8
0
100
AcDbBlockReference
  2
3_1_3_4CS2i_0_in_070649_4
 10
0.0
 20
0.0
 30
0.0
  0
INSERT
  5
FC
330
6E
100
AcDbEntity
  8
0
100
AcDbBlockReference
  2
4_070004i_0_in_070649_4
 10
0.0
 20
0.0
 30
0.0
  0
INSERT
  5
14E
330
6E
100
AcDbEntity
  8
0
100
AcDbBlockReference
  2
5_405015E_Inch_0_in_070649_4
 10
0.0
 20
0.0
 30
0.0
  0
INSERT
  5
1A7
330
6E
100
AcDbEntity
  8
0
100
AcDbBlockReference
  2
6_070649H_0_in_070649_4
 10
0.0
 20
0.0
 30
0.0
  0
ENDBLK
  5
71
330
6E
100
AcDbEntity
  8
0
100
AcDbBlockEnd
  0
BLOCK
  5
92
330
90
100
AcDbEntity
  8
0
100
AcDbBlockBegin
  2
2_1_3_4_Disc_0_in_070649_4
 70
     2
 10
0.0
 20
0.0
 30
0.0
  3
2_1_3_4_Disc_0_in_070649_4
  1

  0
ATTDEF
  5
94
330
90
100
AcDbEntity
  8
AM_6
100
AcDbText
 10
6.673249999999999
 20
1.21875
 30
0.0
 40
0.5
  1
S-2000 -Disc -Inch
100
AcDbAttributeDefinition
  3

  2
NN
 70
     8
280
     0
  0
ATTDEF
  5
95
330
90
100
AcDbEntity
  8
AM_6
100
AcDbText
 10
6.673249999999999
 20
0.71875
 30
0.0
 40
0.5
  1
S-2000 Bearings
100
AcDbAttributeDefinition
  3

  2
NT
 70
     8
280
     0
  0
ATTDEF
  5
96
330
90
100
AcDbEntity
  8
AM_6
100
AcDbText
 10
6.673249999999999
 20
0.21875
 30
0.0
 40
0.5
  1
1-3/4-Disc
100
AcDbAttributeDefinition
  3

  2
NB
 70
     8
280
     0
  0
ATTDEF
  5
97
330
90
100
AcDbEntity
  8
AM_6
100
AcDbText
 10
6.673249999999999
 20
-0.28125
 30
0.0
 40
0.5
  1
$SS.-Disc
100
AcDbAttributeDefinition
  3

  2
NBSYN
 70
     8
280
     0
  0
ATTDEF
  5
98
330
90
100
AcDbEntity
  8
AM_6
100
AcDbText
 10
6.673249999999999
 20
-0.78125
 30
0.0
 40
0.5
  1
1-3/4-Disc
100
AcDbAttributeDefinition
  3

  2
LINA
 70
     8
280
     0
  0
ATTDEF
  5
99
330
90
100
AcDbEntity
  8
AM_6
100
AcDbText
 10
6.673249999999999
 20
-1.28125
 30
0.0
 40
0.5
  1
1-3/4
100
AcDbAttributeDefinition
  3

  2
SS
 70
     8
280
     0
  0
ATTDEF
  5
9A
330
90
100
AcDbEntity
  8
AM_6
100
AcDbText
 10
6.673249999999999
 20
-1.78125
 30
0.0
 40
0.5
  1
2.31
100
AcDbAttributeDefinition
  3

  2
CC
 70
     8
280
     0
  0
ATTDEF
  5
9B
330
90
100
AcDbEntity
  8
AM_6
100
AcDbText
 10
6.673249999999999
 20
-2.28125
 30
0.0
 40
0.5
  1
0.41
100
AcDbAttributeDefinition
  3

  2
CSD
 70
     8
280
     0
  0
ATTDEF
  5
9C
330
90
100
AcDbEntity
  8
AM_6
100
AcDbText
 10
6.673249999999999
 20
-2.78125
 30
0.0
 40
0.5
  1
1.750000
100
AcDbAttributeDefinition
  3

  2
SS1
 70
     8
280
     0
  0
ATTDEF
  5
9D
330
90
100
AcDbEntity
  8
AM_6
100
AcDbText
 10
6.673249999999999
 20
-3.28125
 30
0.0
 40
0.5
  1
3.3465
100
AcDbAttributeDefinition
  3

  2
A
 70
     8
280
     0
  0
ATTDEF
  5
9E
330
90
100
AcDbEntity
  8
AM_6
100
AcDbText
 10
6.673249999999999
 20
-3.78125
 30
0.0
 40
0.5
  1
61/64
100
AcDbAttributeDefinition
  3

  2
B
 70
     8
280
     0
  0
ATTDEF
  5
9F
330
90
100
AcDbEntity
  8
AM_6
100
AcDbText
 10
6.673249999999999
 20
-4.28125
 30
0.0
 40
0.5
  1
0.953125
100
AcDbAttributeDefinition
  3

  2
B1
 70
     8
280
     0
  0
ATTDEF
  5
A0
330
90
100
AcDbEntity
  8
AM_6
100
AcDbText
 10
6.673249999999999
 20
-4.78125
 30
0.0
 40
0.5
  1
2-21/32
100
AcDbAttributeDefinition
  3

  2
C
 70
     8
280
     0
  0
ATTDEF
  5
A1
330
90
100
AcDbEntity
  8
AM_6
100
AcDbText
 10
6.673249999999999
 20
-5.28125
 30
0.0
 40
0.5
  1
2.656250
100
AcDbAttributeDefinition
  3

  2
C1
 70
     8
280
     0
  0
ATTDEF
  5
A2
330
90
100
AcDbEntity
  8
AM_6
100
AcDbText
 10
6.673249999999999
 20
-5.78125
 30
0.0
 40
0.5
  1
0.954
100
AcDbAttributeDefinition
  3

  2
D
 70
     8
280
     0
  0
ATTDEF
  5
A3
330
90
100
AcDbEntity
  8
AM_6
100
AcDbText
 10
6.673249999999999
 20
-6.28125
 30
0.0
 40
0.5
  1
3-3/32
100
AcDbAttributeDefinition
  3

  2
E
 70
     8
280
     0
  0
ATTDEF
  5
A4
330
90
100
AcDbEntity
  8
AM_6
100
AcDbText
 10
6.673249999999999
 20
-6.78125
 30
0.0
 40
0.5
  1
3.093750
100
AcDbAttributeDefinition
  3

  2
E1
 70
     8
280
     0
  0
ATTDEF
  5
A5
330
90
100
AcDbEntity
  8
AM_6
100
AcDbText
 10
6.673249999999999
 20
-7.28125
 30
0.0
 40
0.5
  1
0.317
100
AcDbAttributeDefinition
  3

  2
F
 70
     8
280
     0
  0
ATTDEF
  5
A6
330
90
100
AcDbEntity
  8
AM_6
100
AcDbText
 10
6.673249999999999
 20
-7.78125
 30
0.0
 40
0.5
  1
baldor
100
AcDbAttributeDefinition
  3

  2
COMPANY
 70
     8
280
     0
  0
LINE
  5
A9
330
90
100
AcDbEntity
  8
AM_9
100
AcDbLine
 10
1.155
 20
1.125
 30
0.0
 11
1.155
 21
1.21875
 31
0.0
  0
LINE
  5
AA
330
90
100
AcDbEntity
  8
AM_9
100
AcDbLine
 10
-1.155
 20
1.21875
 30
0.0
 11
-1.155
 21
1.125
 31
0.0
  0
LINE
  5
AB
330
90
100
AcDbEntity
  8
AM_9
100
AcDbLine
 10
1.5795
 20
0.8187499999999999
 30
0.0
 11
1.5795
 21
1.125
 31
0.0
  0
LINE
  5
AC
330
90
100
AcDbEntity
  8
AM_9
100
AcDbLine
 10
-1.5795
 20
1.125
 30
0.0
 11
-1.5795
 21
0.8187499999999999
 31
0.0
  0
LINE
  5
AD
330
90
100
AcDbEntity
  8
AM_9
100
AcDbLine
 10
-1.5795
 20
1.21875
 30
0.0
 11
1.579499999994716
 21
1.21875
 31
0.0
  0
ARC
  5
AE
330
90
100
AcDbEntity
  8
AM_9
100
AcDbCircle
 10
1.5795
 20
1.125
 30
0.0
 40
0.09375
100
AcDbArc
 50
0.0
 51
90.0
  0
ARC
  5
AF
330
90
100
AcDbEntity
  8
AM_9
100
AcDbCircle
 10
-1.5795
 20
1.125
 30
0.0
 40
0.09375
100
AcDbArc
 50
90.0
 51
180.0
  0
LINE
  5
B0
330
90
100
AcDbEntity
  8
AM_9
100
AcDbLine
 10
-1.67325
 20
0.8187499999999999
 30
0.0
 11
1.67325
 21
0.8187499999999999
 31
0.0
  0
LINE
  5
B1
330
90
100
AcDbEntity
  8
AM_9
100
AcDbLine
 10
-1.67325
 20
1.125
 30
0.0
 11
1.67325
 21
1.125
 31
0.0
  0
LINE
  5
B2
330
90
100
AcDbEntity
  8
AM_9
100
AcDbLine
 10
1.67325
 20
0.8187499999999999
 30
0.0
 11
1.67325
 21
1.125
 31
0.0
  0
LINE
  5
B3
330
90
100
AcDbEntity
  8
AM_9
100
AcDbLine
 10
-1.67325
 20
1.125
 30
0.0
 11
-1.67325
 21
0.8187499999999999
 31
0.0
  0
ENDBLK
  5
93
330
90
100
AcDbEntity
  8
0
100
AcDbBlockEnd
  0
BLOCK
  5
B6
330
B4
100
AcDbEntity
  8
0
100
AcDbBlockBegin
  2
3_1_3_4CS2i_0_in_070649_4
 70
     2
 10
0.0
 20
0.0
 30
0.0
  3
3_1_3_4CS2i_0_in_070649_4
  1

  0
ATTDEF
  5
B8
330
B4
100
AcDbEntity
  8
AM_6
100
AcDbText
 10
6.59375
 20
-0.8191249999999995
 30
0.0
 40
0.5
  1
S-2000 Collar -Inch
100
AcDbAttributeDefinition
  3

  2
NN
 70
     8
280
     0
  0
ATTDEF
  5
B9
330
B4
100
AcDbEntity
  8
AM_6
100
AcDbText
 10
6.59375
 20
-1.319125
 30
0.0
 40
0.5
  1
S-2000 Bearings
100
AcDbAttributeDefinition
  3

  2
NT
 70
     8
280
     0
  0
ATTDEF
  5
BA
330
B4
100
AcDbEntity
  8
AM_6
100
AcDbText
 10
6.59375
 20
-1.819125
 30
0.0
 40
0.5
  1
1-3/4CS2i
100
AcDbAttributeDefinition
  3

  2
NB
 70
     8
280
     0
  0
ATTDEF
  5
BB
330
B4
100
AcDbEntity
  8
AM_6
100
AcDbText
 10
6.59375
 20
-2.319125
 30
0.0
 40
0.5
  1
$BORE.CS2i
100
AcDbAttributeDefinition
  3

  2
NBSYN
 70
     8
280
     0
  0
ATTDEF
  5
BC
330
B4
100
AcDbEntity
  8
AM_6
100
AcDbText
 10
6.59375
 20
-2.819125
 30
0.0
 40
0.5
  1
1-3/4CS2i
100
AcDbAttributeDefinition
  3

  2
LINA
 70
     8
280
     0
  0
ATTDEF
  5
BD
330
B4
100
AcDbEntity
  8
AM_6
100
AcDbText
 10
6.59375
 20
-3.319125
 30
0.0
 40
0.5
  1
1-3/4
100
AcDbAttributeDefinition
  3

  2
BORE
 70
     8
280
     0
  0
ATTDEF
  5
BE
330
B4
100
AcDbEntity
  8
AM_6
100
AcDbText
 10
6.59375
 20
-3.819125
 30
0.0
 40
0.5
  1
1.750000
100
AcDbAttributeDefinition
  3

  2
BORE1
 70
     8
280
     0
  0
ATTDEF
  5
BF
330
B4
100
AcDbEntity
  8
AM_6
100
AcDbText
 10
6.59375
 20
-4.319125
 30
0.0
 40
0.5
  1
3-3/16
100
AcDbAttributeDefinition
  3

  2
L1
 70
     8
280
     0
  0
ATTDEF
  5
C0
330
B4
100
AcDbEntity
  8
AM_6
100
AcDbText
 10
6.59375
 20
-4.819125
 30
0.0
 40
0.5
  1
3.18750
100
AcDbAttributeDefinition
  3

  2
L
 70
     8
280
     0
  0
ATTDEF
  5
C1
330
B4
100
AcDbEntity
  8
AM_6
100
AcDbText
 10
6.59375
 20
-5.319125
 30
0.0
 40
0.5
  1
3.09375
100
AcDbAttributeDefinition
  3

  2
L2
 70
     8
280
     0
  0
ATTDEF
  5
C2
330
B4
100
AcDbEntity
  8
AM_6
100
AcDbText
 10
6.59375
 20
-5.819125
 30
0.0
 40
0.5
  1
3.50
100
AcDbAttributeDefinition
  3

  2
A
 70
     8
280
     0
  0
ATTDEF
  5
C3
330
B4
100
AcDbEntity
  8
AM_6
100
AcDbText
 10
6.59375
 20
-6.319125
 30
0.0
 40
0.5
  1
1.62
100
AcDbAttributeDefinition
  3

  2
B
 70
     8
280
     0
  0
ATTDEF
  5
C4
330
B4
100
AcDbEntity
  8
AM_6
100
AcDbText
 10
6.59375
 20
-6.819125
 30
0.0
 40
0.5
  1
2.31
100
AcDbAttributeDefinition
  3

  2
C
 70
     8
280
     0
  0
ATTDEF
  5
C5
330
B4
100
AcDbEntity
  8
AM_6
100
AcDbText
 10
6.59375
 20
-7.319125
 30
0.0
 40
0.5
  1
3.50
100
AcDbAttributeDefinition
  3

  2
D
 70
     8
280
     0
  0
ATTDEF
  5
C6
330
B4
100
AcDbEntity
  8
AM_6
100
AcDbText
 10
6.59375
 20
-7.819125
 30
0.0
 40
0.5
  1
0.41
100
AcDbAttributeDefinition
  3

  2
E
 70
     8
280
     0
  0
ATTDEF
  5
C7
330
B4
100
AcDbEntity
  8
AM_6
100
AcDbText
 10
6.59375
 20
-8.319125
 30
0.0
 40
0.5
  1
0.317
100
AcDbAttributeDefinition
  3

  2
F
 70
     8
280
     0
  0
ATTDEF
  5
C8
330
B4
100
AcDbEntity
  8
AM_6
100
AcDbText
 10
6.59375
 20
-8.819125
 30
0.0
 40
0.5
  1
3/8-16
100
AcDbAttributeDefinition
  3

  2
CS
 70
     8
280
     0
  0
ATTDEF
  5
C9
330
B4
100
AcDbEntity
  8
AM_6
100
AcDbText
 10
6.59375
 20
-9.319125
 30
0.0
 40
0.5
  1
0.3750
100
AcDbAttributeDefinition
  3

  2
NDM
 70
     8
280
     0
  0
ATTDEF
  5
CA
330
B4
100
AcDbEntity
  8
AM_6
100
AcDbText
 10
6.59375
 20
-9.819125
 30
0.0
 40
0.5
  1
0.3070
100
AcDbAttributeDefinition
  3

  2
KDM
 70
     8
280
     0
  0
ATTDEF
  5
CB
330
B4
100
AcDbEntity
  8
AM_6
100
AcDbText
 10
6.59375
 20
-10.319125
 30
0.0
 40
0.5
  1
1
100
AcDbAttributeDefinition
  3

  2
DD
 70
     8
280
     0
  0
ATTDEF
  5
CC
330
B4
100
AcDbEntity
  8
AM_6
100
AcDbText
 10
6.59375
 20
-10.819125
 30
0.0
 40
0.5
  1
baldor
100
AcDbAttributeDefinition
  3

  2
COMPANY
 70
     8
280
     0
  0
LINE
  5
CD
330
B4
100
AcDbEntity
  8
AM_9
100
AcDbLine
 10
1.08508614371301
 20
-1.000202735467822
 30
0.0
 11
1.076997333078978
 21
-0.9901136704697475
 31
0.0
  0
LINE
  5
CE
330
B4
100
AcDbEntity
  8
AM_9
100
AcDbLine
 10
1.077118752485536
 20
-1.281984884733209
 30
0.0
 11
1.08508614371301
 21
-1.272047264532177
 31
0.0
  0
LWPOLYLINE
  5
CF
330
B4
100
AcDbEntity
  8
AM_9
100
AcDbPolyline
 90
       26
 70
     0
 43
0.0
 10
1.076987422341317
 20
-0.9901013089636329
 10
1.076852235758493
 20
-0.9899332714436829
 10
1.066278981138374
 20
-0.9799264325370478
 10
1.054569711275849
 20
-0.9745566587539378
 10
1.041481947595278
 20
-0.9740478277351382
 10
1.0278006900604
 20
-0.9786318408840394
 10
1.013830421402534
 20
-0.9883892554747373
 10
1.000232460804837
 20
-1.003041029846858
 10
0.987830224755597
 20
-1.021953571350549
 10
0.9769926350917173
 20
-1.044865925088391
 10
0.9688299740288342
 20
-1.069634356111882
 10
0.9631497418277855
 20
-1.096740795223777
 10
0.9605386608941846
 20
-1.122796165229202
 10
0.9605148356925725
 20
-1.149272638067584
 10
0.962909491879545
 20
-1.173822315440199
 10
0.9674605839073527
 20
-1.197337472618771
 10
0.9740576435160457
 20
-1.21952529802289
 10
0.9822865829736409
 20
-1.239562085965838
 10
0.9925219865207319
 20
-1.258189809653995
 10
1.003775738539055
 20
-1.273570301954541
 10
1.016601818437457
 20
-1.286205868890706
 10
1.029653900797198
 20
-1.294529421512372
 10
1.043155529328197
 20
-1.298417849706191
 10
1.056026013204927
 20
-1.297301650013289
 10
1.068107647222918
 20
-1.290983942332215
 10
1.076985474286909
 20
-1.282151120592739
  0
LWPOLYLINE
  5
D0
330
B4
100
AcDbEntity
  8
AM_9
100
AcDbPolyline
 90
        7
 70
     0
 43
0.0
 10
1.108937853387737
 20
-1.136124999999999
 10
1.108513499617112
 20
-1.115146520915244
 10
1.106903610330475
 20
-1.09054424203597
 10
1.104130104245032
 20
-1.067480322039371
 10
1.100216007379131
 20
-1.046203384257335
 10
1.096179993962825
 20
-1.030461269731259
 10
1.091418091293067
 20
-1.016395700757612
  0
LWPOLYLINE
  5
D1
330
B4
100
AcDbEntity
  8
AM_9
100
AcDbPolyline
 90
        8
 70
     0
 43
0.0
 10
1.081770078864625
 20
-1.275416397943083
 10
1.088143681974203
 20
-1.263557303738319
 10
1.095791412491812
 20
-1.243097829888135
 10
1.101517109163569
 20
-1.219803283758052
 10
1.105650976577941
 20
-1.193536069580451
 10
1.107986640313107
 20
-1.167461514347769
 10
1.108920889922899
 20
-1.14034961584844
 10
1.108937853387737
 20
-1.136124999999999
  0
LWPOLYLINE
  5
D2
330
B4
100
AcDbEntity
  8
AM_9
100
AcDbPolyline
 90
        3
 70
     0
 43
0.0
 10
1.076985474286909
 20
-1.282151120592739
 10
1.07891168616397
 20
-1.279629583658788
 10
1.081770078864625
 20
-1.275416397943083
  0
LINE
  5
D3
330
B4
100
AcDbEntity
  8
AM_9
100
AcDbLine
 10
1.054806317942603
 20
-1.289775
 30
0.0
 11
1.401900044268623
 21
-1.289775
 31
0.0
  0
LINE
  5
D4
330
B4
100
AcDbEntity
  8
AM_9
100
AcDbLine
 10
1.41374951699847
 20
-0.9824749999999998
 30
0.0
 11
1.054806317942603
 21
-0.9824749999999998
 31
0.0
  0
ELLIPSE
  5
D5
330
B4
100
AcDbEntity
  8
AM_9
100
AcDbEllipse
 10
1.413749516998456
 20
-1.13612500000003
 30
0.0
 11
-2.822504710335471E-17
 21
-0.1536500000000331
 31
0.0
210
0.0
220
0.0
230
1.0
 40
0.4226182617406469
 41
3.444511674032313
 42
4.71238898038469
  0
LINE
  5
D6
330
B4
100
AcDbEntity
  8
AM_9
100
AcDbLine
 10
1.405575759531479
 20
-0.9726301330104625
 30
0.0
 11
1.383469691228065
 21
-1.00020273546782
 31
0.0
  0
LWPOLYLINE
  5
D7
330
B4
100
AcDbEntity
  8
AM_9
100
AcDbPolyline
 90
       39
 70
     0
 43
0.0
 10
-0.1218661424184465
 20
-1.019113104473679
 10
-0.1391103719975643
 20
-1.036838367160157
 10
-0.1538241570126183
 20
-1.057421829177464
 10
-0.1659591348966734
 20
-1.082248368754636
 10
-0.173643560517859
 20
-1.109801700585799
 10
-0.1759834116462795
 20
-1.135222550752589
 10
-0.1738155228219684
 20
-1.161469761521261
 10
-0.1677103660053227
 20
-1.185192654958649
 10
-0.1575987202424182
 20
-1.208211348440226
 10
-0.1438821518135295
 20
-1.229447772457577
 10
-0.1266166456928774
 20
-1.248754049811223
 10
-0.105504820089655
 20
-1.266000588346392
 10
-0.0813558454577697
 20
-1.280097487909666
 10
-0.0539914003972061
 20
-1.290731359131617
 10
-0.0244872070150616
 20
-1.29703201089962
 10
0.0061185726449097
 20
-1.298525986662971
 10
0.0374137059144485
 20
-1.29488212012805
 10
0.0671175628243077
 20
-1.286256994249786
 10
0.0957253333484078
 20
-1.272323885410672
 10
0.1203013277651083
 20
-1.254510052348584
 10
0.1419776755493766
 20
-1.231896329989636
 10
0.1577445699724264
 20
-1.207940148278001
 10
0.1692317451698796
 20
-1.180548654001466
 10
0.1747996578234413
 20
-1.154888695572541
 10
0.1757512957912935
 20
-1.127766036554752
 10
0.1723446896408934
 20
-1.103364733160895
 10
0.1647554934992659
 20
-1.079203803751198
 10
0.1535827526292065
 20
-1.05702254678549
 10
0.1387143058527731
 20
-1.036367928870743
 10
0.1200516691142442
 20
-1.017523942507808
 10
0.0981529894304415
 20
-1.001412017588641
 10
0.0726576953317616
 20
-0.9882202503530404
 10
0.044658099968931
 20
-0.9789838380420867
 10
0.0147106004738815
 20
-0.9741981511416239
 10
-0.0164706900634701
 20
-0.9743438215113852
 10
-0.0469582668698165
 20
-0.9795604771344371
 10
-0.0769691017304316
 20
-0.9901009471943011
 10
-0.1002663144367957
 20
-1.002749464030878
 10
-0.1218661424184465
 20
-1.019113104473679
  0
LINE
  5
D8
330
B4
100
AcDbEntity
  8
AM_9
100
AcDbLine
 10
1.080506718635816
 20
-0.9948983288037738
 30
0.0
 11
1.076987422341317
 21
-0.9901013089636329
 31
0.0
  0
LWPOLYLINE
  5
D9
330
B4
100
AcDbEntity
  8
AM_9
100
AcDbPolyline
 90
        3
 70
     0
 43
0.0
 10
1.091418091293067
 20
-1.016395700757612
 10
1.084631795879397
 20
-1.001698278082185
 10
1.080506718635816
 20
-0.9948983288037738
  0
LINE
  5
DA
330
B4
100
AcDbEntity
  8
AM_9
100
AcDbLine
 10
1.155
 20
-1.453125
 30
0.0
 11
1.155
 21
-0.8191249999999997
 31
0.0
  0
LINE
  5
DB
330
B4
100
AcDbEntity
  8
AM_9
100
AcDbLine
 10
-1.155
 20
-0.8191249999999997
 30
0.0
 11
-1.155
 21
-1.453125
 31
0.0
  0
LINE
  5
DC
330
B4
100
AcDbEntity
  8
AM_9
100
AcDbLine
 10
0.15365
 20
-1.136125
 30
0.0
 11
-0.15365
 21
-1.136125
 31
0.0
  0
LINE
  5
DD
330
B4
100
AcDbEntity
  8
AM_9
100
AcDbLine
 10
1.45994700025129
 20
-1.136125
 30
0.0
 11
1.360387117872622
 21
-1.136125
 31
0.0
  0
LINE
  5
DE
330
B4
100
AcDbEntity
  8
AM_9
100
AcDbLine
 10
-0.1276335417308797
 20
-0.8191249999999995
 30
0.0
 11
0.1276335417308797
 21
-0.8191249999999995
 31
0.0
  0
ELLIPSE
  5
DF
330
B4
100
AcDbEntity
  8
AM_9
100
AcDbEllipse
 10
1.054806317942603
 20
-1.136125
 30
0.0
 11
-2.822504710334864E-17
 21
-0.1536500000000001
 31
0.0
210
0.0
220
0.0
230
1.0
 40
0.4226182617407003
 41
0.0
 42
6.283185307179586
  0
LINE
  5
E2
330
B4
100
AcDbEntity
  8
AM_7
100
AcDbLine
 10
-0.1613325
 20
-1.136125
 30
0.0
 11
0.1613324999999999
 21
-1.136125
 31
0.0
  0
LWPOLYLINE
  5
E4
330
B4
100
AcDbEntity
  8
AM_4
100
AcDbPolyline
 90
       11
 70
     0
 43
0.0
 10
1.401950830982299
 20
-1.289774999349988
 10
1.394490991122567
 20
-1.288783534076902
 10
1.383369094674004
 20
-1.28371090108883
 10
1.372432139549704
 20
-1.274521532813431
 10
1.36203553641872
 20
-1.261396578952377
 10
1.352565912852262
 20
-1.244770976773056
 10
1.344365117463561
 20
-1.224973421808835
 10
1.337784061046145
 20
-1.202664226919943
 10
1.33312326541401
 20
-1.17843571224137
 10
1.330553232356618
 20
-1.15300308327275
 10
1.330076408418372
 20
-1.136125
  0
ELLIPSE
  5
E5
330
B4
100
AcDbEntity
  8
AM_4
100
AcDbEllipse
 10
1.413749516998474
 20
-1.136125000000008
 30
0.0
 11
-2.822504710335014E-17
 21
-0.1536500000000083
 31
0.0
210
0.0
220
0.0
230
1.0
 40
0.4226182617407038
 41
1.570796326794897
 42
3.44451167403258
  0
LWPOLYLINE
  5
E6
330
B4
100
AcDbEntity
  8
AM_4
100
AcDbPolyline
 90
       14
 70
     0
 43
0.0
 10
1.405806144327733
 20
-0.9723427794891927
 10
1.411065081615269
 20
-0.9662770143081028
 10
1.424498021109015
 20
-0.9549694602942304
 10
1.436965368567408
 20
-0.9495350596625347
 10
1.44956718883083
 20
-0.9490736109844329
 10
1.460924741008912
 20
-0.9535043063056242
 10
1.471417375813209
 20
-0.9624586627000119
 10
1.480880287705092
 20
-0.9757902968063275
 10
1.489112668336569
 20
-0.9929501304766443
 10
1.496210163296619
 20
-1.01411794464296
 10
1.502003837324872
 20
-1.038866430863774
 10
1.50638045228294
 20
-1.06674962812713
 10
1.509231885205595
 20
-1.097200362996881
 10
1.510481085524808
 20
-1.136125
  0
LWPOLYLINE
  5
E7
330
B4
100
AcDbEntity
  8
AM_4
100
AcDbPolyline
 90
       20
 70
     0
 43
0.0
 10
0.15365
 20
-1.136125
 10
0.1515429857412936
 20
-1.161483351141469
 10
0.1450384039127006
 20
-1.186841702282939
 10
0.1346874892830125
 20
-1.210068239925218
 10
0.1201966104825361
 20
-1.231838621436603
 10
0.1027162293125786
 20
-1.250395288070897
 10
0.0817817384961612
 20
-1.266202168436838
 10
0.059093102092448
 20
-1.277957040756281
 10
0.0340302300031545
 20
-1.285959128108159
 10
0.0087950505958282
 20
-1.289523075558388
 10
-0.0174268319981304
 20
-1.288783534076902
 10
-0.042335686920639
 20
-1.283827444505694
 10
-0.0667437053602878
 20
-1.274521532813431
 10
-0.0886518342549671
 20
-1.261620716194736
 10
-0.1086479370767272
 20
-1.244770976773056
 10
-0.1251351603917477
 20
-1.225285047856265
 10
-0.1384949594060965
 20
-1.202664226919943
 10
-0.1476045895415114
 20
-1.178800609501001
 10
-0.15272017812011
 20
-1.15300308327275
 10
-0.15365
 20
-1.136125
  0
LWPOLYLINE
  5
E8
330
B4
100
AcDbEntity
  8
AM_4
100
AcDbPolyline
 90
       11
 70
     0
 43
0.0
 10
1.459947000251289
 20
-1.136125
 10
1.45922141883046
 20
-1.16184672922563
 10
1.457064638058309
 20
-1.186841702282939
 10
1.453476807961021
 20
-1.210382803082138
 10
1.44850344764054
 20
-1.231838621436603
 10
1.442156133257138
 20
-1.250630596223206
 10
1.434546633111727
 20
-1.266202168436838
 10
1.425756567273633
 20
-1.278086270949998
 10
1.415987363347649
 20
-1.285959128108159
 10
1.405480264471376
 20
-1.289528338142889
 10
1.401950830982299
 20
-1.289774999349988
  0
LINE
  5
E9
330
B4
100
AcDbEntity
  8
AM_4
100
AcDbLine
 10
1.546875
 20
-1.347458333333333
 30
0.0
 11
1.546875
 21
-1.136125
 31
0.0
  0
LINE
  5
EA
330
B4
100
AcDbEntity
  8
AM_4
100
AcDbLine
 10
-1.546875
 20
-1.136125
 30
0.0
 11
-1.546875
 21
-1.347458333333333
 31
0.0
  0
LINE
  5
EB
330
B4
100
AcDbEntity
  8
AM_4
100
AcDbLine
 10
-1.441208333333333
 20
-1.453125
 30
0.0
 11
1.44120833333211
 21
-1.453125
 31
0.0
  0
LINE
  5
EC
330
B4
100
AcDbEntity
  8
AM_4
100
AcDbLine
 10
-1.546875
 20
-1.347458333333333
 30
0.0
 11
1.546875
 21
-1.347458333333333
 31
0.0
  0
ARC
  5
ED
330
B4
100
AcDbEntity
  8
AM_4
100
AcDbCircle
 10
1.441208333333334
 20
-1.347458333333333
 30
0.0
 40
0.1056666666666664
100
AcDbArc
 50
270.0
 51
0.0
  0
ARC
  5
EE
330
B4
100
AcDbEntity
  8
AM_4
100
AcDbCircle
 10
-1.441208333333333
 20
-1.347458333333333
 30
0.0
 40
0.1056666666666664
100
AcDbArc
 50
180.0
 51
270.0
  0
LINE
  5
EF
330
B4
100
AcDbEntity
  8
AM_4
100
AcDbLine
 10
1.45994700025129
 20
-1.136125
 30
0.0
 11
1.59375
 21
-1.136125
 31
0.0
  0
LINE
  5
F0
330
B4
100
AcDbEntity
  8
AM_4
100
AcDbLine
 10
0.15365
 20
-1.136125
 30
0.0
 11
1.360387117872622
 21
-1.136125
 31
0.0
  0
LWPOLYLINE
  5
F1
330
B4
100
AcDbEntity
  8
AM_4
100
AcDbPolyline
 90
        8
 70
     0
 43
0.0
 10
1.360387117872622
 20
-1.136125
 10
1.361133463918558
 20
-1.112497918002793
 10
1.36334541798274
 20
-1.08921476840654
 10
1.368709847839755
 20
-1.058383094221128
 10
1.376837262773466
 20
-1.028929094004459
 10
1.386736060451187
 20
-1.003915569531892
 10
1.398746476592377
 20
-0.9821115202631019
 10
1.405806144327733
 20
-0.9723427794891927
  0
LINE
  5
F2
330
B4
100
AcDbEntity
  8
AM_4
100
AcDbLine
 10
0.1276335417308797
 20
-0.8191249999999995
 30
0.0
 11
1.59375
 21
-0.8191249999999997
 31
0.0
  0
LINE
  5
F3
330
B4
100
AcDbEntity
  8
AM_4
100
AcDbLine
 10
-1.59375
 20
-0.8191249999999997
 30
0.0
 11
-0.1276335417308797
 21
-0.8191249999999995
 31
0.0
  0
LINE
  5
F4
330
B4
100
AcDbEntity
  8
AM_4
100
AcDbLine
 10
1.59375
 20
-1.136125
 30
0.0
 11
1.59375
 21
-0.8191249999999997
 31
0.0
  0
LINE
  5
F5
330
B4
100
AcDbEntity
  8
AM_4
100
AcDbLine
 10
-1.59375
 20
-0.8191249999999997
 30
0.0
 11
-1.59375
 21
-1.136125
 31
0.0
  0
LINE
  5
F6
330
B4
100
AcDbEntity
  8
AM_4
100
AcDbLine
 10
-1.59375
 20
-1.136125
 30
0.0
 11
-0.15365
 21
-1.136125
 31
0.0
  0
LWPOLYLINE
  5
F7
330
B4
100
AcDbEntity
  8
AM_4
100
AcDbPolyline
 90
       20
 70
     0
 43
0.0
 10
-0.1775762919401221
 20
-1.136125
 10
-0.1761779760191284
 20
-1.11266988420327
 10
-0.1719154792278824
 20
-1.08921476840654
 10
-0.1615586229274693
 20
-1.058383094221128
 10
-0.1456341476866549
 20
-1.028929094004459
 10
-0.1258401168910071
 20
-1.003915569531892
 10
-0.1011951738397487
 20
-0.982111520263102
 10
-0.0751425386490346
 20
-0.9662770143081026
 10
-0.045749959908176
 20
-0.9549694602942301
 10
-0.0174532274234996
 20
-0.9495350596625345
 10
0.0122614224205757
 20
-0.9490736109844329
 10
0.0397424632460691
 20
-0.9533924519633664
 10
0.0668721701800026
 20
-0.9624586627000119
 10
0.0916444673633975
 20
-0.9755772056589485
 10
0.1145764756623943
 20
-0.9929501304766444
 10
0.1347683681486584
 20
-1.01411794464296
 10
0.1517678614477458
 20
-1.038866430863774
 10
0.164945758512766
 20
-1.06674962812713
 10
0.1736983237963723
 20
-1.097200362996881
 10
0.1775762919401219
 20
-1.136125
  0
ARC
  5
F8
330
B4
100
AcDbEntity
  8
AM_4
100
AcDbCircle
 10
0.0
 20
-1.136125
 30
0.0
 40
0.15365
100
AcDbArc
 50
0.0
 51
179.9999991462263
  0
CIRCLE
  5
FA
330
B4
100
AcDbEntity
  8
AM_5
100
AcDbCircle
 10
0.0000000000000001
 20
-1.136125
 30
0.0
 40
0.1874999999999999
  0
ENDBLK
  5
B7
330
B4
100
AcDbEntity
  8
0
100
AcDbBlockEnd
  0
BLOCK
  5
FD
330
FB
100
AcDbEntity
  8
0
100
AcDbBlockBegin
  2
4_070004i_0_in_070649_4
 70
     2
 10
0.0
 20
0.0
 30
0.0
  3
4_070004i_0_in_070649_4
  1

  0
ATTDEF
  5
FF
330
FB
100
AcDbEntity
  8
AM_6
100
AcDbText
 10
6.67325
 20
1.203125
 30
0.0
 40
0.5
  1
S-2000 Insert -Inch
100
AcDbAttributeDefinition
  3

  2
NN
 70
     8
280
     0
  0
ATTDEF
  5
100
330
FB
100
AcDbEntity
  8
AM_6
100
AcDbText
 10
6.67325
 20
0.7031249999999998
 30
0.0
 40
0.5
  1
S-2000 Bearings
100
AcDbAttributeDefinition
  3

  2
NT
 70
     8
280
     0
  0
ATTDEF
  5
101
330
FB
100
AcDbEntity
  8
AM_6
100
AcDbText
 10
6.67325
 20
0.2031249999999998
 30
0.0
 40
0.5
  1
070004i
100
AcDbAttributeDefinition
  3

  2
NB
 70
     8
280
     0
  0
ATTDEF
  5
102
330
FB
100
AcDbEntity
  8
AM_6
100
AcDbText
 10
6.67325
 20
-0.2968750000000002
 30
0.0
 40
0.5
  1
$PN.i
100
AcDbAttributeDefinition
  3

  2
NBSYN
 70
     8
280
     0
  0
ATTDEF
  5
103
330
FB
100
AcDbEntity
  8
AM_6
100
AcDbText
 10
6.67325
 20
-0.7968750000000002
 30
0.0
 40
0.5
  1
070004i
100
AcDbAttributeDefinition
  3

  2
LINA
 70
     8
280
     0
  0
ATTDEF
  5
104
330
FB
100
AcDbEntity
  8
AM_6
100
AcDbText
 10
6.67325
 20
-1.296875
 30
0.0
 40
0.5
  1
1-3/4
100
AcDbAttributeDefinition
  3

  2
SS
 70
     8
280
     0
  0
ATTDEF
  5
105
330
FB
100
AcDbEntity
  8
AM_6
100
AcDbText
 10
6.67325
 20
-1.796875
 30
0.0
 40
0.5
  1
2.31
100
AcDbAttributeDefinition
  3

  2
CC
 70
     8
280
     0
  0
ATTDEF
  5
106
330
FB
100
AcDbEntity
  8
AM_6
100
AcDbText
 10
6.67325
 20
-2.296875
 30
0.0
 40
0.5
  1
1.750000
100
AcDbAttributeDefinition
  3

  2
SS1
 70
     8
280
     0
  0
ATTDEF
  5
107
330
FB
100
AcDbEntity
  8
AM_6
100
AcDbText
 10
6.67325
 20
-2.796875
 30
0.0
 40
0.5
  1
070004
100
AcDbAttributeDefinition
  3

  2
PN
 70
     8
280
     0
  0
ATTDEF
  5
108
330
FB
100
AcDbEntity
  8
AM_6
100
AcDbText
 10
6.67325
 20
-3.296875
 30
0.0
 40
0.5
  1
INS-S2-112R
100
AcDbAttributeDefinition
  3

  2
DESCRIPTION
 70
     8
280
     0
  0
ATTDEF
  5
109
330
FB
100
AcDbEntity
  8
AM_6
100
AcDbText
 10
6.67325
 20
-3.796875
 30
0.0
 40
0.5
  1
Contact Seal
100
AcDbAttributeDefinition
  3

  2
ST
 70
     8
280
     0
  0
ATTDEF
  5
10A
330
FB
100
AcDbEntity
  8
AM_6
100
AcDbText
 10
6.67325
 20
-4.296875
 30
0.0
 40
0.5
  1
1
100
AcDbAttributeDefinition
  3

  2
ST1
 70
     8
280
     0
  0
ATTDEF
  5
10B
330
FB
100
AcDbEntity
  8
AM_6
100
AcDbText
 10
6.67325
 20
-4.796875
 30
0.0
 40
0.5
  1
3.3465
100
AcDbAttributeDefinition
  3

  2
A
 70
     8
280
     0
  0
ATTDEF
  5
10C
330
FB
100
AcDbEntity
  8
AM_6
100
AcDbText
 10
6.67325
 20
-5.296875
 30
0.0
 40
0.5
  1
61/64
100
AcDbAttributeDefinition
  3

  2
B
 70
     8
280
     0
  0
ATTDEF
  5
10D
330
FB
100
AcDbEntity
  8
AM_6
100
AcDbText
 10
6.67325
 20
-5.796875
 30
0.0
 40
0.5
  1
2-21/32
100
AcDbAttributeDefinition
  3

  2
C
 70
     8
280
     0
  0
ATTDEF
  5
10E
330
FB
100
AcDbEntity
  8
AM_6
100
AcDbText
 10
6.67325
 20
-6.296875
 30
0.0
 40
0.5
  1
0.954
100
AcDbAttributeDefinition
  3

  2
D
 70
     8
280
     0
  0
ATTDEF
  5
10F
330
FB
100
AcDbEntity
  8
AM_6
100
AcDbText
 10
6.67325
 20
-6.796875
 30
0.0
 40
0.5
  1
3-3/32
100
AcDbAttributeDefinition
  3

  2
E
 70
     8
280
     0
  0
ATTDEF
  5
110
330
FB
100
AcDbEntity
  8
AM_6
100
AcDbText
 10
6.67325
 20
-7.296875
 30
0.0
 40
0.5
  1
0.43750
100
AcDbAttributeDefinition
  3

  2
F
 70
     8
280
     0
  0
ATTDEF
  5
111
330
FB
100
AcDbEntity
  8
AM_6
100
AcDbText
 10
6.67325
 20
-7.796875
 30
0.0
 40
0.5
  1
1
100
AcDbAttributeDefinition
  3

  2
DD
 70
     8
280
     0
  0
ATTDEF
  5
112
330
FB
100
AcDbEntity
  8
AM_6
100
AcDbText
 10
6.67325
 20
-8.296875
 30
0.0
 40
0.5
  1
baldor
100
AcDbAttributeDefinition
  3

  2
COMPANY
 70
     8
280
     0
  0
LINE
  5
113
330
FB
100
AcDbEntity
  8
AM_9
100
AcDbLine
 10
1.046785494027331
 20
-0.9311250000000002
 30
0.0
 11
0.7928690515927604
 21
-0.9311250000000002
 31
0.0
  0
LINE
  5
114
330
FB
100
AcDbEntity
  8
AM_9
100
AcDbLine
 10
0.7929252549517951
 20
-1.341125
 30
0.0
 11
1.046785494027331
 21
-1.341125
 31
0.0
  0
LWPOLYLINE
  5
115
330
FB
100
AcDbEntity
  8
AM_9
100
AcDbPolyline
 90
       21
 70
     0
 43
0.0
 10
0.7930247549326368
 20
-0.9311250004043291
 10
0.7838866201270205
 20
-0.932210243870969
 10
0.7686099934655335
 20
-0.9384249469161344
 10
0.752978694390576
 20
-0.9499064402410098
 10
0.7374589579190651
 20
-0.9665360475955299
 10
0.7228287634079884
 20
-0.9877117035232115
 10
0.7094687258278779
 20
-1.013576651611343
 10
0.6983931489074418
 20
-1.042933645768286
 10
0.6902259113375827
 20
-1.075162173249018
 10
0.685447292940775
 20
-1.109204855212846
 10
0.6844089856270322
 20
-1.143256175064668
 10
0.686953445305646
 20
-1.177101616006928
 10
0.6928820299587914
 20
-1.209306533153508
 10
0.7018062421159188
 20
-1.23950381725037
 10
0.713508210478185
 20
-1.267327826845427
 10
0.7272192139804999
 20
-1.291550372334274
 10
0.7426435337499969
 20
-1.311871559178011
 10
0.7587760818068358
 20
-1.327203244620992
 10
0.7748028722872327
 20
-1.336955910443485
 10
0.7902208063709172
 20
-1.341019726283833
 10
0.7930097208847193
 20
-1.341124998743439
  0
LWPOLYLINE
  5
116
330
FB
100
AcDbEntity
  8
AM_9
100
AcDbPolyline
 90
       11
 70
     0
 43
0.0
 10
0.7930097208847193
 20
-1.341124998743439
 10
0.8041465506760788
 20
-1.339283574870382
 10
0.8166228949421968
 20
-1.332051574539398
 10
0.8273431100057728
 20
-1.319539969582889
 10
0.836309079154737
 20
-1.302165722800626
 10
0.8436484571969832
 20
-1.279830056527176
 10
0.8492805638303597
 20
-1.253511850912133
 10
0.853388189427079
 20
-1.223366101982319
 10
0.856046054484121
 20
-1.190649555685125
 10
0.8572035055222111
 20
-1.163647712911754
 10
0.8575845740478432
 20
-1.136125
  0
LWPOLYLINE
  5
117
330
FB
100
AcDbEntity
  8
AM_9
100
AcDbPolyline
 90
       12
 70
     0
 43
0.0
 10
0.943528677941797
 20
-1.136125
 10
0.9436760816826892
 20
-1.126529582061244
 10
0.9462636383494186
 20
-1.092562555419073
 10
0.9520253790500312
 20
-1.060085575943977
 10
0.9606178153233742
 20
-1.029717745364522
 10
0.9717845859103306
 20
-1.002043559939227
 10
0.9848882345298692
 20
-0.9780944047857175
 10
0.9995452976131668
 20
-0.9583703354354693
 10
1.014971602783868
 20
-0.9436806249171024
 10
1.030474736511694
 20
-0.9345669070986323
 10
1.045575929214714
 20
-0.9311448746843644
 10
1.046778995239891
 20
-0.9311250005767293
  0
LWPOLYLINE
  5
118
330
FB
100
AcDbEntity
  8
AM_9
100
AcDbPolyline
 90
       11
 70
     0
 43
0.0
 10
1.046792319612884
 20
-1.341124999363773
 10
1.037212380740092
 20
-1.339919998115517
 10
1.022073626267102
 20
-1.333423212665202
 10
1.006831899331695
 20
-1.321545443226722
 10
0.9919710612922389
 20
-1.30446151427101
 10
0.9781609653212456
 20
-1.282764899355452
 10
0.9658545939737122
 20
-1.256606352391878
 10
0.9558004459324831
 20
-1.227025303144283
 10
0.9485317704945353
 20
-1.19475000327932
 10
0.9443991701300949
 20
-1.160770425831918
 10
0.943528677941797
 20
-1.136125
  0
LWPOLYLINE
  5
119
330
FB
100
AcDbEntity
  8
AM_9
100
AcDbPolyline
 90
        4
 70
     0
 43
0.0
 10
1.114173776066744
 20
-1.072929544736789
 10
1.115210699933459
 20
-1.086560264890734
 10
1.116404845571592
 20
-1.111151989680055
 10
1.116802165255484
 20
-1.136125
  0
LWPOLYLINE
  5
11A
330
FB
100
AcDbEntity
  8
AM_9
100
AcDbPolyline
 90
        9
 70
     0
 43
0.0
 10
1.046778995239891
 20
-0.9311250005767293
 10
1.05957968897145
 20
-0.9335327612939787
 10
1.072357626657006
 20
-0.9414889537891693
 10
1.083608099732247
 20
-0.9548275714346212
 10
1.093234560244893
 20
-0.9731013601267828
 10
1.101246283655223
 20
-0.996191196985514
 10
1.107543787395097
 20
-1.023198889191245
 10
1.112189287714433
 20
-1.053685959345697
 10
1.114173776066744
 20
-1.072929544736789
  0
LWPOLYLINE
  5
11B
330
FB
100
AcDbEntity
  8
AM_9
100
AcDbPolyline
 90
       11
 70
     0
 43
0.0
 10
0.8575845740478432
 20
-1.136125
 10
0.8570039307593145
 20
-1.102244444254735
 10
0.8552299502507873
 20
-1.069332142944052
 10
0.8521689357535284
 20
-1.038360507777246
 10
0.8476921784454567
 20
-1.010087824048849
 10
0.8415132550082791
 20
-0.9848849958972581
 10
0.8335770122571118
 20
-0.9638898094487447
 10
0.8236372310797183
 20
-0.9475742695849213
 10
0.8118324855950141
 20
-0.9366455482773598
 10
0.7985350753855323
 20
-0.9315784549934008
 10
0.7930247549326368
 20
-0.9311250004043291
  0
LINE
  5
11C
330
FB
100
AcDbEntity
  8
AM_9
100
AcDbLine
 10
-0.8750000000000001
 20
1.203125
 30
0.0
 11
-0.8750000000000001
 21
-1.453125
 31
0.0
  0
LINE
  5
11D
330
FB
100
AcDbEntity
  8
AM_9
100
AcDbLine
 10
0.8750000000000001
 20
-1.453125
 30
0.0
 11
0.8750000000000001
 21
1.203125
 31
0.0
  0
LWPOLYLINE
  5
11E
330
FB
100
AcDbEntity
  8
AM_9
100
AcDbPolyline
 90
       10
 70
     0
 43
0.0
 10
1.114581608934096
 20
-1.194391452473148
 10
1.113809380737061
 20
-1.203373002252065
 10
1.110009442682595
 20
-1.234572523479572
 10
1.104606423986586
 20
-1.263030193923415
 10
1.097442290854296
 20
-1.28816695531181
 10
1.088549139716656
 20
-1.309049449120014
 10
1.077839767615082
 20
-1.32512430775001
 10
1.065507167045844
 20
-1.335830549264894
 10
1.051886068210213
 20
-1.340738652474625
 10
1.046792319612884
 20
-1.341124999363773
  0
LWPOLYLINE
  5
11F
330
FB
100
AcDbEntity
  8
AM_9
100
AcDbPolyline
 90
        3
 70
     0
 43
0.0
 10
1.116802165255484
 20
-1.136125
 10
1.116055710871377
 20
-1.17023343538501
 10
1.114581608934096
 20
-1.194391452473148
  0
LWPOLYLINE
  5
120
330
FB
100
AcDbEntity
  8
AM_9
100
AcDbPolyline
 90
       21
 70
     0
 43
0.0
 10
-0.205
 20
-1.136125
 10
-0.2047980003563593
 20
-1.127026700706359
 10
-0.2003180306965243
 20
-1.092562555419073
 10
-0.190549195096018
 20
-1.06052073921888
 10
-0.1752212777060494
 20
-1.029717745364522
 10
-0.1553738176201073
 20
-1.002394013320945
 10
-0.1305807450438981
 20
-0.9780944047857174
 10
-0.1025237405266752
 20
-0.9586035009402554
 10
-0.0706410822323171
 20
-0.9436806249171026
 10
-0.0377943961290886
 20
-0.934639060983806
 10
-0.0028545096927904
 20
-0.9311448746843644
 10
0.0307098913801233
 20
-0.9334382896033364
 10
0.0643568917476233
 20
-0.9414889537891693
 10
0.095236302073934
 20
-0.954589750620486
 10
0.1242911615622268
 20
-0.9731013601267828
 10
0.1494672277504474
 20
-0.9958233684036574
 10
0.1710926459483536
 20
-1.023198889191245
 10
0.1874844207229779
 20
-1.053211840693594
 10
0.1989179153157107
 20
-1.086560264890734
 10
0.2034495371294953
 20
-1.110959828794659
 10
0.2049999999999999
 20
-1.136125
  0
LWPOLYLINE
  5
121
330
FB
100
AcDbEntity
  8
AM_9
100
AcDbPolyline
 90
       20
 70
     0
 43
0.0
 10
0.2049999999999999
 20
-1.136125
 10
0.2022237042195514
 20
-1.169749001126033
 10
0.1936561545448694
 20
-1.203373002252065
 10
0.1800385435420809
 20
-1.234161334280951
 10
0.1609971172265528
 20
-1.263030193923415
 10
0.1378522813137548
 20
-1.287854194740477
 10
0.1101005671944506
 20
-1.309049449120014
 10
0.0798223260686158
 20
-1.324946069430812
 10
0.0462892384124774
 20
-1.335830549264894
 10
0.0127289676164413
 20
-1.340729431485292
 10
-0.0221945656208091
 20
-1.339919998115517
 10
-0.0551308921996137
 20
-1.333572675917633
 10
-0.0874314544863926
 20
-1.321545443226722
 10
-0.1165818286953598
 20
-1.304747884621412
 10
-0.1432541095990719
 20
-1.282764899355452
 10
-0.1655592266691508
 20
-1.257018103462161
 10
-0.1837447547231688
 20
-1.227025303144283
 10
-0.1962895823481186
 20
-1.195246906782522
 10
-0.2035131518736895
 20
-1.160770425831918
 10
-0.205
 20
-1.136125
  0
LINE
  5
122
330
FB
100
AcDbEntity
  8
AM_9
100
AcDbLine
 10
-1.155
 20
-0.8191249999999997
 30
0.0
 11
-1.155
 21
-1.453125
 31
0.0
  0
LINE
  5
123
330
FB
100
AcDbEntity
  8
AM_9
100
AcDbLine
 10
-1.155
 20
-0.381625
 30
0.0
 11
-1.155
 21
-0.6406249999999998
 31
0.0
  0
LINE
  5
124
330
FB
100
AcDbEntity
  8
AM_9
100
AcDbLine
 10
1.155
 20
-0.6406249999999998
 30
0.0
 11
1.155
 21
-0.381625
 31
0.0
  0
LINE
  5
125
330
FB
100
AcDbEntity
  8
AM_9
100
AcDbLine
 10
1.155
 20
-1.453125
 30
0.0
 11
1.155
 21
-0.8191249999999997
 31
0.0
  0
LINE
  5
126
330
FB
100
AcDbEntity
  8
AM_9
100
AcDbLine
 10
-1.155
 20
1.203125
 30
0.0
 11
-1.155
 21
0.8798750000000002
 31
0.0
  0
LINE
  5
127
330
FB
100
AcDbEntity
  8
AM_9
100
AcDbLine
 10
1.155
 20
0.8798750000000002
 30
0.0
 11
1.155
 21
1.203125
 31
0.0
  0
LINE
  5
128
330
FB
100
AcDbEntity
  8
AM_9
100
AcDbLine
 10
1.155
 20
1.203125
 30
0.0
 11
-1.155
 21
1.203125
 31
0.0
  0
LINE
  5
129
330
FB
100
AcDbEntity
  8
AM_9
100
AcDbLine
 10
1.2432875
 20
0.8798750000000002
 30
0.0
 11
-1.2432875
 21
0.8798750000000002
 31
0.0
  0
ARC
  5
12A
330
FB
100
AcDbEntity
  8
AM_9
100
AcDbCircle
 10
-1.243287500000001
 20
0.7845625000000007
 30
0.0
 40
0.0953124999999995
100
AcDbArc
 50
90.0
 51
179.9999991462263
  0
ARC
  5
12B
330
FB
100
AcDbEntity
  8
AM_9
100
AcDbCircle
 10
1.243287500000001
 20
0.7845625000000007
 30
0.0
 40
0.0953124999999995
100
AcDbArc
 50
0.0000008537736463
 51
90.0
  0
LINE
  5
12C
330
FB
100
AcDbEntity
  8
AM_9
100
AcDbLine
 10
-1.3386
 20
0.7845625000000003
 30
0.0
 11
-1.3386
 21
0.7256875000000002
 31
0.0
  0
LINE
  5
12D
330
FB
100
AcDbEntity
  8
AM_9
100
AcDbLine
 10
1.3386
 20
0.7256875000000002
 30
0.0
 11
1.3386
 21
0.7845625000000003
 31
0.0
  0
LINE
  5
12E
330
FB
100
AcDbEntity
  8
AM_9
100
AcDbLine
 10
1.3386
 20
0.7845625000000003
 30
0.0
 11
-1.3386
 21
0.7845625000000003
 31
0.0
  0
LINE
  5
12F
330
FB
100
AcDbEntity
  8
AM_9
100
AcDbLine
 10
-1.3386
 20
-0.2274374999999999
 30
0.0
 11
-1.3386
 21
-0.2863125000000001
 31
0.0
  0
LINE
  5
130
330
FB
100
AcDbEntity
  8
AM_9
100
AcDbLine
 10
1.3386
 20
-0.2863125000000001
 30
0.0
 11
1.3386
 21
-0.2274374999999999
 31
0.0
  0
LINE
  5
131
330
FB
100
AcDbEntity
  8
AM_9
100
AcDbLine
 10
1.2432875
 20
-0.381625
 30
0.0
 11
-1.2432875
 21
-0.381625
 31
0.0
  0
ARC
  5
132
330
FB
100
AcDbEntity
  8
AM_9
100
AcDbCircle
 10
-1.243287500000001
 20
-0.2863125000000006
 30
0.0
 40
0.0953124999999995
100
AcDbArc
 50
179.9999991462263
 51
270.0
  0
ARC
  5
133
330
FB
100
AcDbEntity
  8
AM_9
100
AcDbCircle
 10
1.2432875
 20
-0.2863125000000003
 30
0.0
 40
0.0953124999999997
100
AcDbArc
 50
270.0
 51
0.0
  0
LINE
  5
134
330
FB
100
AcDbEntity
  8
AM_9
100
AcDbLine
 10
1.3386
 20
-0.2863125000000001
 30
0.0
 11
-1.3386
 21
-0.2863125000000001
 31
0.0
  0
LINE
  5
135
330
FB
100
AcDbEntity
  8
AM_9
100
AcDbLine
 10
-1.60632
 20
0.2967812500000019
 30
0.0
 11
-1.60632
 21
0.2014687499999982
 31
0.0
  0
LINE
  5
136
330
FB
100
AcDbEntity
  8
AM_9
100
AcDbLine
 10
1.60632
 20
0.2014687499999982
 30
0.0
 11
1.60632
 21
0.2967812500000019
 31
0.0
  0
LINE
  5
137
330
FB
100
AcDbEntity
  8
AM_9
100
AcDbLine
 10
-1.67325
 20
0.630375
 30
0.0
 11
-1.67325
 21
0.3354233035168636
 31
0.0
  0
LINE
  5
138
330
FB
100
AcDbEntity
  8
AM_9
100
AcDbLine
 10
1.67325
 20
0.3354233035168636
 30
0.0
 11
1.67325
 21
0.630375
 31
0.0
  0
LINE
  5
139
330
FB
100
AcDbEntity
  8
AM_9
100
AcDbLine
 10
1.5779375
 20
-0.2274374999999999
 30
0.0
 11
-1.5779375
 21
-0.2274374999999999
 31
0.0
  0
ARC
  5
13A
330
FB
100
AcDbEntity
  8
AM_9
100
AcDbCircle
 10
-1.5779375
 20
-0.1321249999999997
 30
0.0
 40
0.0953125000000004
100
AcDbArc
 50
179.9999991462263
 51
270.0
  0
ARC
  5
13B
330
FB
100
AcDbEntity
  8
AM_9
100
AcDbCircle
 10
1.5779375
 20
-0.1321249999999999
 30
0.0
 40
0.0953125000000001
100
AcDbArc
 50
270.0
 51
0.0
  0
LINE
  5
13C
330
FB
100
AcDbEntity
  8
AM_9
100
AcDbLine
 10
-1.67325
 20
0.1628266964831365
 30
0.0
 11
-1.67325
 21
-0.1321249999999999
 31
0.0
  0
LINE
  5
13D
330
FB
100
AcDbEntity
  8
AM_9
100
AcDbLine
 10
1.67325
 20
-0.1321249999999999
 30
0.0
 11
1.67325
 21
0.1628266964831365
 31
0.0
  0
LINE
  5
13E
330
FB
100
AcDbEntity
  8
AM_9
100
AcDbLine
 10
1.67325
 20
-0.1321249999999999
 30
0.0
 11
-1.67325
 21
-0.1321249999999999
 31
0.0
  0
LINE
  5
13F
330
FB
100
AcDbEntity
  8
AM_9
100
AcDbLine
 10
1.60632
 20
0.2967812500000019
 30
0.0
 11
1.67325
 21
0.3354233035168636
 31
0.0
  0
LINE
  5
140
330
FB
100
AcDbEntity
  8
AM_9
100
AcDbLine
 10
-1.67325
 20
0.3354233035168636
 30
0.0
 11
-1.60632
 21
0.2967812500000019
 31
0.0
  0
LINE
  5
141
330
FB
100
AcDbEntity
  8
AM_9
100
AcDbLine
 10
1.67325
 20
0.3354233035168636
 30
0.0
 11
-1.67325
 21
0.3354233035168636
 31
0.0
  0
LINE
  5
142
330
FB
100
AcDbEntity
  8
AM_9
100
AcDbLine
 10
1.60632
 20
0.2967812500000019
 30
0.0
 11
-1.60632
 21
0.2967812500000019
 31
0.0
  0
LINE
  5
143
330
FB
100
AcDbEntity
  8
AM_9
100
AcDbLine
 10
-1.60632
 20
0.2014687499999982
 30
0.0
 11
-1.67325
 21
0.1628266964831365
 31
0.0
  0
LINE
  5
144
330
FB
100
AcDbEntity
  8
AM_9
100
AcDbLine
 10
1.67325
 20
0.1628266964831365
 30
0.0
 11
1.60632
 21
0.2014687499999982
 31
0.0
  0
LINE
  5
145
330
FB
100
AcDbEntity
  8
AM_9
100
AcDbLine
 10
1.60632
 20
0.2014687499999982
 30
0.0
 11
-1.60632
 21
0.2014687499999982
 31
0.0
  0
LINE
  5
146
330
FB
100
AcDbEntity
  8
AM_9
100
AcDbLine
 10
1.67325
 20
0.1628266964831365
 30
0.0
 11
-1.67325
 21
0.1628266964831365
 31
0.0
  0
LINE
  5
147
330
FB
100
AcDbEntity
  8
AM_9
100
AcDbLine
 10
1.577937501420267
 20
0.7256875000000002
 30
0.0
 11
-1.577937501420267
 21
0.7256875000000002
 31
0.0
  0
ARC
  5
148
330
FB
100
AcDbEntity
  8
AM_9
100
AcDbCircle
 10
-1.5779375
 20
0.6303750000000001
 30
0.0
 40
0.0953125
100
AcDbArc
 50
90.0
 51
180.0
  0
ARC
  5
149
330
FB
100
AcDbEntity
  8
AM_9
100
AcDbCircle
 10
1.5779375
 20
0.6303750000000004
 30
0.0
 40
0.0953124999999997
100
AcDbArc
 50
0.0
 51
90.0
  0
LINE
  5
14A
330
FB
100
AcDbEntity
  8
AM_9
100
AcDbLine
 10
1.67325
 20
0.630375
 30
0.0
 11
-1.67325
 21
0.630375
 31
0.0
  0
LINE
  5
14B
330
FB
100
AcDbEntity
  8
AM_4
100
AcDbLine
 10
-1.155
 20
-0.6406249999999998
 30
0.0
 11
-1.155
 21
-0.8191249999999997
 31
0.0
  0
LINE
  5
14C
330
FB
100
AcDbEntity
  8
AM_4
100
AcDbLine
 10
1.155
 20
-0.8191249999999997
 30
0.0
 11
1.155
 21
-0.6406249999999998
 31
0.0
  0
ENDBLK
  5
FE
330
FB
100
AcDbEntity
  8
0
100
AcDbBlockEnd
  0
BLOCK
  5
14F
330
14D
100
AcDbEntity
  8
0
100
AcDbBlockBegin
  2
5_405015E_Inch_0_in_070649_4
 70
     2
 10
0.0
 20
0.0
 30
0.0
  3
5_405015E_Inch_0_in_070649_4
  1

  0
ATTDEF
  5
151
330
14D
100
AcDbEntity
  8
AM_6
100
AcDbText
 10
5.252590742770462
 20
-0.2298622224892927
 30
0.0
 40
0.5
  1
405015E -Inch
100
AcDbAttributeDefinition
  3

  2
NN
 70
     8
280
     0
  0
ATTDEF
  5
152
330
14D
100
AcDbEntity
  8
AM_6
100
AcDbText
 10
5.252590742770462
 20
-0.7298622224892927
 30
0.0
 40
0.5
  1
Grease Fitting
100
AcDbAttributeDefinition
  3

  2
NT
 70
     8
280
     0
  0
ATTDEF
  5
153
330
14D
100
AcDbEntity
  8
AM_6
100
AcDbText
 10
5.252590742770462
 20
-1.229862222489293
 30
0.0
 40
0.5
  1
405015E-Inch
100
AcDbAttributeDefinition
  3

  2
NB
 70
     8
280
     0
  0
ATTDEF
  5
154
330
14D
100
AcDbEntity
  8
AM_6
100
AcDbText
 10
5.252590742770462
 20
-1.729862222489293
 30
0.0
 40
0.5
  1
$MN.-Inch
100
AcDbAttributeDefinition
  3

  2
NBSYN
 70
     8
280
     0
  0
ATTDEF
  5
155
330
14D
100
AcDbEntity
  8
AM_6
100
AcDbText
 10
5.252590742770462
 20
-2.229862222489293
 30
0.0
 40
0.5
  1
405015E
100
AcDbAttributeDefinition
  3

  2
LINA
 70
     8
280
     0
  0
ATTDEF
  5
156
330
14D
100
AcDbEntity
  8
AM_6
100
AcDbText
 10
5.252590742770462
 20
-2.729862222489293
 30
0.0
 40
0.5
  1
405015E
100
AcDbAttributeDefinition
  3

  2
MN
 70
     8
280
     0
  0
ATTDEF
  5
157
330
14D
100
AcDbEntity
  8
AM_6
100
AcDbText
 10
5.252590742770462
 20
-3.229862222489293
 30
0.0
 40
0.5
  1
1/8 x 27PTF
100
AcDbAttributeDefinition
  3

  2
T
 70
     8
280
     0
  0
ATTDEF
  5
158
330
14D
100
AcDbEntity
  8
AM_6
100
AcDbText
 10
5.252590742770462
 20
-3.729862222489293
 30
0.0
 40
0.5
  1
baldor
100
AcDbAttributeDefinition
  3

  2
COMPANY
 70
     8
280
     0
  0
LINE
  5
159
330
14D
100
AcDbEntity
  8
AM_9
100
AcDbLine
 10
0.1262953713852306
 20
-0.7284351594181299
 30
0.0
 11
0.1262953713852306
 21
-0.6575381624169185
 31
0.0
  0
LINE
  5
15A
330
14D
100
AcDbEntity
  8
AM_9
100
AcDbLine
 10
-0.1262953713852306
 20
-0.7284351594181299
 30
0.0
 11
-0.1262953713852306
 21
-0.6575381624169185
 31
0.0
  0
LWPOLYLINE
  5
15B
330
14D
100
AcDbEntity
  8
AM_9
100
AcDbPolyline
 90
        5
 70
     0
 43
0.0
 10
0.1262953713852306
 20
-0.6575381624169185
 10
0.0949251544150459
 20
-0.6542587111400345
 10
0.0634316146914367
 20
-0.6517764306727446
 10
0.0317600370486143
 20
-0.650217616871619
 10
0.0
 20
-0.6496853907283023
  0
LWPOLYLINE
  5
15C
330
14D
100
AcDbEntity
  8
AM_9
100
AcDbPolyline
 90
        4
 70
     0
 43
0.0
 10
0.0
 20
-0.6496853907283023
 10
-0.0483998160558989
 20
-0.6509130343207501
 10
-0.0967996321117978
 20
-0.6544332992427808
 10
-0.1262953713852306
 20
-0.6575381624169185
  0
LWPOLYLINE
  5
15D
330
14D
100
AcDbEntity
  8
AM_9
100
AcDbPolyline
 90
        4
 70
     0
 43
0.0
 10
-0.1262953713852306
 20
-0.6575381624169185
 10
-0.1498542014388649
 20
-0.6325056834488318
 10
-0.1735630385535388
 20
-0.6092826163262365
 10
-0.1894430570778459
 20
-0.5949978907283022
  0
LWPOLYLINE
  5
15E
330
14D
100
AcDbEntity
  8
AM_9
100
AcDbPolyline
 90
        4
 70
     0
 43
0.0
 10
0.1894430570778459
 20
-0.5949978907283022
 10
0.1736561356546921
 20
-0.60919580168638
 10
0.1578692142315383
 20
-0.6244143692890718
 10
0.1262953713852306
 20
-0.6575381624169185
  0
LWPOLYLINE
  5
15F
330
14D
100
AcDbEntity
  8
AM_9
100
AcDbPolyline
 90
        4
 70
     0
 43
0.0
 10
-0.1018548451132664
 20
-0.7310550498138173
 10
-0.0967996321117978
 20
-0.7315400225922677
 10
-0.0485424412477544
 20
-0.7350531276268125
 10
0.0
 20
-0.7362879311067462
  0
LINE
  5
160
330
14D
100
AcDbEntity
  8
AM_9
100
AcDbLine
 10
-0.1050087569988763
 20
-0.7307422137214751
 30
0.0
 11
-0.1018548451132664
 21
-0.7310550498138173
 31
0.0
  0
LINE
  5
161
330
14D
100
AcDbEntity
  8
AM_9
100
AcDbLine
 10
0.1018560434229421
 20
-0.7310549324382867
 30
0.0
 11
0.1050109799761659
 21
-0.7307419904828403
 31
0.0
  0
LWPOLYLINE
  5
162
330
14D
100
AcDbEntity
  8
AM_9
100
AcDbPolyline
 90
        5
 70
     0
 43
0.0
 10
0.0
 20
-0.7362879311067462
 10
0.0315738428463077
 20
-0.7357618951486685
 10
0.0631476856926153
 20
-0.7342152025459766
 10
0.0947562840569831
 20
-0.7317301983264783
 10
0.1018560434229421
 20
-0.7310549324382867
  0
LWPOLYLINE
  5
163
330
14D
100
AcDbEntity
  8
AM_9
100
AcDbPolyline
 90
        4
 70
     0
 43
0.0
 10
-0.1894430570778459
 20
-0.5949978907283022
 10
-0.2052299785009998
 20
-0.58185205168638
 10
-0.2210168999241536
 20
-0.5697268692890718
 10
-0.2525907427704612
 20
-0.5481631624169184
  0
LWPOLYLINE
  5
164
330
14D
100
AcDbEntity
  8
AM_9
100
AcDbPolyline
 90
        4
 70
     0
 43
0.0
 10
0.2525907427704612
 20
-0.5481631624169184
 10
0.229031912716827
 20
-0.563935774068607
 10
0.205323075602153
 20
-0.5817776174170015
 10
0.1894430570778459
 20
-0.5949978907283022
  0
LINE
  5
165
330
14D
100
AcDbEntity
  8
AM_9
100
AcDbLine
 10
-0.1321931418159853
 20
-0.264076325223207
 30
0.0
 11
-0.1621706131788416
 21
-0.2852735985067082
 31
0.0
  0
LINE
  5
166
330
14D
100
AcDbEntity
  8
AM_9
100
AcDbLine
 10
0.1621706131788416
 20
-0.2852735985067082
 30
0.0
 11
0.1321931418159853
 21
-0.264076325223207
 31
0.0
  0
LINE
  5
167
330
14D
100
AcDbEntity
  8
AM_9
100
AcDbLine
 10
-0.1985852938306408
 20
-0.340817730041858
 30
0.0
 11
-0.2057184028850727
 21
-0.5384541899506727
 31
0.0
  0
LINE
  5
168
330
14D
100
AcDbEntity
  8
AM_9
100
AcDbLine
 10
0.2057184028850727
 20
-0.5384541899506727
 30
0.0
 11
0.1985852938306408
 21
-0.340817730041858
 31
0.0
  0
LINE
  5
169
330
14D
100
AcDbEntity
  8
AM_9
100
AcDbLine
 10
0.1017810272422101
 20
-0.7307457648925894
 30
0.0
 11
0.105
 21
-0.7244433702530619
 31
0.0
  0
LINE
  5
16A
330
14D
100
AcDbEntity
  8
AM_9
100
AcDbLine
 10
-0.105
 20
-0.7244433702530619
 30
0.0
 11
-0.1017810272422101
 21
-0.7307457648925894
 31
0.0
  0
ELLIPSE
  5
16B
330
14D
100
AcDbEntity
  8
AM_9
100
AcDbEllipse
 10
0.0
 20
-0.7178455985041123
 30
0.0
 11
-0.1050000000000001
 21
1.285879139104722E-17
 31
0.0
210
0.0
220
0.0
230
1.0
 40
0.4999999999999964
 41
0.0
 42
3.141592653589793
  0
LINE
  5
16C
330
14D
100
AcDbEntity
  8
AM_9
100
AcDbLine
 10
-0.105
 20
-0.7360838273165717
 30
0.0
 11
-0.105
 21
-0.7438263606176453
 31
0.0
  0
LINE
  5
16D
330
14D
100
AcDbEntity
  8
AM_9
100
AcDbLine
 10
0.105
 20
-0.7438263606176453
 30
0.0
 11
0.105
 21
-0.7360838273165717
 31
0.0
  0
ELLIPSE
  5
16E
330
14D
100
AcDbEntity
  8
AM_9
100
AcDbEllipse
 10
0.0
 20
-0.7438263606176454
 30
0.0
 11
-0.1050000000000001
 21
1.285879139104722E-17
 31
0.0
210
0.0
220
0.0
230
1.0
 40
0.4999999999999992
 41
5.990342535451011
 42
9.717620732497956
  0
LINE
  5
16F
330
14D
100
AcDbEntity
  8
AM_9
100
AcDbLine
 10
0.0976523208201058
 20
-0.7237650983654944
 30
0.0
 11
0.1098343496897826
 21
-0.7149782452386444
 31
0.0
  0
LINE
  5
170
330
14D
100
AcDbEntity
  8
AM_9
100
AcDbLine
 10
-0.1098343496897826
 20
-0.7149782452386444
 30
0.0
 11
-0.0976523208201058
 21
-0.7237650983654944
 31
0.0
  0
ELLIPSE
  5
171
330
14D
100
AcDbEntity
  8
AM_9
100
AcDbEllipse
 10
-0.0000000000000032
 20
-0.6899189826330485
 30
0.0
 11
-0.1188200907349011
 21
1.455126437928947E-17
 31
0.0
210
0.0
220
0.0
230
1.0
 40
0.4999999999999991
 41
0.2500328930988154
 42
2.891559760490992
  0
ELLIPSE
  5
172
330
14D
100
AcDbEntity
  8
AM_9
100
AcDbEllipse
 10
0.0
 20
-0.6427769563947172
 30
0.0
 11
-0.1725340532830152
 21
2.112932760969635E-17
 31
0.0
210
0.0
220
0.0
230
1.0
 40
0.5000000000000002
 41
0.6061451401950846
 42
2.535447513394709
  0
ELLIPSE
  5
173
330
14D
100
AcDbEntity
  8
AM_9
100
AcDbEllipse
 10
0.000000000000001
 20
-0.6269129311067432
 30
0.0
 11
-0.2187500000000017
 21
2.678914873134857E-17
 31
0.0
210
0.0
220
0.0
230
1.0
 40
0.5000000000000102
 41
1.065244638251233
 42
2.076348015338553
  0
LINE
  5
174
330
14D
100
AcDbEntity
  8
AM_9
100
AcDbLine
 10
0.1262953713852306
 20
-0.4387881624169185
 30
0.0
 11
0.1426927479363856
 21
-0.4495784978990536
 31
0.0
  0
LINE
  5
175
330
14D
100
AcDbEntity
  8
AM_9
100
AcDbLine
 10
0.1262953713852306
 20
-0.45
 30
0.0
 11
0.1262953713852306
 21
-0.4387881624169185
 31
0.0
  0
LWPOLYLINE
  5
176
330
14D
100
AcDbEntity
  8
AM_9
100
AcDbPolyline
 90
        5
 70
     0
 43
0.0
 10
0.0
 20
-0.4309353907283022
 10
0.0315738428463077
 20
-0.4314614266863799
 10
0.0631476856926153
 20
-0.4330081192890718
 10
0.0947562840569831
 20
-0.4354931235085701
 10
0.1262953713852306
 20
-0.4387881624169185
  0
LWPOLYLINE
  5
177
330
14D
100
AcDbEntity
  8
AM_9
100
AcDbPolyline
 90
        4
 70
     0
 43
0.0
 10
-0.1262953713852306
 20
-0.4387881624169185
 10
-0.0967996321117978
 20
-0.4356832992427807
 10
-0.0485424412477544
 20
-0.4321701942082359
 10
0.0
 20
-0.4309353907283022
  0
LINE
  5
178
330
14D
100
AcDbEntity
  8
AM_9
100
AcDbLine
 10
-0.1262953713852306
 20
-0.45
 30
0.0
 11
-0.1262953713852306
 21
-0.4387881624169185
 31
0.0
  0
LINE
  5
179
330
14D
100
AcDbEntity
  8
AM_9
100
AcDbLine
 10
-0.1426873177551397
 20
-0.4495747857784619
 30
0.0
 11
-0.1262953713852306
 21
-0.4387881624169185
 31
0.0
  0
ELLIPSE
  5
17A
330
14D
100
AcDbEntity
  8
AM_9
100
AcDbEllipse
 10
-0.0000000000007248
 20
-0.6269129311070716
 30
0.0
 11
-0.2137499999985364
 21
2.617682533159543E-17
 31
0.0
210
0.0
220
0.0
230
1.0
 40
0.5000000000012689
 41
1.042972124167758
 42
2.098620529427895
  0
ELLIPSE
  5
17B
330
14D
100
AcDbEntity
  8
AM_9
100
AcDbEllipse
 10
0.0
 20
-0.7957878848447117
 30
0.0
 11
-0.135
 21
1.653273178848927E-17
 31
0.0
210
0.0
220
0.0
230
1.0
 40
0.5000000000000024
 41
0.2354336045415586
 42
2.906159049048235
  0
ELLIPSE
  5
17C
330
14D
100
AcDbEntity
  8
AM_9
100
AcDbEllipse
 10
-0.0000000000000005
 20
-0.3108136587254279
 30
0.0
 11
-0.1619028724722694
 21
1.982738345459269E-17
 31
0.0
210
0.0
220
0.0
230
1.0
 40
0.5000000000000033
 41
0.0
 42
6.283185307179586
  0
ELLIPSE
  5
17D
330
14D
100
AcDbEntity
  8
AM_9
100
AcDbEllipse
 10
0.0000000000000006
 20
-0.540310390728301
 30
0.0
 11
-0.2187499999999988
 21
2.678914873134821E-17
 31
0.0
210
0.0
220
0.0
230
1.0
 40
0.4999999999999976
 41
0.0
 42
6.283185307179586
  0
ELLIPSE
  5
17E
330
14D
100
AcDbEntity
  8
AM_9
100
AcDbEllipse
 10
-0.000000000000372
 20
-0.5403103907301589
 30
0.0
 11
-0.2057518972234415
 21
2.519734023531829E-17
 31
0.0
210
0.0
220
0.0
230
1.0
 40
0.5000000000000735
 41
0.0
 42
6.283185307179586
  0
ELLIPSE
  5
17F
330
14D
100
AcDbEntity
  8
AM_9
100
AcDbEllipse
 10
-0.0000000000010198
 20
-0.3426095686494385
 30
0.0
 11
-0.1986176267822352
 21
2.432364408931079E-17
 31
0.0
210
0.0
220
0.0
230
1.0
 40
0.4999999999999337
 41
0.0
 42
6.283185307179586
  0
LWPOLYLINE
  5
180
330
14D
100
AcDbEntity
  8
AM_4
100
AcDbPolyline
 90
        4
 70
     0
 43
0.0
 10
-0.1894430570778459
 20
-0.6816004311067461
 10
-0.1736561356546922
 20
-0.6947462701486684
 10
-0.1578692142315383
 20
-0.7068714525459766
 10
-0.1262953713852306
 20
-0.7284351594181299
  0
LINE
  5
181
330
14D
100
AcDbEntity
  8
AM_4
100
AcDbLine
 10
-0.1262953713852306
 20
-0.7284351594181299
 30
0.0
 11
-0.1050087569988763
 21
-0.7307422137214751
 31
0.0
  0
LWPOLYLINE
  5
182
330
14D
100
AcDbEntity
  8
AM_4
100
AcDbPolyline
 90
        4
 70
     0
 43
0.0
 10
0.1262953713852306
 20
-0.7284351594181299
 10
0.157743197384355
 20
-0.7069643357504891
 10
0.1735630385535388
 20
-0.6948207044180468
 10
0.1894430570778459
 20
-0.6816004311067461
  0
LINE
  5
183
330
14D
100
AcDbEntity
  8
AM_4
100
AcDbLine
 10
0.1050109799761659
 20
-0.7307419904828403
 30
0.0
 11
0.1262953713852306
 21
-0.7284351594181299
 31
0.0
  0
LWPOLYLINE
  5
184
330
14D
100
AcDbEntity
  8
AM_4
100
AcDbPolyline
 90
        4
 70
     0
 43
0.0
 10
0.1894430570778459
 20
-0.6816004311067461
 10
0.2052299785009997
 20
-0.6674025201486684
 10
0.2368211991063374
 20
-0.6360120237456974
 10
0.2525907427704612
 20
-0.61906015941813
  0
LWPOLYLINE
  5
185
330
14D
100
AcDbEntity
  8
AM_4
100
AcDbPolyline
 90
        4
 70
     0
 43
0.0
 10
-0.2525907427704612
 20
-0.61906015941813
 10
-0.229031912716827
 20
-0.6440926383862166
 10
-0.2053230756021531
 20
-0.6673157055088119
 10
-0.1894430570778459
 20
-0.6816004311067461
  0
LINE
  5
186
330
14D
100
AcDbEntity
  8
AM_4
100
AcDbLine
 10
0.105
 20
-0.7244433702530619
 30
0.0
 11
0.1151252948555658
 21
-0.7046191564982478
 31
0.0
  0
LINE
  5
187
330
14D
100
AcDbEntity
  8
AM_4
100
AcDbLine
 10
-0.1151252948555658
 20
-0.7046191564982478
 30
0.0
 11
-0.105
 21
-0.7244433702530619
 31
0.0
  0
ELLIPSE
  5
188
330
14D
100
AcDbEntity
  8
AM_4
100
AcDbEllipse
 10
-0.0000000000000045
 20
-0.6899189826330472
 30
0.0
 11
-0.118820090734902
 21
1.455126437928958E-17
 31
0.0
210
0.0
220
0.0
230
1.0
 40
0.4999999999999951
 41
2.891559760490971
 42
6.533218200278428
  0
ELLIPSE
  5
189
330
14D
100
AcDbEntity
  8
AM_4
100
AcDbEllipse
 10
0.0
 20
-0.7178455985041121
 30
0.0
 11
-0.1050000000000002
 21
1.285879139104723E-17
 31
0.0
210
0.0
220
0.0
230
1.0
 40
0.5000000000000001
 41
3.141592653589793
 42
6.283185307179586
  0
LINE
  5
18A
330
14D
100
AcDbEntity
  8
AM_4
100
AcDbLine
 10
-0.105
 20
-0.7178455985041122
 30
0.0
 11
-0.105
 21
-0.7360838273165717
 31
0.0
  0
LINE
  5
18B
330
14D
100
AcDbEntity
  8
AM_4
100
AcDbLine
 10
0.105
 20
-0.7360838273165717
 30
0.0
 11
0.105
 21
-0.7178455985041122
 31
0.0
  0
LINE
  5
18C
330
14D
100
AcDbEntity
  8
AM_4
100
AcDbLine
 10
0.1098343496897826
 20
-0.7149782452386444
 30
0.0
 11
0.1417971541629018
 21
-0.691923590596788
 31
0.0
  0
LINE
  5
18D
330
14D
100
AcDbEntity
  8
AM_4
100
AcDbLine
 10
-0.1417971541629018
 20
-0.691923590596788
 30
0.0
 11
-0.1098343496897826
 21
-0.7149782452386444
 31
0.0
  0
ELLIPSE
  5
18E
330
14D
100
AcDbEntity
  8
AM_4
100
AcDbEllipse
 10
-0.0000000000000007
 20
-0.6427769563947148
 30
0.0
 11
-0.1725340532830162
 21
2.112932760969647E-17
 31
0.0
210
0.0
220
0.0
230
1.0
 40
0.5000000000000058
 41
2.535447513394693
 42
6.889330447374692
  0
LWPOLYLINE
  5
18F
330
14D
100
AcDbEntity
  8
AM_4
100
AcDbPolyline
 90
        4
 70
     0
 43
0.0
 10
0.2525907427704612
 20
-0.61906015941813
 10
0.2369056342853689
 20
-0.608755908285809
 10
0.2053230756021531
 20
-0.5854457044180468
 10
0.1894430570778459
 20
-0.5722254311067462
  0
LINE
  5
190
330
14D
100
AcDbEntity
  8
AM_4
100
AcDbLine
 10
0.2525907427704612
 20
-0.61906015941813
 30
0.0
 11
0.2525907427704612
 21
-0.5481631624169184
 31
0.0
  0
LWPOLYLINE
  5
191
330
14D
100
AcDbEntity
  8
AM_4
100
AcDbPolyline
 90
        4
 70
     0
 43
0.0
 10
0.1894430570778459
 20
-0.4856228907283023
 10
0.2052299785009998
 20
-0.49982080168638
 10
0.2368211991063374
 20
-0.5312112980893511
 10
0.2525907427704612
 20
-0.5481631624169184
  0
LWPOLYLINE
  5
192
330
14D
100
AcDbEntity
  8
AM_4
100
AcDbPolyline
 90
        4
 70
     0
 43
0.0
 10
0.1426927479363856
 20
-0.4495784978990536
 10
0.157743197384355
 20
-0.4602589860845593
 10
0.1735630385535388
 20
-0.4724026174170016
 10
0.1894430570778459
 20
-0.4856228907283023
  0
ELLIPSE
  5
193
330
14D
100
AcDbEntity
  8
AM_4
100
AcDbEllipse
 10
-0.0000000000000004
 20
-0.626912931106745
 30
0.0
 11
-0.2187499999999989
 21
3.259629037943307E-9
 31
0.0
210
0.0
220
0.0
230
1.0
 40
0.4999999999999968
 41
2.076348028031445
 42
7.348429958123719
  0
LWPOLYLINE
  5
194
330
14D
100
AcDbEntity
  8
AM_4
100
AcDbPolyline
 90
        4
 70
     0
 43
0.0
 10
0.1894430570778459
 20
-0.5722254311067462
 10
0.1736561356546922
 20
-0.5580275201486684
 10
0.1578502110457927
 20
-0.5427900485609164
 10
0.1262953713852306
 20
-0.50968515941813
  0
LWPOLYLINE
  5
195
330
14D
100
AcDbEntity
  8
AM_4
100
AcDbPolyline
 90
        4
 70
     0
 43
0.0
 10
0.0
 20
-0.5175379311067461
 10
-0.0483998160558989
 20
-0.5163102875142983
 10
-0.0967996321117978
 20
-0.5127900225922676
 10
-0.1262953713852306
 20
-0.50968515941813
  0
LWPOLYLINE
  5
196
330
14D
100
AcDbEntity
  8
AM_4
100
AcDbPolyline
 90
        5
 70
     0
 43
0.0
 10
0.1262953713852306
 20
-0.50968515941813
 10
0.0949251544150459
 20
-0.512964610695014
 10
0.0634316146914367
 20
-0.5154468911623039
 10
0.0317600370486143
 20
-0.5170057049634293
 10
0.0
 20
-0.5175379311067461
  0
LINE
  5
197
330
14D
100
AcDbEntity
  8
AM_4
100
AcDbLine
 10
0.1262953713852306
 20
-0.50968515941813
 30
0.0
 11
0.1262953713852306
 21
-0.45
 31
0.0
  0
LINE
  5
198
330
14D
100
AcDbEntity
  8
AM_4
100
AcDbLine
 10
-0.2525907427704612
 20
-0.61906015941813
 30
0.0
 11
-0.2525907427704612
 21
-0.5481631624169184
 31
0.0
  0
LWPOLYLINE
  5
199
330
14D
100
AcDbEntity
  8
AM_4
100
AcDbPolyline
 90
        4
 70
     0
 43
0.0
 10
-0.1894430570778459
 20
-0.5722254311067462
 10
-0.2052299785009998
 20
-0.5853712701486685
 10
-0.2210359031098993
 20
-0.5975104630441337
 10
-0.2525907427704612
 20
-0.61906015941813
  0
LWPOLYLINE
  5
19A
330
14D
100
AcDbEntity
  8
AM_4
100
AcDbPolyline
 90
        4
 70
     0
 43
0.0
 10
-0.1262953713852306
 20
-0.50968515941813
 10
-0.141980479870323
 20
-0.5265483131042188
 10
-0.1735630385535388
 20
-0.5579407055088119
 10
-0.1894430570778459
 20
-0.5722254311067462
  0
LINE
  5
19B
330
14D
100
AcDbEntity
  8
AM_4
100
AcDbLine
 10
-0.1262953713852306
 20
-0.50968515941813
 30
0.0
 11
-0.1262953713852306
 21
-0.45
 31
0.0
  0
LWPOLYLINE
  5
19C
330
14D
100
AcDbEntity
  8
AM_4
100
AcDbPolyline
 90
        4
 70
     0
 43
0.0
 10
-0.1894430570778459
 20
-0.4856228907283023
 10
-0.1736561356546921
 20
-0.47247705168638
 10
-0.1578692142315383
 20
-0.4603518692890718
 10
-0.1426873177551397
 20
-0.4495747857784619
  0
LWPOLYLINE
  5
19D
330
14D
100
AcDbEntity
  8
AM_4
100
AcDbPolyline
 90
        4
 70
     0
 43
0.0
 10
-0.2525907427704612
 20
-0.5481631624169184
 10
-0.229031912716827
 20
-0.5231306834488318
 10
-0.205323075602153
 20
-0.4999076163262365
 10
-0.1894430570778459
 20
-0.4856228907283023
  0
ELLIPSE
  5
19E
330
14D
100
AcDbEntity
  8
AM_4
100
AcDbEllipse
 10
0.0000000000000002
 20
-0.6269129311067462
 30
0.0
 11
-0.2137499999999998
 21
2.617682533177465E-17
 31
0.0
210
0.0
220
0.0
230
1.0
 40
0.4999999999999992
 41
2.098620529422325
 42
7.326157431347052
  0
LINE
  5
19F
330
14D
100
AcDbEntity
  8
AM_4
100
AcDbLine
 10
-0.1005298463144155
 20
-0.7286709160514176
 30
0.0
 11
-0.1292526595471057
 21
-0.7763023132595618
 31
0.0
  0
LINE
  5
1A0
330
14D
100
AcDbEntity
  8
AM_4
100
AcDbLine
 10
0.1292526595471057
 20
-0.7763023132595618
 30
0.0
 11
0.1005298463144155
 21
-0.7286709160514176
 31
0.0
  0
ELLIPSE
  5
1A1
330
14D
100
AcDbEntity
  8
AM_4
100
AcDbEllipse
 10
0.0
 20
-0.7438263606176453
 30
0.0
 11
-0.1050000000000001
 21
1.285879139104722E-17
 31
0.0
210
0.0
220
0.0
230
1.0
 40
0.4999999999999974
 41
3.43443542531837
 42
5.990342535451011
  0
LINE
  5
1A2
330
14D
100
AcDbEntity
  8
AM_4
100
AcDbLine
 10
0.0998453562378797
 20
-0.8770454795886652
 30
0.0
 11
0.1312757938985219
 21
-0.8115332487362894
 31
0.0
  0
LINE
  5
1A3
330
14D
100
AcDbEntity
  8
AM_4
100
AcDbLine
 10
-0.1312757938985219
 20
-0.8115332487362894
 30
0.0
 11
-0.0998453562378797
 21
-0.8770454795886652
 31
0.0
  0
ELLIPSE
  5
1A4
330
14D
100
AcDbEntity
  8
AM_4
100
AcDbEllipse
 10
0.0000000000000041
 20
-0.7957878848447065
 30
0.0
 11
-0.1349999999999959
 21
1.653273178848877E-17
 31
0.0
210
0.0
220
0.0
230
1.0
 40
0.500000000000007
 41
2.906159049048155
 42
6.518618911721211
  0
ELLIPSE
  5
1A5
330
14D
100
AcDbEntity
  8
AM_4
100
AcDbEllipse
 10
-0.0000000000000002
 20
-0.8650699171474666
 30
0.0
 11
-0.1026779019331876
 21
1.257441639456441E-17
 31
0.0
210
0.0
220
0.0
230
1.0
 40
0.500000000000001
 41
0.0
 42
6.283185307179586
  0
ENDBLK
  5
150
330
14D
100
AcDbEntity
  8
0
100
AcDbBlockEnd
  0
BLOCK
  5
1A8
330
1A6
100
AcDbEntity
  8
0
100
AcDbBlockBegin
  2
6_070649H_0_in_070649_4
 70
     2
 10
0.0
 20
0.0
 30
0.0
  3
6_070649H_0_in_070649_4
  1

  0
ATTDEF
  5
1AA
330
1A6
100
AcDbEntity
  8
AM_6
100
AcDbText
 10
8.062500000000007
 20
1.365953947368421
 30
0.0
 40
0.5
  1
FC-S2 -(Contact Seal)-Housing
100
AcDbAttributeDefinition
  3

  2
NN
 70
     8
280
     0
  0
ATTDEF
  5
1AB
330
1A6
100
AcDbEntity
  8
AM_6
100
AcDbText
 10
8.062500000000007
 20
0.865953947368421
 30
0.0
 40
0.5
  1
S-2000 Piloted Flange Bearing -Inch
100
AcDbAttributeDefinition
  3

  2
NT
 70
     8
280
     0
  0
ATTDEF
  5
1AC
330
1A6
100
AcDbEntity
  8
AM_6
100
AcDbText
 10
8.062500000000007
 20
0.365953947368421
 30
0.0
 40
0.5
  1
070649H
100
AcDbAttributeDefinition
  3

  2
NB
 70
     8
280
     0
  0
ATTDEF
  5
1AD
330
1A6
100
AcDbEntity
  8
AM_6
100
AcDbText
 10
8.062500000000007
 20
-0.134046052631579
 30
0.0
 40
0.5
  1
$PN.H
100
AcDbAttributeDefinition
  3

  2
NBSYN
 70
     8
280
     0
  0
ATTDEF
  5
1AE
330
1A6
100
AcDbEntity
  8
AM_6
100
AcDbText
 10
8.062500000000007
 20
-0.634046052631579
 30
0.0
 40
0.5
  1
070649
100
AcDbAttributeDefinition
  3

  2
LINA
 70
     8
280
     0
  0
ATTDEF
  5
1AF
330
1A6
100
AcDbEntity
  8
AM_6
100
AcDbText
 10
8.062500000000007
 20
-1.134046052631579
 30
0.0
 40
0.5
  1
1-3/4
100
AcDbAttributeDefinition
  3

  2
SS
 70
     8
280
     0
  0
ATTDEF
  5
1B0
330
1A6
100
AcDbEntity
  8
AM_6
100
AcDbText
 10
8.062500000000007
 20
-1.634046052631579
 30
0.0
 40
0.5
  1
070649
100
AcDbAttributeDefinition
  3

  2
PN
 70
     8
280
     0
  0
ATTDEF
  5
1B1
330
1A6
100
AcDbEntity
  8
AM_6
100
AcDbText
 10
8.062500000000007
 20
-2.134046052631579
 30
0.0
 40
0.5
  1
FC-S2-112R
100
AcDbAttributeDefinition
  3

  2
DESCRIPTION
 70
     8
280
     0
  0
ATTDEF
  5
1B2
330
1A6
100
AcDbEntity
  8
AM_6
100
AcDbText
 10
8.062500000000007
 20
-2.634046052631579
 30
0.0
 40
0.5
  1
Non-Expansion Type
100
AcDbAttributeDefinition
  3

  2
EF
 70
     8
280
     0
  0
ATTDEF
  5
1B3
330
1A6
100
AcDbEntity
  8
AM_6
100
AcDbText
 10
8.062500000000007
 20
-3.134046052631579
 30
0.0
 40
0.5
  1
2-43/64
100
AcDbAttributeDefinition
  3

  2
A
 70
     8
280
     0
  0
ATTDEF
  5
1B4
330
1A6
100
AcDbEntity
  8
AM_6
100
AcDbText
 10
8.062500000000007
 20
-3.634046052631579
 30
0.0
 40
0.5
  1
6-1/8
100
AcDbAttributeDefinition
  3

  2
B
 70
     8
280
     0
  0
ATTDEF
  5
1B5
330
1A6
100
AcDbEntity
  8
AM_6
100
AcDbText
 10
8.062500000000007
 20
-4.134046052631579
 30
0.0
 40
0.5
  1
1-29/32
100
AcDbAttributeDefinition
  3

  2
C
 70
     8
280
     0
  0
ATTDEF
  5
1B6
330
1A6
100
AcDbEntity
  8
AM_6
100
AcDbText
 10
8.062500000000007
 20
-4.634046052631579
 30
0.0
 40
0.5
  1
5-1/8
100
AcDbAttributeDefinition
  3

  2
DD
 70
     8
280
     0
  0
ATTDEF
  5
1B7
330
1A6
100
AcDbEntity
  8
AM_6
100
AcDbText
 10
8.062500000000007
 20
-5.134046052631579
 30
0.0
 40
0.5
  1
7/8
100
AcDbAttributeDefinition
  3

  2
E
 70
     8
280
     0
  0
ATTDEF
  5
1B8
330
1A6
100
AcDbEntity
  8
AM_6
100
AcDbText
 10
8.062500000000007
 20
-5.634046052631579
 30
0.0
 40
0.5
  1
7/16
100
AcDbAttributeDefinition
  3

  2
F
 70
     8
280
     0
  0
ATTDEF
  5
1B9
330
1A6
100
AcDbEntity
  8
AM_6
100
AcDbText
 10
8.062500000000007
 20
-6.134046052631579
 30
0.0
 40
0.5
  1
1-29/64
100
AcDbAttributeDefinition
  3

  2
G
 70
     8
280
     0
  0
ATTDEF
  5
1BA
330
1A6
100
AcDbEntity
  8
AM_6
100
AcDbText
 10
8.062500000000007
 20
-6.634046052631579
 30
0.0
 40
0.5
  1
1/2
100
AcDbAttributeDefinition
  3

  2
H
 70
     8
280
     0
  0
ATTDEF
  5
1BB
330
1A6
100
AcDbEntity
  8
AM_6
100
AcDbText
 10
8.062500000000007
 20
-7.134046052631579
 30
0.0
 40
0.5
  1
4.250
100
AcDbAttributeDefinition
  3

  2
K
 70
     8
280
     0
  0
ATTDEF
  5
1BC
330
1A6
100
AcDbEntity
  8
AM_6
100
AcDbText
 10
8.062500000000007
 20
-7.634046052631579
 30
0.0
 40
0.5
  1
3-3/16
100
AcDbAttributeDefinition
  3

  2
L
 70
     8
280
     0
  0
ATTDEF
  5
1BD
330
1A6
100
AcDbEntity
  8
AM_6
100
AcDbText
 10
8.062500000000007
 20
-8.134046052631579
 30
0.0
 40
0.5
  1
7/16-14
100
AcDbAttributeDefinition
  3

  2
M
 70
     8
280
     0
  0
ATTDEF
  5
1BE
330
1A6
100
AcDbEntity
  8
AM_6
100
AcDbText
 10
8.062500000000007
 20
-8.634046052631579
 30
0.0
 40
0.5
  1
0.4375
100
AcDbAttributeDefinition
  3

  2
MNDM
 70
     8
280
     0
  0
ATTDEF
  5
1BF
330
1A6
100
AcDbEntity
  8
AM_6
100
AcDbText
 10
8.062500000000007
 20
-9.134046052631579
 30
0.0
 40
0.5
  1
0.3602
100
AcDbAttributeDefinition
  3

  2
MKDM
 70
     8
280
     0
  0
ATTDEF
  5
1C0
330
1A6
100
AcDbEntity
  8
AM_6
100
AcDbText
 10
8.062500000000007
 20
-9.634046052631579
 30
0.0
 40
0.5
  1
2-23/32
100
AcDbAttributeDefinition
  3

  2
N
 70
     8
280
     0
  0
ATTDEF
  5
1C1
330
1A6
100
AcDbEntity
  8
AM_6
100
AcDbText
 10
8.062500000000007
 20
-10.13404605263158
 30
0.0
 40
0.5
  1
2.718750
100
AcDbAttributeDefinition
  3

  2
N1
 70
     8
280
     0
  0
ATTDEF
  5
1C2
330
1A6
100
AcDbEntity
  8
AM_6
100
AcDbText
 10
8.062500000000007
 20
-10.63404605263158
 30
0.0
 40
0.5
  1
1-7/32
100
AcDbAttributeDefinition
  3

  2
P
 70
     8
280
     0
  0
ATTDEF
  5
1C3
330
1A6
100
AcDbEntity
  8
AM_6
100
AcDbText
 10
8.062500000000007
 20
-11.13404605263158
 30
0.0
 40
0.5
  1
1-17/64
100
AcDbAttributeDefinition
  3

  2
Q
 70
     8
280
     0
  0
ATTDEF
  5
1C4
330
1A6
100
AcDbEntity
  8
AM_6
100
AcDbText
 10
8.062500000000007
 20
-11.63404605263158
 30
0.0
 40
0.5
  1
1.265625
100
AcDbAttributeDefinition
  3

  2
Q1
 70
     8
280
     0
  0
ATTDEF
  5
1C5
330
1A6
100
AcDbEntity
  8
AM_6
100
AcDbText
 10
8.062500000000007
 20
-12.13404605263158
 30
0.0
 40
0.5
  1
1/4
100
AcDbAttributeDefinition
  3

  2
X
 70
     8
280
     0
  0
ATTDEF
  5
1C6
330
1A6
100
AcDbEntity
  8
AM_6
100
AcDbText
 10
8.062500000000007
 20
-12.63404605263158
 30
0.0
 40
0.5
  1
0.020
100
AcDbAttributeDefinition
  3

  2
Y
 70
     8
280
     0
  0
ATTDEF
  5
1C7
330
1A6
100
AcDbEntity
  8
AM_6
100
AcDbText
 10
8.062500000000007
 20
-13.13404605263158
 30
0.0
 40
0.5
  1
2-5/64
100
AcDbAttributeDefinition
  3

  2
Z
 70
     8
280
     0
  0
ATTDEF
  5
1C8
330
1A6
100
AcDbEntity
  8
AM_6
100
AcDbText
 10
8.062500000000007
 20
-13.63404605263158
 30
0.0
 40
0.5
  1
baldor
100
AcDbAttributeDefinition
  3

  2
COMPANY
 70
     8
280
     0
  0
LINE
  5
1C9
330
1A6
100
AcDbEntity
  8
AM_9
100
AcDbLine
 10
2.3824
 20
-0.0386500000000001
 30
0.0
 11
2.3824
 21
-0.41135
 31
0.0
  0
LINE
  5
1CA
330
1A6
100
AcDbEntity
  8
AM_9
100
AcDbLine
 10
2.7426
 20
-0.41135
 30
0.0
 11
2.7426
 21
-0.0386500000000001
 31
0.0
  0
LINE
  5
1CB
330
1A6
100
AcDbEntity
  8
AM_9
100
AcDbLine
 10
-2.3824
 20
-0.4113499999999994
 30
0.0
 11
-2.3824
 21
-0.038650000000001
 31
0.0
  0
LINE
  5
1CC
330
1A6
100
AcDbEntity
  8
AM_9
100
AcDbLine
 10
-2.7426
 20
-0.038650000000001
 30
0.0
 11
-2.7426
 21
-0.4113499999999994
 31
0.0
  0
LINE
  5
1CD
330
1A6
100
AcDbEntity
  8
AM_9
100
AcDbLine
 10
-2.7426
 20
-0.038650000000001
 30
0.0
 11
-2.3824
 21
-0.038650000000001
 31
0.0
  0
LINE
  5
1CE
330
1A6
100
AcDbEntity
  8
AM_9
100
AcDbLine
 10
-2.3824
 20
-0.038650000000001
 30
0.0
 11
-2.34375
 21
0.0
 31
0.0
  0
LINE
  5
1CF
330
1A6
100
AcDbEntity
  8
AM_9
100
AcDbLine
 10
-2.78125
 20
0.0
 30
0.0
 11
-2.7426
 21
-0.038650000000001
 31
0.0
  0
LINE
  5
1D0
330
1A6
100
AcDbEntity
  8
AM_9
100
AcDbLine
 10
2.7426
 20
-0.0386500000000001
 30
0.0
 11
2.3824
 21
-0.0386500000000001
 31
0.0
  0
LINE
  5
1D1
330
1A6
100
AcDbEntity
  8
AM_9
100
AcDbLine
 10
2.7426
 20
-0.0386500000000001
 30
0.0
 11
2.78125
 21
0.0
 31
0.0
  0
LINE
  5
1D2
330
1A6
100
AcDbEntity
  8
AM_9
100
AcDbLine
 10
2.34375
 20
0.0
 30
0.0
 11
2.3824
 21
-0.0386500000000001
 31
0.0
  0
LINE
  5
1D3
330
1A6
100
AcDbEntity
  8
AM_9
100
AcDbLine
 10
-2.7426
 20
-0.4113499999999994
 30
0.0
 11
-2.3824
 21
-0.4113499999999994
 31
0.0
  0
LINE
  5
1D4
330
1A6
100
AcDbEntity
  8
AM_9
100
AcDbLine
 10
-2.7426
 20
-0.4113499999999994
 30
0.0
 11
-2.78125
 21
-0.4500000000000004
 31
0.0
  0
LINE
  5
1D5
330
1A6
100
AcDbEntity
  8
AM_9
100
AcDbLine
 10
-2.34375
 20
-0.4500000000000004
 30
0.0
 11
-2.3824
 21
-0.4113499999999994
 31
0.0
  0
LINE
  5
1D6
330
1A6
100
AcDbEntity
  8
AM_9
100
AcDbLine
 10
2.7426
 20
-0.41135
 30
0.0
 11
2.3824
 21
-0.41135
 31
0.0
  0
LINE
  5
1D7
330
1A6
100
AcDbEntity
  8
AM_9
100
AcDbLine
 10
2.3824
 20
-0.41135
 30
0.0
 11
2.34375
 21
-0.4499999999999998
 31
0.0
  0
LINE
  5
1D8
330
1A6
100
AcDbEntity
  8
AM_9
100
AcDbLine
 10
2.78125
 20
-0.4499999999999998
 30
0.0
 11
2.7426
 21
-0.41135
 31
0.0
  0
LINE
  5
1D9
330
1A6
100
AcDbEntity
  8
AM_9
100
AcDbLine
 10
1.989047229239223
 20
-0.4500000000000001
 30
0.0
 11
1.989047229239223
 21
-0.5000000000000001
 31
0.0
  0
LINE
  5
1DA
330
1A6
100
AcDbEntity
  8
AM_9
100
AcDbLine
 10
1.943835240311471
 20
-0.4500000000000001
 30
0.0
 11
1.943835240311471
 21
-0.5000000000000001
 31
0.0
  0
LINE
  5
1DB
330
1A6
100
AcDbEntity
  8
AM_9
100
AcDbLine
 10
-1.989047229239223
 20
-0.4500000000000001
 30
0.0
 11
-1.989047229239223
 21
-0.5000000000000001
 31
0.0
  0
LINE
  5
1DC
330
1A6
100
AcDbEntity
  8
AM_9
100
AcDbLine
 10
-1.943835240311471
 20
-0.5000000000000001
 30
0.0
 11
-1.943835240311471
 21
-0.4500000000000001
 31
0.0
  0
LINE
  5
1DD
330
1A6
100
AcDbEntity
  8
AM_9
100
AcDbLine
 10
-1.962905215015526
 20
-0.4500000000000001
 30
0.0
 11
-1.962905215015526
 21
-0.5000000000000001
 31
0.0
  0
LINE
  5
1DE
330
1A6
100
AcDbEntity
  8
AM_9
100
AcDbLine
 10
-2.125
 20
-0.4500000000000001
 30
0.0
 11
-2.125
 21
-0.5
 31
0.0
  0
LINE
  5
1DF
330
1A6
100
AcDbEntity
  8
AM_9
100
AcDbLine
 10
1.962905215015526
 20
-0.4500000000000001
 30
0.0
 11
1.962905215015526
 21
-0.5000000000000001
 31
0.0
  0
LINE
  5
1E0
330
1A6
100
AcDbEntity
  8
AM_9
100
AcDbLine
 10
2.125
 20
-0.5
 30
0.0
 11
2.125
 21
-0.4500000000000001
 31
0.0
  0
LINE
  5
1E1
330
1A6
100
AcDbEntity
  8
AM_9
100
AcDbLine
 10
1.67325
 20
-0.4409539473684211
 30
0.0
 11
1.67325
 21
1.265625
 31
0.0
  0
LINE
  5
1E2
330
1A6
100
AcDbEntity
  8
AM_9
100
AcDbLine
 10
-1.67325
 20
1.265625
 30
0.0
 11
-1.67325
 21
-0.4409539473684211
 31
0.0
  0
LINE
  5
1E3
330
1A6
100
AcDbEntity
  8
AM_9
100
AcDbLine
 10
-1.67325
 20
-0.4409539473684211
 30
0.0
 11
1.67325
 21
-0.4409539473684211
 31
0.0
  0
LINE
  5
1E4
330
1A6
100
AcDbEntity
  8
AM_9
100
AcDbLine
 10
-1.67325
 20
-0.4409539473684211
 30
0.0
 11
-1.745924319802495
 21
-0.640625
 31
0.0
  0
LINE
  5
1E5
330
1A6
100
AcDbEntity
  8
AM_9
100
AcDbLine
 10
1.745924319802495
 20
-0.640625
 30
0.0
 11
1.67325
 21
-0.4409539473684211
 31
0.0
  0
LINE
  5
1E6
330
1A6
100
AcDbEntity
  8
AM_9
100
AcDbLine
 10
-2.495056726536925
 20
-0.4500000000000001
 30
0.0
 11
-1.943835240311471
 21
-0.4500000000000001
 31
0.0
  0
LINE
  5
1E7
330
1A6
100
AcDbEntity
  8
AM_9
100
AcDbLine
 10
1.943835240311471
 20
-0.4500000000000001
 30
0.0
 11
2.495056726536932
 21
-0.4500000000000001
 31
0.0
  0
LINE
  5
1E8
330
1A6
100
AcDbEntity
  8
AM_9
100
AcDbLine
 10
1.593211126790528
 20
-0.0000000000000003
 30
0.0
 11
1.593211126790528
 21
-0.5000000000000001
 31
0.0
  0
LINE
  5
1E9
330
1A6
100
AcDbEntity
  8
AM_9
100
AcDbLine
 10
2.030711126790528
 20
-0.5000000000000001
 30
0.0
 11
2.030711126790528
 21
-0.0000000000000003
 31
0.0
  0
LINE
  5
1EA
330
1A6
100
AcDbEntity
  8
AM_9
100
AcDbLine
 10
-2.030711126790528
 20
-0.0000000000000003
 30
0.0
 11
-2.030711126790528
 21
-0.5000000000000001
 31
0.0
  0
LINE
  5
1EB
330
1A6
100
AcDbEntity
  8
AM_9
100
AcDbLine
 10
-1.593211126790528
 20
-0.5000000000000001
 30
0.0
 11
-1.593211126790528
 21
-0.0000000000000003
 31
0.0
  0
LINE
  5
1EC
330
1A6
100
AcDbEntity
  8
AM_9
100
AcDbLine
 10
0.2321787255173227
 20
-0.640625
 30
0.0
 11
-0.2322954130490347
 21
-0.640625
 31
0.0
  0
LINE
  5
1ED
330
1A6
100
AcDbEntity
  8
AM_9
100
AcDbLine
 10
0.1689818031016945
 20
-0.0000000000000005
 30
0.0
 11
0.1689818031016937
 21
-0.4500000000000004
 31
0.0
  0
LINE
  5
1EE
330
1A6
100
AcDbEntity
  8
AM_9
100
AcDbLine
 10
-0.168981803101704
 20
-0.0000000000000005
 30
0.0
 11
-0.168981803101704
 21
-0.4500000000000004
 31
0.0
  0
LINE
  5
1EF
330
1A6
100
AcDbEntity
  8
AM_5
100
AcDbLine
 10
2.78125
 20
-0.0000000000000003
 30
0.0
 11
2.78125
 21
-0.4499999999999998
 31
0.0
  0
LINE
  5
1F0
330
1A6
100
AcDbEntity
  8
AM_5
100
AcDbLine
 10
2.34375
 20
-0.0000000000000003
 30
0.0
 11
2.34375
 21
-0.4499999999999996
 31
0.0
  0
LINE
  5
1F1
330
1A6
100
AcDbEntity
  8
AM_5
100
AcDbLine
 10
-2.78125
 20
-0.0000000000000003
 30
0.0
 11
-2.78125
 21
-0.4500000000000001
 31
0.0
  0
LINE
  5
1F2
330
1A6
100
AcDbEntity
  8
AM_5
100
AcDbLine
 10
-2.34375
 20
-0.0000000000000003
 30
0.0
 11
-2.34375
 21
-0.4500000000000001
 31
0.0
  0
LINE
  5
1F3
330
1A6
100
AcDbEntity
  8
AM_7
100
AcDbLine
 10
1.811961126790528
 20
-0.5250000000000002
 30
0.0
 11
1.811961126790528
 21
0.0249999999999996
 31
0.0
  0
LINE
  5
1F4
330
1A6
100
AcDbEntity
  8
AM_7
100
AcDbLine
 10
-1.811961126790528
 20
-0.5250000000000002
 30
0.0
 11
-1.811961126790528
 21
0.0249999999999996
 31
0.0
  0
LINE
  5
1F5
330
1A6
100
AcDbEntity
  8
AM_7
100
AcDbLine
 10
0.0
 20
-1.5859375
 30
0.0
 11
0.0
 21
1.365953947368421
 31
0.0
  0
LINE
  5
1F6
330
1A6
100
AcDbEntity
  8
AM_7
100
AcDbLine
 10
2.5625
 20
0.0225
 30
0.0
 11
2.5625
 21
-0.4724999999999998
 31
0.0
  0
LINE
  5
1F7
330
1A6
100
AcDbEntity
  8
AM_7
100
AcDbLine
 10
-2.5625
 20
0.0225
 30
0.0
 11
-2.5625
 21
-0.4725000000000004
 31
0.0
  0
LINE
  5
1F8
330
1A6
100
AcDbEntity
  8
AM_4
100
AcDbLine
 10
-2.125
 20
-0.5
 30
0.0
 11
-2.125
 21
-0.640625
 31
0.0
  0
LINE
  5
1F9
330
1A6
100
AcDbEntity
  8
AM_4
100
AcDbLine
 10
2.125
 20
-0.640625
 30
0.0
 11
2.125
 21
-0.5
 31
0.0
  0
LINE
  5
1FA
330
1A6
100
AcDbEntity
  8
AM_4
100
AcDbLine
 10
-1.705750167209492
 20
-0.640625
 30
0.0
 11
-1.705750167209492
 21
-0.5000000000000001
 31
0.0
  0
LINE
  5
1FB
330
1A6
100
AcDbEntity
  8
AM_4
100
AcDbLine
 10
1.705750167209491
 20
-0.640625
 30
0.0
 11
1.705750167209491
 21
-0.5000000000000001
 31
0.0
  0
LINE
  5
1FC
330
1A6
100
AcDbEntity
  8
AM_4
100
AcDbLine
 10
2.023809523809524
 20
1.265625
 30
0.0
 11
-2.023809523809524
 21
1.265625
 31
0.0
  0
LINE
  5
1FD
330
1A6
100
AcDbEntity
  8
AM_4
100
AcDbLine
 10
2.023809523809524
 20
0.875
 30
0.0
 11
2.023809523809524
 21
1.265625
 31
0.0
  0
LINE
  5
1FE
330
1A6
100
AcDbEntity
  8
AM_4
100
AcDbLine
 10
-2.023809523809524
 20
1.265625
 30
0.0
 11
-2.023809523809524
 21
0.875
 31
0.0
  0
LINE
  5
1FF
330
1A6
100
AcDbEntity
  8
AM_4
100
AcDbLine
 10
0.5
 20
-0.4499999999999998
 30
0.0
 11
0.5
 21
-0.640625
 31
0.0
  0
LINE
  5
200
330
1A6
100
AcDbEntity
  8
AM_4
100
AcDbLine
 10
1.267296874084676
 20
-0.640625
 30
0.0
 11
1.267296874084676
 21
-0.5000000000000001
 31
0.0
  0
LINE
  5
201
330
1A6
100
AcDbEntity
  8
AM_4
100
AcDbLine
 10
0.8140197275649104
 20
-0.4500000000000001
 30
0.0
 11
0.8140197275649104
 21
-0.5000000000000001
 31
0.0
  0
LINE
  5
202
330
1A6
100
AcDbEntity
  8
AM_4
100
AcDbLine
 10
-0.5
 20
-0.4499999999999998
 30
0.0
 11
-0.5
 21
-0.640625
 31
0.0
  0
LINE
  5
203
330
1A6
100
AcDbEntity
  8
AM_4
100
AcDbLine
 10
-0.8140197275649093
 20
-0.4500000000000001
 30
0.0
 11
-0.8140197275649093
 21
-0.5000000000000001
 31
0.0
  0
LINE
  5
204
330
1A6
100
AcDbEntity
  8
AM_4
100
AcDbLine
 10
-1.267296874084677
 20
-0.640625
 30
0.0
 11
-1.267296874084677
 21
-0.5000000000000001
 31
0.0
  0
LINE
  5
205
330
1A6
100
AcDbEntity
  8
AM_4
100
AcDbLine
 10
2.125
 20
0.875
 30
0.0
 11
-2.125
 21
0.875
 31
0.0
  0
LINE
  5
206
330
1A6
100
AcDbEntity
  8
AM_4
100
AcDbLine
 10
2.125
 20
-0.0000000000000003
 30
0.0
 11
2.125
 21
0.875
 31
0.0
  0
LINE
  5
207
330
1A6
100
AcDbEntity
  8
AM_4
100
AcDbLine
 10
-2.125
 20
0.875
 30
0.0
 11
-2.125
 21
-0.0000000000000003
 31
0.0
  0
LINE
  5
208
330
1A6
100
AcDbEntity
  8
AM_4
100
AcDbLine
 10
-0.2322954130490347
 20
-0.640625
 30
0.0
 11
-2.125
 21
-0.640625
 31
0.0
  0
LINE
  5
209
330
1A6
100
AcDbEntity
  8
AM_4
100
AcDbLine
 10
2.125
 20
-0.640625
 30
0.0
 11
0.2321787255173227
 21
-0.640625
 31
0.0
  0
LINE
  5
20A
330
1A6
100
AcDbEntity
  8
AM_4
100
AcDbLine
 10
-1.053180863425013
 20
-0.4500000000000001
 30
0.0
 11
-1.053180863425013
 21
-0.5000000000000001
 31
0.0
  0
LINE
  5
20B
330
1A6
100
AcDbEntity
  8
AM_4
100
AcDbLine
 10
1.053180863425014
 20
-0.4500000000000001
 30
0.0
 11
1.053180863425014
 21
-0.5000000000000001
 31
0.0
  0
LINE
  5
20C
330
1A6
100
AcDbEntity
  8
AM_4
100
AcDbLine
 10
-1.775837318383307
 20
-0.4499999999999998
 30
0.0
 11
1.775837318383315
 21
-0.4499999999999998
 31
0.0
  0
LINE
  5
20D
330
1A6
100
AcDbEntity
  8
AM_4
100
AcDbLine
 10
-2.495056726536925
 20
-0.4500000000000001
 30
0.0
 11
-2.495056726536924
 21
-0.5000000000000001
 31
0.0
  0
LINE
  5
20E
330
1A6
100
AcDbEntity
  8
AM_4
100
AcDbLine
 10
-0.8140197275649093
 20
-0.5000000000000001
 30
0.0
 11
-2.495056726536924
 21
-0.5000000000000001
 31
0.0
  0
LINE
  5
20F
330
1A6
100
AcDbEntity
  8
AM_4
100
AcDbLine
 10
-1.775837318383307
 20
-0.4999999999999998
 30
0.0
 11
-1.775837318383307
 21
-0.4499999999999998
 31
0.0
  0
LINE
  5
210
330
1A6
100
AcDbEntity
  8
AM_4
100
AcDbLine
 10
1.775837318383315
 20
-0.4499999999999998
 30
0.0
 11
1.775837318383314
 21
-0.4999999999999998
 31
0.0
  0
LINE
  5
211
330
1A6
100
AcDbEntity
  8
AM_4
100
AcDbLine
 10
2.495056726536932
 20
-0.5000000000000001
 30
0.0
 11
0.8140197275649104
 21
-0.5000000000000001
 31
0.0
  0
LINE
  5
212
330
1A6
100
AcDbEntity
  8
AM_4
100
AcDbLine
 10
2.495056726536932
 20
-0.5000000000000001
 30
0.0
 11
2.495056726536932
 21
-0.4500000000000001
 31
0.0
  0
LINE
  5
213
330
1A6
100
AcDbEntity
  8
AM_4
100
AcDbLine
 10
2.495056726536932
 20
-0.4500000000000001
 30
0.0
 11
3.062500000000007
 21
-0.4500000000000001
 31
0.0
  0
LINE
  5
214
330
1A6
100
AcDbEntity
  8
AM_4
100
AcDbLine
 10
-3.062499999999993
 20
-0.0000000000000003
 30
0.0
 11
-3.062499999999993
 21
-0.4500000000000001
 31
0.0
  0
LINE
  5
215
330
1A6
100
AcDbEntity
  8
AM_4
100
AcDbLine
 10
3.062500000000007
 20
-0.4500000000000001
 30
0.0
 11
3.062500000000007
 21
-0.0000000000000003
 31
0.0
  0
LINE
  5
216
330
1A6
100
AcDbEntity
  8
AM_4
100
AcDbLine
 10
3.062500000000007
 20
-0.0000000000000003
 30
0.0
 11
-3.062499999999993
 21
-0.0000000000000003
 31
0.0
  0
LINE
  5
217
330
1A6
100
AcDbEntity
  8
AM_4
100
AcDbLine
 10
-3.062499999999993
 20
-0.4500000000000001
 30
0.0
 11
-2.495056726536925
 21
-0.4500000000000001
 31
0.0
  0
ENDBLK
  5
1A9
330
1A6
100
AcDbEntity
  8
0
100
AcDbBlockEnd
  0
ENDSEC
  0
SECTION
  2
ENTITIES
  0
INSERT
  5
6F
330
1F
100
AcDbEntity
  8
0
100
AcDbBlockReference
  2
1_070649_4
 10
0.0
 20
0.0
 30
0.0
  0
POINT
  5
219
330
1F
100
AcDbEntity
  8
ConnectionPoints
100
AcDbPoint
 10
0.0
 20
-1.453125
 30
0.0000000000000001
  0
POINT
  5
21A
330
1F
100
AcDbEntity
  8
ConnectionPoints
100
AcDbPoint
 10
0.0
 20
-1.453125
 30
0.0000000000000001
  0
POINT
  5
21B
330
1F
100
AcDbEntity
  8
ConnectionPoints
100
AcDbPoint
 10
0.0
 20
1.951375
 30
-0.0000000000000001
  0
POINT
  5
21C
330
1F
100
AcDbEntity
  8
ConnectionPoints
100
AcDbPoint
 10
0.0
 20
-1.453125
 30
0.0000000000000001
  0
POINT
  5
21D
330
1F
100
AcDbEntity
  8
ConnectionPoints
100
AcDbPoint
 10
0.0
 20
-0.5403103907283023
 30
2.212916666666667
  0
POINT
  5
21E
330
1F
100
AcDbEntity
  8
ConnectionPoints
100
AcDbPoint
 10
0.0
 20
1.21875
 30
-0.0000000000000001
  0
POINT
  5
21F
330
1F
100
AcDbEntity
  8
ConnectionPoints
100
AcDbPoint
 10
0.0
 20
-0.5403103907283022
 30
2.212916666666667
  0
POINT
  5
220
330
1F
100
AcDbEntity
  8
ConnectionPoints
100
AcDbPoint
 10
0.0
 20
-0.5087365478819945
 30
2.5228125
  0
POINT
  5
221
330
1F
100
AcDbEntity
  8
ConnectionPoints
100
AcDbPoint
 10
0.0
 20
-1.203125
 30
0.0000000000000001
  0
POINT
  5
222
330
1F
100
AcDbEntity
  8
ConnectionPoints
100
AcDbPoint
 10
0.0
 20
-1.453125
 30
0.0000000000000001
  0
ENDSEC
  0
SECTION
  2
OBJECTS
  0
DICTIONARY
  5
C
330
0
100
AcDbDictionary
281
     1
  3
ACAD_DETAILVIEWSTYLE
350
22A
  3
ACAD_GROUP
350
D
  3
ACAD_LAYOUT
350
1A
  3
ACAD_MATERIAL
350
43
  3
ACAD_MLEADERSTYLE
350
6B
  3
ACAD_MLINESTYLE
350
17
  3
ACAD_PLOTSETTINGS
350
19
  3
ACAD_PLOTSTYLENAME
350
E
  3
ACAD_SCALELIST
350
47
  3
ACAD_SECTIONVIEWSTYLE
350
22B
  3
ACAD_TABLESTYLE
350
69
  3
ACAD_VISUALSTYLE
350
2A
  3
ACDB_RECOMPOSE_DATA
350
227
  3
AcDbVariableDictionary
350
223
  0
SUN
  5
6D
330
29
100
AcDbSun
 90
        1
290
     0
 63
     7
421
 16777215
 40
1.0
291
     1
 91
  2455826
 92
 54000000
292
     0
 70
     2
 71
   256
280
     1
  0
DICTIONARY
  5
22A
102
{ACAD_REACTORS
330
C
102
}
330
C
100
AcDbDictionary
281
     1
  0
DICTIONARY
  5
D
102
{ACAD_REACTORS
330
C
102
}
330
C
100
AcDbDictionary
281
     1
  0
DICTIONARY
  5
1A
102
{ACAD_REACTORS
330
C
102
}
330
C
100
AcDbDictionary
281
     1
  3
Layout1
350
1E
  3
Layout2
350
26
  3
Model
350
22
  0
DICTIONARY
  5
43
102
{ACAD_REACTORS
330
C
102
}
330
C
100
AcDbDictionary
281
     1
  3
ByBlock
350
45
  3
ByLayer
350
44
  3
Global
350
46
  0
DICTIONARY
  5
6B
102
{ACAD_REACTORS
330
C
102
}
330
C
100
AcDbDictionary
281
     1
  3
Standard
350
6C
  0
DICTIONARY
  5
17
102
{ACAD_REACTORS
330
C
102
}
330
C
100
AcDbDictionary
281
     1
  3
Standard
350
18
  0
DICTIONARY
  5
19
102
{ACAD_REACTORS
330
C
102
}
330
C
100
AcDbDictionary
281
     1
  0
ACDBDICTIONARYWDFLT
  5
E
102
{ACAD_REACTORS
330
C
102
}
330
C
100
AcDbDictionary
281
     1
  3
Normal
350
F
100
AcDbDictionaryWithDefault
340
F
  0
DICTIONARY
  5
47
102
{ACAD_REACTORS
330
C
102
}
330
C
100
AcDbDictionary
281
     1
  3
A0
350
48
  3
A1
350
49
  3
A2
350
4A
  3
A3
350
4B
  3
A4
350
4C
  3
A5
350
4D
  3
A6
350
4E
  3
A7
350
4F
  3
A8
350
50
  3
A9
350
51
  3
B0
350
52
  3
B1
350
53
  3
B2
350
54
  3
B3
350
55
  3
B4
350
56
  3
B5
350
57
  3
B6
350
58
  3
B7
350
59
  3
B8
350
5A
  3
B9
350
5B
  3
C0
350
5C
  3
C1
350
5D
  3
C2
350
5E
  3
C3
350
5F
  3
C4
350
60
  3
C5
350
61
  3
C6
350
62
  3
C7
350
63
  3
C8
350
64
  3
C9
350
65
  3
D0
350
66
  3
D1
350
67
  3
D2
350
68
  0
DICTIONARY
  5
22B
102
{ACAD_REACTORS
330
C
102
}
330
C
100
AcDbDictionary
281
     1
  0
DICTIONARY
  5
69
102
{ACAD_REACTORS
330
C
102
}
330
C
100
AcDbDictionary
281
     1
  3
Standard
350
6A
  0
DICTIONARY
  5
2A
102
{ACAD_REACTORS
330
C
102
}
330
C
100
AcDbDictionary
281
     1
  3
2dWireframe
350
2F
  3
Basic
350
32
  3
Brighten
350
36
  3
ColorChange
350
3A
  3
Conceptual
350
34
  3
Dim
350
35
  3
EdgeColorOff
350
3D
  3
Facepattern
350
39
  3
Flat
350
2B
  3
FlatWithEdges
350
2C
  3
Gouraud
350
2D
  3
GouraudWithEdges
350
2E
  3
Hidden
350
31
  3
JitterOff
350
3B
  3
Linepattern
350
38
  3
OverhangOff
350
3C
  3
Realistic
350
33
  3
Shaded
350
42
  3
Shaded with edges
350
41
  3
Shades of Gray
350
3E
  3
Sketchy
350
3F
  3
Thicken
350
37
  3
Wireframe
350
30
  3
X-Ray
350
40
  0
XRECORD
  5
227
102
{ACAD_REACTORS
330
C
102
}
330
C
100
AcDbXrecord
280
     1
 90
        1
330
6A
  0
DICTIONARY
  5
223
102
{ACAD_REACTORS
330
C
102
}
330
C
100
AcDbDictionary
281
     1
  3
CANNOSCALE
350
224
  3
CMLEADERSTYLE
350
229
  3
CTABLESTYLE
350
228
  0
LAYOUT
  5
1E
102
{ACAD_REACTORS
330
1A
102
}
330
1A
100
AcDbPlotSettings
  1

  2
none_device
  4

  6

 40
0.0
 41
0.0
 42
0.0
 43
0.0
 44
0.0
 45
0.0
 46
0.0
 47
0.0
 48
0.0
 49
0.0
140
0.0
141
0.0
142
1.0
143
1.0
 70
   688
 72
     0
 73
     0
 74
     5
  7

 75
    16
 76
     0
 77
     2
 78
   300
147
1.0
148
0.0
149
0.0
100
AcDbLayout
  1
Layout1
 70
     1
 71
     1
 10
0.0
 20
0.0
 11
12.0
 21
9.0
 12
0.0
 22
0.0
 32
0.0
 14
1.000000000000000E+20
 24
1.000000000000000E+20
 34
1.000000000000000E+20
 15
-1.000000000000000E+20
 25
-1.000000000000000E+20
 35
-1.000000000000000E+20
146
0.0
 13
0.0
 23
0.0
 33
0.0
 16
1.0
 26
0.0
 36
0.0
 17
0.0
 27
1.0
 37
0.0
 76
     0
330
1B
  0
LAYOUT
  5
26
102
{ACAD_REACTORS
330
1A
102
}
330
1A
100
AcDbPlotSettings
  1

  2
none_device
  4

  6

 40
0.0
 41
0.0
 42
0.0
 43
0.0
 44
0.0
 45
0.0
 46
0.0
 47
0.0
 48
0.0
 49
0.0
140
0.0
141
0.0
142
1.0
143
1.0
 70
   688
 72
     0
 73
     0
 74
     5
  7

 75
    16
 76
     0
 77
     2
 78
   300
147
1.0
148
0.0
149
0.0
100
AcDbLayout
  1
Layout2
 70
     1
 71
     2
 10
0.0
 20
0.0
 11
0.0
 21
0.0
 12
0.0
 22
0.0
 32
0.0
 14
0.0
 24
0.0
 34
0.0
 15
0.0
 25
0.0
 35
0.0
146
0.0
 13
0.0
 23
0.0
 33
0.0
 16
1.0
 26
0.0
 36
0.0
 17
0.0
 27
1.0
 37
0.0
 76
     0
330
23
  0
LAYOUT
  5
22
102
{ACAD_REACTORS
330
1A
102
}
330
1A
100
AcDbPlotSettings
  1

  2
none_device
  4
Letter_(8.50_x_11.00_Inches)
  6

 40
6.35
 41
6.35
 42
6.35000508
 43
6.35000508
 44
215.9
 45
279.4
 46
0.0
 47
0.0
 48
0.0
 49
0.0
140
0.0
141
0.0
142
1.0
143
1.0
 70
  1712
 72
     0
 73
     0
 74
     0
  7

 75
     0
 76
     0
 77
     2
 78
   300
147
1.0
148
0.0
149
0.0
100
AcDbLayout
  1
Model
 70
     1
 71
     0
 10
0.0
 20
0.0
 11
12.0
 21
9.0
 12
0.0
 22
0.0
 32
0.0
 14
1.000000000000000E+20
 24
1.000000000000000E+20
 34
1.000000000000000E+20
 15
-1.000000000000000E+20
 25
-1.000000000000000E+20
 35
-1.000000000000000E+20
146
0.0
 13
0.0
 23
0.0
 33
0.0
 16
1.0
 26
0.0
 36
0.0
 17
0.0
 27
1.0
 37
0.0
 76
     0
330
1F
331
29
  0
MATERIAL
  5
45
102
{ACAD_REACTORS
330
43
102
}
330
43
100
AcDbMaterial
  1
ByBlock
 72
     1
 94
      127
  0
MATERIAL
  5
44
102
{ACAD_REACTORS
330
43
102
}
330
43
100
AcDbMaterial
  1
ByLayer
 72
     1
 94
      127
  0
MATERIAL
  5
46
102
{ACAD_REACTORS
330
43
102
}
330
43
100
AcDbMaterial
  1
Global
 72
     1
 94
      127
  0
MLEADERSTYLE
  5
6C
102
{ACAD_REACTORS
330
6B
102
}
330
6B
100
AcDbMLeaderStyle
179
     2
170
     2
171
     1
172
     0
 90
        2
 40
0.0
 41
0.0
173
     1
 91
-1056964608
340
14
 92
       -2
290
     1
 42
0.09
291
     1
 43
0.36
  3
Standard
341
0
 44
0.18
300

342
11
174
     1
178
     6
175
     1
176
     0
 93
-1056964608
 45
0.18
292
     0
297
     0
 46
0.18
343
0
 94
-1056964608
 47
1.0
 49
1.0
140
1.0
293
     1
141
0.0
294
     1
177
     0
142
1.0
295
     0
296
     0
143
0.125
271
     0
272
     9
273
     9
298
     0
  0
MLINESTYLE
  5
18
102
{ACAD_REACTORS
330
17
102
}
330
17
100
AcDbMlineStyle
  2
Standard
 70
     0
  3

 62
   256
 51
90.0
 52
90.0
 71
     2
 49
0.5
 62
   256
  6
BYLAYER
 49
-0.5
 62
   256
  6
BYLAYER
  0
ACDBPLACEHOLDER
  5
F
102
{ACAD_REACTORS
330
E
102
}
330
E
  0
SCALE
  5
48
102
{ACAD_REACTORS
330
47
102
}
330
47
100
AcDbScale
 70
     0
300
1:1
140
1.0
141
1.0
290
     1
  0
SCALE
  5
49
102
{ACAD_REACTORS
330
47
102
}
330
47
100
AcDbScale
 70
     0
300
1:2
140
1.0
141
2.0
290
     0
  0
SCALE
  5
4A
102
{ACAD_REACTORS
330
47
102
}
330
47
100
AcDbScale
 70
     0
300
1:4
140
1.0
141
4.0
290
     0
  0
SCALE
  5
4B
102
{ACAD_REACTORS
330
47
102
}
330
47
100
AcDbScale
 70
     0
300
1:5
140
1.0
141
5.0
290
     0
  0
SCALE
  5
4C
102
{ACAD_REACTORS
330
47
102
}
330
47
100
AcDbScale
 70
     0
300
1:8
140
1.0
141
8.0
290
     0
  0
SCALE
  5
4D
102
{ACAD_REACTORS
330
47
102
}
330
47
100
AcDbScale
 70
     0
300
1:10
140
1.0
141
10.0
290
     0
  0
SCALE
  5
4E
102
{ACAD_REACTORS
330
47
102
}
330
47
100
AcDbScale
 70
     0
300
1:16
140
1.0
141
16.0
290
     0
  0
SCALE
  5
4F
102
{ACAD_REACTORS
330
47
102
}
330
47
100
AcDbScale
 70
     0
300
1:20
140
1.0
141
20.0
290
     0
  0
SCALE
  5
50
102
{ACAD_REACTORS
330
47
102
}
330
47
100
AcDbScale
 70
     0
300
1:30
140
1.0
141
30.0
290
     0
  0
SCALE
  5
51
102
{ACAD_REACTORS
330
47
102
}
330
47
100
AcDbScale
 70
     0
300
1:40
140
1.0
141
40.0
290
     0
  0
SCALE
  5
52
102
{ACAD_REACTORS
330
47
102
}
330
47
100
AcDbScale
 70
     0
300
1:50
140
1.0
141
50.0
290
     0
  0
SCALE
  5
53
102
{ACAD_REACTORS
330
47
102
}
330
47
100
AcDbScale
 70
     0
300
1:100
140
1.0
141
100.0
290
     0
  0
SCALE
  5
54
102
{ACAD_REACTORS
330
47
102
}
330
47
100
AcDbScale
 70
     0
300
2:1
140
2.0
141
1.0
290
     0
  0
SCALE
  5
55
102
{ACAD_REACTORS
330
47
102
}
330
47
100
AcDbScale
 70
     0
300
4:1
140
4.0
141
1.0
290
     0
  0
SCALE
  5
56
102
{ACAD_REACTORS
330
47
102
}
330
47
100
AcDbScale
 70
     0
300
8:1
140
8.0
141
1.0
290
     0
  0
SCALE
  5
57
102
{ACAD_REACTORS
330
47
102
}
330
47
100
AcDbScale
 70
     0
300
10:1
140
10.0
141
1.0
290
     0
  0
SCALE
  5
58
102
{ACAD_REACTORS
330
47
102
}
330
47
100
AcDbScale
 70
     0
300
100:1
140
100.0
141
1.0
290
     0
  0
SCALE
  5
59
102
{ACAD_REACTORS
330
47
102
}
330
47
100
AcDbScale
 70
     0
300
1/128" = 1'-0"
140
0.0078125
141
12.0
290
     0
  0
SCALE
  5
5A
102
{ACAD_REACTORS
330
47
102
}
330
47
100
AcDbScale
 70
     0
300
1/64" = 1'-0"
140
0.015625
141
12.0
290
     0
  0
SCALE
  5
5B
102
{ACAD_REACTORS
330
47
102
}
330
47
100
AcDbScale
 70
     0
300
1/32" = 1'-0"
140
0.03125
141
12.0
290
     0
  0
SCALE
  5
5C
102
{ACAD_REACTORS
330
47
102
}
330
47
100
AcDbScale
 70
     0
300
1/16" = 1'-0"
140
0.0625
141
12.0
290
     0
  0
SCALE
  5
5D
102
{ACAD_REACTORS
330
47
102
}
330
47
100
AcDbScale
 70
     0
300
3/32" = 1'-0"
140
0.09375
141
12.0
290
     0
  0
SCALE
  5
5E
102
{ACAD_REACTORS
330
47
102
}
330
47
100
AcDbScale
 70
     0
300
1/8" = 1'-0"
140
0.125
141
12.0
290
     0
  0
SCALE
  5
5F
102
{ACAD_REACTORS
330
47
102
}
330
47
100
AcDbScale
 70
     0
300
3/16" = 1'-0"
140
0.1875
141
12.0
290
     0
  0
SCALE
  5
60
102
{ACAD_REACTORS
330
47
102
}
330
47
100
AcDbScale
 70
     0
300
1/4" = 1'-0"
140
0.25
141
12.0
290
     0
  0
SCALE
  5
61
102
{ACAD_REACTORS
330
47
102
}
330
47
100
AcDbScale
 70
     0
300
3/8" = 1'-0"
140
0.375
141
12.0
290
     0
  0
SCALE
  5
62
102
{ACAD_REACTORS
330
47
102
}
330
47
100
AcDbScale
 70
     0
300
1/2" = 1'-0"
140
0.5
141
12.0
290
     0
  0
SCALE
  5
63
102
{ACAD_REACTORS
330
47
102
}
330
47
100
AcDbScale
 70
     0
300
3/4" = 1'-0"
140
0.75
141
12.0
290
     0
  0
SCALE
  5
64
102
{ACAD_REACTORS
330
47
102
}
330
47
100
AcDbScale
 70
     0
300
1" = 1'-0"
140
1.0
141
12.0
290
     0
  0
SCALE
  5
65
102
{ACAD_REACTORS
330
47
102
}
330
47
100
AcDbScale
 70
     0
300
1-1/2" = 1'-0"
140
1.5
141
12.0
290
     0
  0
SCALE
  5
66
102
{ACAD_REACTORS
330
47
102
}
330
47
100
AcDbScale
 70
     0
300
3" = 1'-0"
140
3.0
141
12.0
290
     0
  0
SCALE
  5
67
102
{ACAD_REACTORS
330
47
102
}
330
47
100
AcDbScale
 70
     0
300
6" = 1'-0"
140
6.0
141
12.0
290
     0
  0
SCALE
  5
68
102
{ACAD_REACTORS
330
47
102
}
330
47
100
AcDbScale
 70
     0
300
1'-0" = 1'-0"
140
12.0
141
12.0
290
     0
  0
TABLESTYLE
  5
6A
102
{ACAD_REACTORS
330
69
102
}
102
{ACAD_XDICTIONARY
360
225
102
}
330
69
100
AcDbTableStyle
  3
Standard
 70
     0
 71
     0
 40
0.06
 41
0.06
280
     0
281
     0
  7
Standard
140
0.18
170
     2
 62
     0
 63
   257
283
     0
 90
        4
 91
        0
  1

274
    -2
284
     1
 64
     0
275
    -2
285
     1
 65
     0
276
    -2
286
     1
 66
     0
277
    -2
287
     1
 67
     0
278
    -2
288
     1
 68
     0
279
    -2
289
     1
 69
     0
  7
Standard
140
0.25
170
     5
 62
     0
 63
   257
283
     0
 90
        4
 91
        0
  1

274
    -2
284
     1
 64
     0
275
    -2
285
     1
 65
     0
276
    -2
286
     1
 66
     0
277
    -2
287
     1
 67
     0
278
    -2
288
     1
 68
     0
279
    -2
289
     1
 69
     0
  7
Standard
140
0.18
170
     5
 62
     0
 63
   257
283
     0
 90
        4
 91
        0
  1

274
    -2
284
     1
 64
     0
275
    -2
285
     1
 65
     0
276
    -2
286
     1
 66
     0
277
    -2
287
     1
 67
     0
278
    -2
288
     1
 68
     0
279
    -2
289
     1
 69
     0
  0
VISUALSTYLE
  5
2F
102
{ACAD_REACTORS
330
2A
102
}
330
2A
100
AcDbVisualStyle
  2
2dWireframe
 70
     4
177
     3
291
     0
 70
    58
 90
        0
176
     1
 90
        2
176
     1
 90
        0
176
     1
 90
        0
176
     1
 40
0.6
176
     1
 40
30.0
176
     1
 62
     7
420
 16777215
176
     1
 90
        1
176
     1
 90
        4
176
     1
 62
     7
176
     1
 62
   257
176
     1
 90
        1
176
     1
 90
        1
176
     1
 40
1.0
176
     1
 90
        0
176
     1
 62
   257
176
     1
 40
1.0
176
     1
 90
        1
176
     1
 90
        6
176
     1
 90
        2
176
     1
 62
     7
176
     1
 90
        5
176
     1
 90
        0
176
     1
 90
        0
176
     1
290
     0
176
     1
 90
        1
176
     1
 40
0.0
176
     1
 90
        0
176
     1
290
     1
176
     1
290
     1
176
     1
290
     0
176
     1
290
     0
176
     1
290
     0
176
     1
290
     0
176
     1
290
     0
176
     1
290
     0
176
     1
290
     0
176
     1
 90
       50
176
     1
 40
0.0
176
     1
 40
1.0
176
     1
 90
        0
176
     1
 62
    18
420
        0
176
     1
 90
       50
176
     1
 90
        3
176
     1
 62
     5
420
      255
176
     1
290
     0
176
     1
 90
       50
176
     1
 90
       50
176
     1
 90
       50
176
     1
290
     0
176
     1
 90
       50
176
     1
 62
   256
176
     0
 40
1.0
176
     0
 90
        2
176
     1
  1
strokes_ogs.tif
176
     1
290
     0
176
     1
 40
1.0
176
     1
 40
1.0
176
     1
  0
VISUALSTYLE
  5
32
102
{ACAD_REACTORS
330
2A
102
}
330
2A
100
AcDbVisualStyle
  2
Basic
 70
     7
177
     3
291
     1
 70
    58
 90
        1
176
     1
 90
        0
176
     1
 90
        1
176
     1
 90
        0
176
     1
 40
0.6
176
     1
 40
30.0
176
     1
 62
     7
420
 16777215
176
     1
 90
        0
176
     1
 90
        4
176
     1
 62
     7
176
     1
 62
   257
176
     1
 90
        1
176
     1
 90
        1
176
     1
 40
1.0
176
     1
 90
        8
176
     1
 62
     7
176
     1
 40
1.0
176
     1
 90
        1
176
     1
 90
        6
176
     1
 90
        2
176
     1
 62
     7
176
     1
 90
        5
176
     1
 90
        0
176
     1
 90
        0
176
     1
290
     0
176
     1
 90
        1
176
     1
 40
0.0
176
     1
 90
        0
176
     1
290
     0
176
     1
290
     1
176
     1
290
     1
176
     1
290
     0
176
     1
290
     0
176
     1
290
     0
176
     1
290
     0
176
     1
290
     0
176
     1
290
     0
176
     1
 90
       50
176
     1
 40
0.0
176
     1
 40
1.0
176
     1
 90
        0
176
     1
 62
    18
420
        0
176
     1
 90
       50
176
     1
 90
        3
176
     1
 62
     5
420
      255
176
     1
290
     0
176
     1
 90
       50
176
     1
 90
       50
176
     1
 90
       50
176
     1
290
     0
176
     1
 90
       50
176
     1
 62
   256
176
     0
 40
1.0
176
     0
 90
        2
176
     1
  1
strokes_ogs.tif
176
     1
290
     0
176
     1
 40
1.0
176
     1
 40
1.0
176
     1
  0
VISUALSTYLE
  5
36
102
{ACAD_REACTORS
330
2A
102
}
330
2A
100
AcDbVisualStyle
  2
Brighten
 70
    12
177
     3
291
     1
 70
    58
 90
        2
176
     1
 90
        2
176
     1
 90
        0
176
     1
 90
        0
176
     1
 40
0.6
176
     1
 40
30.0
176
     1
 62
     7
420
 16777215
176
     1
 90
        1
176
     1
 90
        4
176
     1
 62
     7
176
     1
 62
   257
176
     1
 90
        1
176
     1
 90
        1
176
     1
 40
1.0
176
     1
 90
        8
176
     1
 62
     7
176
     1
 40
1.0
176
     1
 90
        1
176
     1
 90
        6
176
     1
 90
        2
176
     1
 62
     7
176
     1
 90
        5
176
     1
 90
        0
176
     1
 90
        0
176
     1
290
     0
176
     1
 90
        1
176
     1
 40
50.0
176
     1
 90
        0
176
     1
290
     0
176
     1
290
     1
176
     1
290
     1
176
     1
290
     0
176
     1
290
     0
176
     1
290
     0
176
     1
290
     0
176
     1
290
     0
176
     1
290
     0
176
     1
 90
       50
176
     1
 40
0.0
176
     1
 40
1.0
176
     1
 90
        0
176
     1
 62
    18
420
        0
176
     1
 90
       50
176
     1
 90
        3
176
     1
 62
     5
420
      255
176
     1
290
     0
176
     1
 90
       50
176
     1
 90
       50
176
     1
 90
       50
176
     1
290
     0
176
     1
 90
       50
176
     1
 62
   256
176
     0
 40
1.0
176
     0
 90
        2
176
     1
  1
strokes_ogs.tif
176
     1
290
     0
176
     1
 40
1.0
176
     1
 40
1.0
176
     1
  0
VISUALSTYLE
  5
3A
102
{ACAD_REACTORS
330
2A
102
}
330
2A
100
AcDbVisualStyle
  2
ColorChange
 70
    16
177
     3
291
     1
 70
    58
 90
        2
176
     1
 90
        2
176
     1
 90
        3
176
     1
 90
        0
176
     1
 40
0.6
176
     1
 40
30.0
176
     1
 62
     8
420
  8421504
176
     1
 90
        1
176
     1
 90
        4
176
     1
 62
     7
176
     1
 62
   257
176
     1
 90
        1
176
     1
 90
        1
176
     1
 40
1.0
176
     1
 90
        8
176
     1
 62
     8
420
  8421504
176
     1
 40
1.0
176
     1
 90
        1
176
     1
 90
        6
176
     1
 90
        2
176
     1
 62
     7
176
     1
 90
        5
176
     1
 90
        0
176
     1
 90
        0
176
     1
290
     0
176
     1
 90
        1
176
     1
 40
0.0
176
     1
 90
        0
176
     1
290
     0
176
     1
290
     1
176
     1
290
     1
176
     1
290
     0
176
     1
290
     0
176
     1
290
     0
176
     1
290
     0
176
     1
290
     0
176
     1
290
     0
176
     1
 90
       50
176
     1
 40
0.0
176
     1
 40
1.0
176
     1
 90
        0
176
     1
 62
    18
420
        0
176
     1
 90
       50
176
     1
 90
        3
176
     1
 62
     5
420
      255
176
     1
290
     0
176
     1
 90
       50
176
     1
 90
       50
176
     1
 90
       50
176
     1
290
     0
176
     1
 90
       50
176
     1
 62
   256
176
     0
 40
1.0
176
     0
 90
        2
176
     1
  1
strokes_ogs.tif
176
     1
290
     0
176
     1
 40
1.0
176
     1
 40
1.0
176
     1
  0
VISUALSTYLE
  5
34
102
{ACAD_REACTORS
330
2A
102
}
330
2A
100
AcDbVisualStyle
  2
Conceptual
 70
     9
177
     3
291
     0
 70
    58
 90
        3
176
     1
 90
        2
176
     1
 90
        0
176
     1
 90
        0
176
     1
 40
0.6
176
     1
 40
30.0
176
     1
 62
     7
420
 16777215
176
     1
 90
        2
176
     1
 90
        2
176
     1
 62
     7
176
     1
 62
   257
176
     1
 90
        1
176
     1
 90
        1
176
     1
 40
179.0
176
     1
 90
        8
176
     1
 62
     7
176
     1
 40
1.0
176
     1
 90
        1
176
     1
 90
        6
176
     1
 90
        2
176
     1
 62
     7
176
     1
 90
        3
176
     1
 90
        0
176
     1
 90
        0
176
     1
290
     0
176
     1
 90
        1
176
     1
 40
0.0
176
     1
 90
        0
176
     1
290
     0
176
     1
290
     1
176
     1
290
     1
176
     1
290
     0
176
     1
290
     0
176
     1
290
     0
176
     1
290
     0
176
     1
290
     0
176
     1
290
     0
176
     1
 90
       50
176
     1
 40
0.0
176
     1
 40
1.0
176
     1
 90
        0
176
     1
 62
    18
420
        0
176
     1
 90
       50
176
     1
 90
        3
176
     1
 62
     5
420
      255
176
     1
290
     0
176
     1
 90
       50
176
     1
 90
       50
176
     1
 90
       50
176
     1
290
     0
176
     1
 90
       50
176
     1
 62
   256
176
     0
 40
1.0
176
     0
 90
        2
176
     1
  1
strokes_ogs.tif
176
     1
290
     0
176
     1
 40
1.0
176
     1
 40
1.0
176
     1
  0
VISUALSTYLE
  5
35
102
{ACAD_REACTORS
330
2A
102
}
330
2A
100
AcDbVisualStyle
  2
Dim
 70
    11
177
     3
291
     1
 70
    58
 90
        2
176
     1
 90
        2
176
     1
 90
        0
176
     1
 90
        0
176
     1
 40
0.6
176
     1
 40
30.0
176
     1
 62
     7
420
 16777215
176
     1
 90
        1
176
     1
 90
        4
176
     1
 62
     7
176
     1
 62
   257
176
     1
 90
        1
176
     1
 90
        1
176
     1
 40
1.0
176
     1
 90
        8
176
     1
 62
     7
176
     1
 40
1.0
176
     1
 90
        1
176
     1
 90
        6
176
     1
 90
        2
176
     1
 62
     7
176
     1
 90
        5
176
     1
 90
        0
176
     1
 90
        0
176
     1
290
     0
176
     1
 90
        1
176
     1
 40
-50.0
176
     1
 90
        0
176
     1
290
     0
176
     1
290
     1
176
     1
290
     1
176
     1
290
     0
176
     1
290
     0
176
     1
290
     0
176
     1
290
     0
176
     1
290
     0
176
     1
290
     0
176
     1
 90
       50
176
     1
 40
0.0
176
     1
 40
1.0
176
     1
 90
        0
176
     1
 62
    18
420
        0
176
     1
 90
       50
176
     1
 90
        3
176
     1
 62
     5
420
      255
176
     1
290
     0
176
     1
 90
       50
176
     1
 90
       50
176
     1
 90
       50
176
     1
290
     0
176
     1
 90
       50
176
     1
 62
   256
176
     0
 40
1.0
176
     0
 90
        2
176
     1
  1
strokes_ogs.tif
176
     1
290
     0
176
     1
 40
1.0
176
     1
 40
1.0
176
     1
  0
VISUALSTYLE
  5
3D
102
{ACAD_REACTORS
330
2A
102
}
330
2A
100
AcDbVisualStyle
  2
EdgeColorOff
 70
    22
177
     3
291
     1
 70
    58
 90
        2
176
     0
 90
        2
176
     0
 90
        0
176
     0
 90
        0
176
     0
 40
0.6
176
     0
 40
30.0
176
     0
 62
     7
420
 16777215
176
     0
 90
        1
176
     0
 90
        4
176
     0
 62
     7
176
     0
 62
   257
176
     0
 90
        1
176
     0
 90
        1
176
     0
 40
1.0
176
     0
 90
        8
176
     2
 62
     7
176
     0
 40
1.0
176
     0
 90
        1
176
     0
 90
        6
176
     0
 90
        2
176
     0
 62
     7
176
     0
 90
        5
176
     0
 90
        0
176
     0
 90
        0
176
     0
290
     0
176
     0
 90
        1
176
     0
 40
0.0
176
     0
 90
        0
176
     0
290
     0
176
     0
290
     1
176
     0
290
     1
176
     0
290
     0
176
     0
290
     0
176
     0
290
     0
176
     0
290
     0
176
     0
290
     0
176
     0
290
     0
176
     0
 90
       50
176
     0
 40
0.0
176
     0
 40
1.0
176
     0
 90
        0
176
     0
 62
    18
420
        0
176
     0
 90
       50
176
     0
 90
        3
176
     0
 62
     5
420
      255
176
     0
290
     0
176
     0
 90
       50
176
     0
 90
       50
176
     0
 90
       50
176
     0
290
     0
176
     0
 90
       50
176
     0
 62
   256
176
     0
 40
1.0
176
     0
 90
        2
176
     0
  1
strokes_ogs.tif
176
     0
290
     0
176
     0
 40
1.0
176
     0
 40
1.0
176
     0
  0
VISUALSTYLE
  5
39
102
{ACAD_REACTORS
330
2A
102
}
330
2A
100
AcDbVisualStyle
  2
Facepattern
 70
    15
177
     3
291
     1
 70
    58
 90
        2
176
     1
 90
        2
176
     1
 90
        0
176
     1
 90
        0
176
     1
 40
0.6
176
     1
 40
30.0
176
     1
 62
     7
420
 16777215
176
     1
 90
        1
176
     1
 90
        4
176
     1
 62
     7
176
     1
 62
   257
176
     1
 90
        1
176
     1
 90
        1
176
     1
 40
1.0
176
     1
 90
        8
176
     1
 62
     7
176
     1
 40
1.0
176
     1
 90
        1
176
     1
 90
        6
176
     1
 90
        2
176
     1
 62
     7
176
     1
 90
        5
176
     1
 90
        0
176
     1
 90
        0
176
     1
290
     0
176
     1
 90
        1
176
     1
 40
0.0
176
     1
 90
        0
176
     1
290
     0
176
     1
290
     1
176
     1
290
     1
176
     1
290
     0
176
     1
290
     0
176
     1
290
     0
176
     1
290
     0
176
     1
290
     0
176
     1
290
     0
176
     1
 90
       50
176
     1
 40
0.0
176
     1
 40
1.0
176
     1
 90
        0
176
     1
 62
    18
420
        0
176
     1
 90
       50
176
     1
 90
        3
176
     1
 62
     5
420
      255
176
     1
290
     0
176
     1
 90
       50
176
     1
 90
       50
176
     1
 90
       50
176
     1
290
     0
176
     1
 90
       50
176
     1
 62
   256
176
     0
 40
1.0
176
     0
 90
        2
176
     1
  1
strokes_ogs.tif
176
     1
290
     0
176
     1
 40
1.0
176
     1
 40
1.0
176
     1
  0
VISUALSTYLE
  5
2B
102
{ACAD_REACTORS
330
2A
102
}
330
2A
100
AcDbVisualStyle
  2
Flat
 70
     0
177
     3
291
     1
 70
    58
 90
        2
176
     1
 90
        1
176
     1
 90
        1
176
     1
 90
        2
176
     1
 40
0.6
176
     1
 40
30.0
176
     1
 62
     7
420
 16777215
176
     1
 90
        0
176
     1
 90
        0
176
     1
 62
     7
176
     1
 62
   257
176
     1
 90
        1
176
     1
 90
        1
176
     1
 40
1.0
176
     1
 90
        8
176
     1
 62
     7
176
     1
 40
1.0
176
     1
 90
        1
176
     1
 90
        6
176
     1
 90
        2
176
     1
 62
     7
176
     1
 90
        5
176
     1
 90
        0
176
     1
 90
        0
176
     1
290
     0
176
     1
 90
       13
176
     1
 40
0.0
176
     1
 90
        0
176
     1
290
     0
176
     1
290
     1
176
     1
290
     1
176
     1
290
     0
176
     1
290
     0
176
     1
290
     0
176
     1
290
     0
176
     1
290
     0
176
     1
290
     0
176
     1
 90
       50
176
     1
 40
0.0
176
     1
 40
1.0
176
     1
 90
        0
176
     1
 62
    18
420
        0
176
     1
 90
       50
176
     1
 90
        3
176
     1
 62
     5
420
      255
176
     1
290
     0
176
     1
 90
       50
176
     1
 90
       50
176
     1
 90
       50
176
     1
290
     0
176
     1
 90
       50
176
     1
 62
   256
176
     0
 40
1.0
176
     0
 90
        2
176
     1
  1
strokes_ogs.tif
176
     1
290
     0
176
     1
 40
1.0
176
     1
 40
1.0
176
     1
  0
VISUALSTYLE
  5
2C
102
{ACAD_REACTORS
330
2A
102
}
330
2A
100
AcDbVisualStyle
  2
FlatWithEdges
 70
     1
177
     3
291
     1
 70
    58
 90
        2
176
     1
 90
        1
176
     1
 90
        1
176
     1
 90
        2
176
     1
 40
0.6
176
     1
 40
30.0
176
     1
 62
     7
420
 16777215
176
     1
 90
        1
176
     1
 90
        0
176
     1
 62
     7
176
     1
 62
   257
176
     1
 90
        1
176
     1
 90
        1
176
     1
 40
1.0
176
     1
 90
        0
176
     1
 62
   257
176
     1
 40
1.0
176
     1
 90
        1
176
     1
 90
        6
176
     1
 90
        2
176
     1
 62
     7
176
     1
 90
        5
176
     1
 90
        0
176
     1
 90
        0
176
     1
290
     0
176
     1
 90
       13
176
     1
 40
0.0
176
     1
 90
        0
176
     1
290
     0
176
     1
290
     1
176
     1
290
     1
176
     1
290
     0
176
     1
290
     0
176
     1
290
     0
176
     1
290
     0
176
     1
290
     0
176
     1
290
     0
176
     1
 90
       50
176
     1
 40
0.0
176
     1
 40
1.0
176
     1
 90
        0
176
     1
 62
    18
420
        0
176
     1
 90
       50
176
     1
 90
        3
176
     1
 62
     5
420
      255
176
     1
290
     0
176
     1
 90
       50
176
     1
 90
       50
176
     1
 90
       50
176
     1
290
     0
176
     1
 90
       50
176
     1
 62
   256
176
     0
 40
1.0
176
     0
 90
        2
176
     1
  1
strokes_ogs.tif
176
     1
290
     0
176
     1
 40
1.0
176
     1
 40
1.0
176
     1
  0
VISUALSTYLE
  5
2D
102
{ACAD_REACTORS
330
2A
102
}
330
2A
100
AcDbVisualStyle
  2
Gouraud
 70
     2
177
     3
291
     1
 70
    58
 90
        2
176
     1
 90
        2
176
     1
 90
        1
176
     1
 90
        2
176
     1
 40
0.6
176
     1
 40
30.0
176
     1
 62
     7
420
 16777215
176
     1
 90
        0
176
     1
 90
        0
176
     1
 62
     7
176
     1
 62
   257
176
     1
 90
        1
176
     1
 90
        1
176
     1
 40
1.0
176
     1
 90
        0
176
     1
 62
     7
176
     1
 40
1.0
176
     1
 90
        1
176
     1
 90
        6
176
     1
 90
        2
176
     1
 62
     7
176
     1
 90
        5
176
     1
 90
        0
176
     1
 90
        0
176
     1
290
     0
176
     1
 90
       13
176
     1
 40
0.0
176
     1
 90
        0
176
     1
290
     0
176
     1
290
     1
176
     1
290
     1
176
     1
290
     0
176
     1
290
     0
176
     1
290
     0
176
     1
290
     0
176
     1
290
     0
176
     1
290
     0
176
     1
 90
       50
176
     1
 40
0.0
176
     1
 40
1.0
176
     1
 90
        0
176
     1
 62
    18
420
        0
176
     1
 90
       50
176
     1
 90
        3
176
     1
 62
     5
420
      255
176
     1
290
     0
176
     1
 90
       50
176
     1
 90
       50
176
     1
 90
       50
176
     1
290
     0
176
     1
 90
       50
176
     1
 62
   256
176
     0
 40
1.0
176
     0
 90
        2
176
     1
  1
strokes_ogs.tif
176
     1
290
     0
176
     1
 40
1.0
176
     1
 40
1.0
176
     1
  0
VISUALSTYLE
  5
2E
102
{ACAD_REACTORS
330
2A
102
}
330
2A
100
AcDbVisualStyle
  2
GouraudWithEdges
 70
     3
177
     3
291
     1
 70
    58
 90
        2
176
     1
 90
        2
176
     1
 90
        1
176
     1
 90
        2
176
     1
 40
0.6
176
     1
 40
30.0
176
     1
 62
     7
420
 16777215
176
     1
 90
        1
176
     1
 90
        0
176
     1
 62
     7
176
     1
 62
   257
176
     1
 90
        1
176
     1
 90
        1
176
     1
 40
1.0
176
     1
 90
        0
176
     1
 62
   257
176
     1
 40
1.0
176
     1
 90
        1
176
     1
 90
        6
176
     1
 90
        2
176
     1
 62
     7
176
     1
 90
        5
176
     1
 90
        0
176
     1
 90
        0
176
     1
290
     0
176
     1
 90
       13
176
     1
 40
0.0
176
     1
 90
        0
176
     1
290
     0
176
     1
290
     1
176
     1
290
     1
176
     1
290
     0
176
     1
290
     0
176
     1
290
     0
176
     1
290
     0
176
     1
290
     0
176
     1
290
     0
176
     1
 90
       50
176
     1
 40
0.0
176
     1
 40
1.0
176
     1
 90
        0
176
     1
 62
    18
420
        0
176
     1
 90
       50
176
     1
 90
        3
176
     1
 62
     5
420
      255
176
     1
290
     0
176
     1
 90
       50
176
     1
 90
       50
176
     1
 90
       50
176
     1
290
     0
176
     1
 90
       50
176
     1
 62
   256
176
     0
 40
1.0
176
     0
 90
        2
176
     1
  1
strokes_ogs.tif
176
     1
290
     0
176
     1
 40
1.0
176
     1
 40
1.0
176
     1
  0
VISUALSTYLE
  5
31
102
{ACAD_REACTORS
330
2A
102
}
330
2A
100
AcDbVisualStyle
  2
Hidden
 70
     6
177
     3
291
     0
 70
    58
 90
        1
176
     1
 90
        2
176
     1
 90
        2
176
     1
 90
        0
176
     1
 40
0.6
176
     1
 40
30.0
176
     1
 62
     7
420
 16777215
176
     1
 90
        2
176
     1
 90
        2
176
     1
 62
     7
176
     1
 62
   257
176
     1
 90
        2
176
     1
 90
        1
176
     1
 40
40.0
176
     1
 90
        0
176
     1
 62
   257
176
     1
 40
1.0
176
     1
 90
        1
176
     1
 90
        6
176
     1
 90
        2
176
     1
 62
     7
176
     1
 90
        3
176
     1
 90
        0
176
     1
 90
        0
176
     1
290
     0
176
     1
 90
        1
176
     1
 40
0.0
176
     1
 90
        0
176
     1
290
     0
176
     1
290
     1
176
     1
290
     1
176
     1
290
     0
176
     1
290
     0
176
     1
290
     0
176
     1
290
     0
176
     1
290
     0
176
     1
290
     0
176
     1
 90
       50
176
     1
 40
0.0
176
     1
 40
1.0
176
     1
 90
        0
176
     1
 62
    18
420
        0
176
     1
 90
       50
176
     1
 90
        3
176
     1
 62
     5
420
      255
176
     1
290
     0
176
     1
 90
       50
176
     1
 90
       50
176
     1
 90
       50
176
     1
290
     0
176
     1
 90
       50
176
     1
 62
   256
176
     0
 40
1.0
176
     0
 90
        2
176
     1
  1
strokes_ogs.tif
176
     1
290
     0
176
     1
 40
1.0
176
     1
 40
1.0
176
     1
  0
VISUALSTYLE
  5
3B
102
{ACAD_REACTORS
330
2A
102
}
330
2A
100
AcDbVisualStyle
  2
JitterOff
 70
    20
177
     3
291
     1
 70
    58
 90
        2
176
     0
 90
        2
176
     0
 90
        0
176
     0
 90
        0
176
     0
 40
0.6
176
     0
 40
30.0
176
     0
 62
     7
420
 16777215
176
     0
 90
        1
176
     0
 90
        4
176
     0
 62
     7
176
     0
 62
   257
176
     0
 90
        1
176
     0
 90
        1
176
     0
 40
1.0
176
     0
 90
       10
176
     2
 62
     7
176
     0
 40
1.0
176
     0
 90
        1
176
     0
 90
        6
176
     0
 90
        2
176
     0
 62
     7
176
     0
 90
        5
176
     0
 90
        0
176
     0
 90
        0
176
     0
290
     0
176
     0
 90
        1
176
     0
 40
0.0
176
     0
 90
        0
176
     0
290
     0
176
     0
290
     1
176
     0
290
     1
176
     0
290
     0
176
     0
290
     0
176
     0
290
     0
176
     0
290
     0
176
     0
290
     0
176
     0
290
     0
176
     0
 90
       50
176
     0
 40
0.0
176
     0
 40
1.0
176
     0
 90
        0
176
     0
 62
    18
420
        0
176
     0
 90
       50
176
     0
 90
        3
176
     0
 62
     5
420
      255
176
     0
290
     0
176
     0
 90
       50
176
     0
 90
       50
176
     0
 90
       50
176
     0
290
     0
176
     0
 90
       50
176
     0
 62
   256
176
     0
 40
1.0
176
     0
 90
        2
176
     0
  1
strokes_ogs.tif
176
     0
290
     0
176
     0
 40
1.0
176
     0
 40
1.0
176
     0
  0
VISUALSTYLE
  5
38
102
{ACAD_REACTORS
330
2A
102
}
330
2A
100
AcDbVisualStyle
  2
Linepattern
 70
    14
177
     3
291
     1
 70
    58
 90
        2
176
     1
 90
        2
176
     1
 90
        0
176
     1
 90
        0
176
     1
 40
0.6
176
     1
 40
30.0
176
     1
 62
     7
420
 16777215
176
     1
 90
        1
176
     1
 90
        4
176
     1
 62
     7
176
     1
 62
   257
176
     1
 90
        7
176
     1
 90
        7
176
     1
 40
1.0
176
     1
 90
        8
176
     1
 62
     7
176
     1
 40
1.0
176
     1
 90
        1
176
     1
 90
        6
176
     1
 90
        2
176
     1
 62
     7
176
     1
 90
        5
176
     1
 90
        0
176
     1
 90
        0
176
     1
290
     0
176
     1
 90
        1
176
     1
 40
0.0
176
     1
 90
        0
176
     1
290
     0
176
     1
290
     1
176
     1
290
     1
176
     1
290
     0
176
     1
290
     0
176
     1
290
     0
176
     1
290
     0
176
     1
290
     0
176
     1
290
     0
176
     1
 90
       50
176
     1
 40
0.0
176
     1
 40
1.0
176
     1
 90
        0
176
     1
 62
    18
420
        0
176
     1
 90
       50
176
     1
 90
        3
176
     1
 62
     5
420
      255
176
     1
290
     0
176
     1
 90
       50
176
     1
 90
       50
176
     1
 90
       50
176
     1
290
     0
176
     1
 90
       50
176
     1
 62
   256
176
     0
 40
1.0
176
     0
 90
        2
176
     1
  1
strokes_ogs.tif
176
     1
290
     0
176
     1
 40
1.0
176
     1
 40
1.0
176
     1
  0
VISUALSTYLE
  5
3C
102
{ACAD_REACTORS
330
2A
102
}
330
2A
100
AcDbVisualStyle
  2
OverhangOff
 70
    21
177
     3
291
     1
 70
    58
 90
        2
176
     0
 90
        2
176
     0
 90
        0
176
     0
 90
        0
176
     0
 40
0.6
176
     0
 40
30.0
176
     0
 62
     7
420
 16777215
176
     0
 90
        1
176
     0
 90
        4
176
     0
 62
     7
176
     0
 62
   257
176
     0
 90
        1
176
     0
 90
        1
176
     0
 40
1.0
176
     0
 90
        9
176
     2
 62
     7
176
     0
 40
1.0
176
     0
 90
        1
176
     0
 90
        6
176
     0
 90
        2
176
     0
 62
     7
176
     0
 90
        5
176
     0
 90
        0
176
     0
 90
        0
176
     0
290
     0
176
     0
 90
        1
176
     0
 40
0.0
176
     0
 90
        0
176
     0
290
     0
176
     0
290
     1
176
     0
290
     1
176
     0
290
     0
176
     0
290
     0
176
     0
290
     0
176
     0
290
     0
176
     0
290
     0
176
     0
290
     0
176
     0
 90
       50
176
     0
 40
0.0
176
     0
 40
1.0
176
     0
 90
        0
176
     0
 62
    18
420
        0
176
     0
 90
       50
176
     0
 90
        3
176
     0
 62
     5
420
      255
176
     0
290
     0
176
     0
 90
       50
176
     0
 90
       50
176
     0
 90
       50
176
     0
290
     0
176
     0
 90
       50
176
     0
 62
   256
176
     0
 40
1.0
176
     0
 90
        2
176
     0
  1
strokes_ogs.tif
176
     0
290
     0
176
     0
 40
1.0
176
     0
 40
1.0
176
     0
  0
VISUALSTYLE
  5
33
102
{ACAD_REACTORS
330
2A
102
}
330
2A
100
AcDbVisualStyle
  2
Realistic
 70
     8
177
     3
291
     0
 70
    58
 90
        2
176
     1
 90
        3
176
     1
 90
        0
176
     1
 90
        2
176
     1
 40
0.6
176
     1
 40
30.0
176
     1
 62
     7
420
 16777215
176
     1
 90
        0
176
     1
 90
        0
176
     1
 62
     7
176
     1
 62
   257
176
     1
 90
        1
176
     1
 90
        1
176
     1
 40
1.0
176
     1
 90
        8
176
     1
 62
   257
176
     1
 40
1.0
176
     1
 90
        1
176
     1
 90
        6
176
     1
 90
        2
176
     1
 62
     7
176
     1
 90
        3
176
     1
 90
        0
176
     1
 90
        0
176
     1
290
     0
176
     1
 90
       13
176
     1
 40
0.0
176
     1
 90
        0
176
     1
290
     0
176
     1
290
     1
176
     1
290
     1
176
     1
290
     0
176
     1
290
     0
176
     1
290
     0
176
     1
290
     0
176
     1
290
     0
176
     1
290
     0
176
     1
 90
       50
176
     1
 40
0.0
176
     1
 40
1.0
176
     1
 90
        0
176
     1
 62
    18
420
        0
176
     1
 90
       50
176
     1
 90
        3
176
     1
 62
     5
420
      255
176
     1
290
     0
176
     1
 90
       50
176
     1
 90
       50
176
     1
 90
       50
176
     1
290
     0
176
     1
 90
       50
176
     1
 62
   256
176
     0
 40
1.0
176
     0
 90
        2
176
     1
  1
strokes_ogs.tif
176
     1
290
     0
176
     1
 40
1.0
176
     1
 40
1.0
176
     1
  0
VISUALSTYLE
  5
42
102
{ACAD_REACTORS
330
2A
102
}
330
2A
100
AcDbVisualStyle
  2
Shaded
 70
    27
177
     3
291
     0
 70
    58
 90
        2
176
     1
 90
        2
176
     1
 90
        1
176
     1
 90
        2
176
     1
 40
0.6
176
     1
 40
30.0
176
     1
 62
     7
420
 16777215
176
     1
 90
        0
176
     1
 90
        4
176
     1
 62
     7
176
     1
 62
   257
176
     1
 90
        1
176
     1
 90
        1
176
     1
 40
1.0
176
     1
 90
        8
176
     1
 62
   257
176
     1
 40
1.0
176
     1
 90
        1
176
     1
 90
        6
176
     1
 90
        2
176
     1
 62
     8
420
  7895160
176
     1
 90
        3
176
     1
 90
        0
176
     1
 90
        0
176
     1
290
     0
176
     1
 90
        5
176
     1
 40
0.0
176
     1
 90
        0
176
     1
290
     0
176
     1
290
     1
176
     1
290
     1
176
     1
290
     0
176
     1
290
     0
176
     1
290
     0
176
     1
290
     0
176
     1
290
     0
176
     1
290
     0
176
     1
 90
       50
176
     1
 40
0.0
176
     1
 40
1.0
176
     1
 90
        0
176
     1
 62
    18
420
        0
176
     1
 90
       50
176
     1
 90
        3
176
     1
 62
     5
420
      255
176
     1
290
     0
176
     1
 90
       50
176
     1
 90
       50
176
     1
 90
       50
176
     1
290
     0
176
     1
 90
       50
176
     1
 62
   256
176
     0
 40
1.0
176
     0
 90
        2
176
     1
  1
strokes_ogs.tif
176
     1
290
     0
176
     1
 40
1.0
176
     1
 40
1.0
176
     1
  0
VISUALSTYLE
  5
41
102
{ACAD_REACTORS
330
2A
102
}
330
2A
100
AcDbVisualStyle
  2
Shaded with edges
 70
    26
177
     3
291
     0
 70
    58
 90
        2
176
     1
 90
        2
176
     1
 90
        1
176
     1
 90
        2
176
     1
 40
0.6
176
     1
 40
30.0
176
     1
 62
     7
420
 16777215
176
     1
 90
        1
176
     1
 90
       10
176
     1
 62
     7
176
     1
 62
   257
176
     1
 90
        2
176
     1
 90
        1
176
     1
 40
1.0
176
     1
 90
        8
176
     1
 62
   257
176
     1
 40
1.0
176
     1
 90
        1
176
     1
 90
        6
176
     1
 90
        2
176
     1
 62
     7
176
     1
 90
        3
176
     1
 90
        0
176
     1
 90
        0
176
     1
290
     0
176
     1
 90
        5
176
     1
 40
0.0
176
     1
 90
        0
176
     1
290
     0
176
     1
290
     1
176
     1
290
     1
176
     1
290
     0
176
     1
290
     0
176
     1
290
     0
176
     1
290
     0
176
     1
290
     0
176
     1
290
     0
176
     1
 90
       50
176
     1
 40
0.0
176
     1
 40
1.0
176
     1
 90
        0
176
     1
 62
    18
420
        0
176
     1
 90
       50
176
     1
 90
        3
176
     1
 62
     5
420
      255
176
     1
290
     0
176
     1
 90
       50
176
     1
 90
       50
176
     1
 90
       50
176
     1
290
     0
176
     1
 90
       50
176
     1
 62
   256
176
     0
 40
1.0
176
     0
 90
        2
176
     1
  1
strokes_ogs.tif
176
     1
290
     0
176
     1
 40
1.0
176
     1
 40
1.0
176
     1
  0
VISUALSTYLE
  5
3E
102
{ACAD_REACTORS
330
2A
102
}
330
2A
100
AcDbVisualStyle
  2
Shades of Gray
 70
    23
177
     3
291
     0
 70
    58
 90
        2
176
     1
 90
        2
176
     1
 90
        3
176
     1
 90
        0
176
     1
 40
0.6
176
     1
 40
30.0
176
     1
 62
     7
420
 16777215
176
     1
 90
        2
176
     1
 90
        2
176
     1
 62
     7
176
     1
 62
     7
176
     1
 90
        1
176
     1
 90
        1
176
     1
 40
40.0
176
     1
 90
        8
176
     1
 62
     7
176
     1
 40
1.0
176
     1
 90
        1
176
     1
 90
        6
176
     1
 90
        2
176
     1
 62
     7
176
     1
 90
        3
176
     1
 90
        0
176
     1
 90
        0
176
     1
290
     0
176
     1
 90
        1
176
     1
 40
0.0
176
     1
 90
        0
176
     1
290
     0
176
     1
290
     1
176
     1
290
     1
176
     1
290
     0
176
     1
290
     0
176
     1
290
     0
176
     1
290
     0
176
     1
290
     0
176
     1
290
     0
176
     1
 90
       50
176
     1
 40
0.0
176
     1
 40
1.0
176
     1
 90
        0
176
     1
 62
    18
420
        0
176
     1
 90
       50
176
     1
 90
        3
176
     1
 62
     5
420
      255
176
     1
290
     0
176
     1
 90
       50
176
     1
 90
       50
176
     1
 90
       50
176
     1
290
     0
176
     1
 90
       50
176
     1
 62
   256
176
     0
 40
1.0
176
     0
 90
        2
176
     1
  1
strokes_ogs.tif
176
     1
290
     0
176
     1
 40
1.0
176
     1
 40
1.0
176
     1
  0
VISUALSTYLE
  5
3F
102
{ACAD_REACTORS
330
2A
102
}
330
2A
100
AcDbVisualStyle
  2
Sketchy
 70
    24
177
     3
291
     0
 70
    58
 90
        1
176
     1
 90
        2
176
     1
 90
        2
176
     1
 90
        0
176
     1
 40
0.6
176
     1
 40
30.0
176
     1
 62
     7
420
 16777215
176
     1
 90
        2
176
     1
 90
        2
176
     1
 62
     7
176
     1
 62
     7
176
     1
 90
        1
176
     1
 90
        1
176
     1
 40
40.0
176
     1
 90
       11
176
     1
 62
     7
176
     1
 40
1.0
176
     1
 90
        1
176
     1
 90
        6
176
     1
 90
        2
176
     1
 62
     7
176
     1
 90
        6
176
     1
 90
        0
176
     1
 90
        0
176
     1
290
     0
176
     1
 90
        1
176
     1
 40
0.0
176
     1
 90
        0
176
     1
290
     0
176
     1
290
     1
176
     1
290
     1
176
     1
290
     0
176
     1
290
     0
176
     1
290
     0
176
     1
290
     0
176
     1
290
     0
176
     1
290
     0
176
     1
 90
       50
176
     1
 40
0.0
176
     1
 40
1.0
176
     1
 90
        0
176
     1
 62
    18
420
        0
176
     1
 90
       50
176
     1
 90
        3
176
     1
 62
     5
420
      255
176
     1
290
     0
176
     1
 90
       50
176
     1
 90
       50
176
     1
 90
       50
176
     1
290
     0
176
     1
 90
       50
176
     1
 62
   256
176
     0
 40
1.0
176
     0
 90
        2
176
     1
  1
strokes_ogs.tif
176
     1
290
     0
176
     1
 40
1.0
176
     1
 40
1.0
176
     1
  0
VISUALSTYLE
  5
37
102
{ACAD_REACTORS
330
2A
102
}
330
2A
100
AcDbVisualStyle
  2
Thicken
 70
    13
177
     3
291
     1
 70
    58
 90
        2
176
     1
 90
        2
176
     1
 90
        0
176
     1
 90
        0
176
     1
 40
0.6
176
     1
 40
30.0
176
     1
 62
     7
420
 16777215
176
     1
 90
        1
176
     1
 90
        4
176
     1
 62
     7
176
     1
 62
   257
176
     1
 90
        1
176
     1
 90
        1
176
     1
 40
1.0
176
     1
 90
       12
176
     1
 62
     7
176
     1
 40
1.0
176
     1
 90
        1
176
     1
 90
        6
176
     1
 90
        2
176
     1
 62
     7
176
     1
 90
        5
176
     1
 90
        0
176
     1
 90
        0
176
     1
290
     0
176
     1
 90
        1
176
     1
 40
0.0
176
     1
 90
        0
176
     1
290
     0
176
     1
290
     1
176
     1
290
     1
176
     1
290
     0
176
     1
290
     0
176
     1
290
     0
176
     1
290
     0
176
     1
290
     0
176
     1
290
     0
176
     1
 90
       50
176
     1
 40
0.0
176
     1
 40
1.0
176
     1
 90
        0
176
     1
 62
    18
420
        0
176
     1
 90
       50
176
     1
 90
        3
176
     1
 62
     5
420
      255
176
     1
290
     0
176
     1
 90
       50
176
     1
 90
       50
176
     1
 90
       50
176
     1
290
     0
176
     1
 90
       50
176
     1
 62
   256
176
     0
 40
1.0
176
     0
 90
        2
176
     1
  1
strokes_ogs.tif
176
     1
290
     0
176
     1
 40
1.0
176
     1
 40
1.0
176
     1
  0
VISUALSTYLE
  5
30
102
{ACAD_REACTORS
330
2A
102
}
330
2A
100
AcDbVisualStyle
  2
Wireframe
 70
     5
177
     3
291
     0
 70
    58
 90
        0
176
     1
 90
        2
176
     1
 90
        0
176
     1
 90
        0
176
     1
 40
0.6
176
     1
 40
30.0
176
     1
 62
     7
420
 16777215
176
     1
 90
        1
176
     1
 90
        4
176
     1
 62
     7
176
     1
 62
   257
176
     1
 90
        1
176
     1
 90
        1
176
     1
 40
1.0
176
     1
 90
        0
176
     1
 62
   257
176
     1
 40
1.0
176
     1
 90
        1
176
     1
 90
        6
176
     1
 90
        2
176
     1
 62
     7
176
     1
 90
        3
176
     1
 90
        0
176
     1
 90
        0
176
     1
290
     0
176
     1
 90
        1
176
     1
 40
0.0
176
     1
 90
        0
176
     1
290
     0
176
     1
290
     1
176
     1
290
     1
176
     1
290
     0
176
     1
290
     0
176
     1
290
     0
176
     1
290
     0
176
     1
290
     0
176
     1
290
     0
176
     1
 90
       50
176
     1
 40
0.0
176
     1
 40
1.0
176
     1
 90
        0
176
     1
 62
    18
420
        0
176
     1
 90
       50
176
     1
 90
        3
176
     1
 62
     5
420
      255
176
     1
290
     0
176
     1
 90
       50
176
     1
 90
       50
176
     1
 90
       50
176
     1
290
     0
176
     1
 90
       50
176
     1
 62
   256
176
     0
 40
1.0
176
     0
 90
        2
176
     1
  1
strokes_ogs.tif
176
     1
290
     0
176
     1
 40
1.0
176
     1
 40
1.0
176
     1
  0
VISUALSTYLE
  5
40
102
{ACAD_REACTORS
330
2A
102
}
330
2A
100
AcDbVisualStyle
  2
X-Ray
 70
    25
177
     3
291
     0
 70
    58
 90
        2
176
     1
 90
        2
176
     1
 90
        1
176
     1
 90
        1
176
     1
 40
0.5
176
     1
 40
30.0
176
     1
 62
     7
420
 16777215
176
     1
 90
        1
176
     1
 90
        0
176
     1
 62
     7
176
     1
 62
   257
176
     1
 90
        1
176
     1
 90
        1
176
     1
 40
1.0
176
     1
 90
        8
176
     1
 62
     7
176
     1
 40
1.0
176
     1
 90
        1
176
     1
 90
        6
176
     1
 90
        2
176
     1
 62
     7
176
     1
 90
        3
176
     1
 90
        0
176
     1
 90
        0
176
     1
290
     0
176
     1
 90
       13
176
     1
 40
0.0
176
     1
 90
        0
176
     1
290
     0
176
     1
290
     1
176
     1
290
     1
176
     1
290
     0
176
     1
290
     0
176
     1
290
     0
176
     1
290
     0
176
     1
290
     0
176
     1
290
     0
176
     1
 90
       50
176
     1
 40
0.0
176
     1
 40
1.0
176
     1
 90
        0
176
     1
 62
    18
420
        0
176
     1
 90
       50
176
     1
 90
        3
176
     1
 62
     5
420
      255
176
     1
290
     0
176
     1
 90
       50
176
     1
 90
       50
176
     1
 90
       50
176
     1
290
     0
176
     1
 90
       50
176
     1
 62
   256
176
     0
 40
1.0
176
     0
 90
        2
176
     1
  1
strokes_ogs.tif
176
     1
290
     0
176
     1
 40
1.0
176
     1
 40
1.0
176
     1
  0
DICTIONARYVAR
  5
224
102
{ACAD_REACTORS
330
223
102
}
330
223
100
DictionaryVariables
280
     0
  1
1:1
  0
DICTIONARYVAR
  5
229
102
{ACAD_REACTORS
330
223
102
}
330
223
100
DictionaryVariables
280
     0
  1
Standard
  0
DICTIONARYVAR
  5
228
102
{ACAD_REACTORS
330
223
102
}
330
223
100
DictionaryVariables
280
     0
  1
Standard
  0
DICTIONARY
  5
225
330
6A
100
AcDbDictionary
280
     1
281
     1
  3
ACAD_ROUNDTRIP_2008_TABLESTYLE_CELLSTYLEMAP
360
226
  0
CELLSTYLEMAP
  5
226
102
{ACAD_REACTORS
330
225
102
}
330
225
100
AcDbCellStyleMap
 90
        3
300
CELLSTYLE
  1
TABLEFORMAT_BEGIN
 90
        5
170
     1
 91
        0
 92
    32768
 62
   257
 93
        1
300
CONTENTFORMAT
  1
CONTENTFORMAT_BEGIN
 90
        0
 91
        0
 92
        4
 93
        0
300

 40
0.0
140
1.0
 94
        5
 62
     0
340
11
144
0.25
309
CONTENTFORMAT_END
171
     1
301
MARGIN
  1
CELLMARGIN_BEGIN
 40
0.06
 40
0.06
 40
0.06
 40
0.06
 40
0.06
 40
0.06
309
CELLMARGIN_END
 94
        6
 95
        1
302
GRIDFORMAT
  1
GRIDFORMAT_BEGIN
 90
        0
 91
        1
 62
     0
 92
       -2
340
14
 93
        0
 40
0.045
309
GRIDFORMAT_END
 95
        2
302
GRIDFORMAT
  1
GRIDFORMAT_BEGIN
 90
        0
 91
        1
 62
     0
 92
       -2
340
14
 93
        0
 40
0.045
309
GRIDFORMAT_END
 95
        4
302
GRIDFORMAT
  1
GRIDFORMAT_BEGIN
 90
        0
 91
        1
 62
     0
 92
       -2
340
14
 93
        0
 40
0.045
309
GRIDFORMAT_END
 95
        8
302
GRIDFORMAT
  1
GRIDFORMAT_BEGIN
 90
        0
 91
        1
 62
     0
 92
       -2
340
14
 93
        0
 40
0.045
309
GRIDFORMAT_END
 95
       16
302
GRIDFORMAT
  1
GRIDFORMAT_BEGIN
 90
        0
 91
        1
 62
     0
 92
       -2
340
14
 93
        0
 40
0.045
309
GRIDFORMAT_END
 95
       32
302
GRIDFORMAT
  1
GRIDFORMAT_BEGIN
 90
        0
 91
        1
 62
     0
 92
       -2
340
14
 93
        0
 40
0.045
309
GRIDFORMAT_END
309
TABLEFORMAT_END
  1
CELLSTYLE_BEGIN
 90
        1
 91
        1
300
_TITLE
309
CELLSTYLE_END
300
CELLSTYLE
  1
TABLEFORMAT_BEGIN
 90
        5
170
     1
 91
        0
 92
        0
 62
   257
 93
        1
300
CONTENTFORMAT
  1
CONTENTFORMAT_BEGIN
 90
        0
 91
        0
 92
        4
 93
        0
300

 40
0.0
140
1.0
 94
        5
 62
     0
340
11
144
0.18
309
CONTENTFORMAT_END
171
     1
301
MARGIN
  1
CELLMARGIN_BEGIN
 40
0.06
 40
0.06
 40
0.06
 40
0.06
 40
0.06
 40
0.06
309
CELLMARGIN_END
 94
        6
 95
        1
302
GRIDFORMAT
  1
GRIDFORMAT_BEGIN
 90
        0
 91
        1
 62
     0
 92
       -2
340
14
 93
        0
 40
0.045
309
GRIDFORMAT_END
 95
        2
302
GRIDFORMAT
  1
GRIDFORMAT_BEGIN
 90
        0
 91
        1
 62
     0
 92
       -2
340
14
 93
        0
 40
0.045
309
GRIDFORMAT_END
 95
        4
302
GRIDFORMAT
  1
GRIDFORMAT_BEGIN
 90
        0
 91
        1
 62
     0
 92
       -2
340
14
 93
        0
 40
0.045
309
GRIDFORMAT_END
 95
        8
302
GRIDFORMAT
  1
GRIDFORMAT_BEGIN
 90
        0
 91
        1
 62
     0
 92
       -2
340
14
 93
        0
 40
0.045
309
GRIDFORMAT_END
 95
       16
302
GRIDFORMAT
  1
GRIDFORMAT_BEGIN
 90
        0
 91
        1
 62
     0
 92
       -2
340
14
 93
        0
 40
0.045
309
GRIDFORMAT_END
 95
       32
302
GRIDFORMAT
  1
GRIDFORMAT_BEGIN
 90
        0
 91
        1
 62
     0
 92
       -2
340
14
 93
        0
 40
0.045
309
GRIDFORMAT_END
309
TABLEFORMAT_END
  1
CELLSTYLE_BEGIN
 90
        2
 91
        1
300
_HEADER
309
CELLSTYLE_END
300
CELLSTYLE
  1
TABLEFORMAT_BEGIN
 90
        5
170
     1
 91
        0
 92
        0
 62
   257
 93
        1
300
CONTENTFORMAT
  1
CONTENTFORMAT_BEGIN
 90
        0
 91
        0
 92
        4
 93
        0
300

 40
0.0
140
1.0
 94
        2
 62
     0
340
11
144
0.18
309
CONTENTFORMAT_END
171
     1
301
MARGIN
  1
CELLMARGIN_BEGIN
 40
0.06
 40
0.06
 40
0.06
 40
0.06
 40
0.06
 40
0.06
309
CELLMARGIN_END
 94
        6
 95
        1
302
GRIDFORMAT
  1
GRIDFORMAT_BEGIN
 90
        0
 91
        1
 62
     0
 92
       -2
340
14
 93
        0
 40
0.045
309
GRIDFORMAT_END
 95
        2
302
GRIDFORMAT
  1
GRIDFORMAT_BEGIN
 90
        0
 91
        1
 62
     0
 92
       -2
340
14
 93
        0
 40
0.045
309
GRIDFORMAT_END
 95
        4
302
GRIDFORMAT
  1
GRIDFORMAT_BEGIN
 90
        0
 91
        1
 62
     0
 92
       -2
340
14
 93
        0
 40
0.045
309
GRIDFORMAT_END
 95
        8
302
GRIDFORMAT
  1
GRIDFORMAT_BEGIN
 90
        0
 91
        1
 62
     0
 92
       -2
340
14
 93
        0
 40
0.045
309
GRIDFORMAT_END
 95
       16
302
GRIDFORMAT
  1
GRIDFORMAT_BEGIN
 90
        0
 91
        1
 62
     0
 92
       -2
340
14
 93
        0
 40
0.045
309
GRIDFORMAT_END
 95
       32
302
GRIDFORMAT
  1
GRIDFORMAT_BEGIN
 90
        0
 91
        1
 62
     0
 92
       -2
340
14
 93
        0
 40
0.045
309
GRIDFORMAT_END
309
TABLEFORMAT_END
  1
CELLSTYLE_BEGIN
 90
        3
 91
        2
300
_DATA
309
CELLSTYLE_END
  0
ENDSEC
  0
EOF