0
SECTION
  2
HEADER
  9
$ACADVER
  1
AC1027
  9
$ACADMAINTVER
 70
     8
  9
$DWGCODEPAGE
  3
ANSI_1252
  9
$REQUIREDVERSIONS
160
                 0
  9
$COMMENTS
  1
File was created by Cadenas
  9
$CUSTOMPROPERTYTAG
  1
NN
  9
$CUSTOMPROPERTY
  1
S-2000 Piloted Flange Trident Seal
  9
$CUSTOMPROPERTYTAG
  1
NT
  9
$CUSTOMPROPERTY
  1
S-2000 Piloted Flange Bearing -Inch
  9
$CUSTOMPROPERTYTAG
  1
NB
  9
$CUSTOMPROPERTY
  1
070649
  9
$CUSTOMPROPERTYTAG
  1
NBSYN
  9
$CUSTOMPROPERTY
  1
$PN.
  9
$CUSTOMPROPERTYTAG
  1
LINA
  9
$CUSTOMPROPERTY
  1
070649
  9
$CUSTOMPROPERTYTAG
  1
SS
  9
$CUSTOMPROPERTY
  1
1-3/4
  9
$CUSTOMPROPERTYTAG
  1
PN
  9
$CUSTOMPROPERTY
  1
070649
  9
$CUSTOMPROPERTYTAG
  1
DESCRIPTION
  9
$CUSTOMPROPERTY
  1
FC-S2-112R
  9
$CUSTOMPROPERTYTAG
  1
EF
  9
$CUSTOMPROPERTY
  1
Non-Expansion Type
  9
$CUSTOMPROPERTYTAG
  1
ST
  9
$CUSTOMPROPERTY
  1
Contact Seal
  9
$CUSTOMPROPERTYTAG
  1
A
  9
$CUSTOMPROPERTY
  1
2-43/64
  9
$CUSTOMPROPERTYTAG
  1
B
  9
$CUSTOMPROPERTY
  1
6-1/8
  9
$CUSTOMPROPERTYTAG
  1
C
  9
$CUSTOMPROPERTY
  1
1-29/32
  9
$CUSTOMPROPERTYTAG
  1
D
  9
$CUSTOMPROPERTY
  1
3-5/8
  9
$CUSTOMPROPERTYTAG
  1
DD
  9
$CUSTOMPROPERTY
  1
5-1/8
  9
$CUSTOMPROPERTYTAG
  1
E
  9
$CUSTOMPROPERTY
  1
7/8
  9
$CUSTOMPROPERTYTAG
  1
F
  9
$CUSTOMPROPERTY
  1
7/16
  9
$CUSTOMPROPERTYTAG
  1
G
  9
$CUSTOMPROPERTY
  1
1-29/64
  9
$CUSTOMPROPERTYTAG
  1
H
  9
$CUSTOMPROPERTY
  1
1/2
  9
$CUSTOMPROPERTYTAG
  1
K
  9
$CUSTOMPROPERTY
  1
4.250
  9
$CUSTOMPROPERTYTAG
  1
L
  9
$CUSTOMPROPERTY
  1
3-3/16
  9
$CUSTOMPROPERTYTAG
  1
M
  9
$CUSTOMPROPERTY
  1
7/16-14
  9
$CUSTOMPROPERTYTAG
  1
N
  9
$CUSTOMPROPERTY
  1
2-23/32
  9
$CUSTOMPROPERTYTAG
  1
P
  9
$CUSTOMPROPERTY
  1
1-7/32
  9
$CUSTOMPROPERTYTAG
  1
Q
  9
$CUSTOMPROPERTY
  1
1-17/64
  9
$CUSTOMPROPERTYTAG
  1
X
  9
$CUSTOMPROPERTY
  1
1/4
  9
$CUSTOMPROPERTYTAG
  1
Y
  9
$CUSTOMPROPERTY
  1
0.020
  9
$CUSTOMPROPERTYTAG
  1
Z
  9
$CUSTOMPROPERTY
  1
2-5/64
  9
$CUSTOMPROPERTYTAG
  1
COMPANY
  9
$CUSTOMPROPERTY
  1
baldor
  9
$INSBASE
 10
0.0
 20
0.0
 30
0.0
  9
$EXTMIN
 10
1.000000000000000E+20
 20
1.000000000000000E+20
 30
1.000000000000000E+20
  9
$EXTMAX
 10
-1.000000000000000E+20
 20
-1.000000000000000E+20
 30
-1.000000000000000E+20
  9
$LIMMIN
 10
0.0
 20
0.0
  9
$LIMMAX
 10
12.0
 20
9.0
  9
$ORTHOMODE
 70
     0
  9
$REGENMODE
 70
     1
  9
$FILLMODE
 70
     1
  9
$QTEXTMODE
 70
     0
  9
$MIRRTEXT
 70
     1
  9
$LTSCALE
 40
1.0
  9
$ATTMODE
 70
     1
  9
$TEXTSIZE
 40
0.2
  9
$TRACEWID
 40
0.05
  9
$TEXTSTYLE
  7
Standard
  9
$CLAYER
  8
0
  9
$CELTYPE
  6
ByLayer
  9
$CECOLOR
 62
   256
  9
$CELTSCALE
 40
1.0
  9
$DISPSILH
 70
     0
  9
$DIMSCALE
 40
1.0
  9
$DIMASZ
 40
0.18
  9
$DIMEXO
 40
0.0625
  9
$DIMDLI
 40
0.38
  9
$DIMRND
 40
0.0
  9
$DIMDLE
 40
0.0
  9
$DIMEXE
 40
0.18
  9
$DIMTP
 40
0.0
  9
$DIMTM
 40
0.0
  9
$DIMTXT
 40
0.18
  9
$DIMCEN
 40
0.09
  9
$DIMTSZ
 40
0.0
  9
$DIMTOL
 70
     0
  9
$DIMLIM
 70
     0
  9
$DIMTIH
 70
     1
  9
$DIMTOH
 70
     1
  9
$DIMSE1
 70
     0
  9
$DIMSE2
 70
     0
  9
$DIMTAD
 70
     0
  9
$DIMZIN
 70
     0
  9
$DIMBLK
  1

  9
$DIMASO
 70
     1
  9
$DIMSHO
 70
     1
  9
$DIMPOST
  1

  9
$DIMAPOST
  1

  9
$DIMALT
 70
     0
  9
$DIMALTD
 70
     2
  9
$DIMALTF
 40
25.4
  9
$DIMLFAC
 40
1.0
  9
$DIMTOFL
 70
     0
  9
$DIMTVP
 40
0.0
  9
$DIMTIX
 70
     0
  9
$DIMSOXD
 70
     0
  9
$DIMSAH
 70
     0
  9
$DIMBLK1
  1

  9
$DIMBLK2
  1

  9
$DIMSTYLE
  2
Standard
  9
$DIMCLRD
 70
     0
  9
$DIMCLRE
 70
     0
  9
$DIMCLRT
 70
     0
  9
$DIMTFAC
 40
1.0
  9
$DIMGAP
 40
0.09
  9
$DIMJUST
 70
     0
  9
$DIMSD1
 70
     0
  9
$DIMSD2
 70
     0
  9
$DIMTOLJ
 70
     1
  9
$DIMTZIN
 70
     0
  9
$DIMALTZ
 70
     0
  9
$DIMALTTZ
 70
     0
  9
$DIMUPT
 70
     0
  9
$DIMDEC
 70
     4
  9
$DIMTDEC
 70
     4
  9
$DIMALTU
 70
     2
  9
$DIMALTTD
 70
     2
  9
$DIMTXSTY
  7
Standard
  9
$DIMAUNIT
 70
     0
  9
$DIMADEC
 70
     0
  9
$DIMALTRND
 40
0.0
  9
$DIMAZIN
 70
     0
  9
$DIMDSEP
 70
    46
  9
$DIMATFIT
 70
     3
  9
$DIMFRAC
 70
     0
  9
$DIMLDRBLK
  1

  9
$DIMLUNIT
 70
     2
  9
$DIMLWD
 70
    -2
  9
$DIMLWE
 70
    -2
  9
$DIMTMOVE
 70
     0
  9
$DIMFXL
 40
1.0
  9
$DIMFXLON
 70
     0
  9
$DIMJOGANG
 40
0.7853981633974483
  9
$DIMTFILL
 70
     0
  9
$DIMTFILLCLR
 70
     0
  9
$DIMARCSYM
 70
     0
  9
$DIMLTYPE
  6

  9
$DIMLTEX1
  6

  9
$DIMLTEX2
  6

  9
$DIMTXTDIRECTION
 70
     0
  9
$LUNITS
 70
     2
  9
$LUPREC
 70
     4
  9
$SKETCHINC
 40
0.1
  9
$FILLETRAD
 40
0.5
  9
$AUNITS
 70
     0
  9
$AUPREC
 70
     0
  9
$MENU
  1
.
  9
$ELEVATION
 40
0.0
  9
$PELEVATION
 40
0.0
  9
$THICKNESS
 40
0.0
  9
$LIMCHECK
 70
     0
  9
$CHAMFERA
 40
0.0
  9
$CHAMFERB
 40
0.0
  9
$CHAMFERC
 40
0.0
  9
$CHAMFERD
 40
0.0
  9
$SKPOLY
 70
     0
  9
$TDCREATE
 40
2458168.985420255
  9
$TDUCREATE
 40
2458168.943753588
  9
$TDUPDATE
 40
2458168.98542044
  9
$TDUUPDATE
 40
2458168.943753773
  9
$TDINDWG
 40
0.0000000116
  9
$TDUSRTIMER
 40
0.0000000116
  9
$USRTIMER
 70
     1
  9
$ANGBASE
 50
0.0
  9
$ANGDIR
 70
     0
  9
$PDMODE
 70
     0
  9
$PDSIZE
 40
0.0
  9
$PLINEWID
 40
0.0
  9
$SPLFRAME
 70
     0
  9
$SPLINETYPE
 70
     6
  9
$SPLINESEGS
 70
     8
  9
$HANDSEED
  5
20F
  9
$SURFTAB1
 70
     6
  9
$SURFTAB2
 70
     6
  9
$SURFTYPE
 70
     6
  9
$SURFU
 70
     6
  9
$SURFV
 70
     6
  9
$UCSBASE
  2

  9
$UCSNAME
  2

  9
$UCSORG
 10
0.0
 20
0.0
 30
0.0
  9
$UCSXDIR
 10
1.0
 20
0.0
 30
0.0
  9
$UCSYDIR
 10
0.0
 20
1.0
 30
0.0
  9
$UCSORTHOREF
  2

  9
$UCSORTHOVIEW
 70
     0
  9
$UCSORGTOP
 10
0.0
 20
0.0
 30
0.0
  9
$UCSORGBOTTOM
 10
0.0
 20
0.0
 30
0.0
  9
$UCSORGLEFT
 10
0.0
 20
0.0
 30
0.0
  9
$UCSORGRIGHT
 10
0.0
 20
0.0
 30
0.0
  9
$UCSORGFRONT
 10
0.0
 20
0.0
 30
0.0
  9
$UCSORGBACK
 10
0.0
 20
0.0
 30
0.0
  9
$PUCSBASE
  2

  9
$PUCSNAME
  2

  9
$PUCSORG
 10
0.0
 20
0.0
 30
0.0
  9
$PUCSXDIR
 10
1.0
 20
0.0
 30
0.0
  9
$PUCSYDIR
 10
0.0
 20
1.0
 30
0.0
  9
$PUCSORTHOREF
  2

  9
$PUCSORTHOVIEW
 70
     0
  9
$PUCSORGTOP
 10
0.0
 20
0.0
 30
0.0
  9
$PUCSORGBOTTOM
 10
0.0
 20
0.0
 30
0.0
  9
$PUCSORGLEFT
 10
0.0
 20
0.0
 30
0.0
  9
$PUCSORGRIGHT
 10
0.0
 20
0.0
 30
0.0
  9
$PUCSORGFRONT
 10
0.0
 20
0.0
 30
0.0
  9
$PUCSORGBACK
 10
0.0
 20
0.0
 30
0.0
  9
$USERI1
 70
     0
  9
$USERI2
 70
     0
  9
$USERI3
 70
     0
  9
$USERI4
 70
     0
  9
$USERI5
 70
     0
  9
$USERR1
 40
0.0
  9
$USERR2
 40
0.0
  9
$USERR3
 40
0.0
  9
$USERR4
 40
0.0
  9
$USERR5
 40
0.0
  9
$WORLDVIEW
 70
     1
  9
$SHADEDGE
 70
     3
  9
$SHADEDIF
 70
    70
  9
$TILEMODE
 70
     1
  9
$MAXACTVP
 70
    64
  9
$PINSBASE
 10
0.0
 20
0.0
 30
0.0
  9
$PLIMCHECK
 70
     0
  9
$PEXTMIN
 10
1.000000000000000E+20
 20
1.000000000000000E+20
 30
1.000000000000000E+20
  9
$PEXTMAX
 10
-1.000000000000000E+20
 20
-1.000000000000000E+20
 30
-1.000000000000000E+20
  9
$PLIMMIN
 10
0.0
 20
0.0
  9
$PLIMMAX
 10
12.0
 20
9.0
  9
$UNITMODE
 70
     0
  9
$VISRETAIN
 70
     1
  9
$PLINEGEN
 70
     0
  9
$PSLTSCALE
 70
     1
  9
$TREEDEPTH
 70
  3020
  9
$CMLSTYLE
  2
Standard
  9
$CMLJUST
 70
     0
  9
$CMLSCALE
 40
1.0
  9
$PROXYGRAPHICS
 70
     1
  9
$MEASUREMENT
 70
     0
  9
$CELWEIGHT
370
    -1
  9
$ENDCAPS
280
     0
  9
$JOINSTYLE
280
     0
  9
$LWDISPLAY
290
     0
  9
$INSUNITS
 70
     1
  9
$HYPERLINKBASE
  1

  9
$STYLESHEET
  1

  9
$XEDIT
290
     1
  9
$CEPSNTYPE
380
     0
  9
$PSTYLEMODE
290
     1
  9
$FINGERPRINTGUID
  2
{69E4F435-FBD0-4B39-8C7A-6F8FD13A79DE}
  9
$VERSIONGUID
  2
{FAEB1C32-E019-11D5-929B-00C0DF256EC4}
  9
$EXTNAMES
290
     1
  9
$PSVPSCALE
 40
0.0
  9
$OLESTARTUP
290
     0
  9
$SORTENTS
280
   127
  9
$INDEXCTL
280
     0
  9
$HIDETEXT
280
     1
  9
$XCLIPFRAME
280
     2
  9
$HALOGAP
280
     0
  9
$OBSCOLOR
 70
   257
  9
$OBSLTYPE
280
     0
  9
$INTERSECTIONDISPLAY
280
     0
  9
$INTERSECTIONCOLOR
 70
   257
  9
$DIMASSOC
280
     2
  9
$PROJECTNAME
  1

  9
$CAMERADISPLAY
290
     0
  9
$LENSLENGTH
 40
50.0
  9
$CAMERAHEIGHT
 40
0.0
  9
$STEPSPERSEC
 40
2.0
  9
$STEPSIZE
 40
6.0
  9
$3DDWFPREC
 40
2.0
  9
$PSOLWIDTH
 40
0.25
  9
$PSOLHEIGHT
 40
4.0
  9
$LOFTANG1
 40
1.570796326794897
  9
$LOFTANG2
 40
1.570796326794897
  9
$LOFTMAG1
 40
0.0
  9
$LOFTMAG2
 40
0.0
  9
$LOFTPARAM
 70
     7
  9
$LOFTNORMALS
280
     1
  9
$LATITUDE
 40
37.795
  9
$LONGITUDE
 40
-122.394
  9
$NORTHDIRECTION
 40
0.0
  9
$TIMEZONE
 70
 -8000
  9
$LIGHTGLYPHDISPLAY
280
     1
  9
$TILEMODELIGHTSYNCH
280
     1
  9
$CMATERIAL
347
44
  9
$SOLIDHIST
280
     0
  9
$SHOWHIST
280
     1
  9
$DWFFRAME
280
     2
  9
$DGNFRAME
280
     2
  9
$REALWORLDSCALE
290
     1
  9
$INTERFERECOLOR
 62
   256
  9
$CSHADOW
280
     0
  9
$SHADOWPLANELOCATION
 40
0.0
  0
ENDSEC
  0
SECTION
  2
CLASSES
  0
CLASS
  1
ACDBDICTIONARYWDFLT
  2
AcDbDictionaryWithDefault
  3
ObjectDBX Classes
 90
        0
 91
        4
280
     0
281
     0
  0
CLASS
  1
VISUALSTYLE
  2
AcDbVisualStyle
  3
ObjectDBX Classes
 90
     4095
 91
        4
280
     0
281
     0
  0
CLASS
  1
MATERIAL
  2
AcDbMaterial
  3
ObjectDBX Classes
 90
     1153
 91
        4
280
     0
281
     0
  0
CLASS
  1
SCALE
  2
AcDbScale
  3
ObjectDBX Classes
 90
     1153
 91
        4
280
     0
281
     0
  0
CLASS
  1
TABLESTYLE
  2
AcDbTableStyle
  3
ObjectDBX Classes
 90
     4095
 91
        4
280
     0
281
     0
  0
CLASS
  1
MLEADERSTYLE
  2
AcDbMLeaderStyle
  3
ACDB_MLEADERSTYLE_CLASS
 90
     4095
 91
        4
280
     0
281
     0
  0
CLASS
  1
SUN
  2
AcDbSun
  3
SCENEOE
 90
     1153
 91
        4
280
     0
281
     0
  0
CLASS
  1
DICTIONARYVAR
  2
AcDbDictionaryVar
  3
ObjectDBX Classes
 90
        0
 91
        4
280
     0
281
     0
  0
CLASS
  1
CELLSTYLEMAP
  2
AcDbCellStyleMap
  3
ObjectDBX Classes
 90
     1152
 91
        4
280
     0
281
     0
  0
ENDSEC
  0
SECTION
  2
TABLES
  0
TABLE
  2
VPORT
  5
8
330
0
100
AcDbSymbolTable
 70
     1
  0
VPORT
  5
29
330
8
100
AcDbSymbolTableRecord
100
AcDbViewportTableRecord
  2
*Active
 70
     0
 10
0.0
 20
0.0
 11
1.0
 21
1.0
 12
0.1827187499999994
 22
0.0023327850877193
 13
0.0
 23
0.0
 14
0.5
 24
0.5
 15
0.5
 25
0.5
 16
0.0
 26
0.0
 36
1.0
 17
0.0
 27
0.0
 37
0.0
 40
6.242741118421053
 41
0.5779606556730913
 42
50.0
 43
0.0
 44
0.0
 50
0.0
 51
0.0
 71
     0
 72
   100
 73
     1
 74
     3
 75
     0
 76
     0
 77
     0
 78
     0
281
     0
 65
     1
110
0.0
120
0.0
130
0.0
111
1.0
121
0.0
131
0.0
112
0.0
122
1.0
132
0.0
 79
     0
146
0.0
348
2F
 60
     3
 61
     5
292
     1
282
     1
141
0.0
142
0.0
 63
   250
361
6D
  0
ENDTAB
  0
TABLE
  2
LTYPE
  5
5
330
0
100
AcDbSymbolTable
 70
     3
  0
LTYPE
  5
14
330
5
100
AcDbSymbolTableRecord
100
AcDbLinetypeTableRecord
  2
ByBlock
 70
     0
  3

 72
    65
 73
     0
 40
0.0
  0
LTYPE
  5
15
330
5
100
AcDbSymbolTableRecord
100
AcDbLinetypeTableRecord
  2
ByLayer
 70
     0
  3

 72
    65
 73
     0
 40
0.0
  0
LTYPE
  5
16
330
5
100
AcDbSymbolTableRecord
100
AcDbLinetypeTableRecord
  2
Continuous
 70
     0
  3
Solid line
 72
    65
 73
     0
 40
0.0
  0
LTYPE
  5
A7
330
5
100
AcDbSymbolTableRecord
100
AcDbLinetypeTableRecord
  2
Dashed
 70
     0
  3

 72
    65
 73
     2
 40
2.0
 49
1.0
 74
     0
 49
-1.0
 74
     0
  0
LTYPE
  5
152
330
5
100
AcDbSymbolTableRecord
100
AcDbLinetypeTableRecord
  2
Center
 70
     0
  3

 72
    65
 73
     4
 40
1.5
 49
0.45
 74
     0
 49
-0.5
 74
     0
 49
0.05
 74
     0
 49
-0.5
 74
     0
  0
ENDTAB
  0
TABLE
  2
LAYER
  5
2
330
0
100
AcDbSymbolTable
 70
     7
  0
LAYER
  5
10
330
2
100
AcDbSymbolTableRecord
100
AcDbLayerTableRecord
  2
0
 70
     0
 62
     7
  6
Continuous
370
    -3
390
F
347
46
348
0
  0
LAYER
  5
72
330
2
100
AcDbSymbolTableRecord
100
AcDbLayerTableRecord
  2
AM_6
 70
     0
 62
    -2
  6
Continuous
370
    35
390
F
347
46
348
0
  0
LAYER
  5
A8
330
2
100
AcDbSymbolTableRecord
100
AcDbLayerTableRecord
  2
AM_9
 70
     0
 62
     6
  6
Dashed
370
    25
390
F
347
46
348
0
  0
LAYER
  5
DE
330
2
100
AcDbSymbolTableRecord
100
AcDbLayerTableRecord
  2
AM_5
 70
     0
 62
     3
  6
Continuous
370
    25
390
F
347
46
348
0
  0
LAYER
  5
E3
330
2
100
AcDbSymbolTableRecord
100
AcDbLayerTableRecord
  2
AM_4
 70
     0
 62
     7
  6
Continuous
370
    50
390
F
347
46
348
0
  0
LAYER
  5
153
330
2
100
AcDbSymbolTableRecord
100
AcDbLayerTableRecord
  2
AM_7
 70
     0
 62
     7
  6
Center
370
    25
390
F
347
46
348
0
  0
LAYER
  5
1FB
330
2
100
AcDbSymbolTableRecord
100
AcDbLayerTableRecord
  2
ConnectionPoints
 70
     0
 62
     7
  6
Continuous
370
    50
390
F
347
46
348
0
  0
ENDTAB
  0
TABLE
  2
STYLE
  5
3
330
0
100
AcDbSymbolTable
 70
     1
  0
STYLE
  5
11
330
3
100
AcDbSymbolTableRecord
100
AcDbTextStyleTableRecord
  2
Standard
 70
     0
 40
0.0
 41
1.0
 50
0.0
 71
     0
 42
0.2
  3
txt
  4

  0
ENDTAB
  0
TABLE
  2
VIEW
  5
6
330
0
100
AcDbSymbolTable
 70
     0
  0
ENDTAB
  0
TABLE
  2
UCS
  5
7
330
0
100
AcDbSymbolTable
 70
     0
  0
ENDTAB
  0
TABLE
  2
APPID
  5
9
330
0
100
AcDbSymbolTable
 70
     1
  0
APPID
  5
12
330
9
100
AcDbSymbolTableRecord
100
AcDbRegAppTableRecord
  2
ACAD
 70
     0
  0
ENDTAB
  0
TABLE
  2
DIMSTYLE
  5
A
330
0
100
AcDbSymbolTable
 70
     1
100
AcDbDimStyleTable
  0
DIMSTYLE
105
27
330
A
100
AcDbSymbolTableRecord
100
AcDbDimStyleTableRecord
  2
Standard
 70
     0
178
     0
340
11
  0
ENDTAB
  0
TABLE
  2
BLOCK_RECORD
  5
1
330
0
100
AcDbSymbolTable
 70
     7
  0
BLOCK_RECORD
  5
1F
330
1
100
AcDbSymbolTableRecord
100
AcDbBlockTableRecord
  2
*Model_Space
340
22
 70
     0
280
     1
281
     0
  0
BLOCK_RECORD
  5
1B
330
1
100
AcDbSymbolTableRecord
100
AcDbBlockTableRecord
  2
*Paper_Space
340
1E
 70
     0
280
     1
281
     0
  0
BLOCK_RECORD
  5
23
330
1
100
AcDbSymbolTableRecord
100
AcDbBlockTableRecord
  2
*Paper_Space0
340
26
 70
     0
280
     1
281
     0
  0
BLOCK_RECORD
  5
6E
330
1
100
AcDbSymbolTableRecord
100
AcDbBlockTableRecord
  2
1_070649_2
340
0
102
{BLKREFS
331
6F
102
}
 70
     0
280
     1
281
     0
  0
BLOCK_RECORD
  5
90
330
1
100
AcDbSymbolTableRecord
100
AcDbBlockTableRecord
  2
2_1_3_4_Disc_0_in_070649_2
340
0
102
{BLKREFS
331
91
102
}
 70
     0
280
     1
281
     0
  0
BLOCK_RECORD
  5
B4
330
1
100
AcDbSymbolTableRecord
100
AcDbBlockTableRecord
  2
3_1_3_4CS2i_0_in_070649_2
340
0
102
{BLKREFS
331
B5
102
}
 70
     0
280
     1
281
     0
  0
BLOCK_RECORD
  5
F6
330
1
100
AcDbSymbolTableRecord
100
AcDbBlockTableRecord
  2
4_070004i_0_in_070649_2
340
0
102
{BLKREFS
331
F7
102
}
 70
     0
280
     1
281
     0
  0
BLOCK_RECORD
  5
158
330
1
100
AcDbSymbolTableRecord
100
AcDbBlockTableRecord
  2
5_405015E_Inch_0_in_070649_2
340
0
102
{BLKREFS
331
159
102
}
 70
     0
280
     1
281
     0
  0
BLOCK_RECORD
  5
197
330
1
100
AcDbSymbolTableRecord
100
AcDbBlockTableRecord
  2
6_070649H_0_in_070649_2
340
0
102
{BLKREFS
331
198
102
}
 70
     0
280
     1
281
     0
  0
ENDTAB
  0
ENDSEC
  0
SECTION
  2
BLOCKS
  0
BLOCK
  5
20
330
1F
100
AcDbEntity
  8
0
100
AcDbBlockBegin
  2
*Model_Space
 70
     0
 10
0.0
 20
0.0
 30
0.0
  3
*Model_Space
  1

  0
ENDBLK
  5
21
330
1F
100
AcDbEntity
  8
0
100
AcDbBlockEnd
  0
BLOCK
  5
1C
330
1B
100
AcDbEntity
 67
     1
  8
0
100
AcDbBlockBegin
  2
*Paper_Space
 70
     0
 10
0.0
 20
0.0
 30
0.0
  3
*Paper_Space
  1

  0
ENDBLK
  5
1D
330
1B
100
AcDbEntity
 67
     1
  8
0
100
AcDbBlockEnd
  0
BLOCK
  5
24
330
23
100
AcDbEntity
  8
0
100
AcDbBlockBegin
  2
*Paper_Space0
 70
     0
 10
0.0
 20
0.0
 30
0.0
  3
*Paper_Space0
  1

  0
ENDBLK
  5
25
330
23
100
AcDbEntity
  8
0
100
AcDbBlockEnd
  0
BLOCK
  5
70
330
6E
100
AcDbEntity
  8
0
100
AcDbBlockBegin
  2
1_070649_2
 70
     2
 10
0.0
 20
0.0
 30
0.0
  3
1_070649_2
  1

  0
ATTDEF
  5
73
330
6E
100
AcDbEntity
  8
AM_6
100
AcDbText
 10
6.365953947368421
 20
3.0625
 30
0.0
 40
0.5
  1
S-2000 Piloted Flange Trident Seal
100
AcDbAttributeDefinition
  3

  2
NN
 70
     8
280
     0
  0
ATTDEF
  5
74
330
6E
100
AcDbEntity
  8
AM_6
100
AcDbText
 10
6.365953947368421
 20
2.5625
 30
0.0
 40
0.5
  1
S-2000 Piloted Flange Bearing -Inch
100
AcDbAttributeDefinition
  3

  2
NT
 70
     8
280
     0
  0
ATTDEF
  5
75
330
6E
100
AcDbEntity
  8
AM_6
100
AcDbText
 10
6.365953947368421
 20
2.0625
 30
0.0
 40
0.5
  1
070649
100
AcDbAttributeDefinition
  3

  2
NB
 70
     8
280
     0
  0
ATTDEF
  5
76
330
6E
100
AcDbEntity
  8
AM_6
100
AcDbText
 10
6.365953947368421
 20
1.5625
 30
0.0
 40
0.5
  1
$PN.
100
AcDbAttributeDefinition
  3

  2
NBSYN
 70
     8
280
     0
  0
ATTDEF
  5
77
330
6E
100
AcDbEntity
  8
AM_6
100
AcDbText
 10
6.365953947368421
 20
1.0625
 30
0.0
 40
0.5
  1
070649
100
AcDbAttributeDefinition
  3

  2
LINA
 70
     8
280
     0
  0
ATTDEF
  5
78
330
6E
100
AcDbEntity
  8
AM_6
100
AcDbText
 10
6.365953947368421
 20
0.5625
 30
0.0
 40
0.5
  1
1-3/4
100
AcDbAttributeDefinition
  3

  2
SS
 70
     8
280
     0
  0
ATTDEF
  5
79
330
6E
100
AcDbEntity
  8
AM_6
100
AcDbText
 10
6.365953947368421
 20
0.0625
 30
0.0
 40
0.5
  1
070649
100
AcDbAttributeDefinition
  3

  2
PN
 70
     8
280
     0
  0
ATTDEF
  5
7A
330
6E
100
AcDbEntity
  8
AM_6
100
AcDbText
 10
6.365953947368421
 20
-0.4375
 30
0.0
 40
0.5
  1
FC-S2-112R
100
AcDbAttributeDefinition
  3

  2
DESCRIPTION
 70
     8
280
     0
  0
ATTDEF
  5
7B
330
6E
100
AcDbEntity
  8
AM_6
100
AcDbText
 10
6.365953947368421
 20
-0.9375
 30
0.0
 40
0.5
  1
Non-Expansion Type
100
AcDbAttributeDefinition
  3

  2
EF
 70
     8
280
     0
  0
ATTDEF
  5
7C
330
6E
100
AcDbEntity
  8
AM_6
100
AcDbText
 10
6.365953947368421
 20
-1.4375
 30
0.0
 40
0.5
  1
Contact Seal
100
AcDbAttributeDefinition
  3

  2
ST
 70
     8
280
     0
  0
ATTDEF
  5
7D
330
6E
100
AcDbEntity
  8
AM_6
100
AcDbText
 10
6.365953947368421
 20
-1.9375
 30
0.0
 40
0.5
  1
2-43/64
100
AcDbAttributeDefinition
  3

  2
A
 70
     8
280
     0
  0
ATTDEF
  5
7E
330
6E
100
AcDbEntity
  8
AM_6
100
AcDbText
 10
6.365953947368421
 20
-2.4375
 30
0.0
 40
0.5
  1
6-1/8
100
AcDbAttributeDefinition
  3

  2
B
 70
     8
280
     0
  0
ATTDEF
  5
7F
330
6E
100
AcDbEntity
  8
AM_6
100
AcDbText
 10
6.365953947368421
 20
-2.9375
 30
0.0
 40
0.5
  1
1-29/32
100
AcDbAttributeDefinition
  3

  2
C
 70
     8
280
     0
  0
ATTDEF
  5
80
330
6E
100
AcDbEntity
  8
AM_6
100
AcDbText
 10
6.365953947368421
 20
-3.4375
 30
0.0
 40
0.5
  1
3-5/8
100
AcDbAttributeDefinition
  3

  2
D
 70
     8
280
     0
  0
ATTDEF
  5
81
330
6E
100
AcDbEntity
  8
AM_6
100
AcDbText
 10
6.365953947368421
 20
-3.9375
 30
0.0
 40
0.5
  1
5-1/8
100
AcDbAttributeDefinition
  3

  2
DD
 70
     8
280
     0
  0
ATTDEF
  5
82
330
6E
100
AcDbEntity
  8
AM_6
100
AcDbText
 10
6.365953947368421
 20
-4.4375
 30
0.0
 40
0.5
  1
7/8
100
AcDbAttributeDefinition
  3

  2
E
 70
     8
280
     0
  0
ATTDEF
  5
83
330
6E
100
AcDbEntity
  8
AM_6
100
AcDbText
 10
6.365953947368421
 20
-4.9375
 30
0.0
 40
0.5
  1
7/16
100
AcDbAttributeDefinition
  3

  2
F
 70
     8
280
     0
  0
ATTDEF
  5
84
330
6E
100
AcDbEntity
  8
AM_6
100
AcDbText
 10
6.365953947368421
 20
-5.4375
 30
0.0
 40
0.5
  1
1-29/64
100
AcDbAttributeDefinition
  3

  2
G
 70
     8
280
     0
  0
ATTDEF
  5
85
330
6E
100
AcDbEntity
  8
AM_6
100
AcDbText
 10
6.365953947368421
 20
-5.9375
 30
0.0
 40
0.5
  1
1/2
100
AcDbAttributeDefinition
  3

  2
H
 70
     8
280
     0
  0
ATTDEF
  5
86
330
6E
100
AcDbEntity
  8
AM_6
100
AcDbText
 10
6.365953947368421
 20
-6.4375
 30
0.0
 40
0.5
  1
4.250
100
AcDbAttributeDefinition
  3

  2
K
 70
     8
280
     0
  0
ATTDEF
  5
87
330
6E
100
AcDbEntity
  8
AM_6
100
AcDbText
 10
6.365953947368421
 20
-6.9375
 30
0.0
 40
0.5
  1
3-3/16
100
AcDbAttributeDefinition
  3

  2
L
 70
     8
280
     0
  0
ATTDEF
  5
88
330
6E
100
AcDbEntity
  8
AM_6
100
AcDbText
 10
6.365953947368421
 20
-7.4375
 30
0.0
 40
0.5
  1
7/16-14
100
AcDbAttributeDefinition
  3

  2
M
 70
     8
280
     0
  0
ATTDEF
  5
89
330
6E
100
AcDbEntity
  8
AM_6
100
AcDbText
 10
6.365953947368421
 20
-7.9375
 30
0.0
 40
0.5
  1
2-23/32
100
AcDbAttributeDefinition
  3

  2
N
 70
     8
280
     0
  0
ATTDEF
  5
8A
330
6E
100
AcDbEntity
  8
AM_6
100
AcDbText
 10
6.365953947368421
 20
-8.4375
 30
0.0
 40
0.5
  1
1-7/32
100
AcDbAttributeDefinition
  3

  2
P
 70
     8
280
     0
  0
ATTDEF
  5
8B
330
6E
100
AcDbEntity
  8
AM_6
100
AcDbText
 10
6.365953947368421
 20
-8.9375
 30
0.0
 40
0.5
  1
1-17/64
100
AcDbAttributeDefinition
  3

  2
Q
 70
     8
280
     0
  0
ATTDEF
  5
8C
330
6E
100
AcDbEntity
  8
AM_6
100
AcDbText
 10
6.365953947368421
 20
-9.4375
 30
0.0
 40
0.5
  1
1/4
100
AcDbAttributeDefinition
  3

  2
X
 70
     8
280
     0
  0
ATTDEF
  5
8D
330
6E
100
AcDbEntity
  8
AM_6
100
AcDbText
 10
6.365953947368421
 20
-9.9375
 30
0.0
 40
0.5
  1
0.020
100
AcDbAttributeDefinition
  3

  2
Y
 70
     8
280
     0
  0
ATTDEF
  5
8E
330
6E
100
AcDbEntity
  8
AM_6
100
AcDbText
 10
6.365953947368421
 20
-10.4375
 30
0.0
 40
0.5
  1
2-5/64
100
AcDbAttributeDefinition
  3

  2
Z
 70
     8
280
     0
  0
ATTDEF
  5
8F
330
6E
100
AcDbEntity
  8
AM_6
100
AcDbText
 10
6.365953947368421
 20
-10.9375
 30
0.0
 40
0.5
  1
baldor
100
AcDbAttributeDefinition
  3

  2
COMPANY
 70
     8
280
     0
  0
INSERT
  5
91
330
6E
100
AcDbEntity
  8
0
100
AcDbBlockReference
  2
2_1_3_4_Disc_0_in_070649_2
 10
0.0
 20
0.0
 30
0.0
  0
INSERT
  5
B5
330
6E
100
AcDbEntity
  8
0
100
AcDbBlockReference
  2
3_1_3_4CS2i_0_in_070649_2
 10
0.0
 20
0.0
 30
0.0
  0
INSERT
  5
F7
330
6E
100
AcDbEntity
  8
0
100
AcDbBlockReference
  2
4_070004i_0_in_070649_2
 10
0.0
 20
0.0
 30
0.0
  0
INSERT
  5
159
330
6E
100
AcDbEntity
  8
0
100
AcDbBlockReference
  2
5_405015E_Inch_0_in_070649_2
 10
0.0
 20
0.0
 30
0.0
  0
INSERT
  5
198
330
6E
100
AcDbEntity
  8
0
100
AcDbBlockReference
  2
6_070649H_0_in_070649_2
 10
0.0
 20
0.0
 30
0.0
  0
ENDBLK
  5
71
330
6E
100
AcDbEntity
  8
0
100
AcDbBlockEnd
  0
BLOCK
  5
92
330
90
100
AcDbEntity
  8
0
100
AcDbBlockBegin
  2
2_1_3_4_Disc_0_in_070649_2
 70
     2
 10
0.0
 20
0.0
 30
0.0
  3
2_1_3_4_Disc_0_in_070649_2
  1

  0
ATTDEF
  5
94
330
90
100
AcDbEntity
  8
AM_6
100
AcDbText
 10
6.21875
 20
1.67325
 30
0.0
 40
0.5
  1
S-2000 -Disc -Inch
100
AcDbAttributeDefinition
  3

  2
NN
 70
     8
280
     0
  0
ATTDEF
  5
95
330
90
100
AcDbEntity
  8
AM_6
100
AcDbText
 10
6.21875
 20
1.17325
 30
0.0
 40
0.5
  1
S-2000 Bearings
100
AcDbAttributeDefinition
  3

  2
NT
 70
     8
280
     0
  0
ATTDEF
  5
96
330
90
100
AcDbEntity
  8
AM_6
100
AcDbText
 10
6.21875
 20
0.6732499999999999
 30
0.0
 40
0.5
  1
1-3/4-Disc
100
AcDbAttributeDefinition
  3

  2
NB
 70
     8
280
     0
  0
ATTDEF
  5
97
330
90
100
AcDbEntity
  8
AM_6
100
AcDbText
 10
6.21875
 20
0.1732499999999999
 30
0.0
 40
0.5
  1
$SS.-Disc
100
AcDbAttributeDefinition
  3

  2
NBSYN
 70
     8
280
     0
  0
ATTDEF
  5
98
330
90
100
AcDbEntity
  8
AM_6
100
AcDbText
 10
6.21875
 20
-0.3267500000000001
 30
0.0
 40
0.5
  1
1-3/4-Disc
100
AcDbAttributeDefinition
  3

  2
LINA
 70
     8
280
     0
  0
ATTDEF
  5
99
330
90
100
AcDbEntity
  8
AM_6
100
AcDbText
 10
6.21875
 20
-0.8267500000000001
 30
0.0
 40
0.5
  1
1-3/4
100
AcDbAttributeDefinition
  3

  2
SS
 70
     8
280
     0
  0
ATTDEF
  5
9A
330
90
100
AcDbEntity
  8
AM_6
100
AcDbText
 10
6.21875
 20
-1.32675
 30
0.0
 40
0.5
  1
2.31
100
AcDbAttributeDefinition
  3

  2
CC
 70
     8
280
     0
  0
ATTDEF
  5
9B
330
90
100
AcDbEntity
  8
AM_6
100
AcDbText
 10
6.21875
 20
-1.82675
 30
0.0
 40
0.5
  1
0.41
100
AcDbAttributeDefinition
  3

  2
CSD
 70
     8
280
     0
  0
ATTDEF
  5
9C
330
90
100
AcDbEntity
  8
AM_6
100
AcDbText
 10
6.21875
 20
-2.32675
 30
0.0
 40
0.5
  1
1.750000
100
AcDbAttributeDefinition
  3

  2
SS1
 70
     8
280
     0
  0
ATTDEF
  5
9D
330
90
100
AcDbEntity
  8
AM_6
100
AcDbText
 10
6.21875
 20
-2.82675
 30
0.0
 40
0.5
  1
3.3465
100
AcDbAttributeDefinition
  3

  2
A
 70
     8
280
     0
  0
ATTDEF
  5
9E
330
90
100
AcDbEntity
  8
AM_6
100
AcDbText
 10
6.21875
 20
-3.32675
 30
0.0
 40
0.5
  1
61/64
100
AcDbAttributeDefinition
  3

  2
B
 70
     8
280
     0
  0
ATTDEF
  5
9F
330
90
100
AcDbEntity
  8
AM_6
100
AcDbText
 10
6.21875
 20
-3.82675
 30
0.0
 40
0.5
  1
0.953125
100
AcDbAttributeDefinition
  3

  2
B1
 70
     8
280
     0
  0
ATTDEF
  5
A0
330
90
100
AcDbEntity
  8
AM_6
100
AcDbText
 10
6.21875
 20
-4.326750000000001
 30
0.0
 40
0.5
  1
2-21/32
100
AcDbAttributeDefinition
  3

  2
C
 70
     8
280
     0
  0
ATTDEF
  5
A1
330
90
100
AcDbEntity
  8
AM_6
100
AcDbText
 10
6.21875
 20
-4.826750000000001
 30
0.0
 40
0.5
  1
2.656250
100
AcDbAttributeDefinition
  3

  2
C1
 70
     8
280
     0
  0
ATTDEF
  5
A2
330
90
100
AcDbEntity
  8
AM_6
100
AcDbText
 10
6.21875
 20
-5.326750000000001
 30
0.0
 40
0.5
  1
0.954
100
AcDbAttributeDefinition
  3

  2
D
 70
     8
280
     0
  0
ATTDEF
  5
A3
330
90
100
AcDbEntity
  8
AM_6
100
AcDbText
 10
6.21875
 20
-5.826750000000001
 30
0.0
 40
0.5
  1
3-3/32
100
AcDbAttributeDefinition
  3

  2
E
 70
     8
280
     0
  0
ATTDEF
  5
A4
330
90
100
AcDbEntity
  8
AM_6
100
AcDbText
 10
6.21875
 20
-6.326750000000001
 30
0.0
 40
0.5
  1
3.093750
100
AcDbAttributeDefinition
  3

  2
E1
 70
     8
280
     0
  0
ATTDEF
  5
A5
330
90
100
AcDbEntity
  8
AM_6
100
AcDbText
 10
6.21875
 20
-6.826750000000001
 30
0.0
 40
0.5
  1
0.317
100
AcDbAttributeDefinition
  3

  2
F
 70
     8
280
     0
  0
ATTDEF
  5
A6
330
90
100
AcDbEntity
  8
AM_6
100
AcDbText
 10
6.21875
 20
-7.326750000000001
 30
0.0
 40
0.5
  1
baldor
100
AcDbAttributeDefinition
  3

  2
COMPANY
 70
     8
280
     0
  0
LINE
  5
A9
330
90
100
AcDbEntity
  8
AM_9
100
AcDbLine
 10
1.125
 20
-1.155
 30
0.0
 11
1.21875
 21
-1.155
 31
0.0
  0
LINE
  5
AA
330
90
100
AcDbEntity
  8
AM_9
100
AcDbLine
 10
1.21875
 20
1.155
 30
0.0
 11
1.125
 21
1.155
 31
0.0
  0
LINE
  5
AB
330
90
100
AcDbEntity
  8
AM_9
100
AcDbLine
 10
0.8187499999999999
 20
-1.5795
 30
0.0
 11
1.125
 21
-1.5795
 31
0.0
  0
LINE
  5
AC
330
90
100
AcDbEntity
  8
AM_9
100
AcDbLine
 10
1.125
 20
1.5795
 30
0.0
 11
0.8187499999999999
 21
1.5795
 31
0.0
  0
LINE
  5
AD
330
90
100
AcDbEntity
  8
AM_9
100
AcDbLine
 10
0.8187499999999999
 20
-1.67325
 30
0.0
 11
1.125
 21
-1.67325
 31
0.0
  0
LINE
  5
AE
330
90
100
AcDbEntity
  8
AM_9
100
AcDbLine
 10
1.125
 20
1.67325
 30
0.0
 11
0.8187499999999999
 21
1.67325
 31
0.0
  0
LINE
  5
AF
330
90
100
AcDbEntity
  8
AM_9
100
AcDbLine
 10
0.8187499999999999
 20
1.67325
 30
0.0
 11
0.8187499999999999
 21
-1.67325
 31
0.0
  0
LINE
  5
B0
330
90
100
AcDbEntity
  8
AM_9
100
AcDbLine
 10
1.21875
 20
1.5795
 30
0.0
 11
1.21875
 21
-1.5795
 31
0.0
  0
ARC
  5
B1
330
90
100
AcDbEntity
  8
AM_9
100
AcDbCircle
 10
1.125
 20
-1.5795
 30
0.0
 40
0.09375
100
AcDbArc
 50
270.0
 51
0.0
  0
ARC
  5
B2
330
90
100
AcDbEntity
  8
AM_9
100
AcDbCircle
 10
1.125
 20
1.5795
 30
0.0
 40
0.09375
100
AcDbArc
 50
0.0
 51
90.0
  0
LINE
  5
B3
330
90
100
AcDbEntity
  8
AM_9
100
AcDbLine
 10
1.125
 20
1.67325
 30
0.0
 11
1.125
 21
-1.67325
 31
0.0
  0
ENDBLK
  5
93
330
90
100
AcDbEntity
  8
0
100
AcDbBlockEnd
  0
BLOCK
  5
B6
330
B4
100
AcDbEntity
  8
0
100
AcDbBlockBegin
  2
3_1_3_4CS2i_0_in_070649_2
 70
     2
 10
0.0
 20
0.0
 30
0.0
  3
3_1_3_4CS2i_0_in_070649_2
  1

  0
ATTDEF
  5
B8
330
B4
100
AcDbEntity
  8
AM_6
100
AcDbText
 10
4.180875
 20
1.59375
 30
0.0
 40
0.5
  1
S-2000 Collar -Inch
100
AcDbAttributeDefinition
  3

  2
NN
 70
     8
280
     0
  0
ATTDEF
  5
B9
330
B4
100
AcDbEntity
  8
AM_6
100
AcDbText
 10
4.180875
 20
1.09375
 30
0.0
 40
0.5
  1
S-2000 Bearings
100
AcDbAttributeDefinition
  3

  2
NT
 70
     8
280
     0
  0
ATTDEF
  5
BA
330
B4
100
AcDbEntity
  8
AM_6
100
AcDbText
 10
4.180875
 20
0.59375
 30
0.0
 40
0.5
  1
1-3/4CS2i
100
AcDbAttributeDefinition
  3

  2
NB
 70
     8
280
     0
  0
ATTDEF
  5
BB
330
B4
100
AcDbEntity
  8
AM_6
100
AcDbText
 10
4.180875
 20
0.09375
 30
0.0
 40
0.5
  1
$BORE.CS2i
100
AcDbAttributeDefinition
  3

  2
NBSYN
 70
     8
280
     0
  0
ATTDEF
  5
BC
330
B4
100
AcDbEntity
  8
AM_6
100
AcDbText
 10
4.180875
 20
-0.40625
 30
0.0
 40
0.5
  1
1-3/4CS2i
100
AcDbAttributeDefinition
  3

  2
LINA
 70
     8
280
     0
  0
ATTDEF
  5
BD
330
B4
100
AcDbEntity
  8
AM_6
100
AcDbText
 10
4.180875
 20
-0.90625
 30
0.0
 40
0.5
  1
1-3/4
100
AcDbAttributeDefinition
  3

  2
BORE
 70
     8
280
     0
  0
ATTDEF
  5
BE
330
B4
100
AcDbEntity
  8
AM_6
100
AcDbText
 10
4.180875
 20
-1.40625
 30
0.0
 40
0.5
  1
1.750000
100
AcDbAttributeDefinition
  3

  2
BORE1
 70
     8
280
     0
  0
ATTDEF
  5
BF
330
B4
100
AcDbEntity
  8
AM_6
100
AcDbText
 10
4.180875
 20
-1.90625
 30
0.0
 40
0.5
  1
3-3/16
100
AcDbAttributeDefinition
  3

  2
L1
 70
     8
280
     0
  0
ATTDEF
  5
C0
330
B4
100
AcDbEntity
  8
AM_6
100
AcDbText
 10
4.180875
 20
-2.40625
 30
0.0
 40
0.5
  1
3.18750
100
AcDbAttributeDefinition
  3

  2
L
 70
     8
280
     0
  0
ATTDEF
  5
C1
330
B4
100
AcDbEntity
  8
AM_6
100
AcDbText
 10
4.180875
 20
-2.90625
 30
0.0
 40
0.5
  1
3.09375
100
AcDbAttributeDefinition
  3

  2
L2
 70
     8
280
     0
  0
ATTDEF
  5
C2
330
B4
100
AcDbEntity
  8
AM_6
100
AcDbText
 10
4.180875
 20
-3.40625
 30
0.0
 40
0.5
  1
3.50
100
AcDbAttributeDefinition
  3

  2
A
 70
     8
280
     0
  0
ATTDEF
  5
C3
330
B4
100
AcDbEntity
  8
AM_6
100
AcDbText
 10
4.180875
 20
-3.90625
 30
0.0
 40
0.5
  1
1.62
100
AcDbAttributeDefinition
  3

  2
B
 70
     8
280
     0
  0
ATTDEF
  5
C4
330
B4
100
AcDbEntity
  8
AM_6
100
AcDbText
 10
4.180875
 20
-4.40625
 30
0.0
 40
0.5
  1
2.31
100
AcDbAttributeDefinition
  3

  2
C
 70
     8
280
     0
  0
ATTDEF
  5
C5
330
B4
100
AcDbEntity
  8
AM_6
100
AcDbText
 10
4.180875
 20
-4.90625
 30
0.0
 40
0.5
  1
3.50
100
AcDbAttributeDefinition
  3

  2
D
 70
     8
280
     0
  0
ATTDEF
  5
C6
330
B4
100
AcDbEntity
  8
AM_6
100
AcDbText
 10
4.180875
 20
-5.40625
 30
0.0
 40
0.5
  1
0.41
100
AcDbAttributeDefinition
  3

  2
E
 70
     8
280
     0
  0
ATTDEF
  5
C7
330
B4
100
AcDbEntity
  8
AM_6
100
AcDbText
 10
4.180875
 20
-5.90625
 30
0.0
 40
0.5
  1
0.317
100
AcDbAttributeDefinition
  3

  2
F
 70
     8
280
     0
  0
ATTDEF
  5
C8
330
B4
100
AcDbEntity
  8
AM_6
100
AcDbText
 10
4.180875
 20
-6.40625
 30
0.0
 40
0.5
  1
3/8-16
100
AcDbAttributeDefinition
  3

  2
CS
 70
     8
280
     0
  0
ATTDEF
  5
C9
330
B4
100
AcDbEntity
  8
AM_6
100
AcDbText
 10
4.180875
 20
-6.90625
 30
0.0
 40
0.5
  1
0.3750
100
AcDbAttributeDefinition
  3

  2
NDM
 70
     8
280
     0
  0
ATTDEF
  5
CA
330
B4
100
AcDbEntity
  8
AM_6
100
AcDbText
 10
4.180875
 20
-7.40625
 30
0.0
 40
0.5
  1
0.3070
100
AcDbAttributeDefinition
  3

  2
KDM
 70
     8
280
     0
  0
ATTDEF
  5
CB
330
B4
100
AcDbEntity
  8
AM_6
100
AcDbText
 10
4.180875
 20
-7.90625
 30
0.0
 40
0.5
  1
1
100
AcDbAttributeDefinition
  3

  2
DD
 70
     8
280
     0
  0
ATTDEF
  5
CC
330
B4
100
AcDbEntity
  8
AM_6
100
AcDbText
 10
4.180875
 20
-8.40625
 30
0.0
 40
0.5
  1
baldor
100
AcDbAttributeDefinition
  3

  2
COMPANY
 70
     8
280
     0
  0
LINE
  5
CD
330
B4
100
AcDbEntity
  8
AM_9
100
AcDbLine
 10
-0.9824749999999998
 20
1.163849999999998
 30
0.0
 11
-0.9824749999999998
 21
1.5599
 31
0.0
  0
LINE
  5
CE
330
B4
100
AcDbEntity
  8
AM_9
100
AcDbLine
 10
-1.289775
 20
1.546825496357723
 30
0.0
 11
-1.289775
 21
1.163849999999998
 31
0.0
  0
LINE
  5
CF
330
B4
100
AcDbEntity
  8
AM_9
100
AcDbLine
 10
-1.289775
 20
1.163849999999998
 30
0.0
 11
-0.9824749999999998
 21
1.163849999999998
 31
0.0
  0
LINE
  5
D0
330
B4
100
AcDbEntity
  8
AM_9
100
AcDbLine
 10
-1.289775
 20
1.163849999999998
 30
0.0
 11
-1.298458859590501
 21
1.155166140409497
 31
0.0
  0
LINE
  5
D1
330
B4
100
AcDbEntity
  8
AM_9
100
AcDbLine
 10
-0.9738934865894655
 20
1.155268486589464
 30
0.0
 11
-0.9824749999999998
 21
1.163849999999998
 31
0.0
  0
LINE
  5
D2
330
B4
100
AcDbEntity
  8
AM_9
100
AcDbLine
 10
-1.136125
 20
1.5599
 30
0.0
 11
-0.9824749999999998
 21
1.5599
 31
0.0
  0
LINE
  5
D3
330
B4
100
AcDbEntity
  8
AM_9
100
AcDbLine
 10
-0.9824749999999998
 20
1.5599
 30
0.0
 11
-0.9486249999999998
 21
1.59375
 31
0.0
  0
LWPOLYLINE
  5
D4
330
B4
100
AcDbEntity
  8
AM_9
100
AcDbPolyline
 90
       39
 70
     0
 43
0.0
 10
-1.016395700757612
 20
0.3779306153227044
 10
-1.001698278082185
 20
0.396982385124557
 10
-0.9899332714436828
 20
0.41762933606481
 10
-0.9799264325370478
 20
0.443918251971025
 10
-0.9745566587539378
 20
0.4710708270096682
 10
-0.9740478277351382
 20
0.4993266874148425
 10
-0.9786318408840392
 20
0.5269257457283382
 10
-0.9883892554747373
 20
0.5533184649773223
 10
-1.003041029846858
 20
0.5775465560041884
 10
-1.021953571350549
 20
0.5985069496908864
 10
-1.044865925088391
 20
0.6160441469379788
 10
-1.069634356111882
 20
0.6288048404677827
 10
-1.096740795223777
 20
0.6374696658014952
 10
-1.122796165229202
 20
0.6414014566813416
 10
-1.149272638067584
 20
0.6414329664232032
 10
-1.173822315440199
 20
0.6378349976865144
 10
-1.197337472618771
 20
0.630908090442375
 10
-1.21952529802289
 20
0.620674193172453
 10
-1.239562085965838
 20
0.6075673369347369
 10
-1.258189809653995
 20
0.5906952130942349
 10
-1.273570301954541
 20
0.5713661406842145
 10
-1.286205868890706
 20
0.548212272045049
 10
-1.294529421512372
 20
0.5232951791991909
 10
-1.298417849706191
 20
0.4958213139565711
 10
-1.297301650013289
 20
0.4677970280308617
 10
-1.290983942332215
 20
0.4394979658413348
 10
-1.279629583658788
 20
0.4122797271984379
 10
-1.263557303738319
 20
0.3872468336572877
 10
-1.243097829888135
 20
0.3650564070238989
 10
-1.219803283758052
 20
0.3473968064820112
 10
-1.193536069580451
 20
0.3340073621827003
 10
-1.167461514347769
 20
0.3261834974355969
 10
-1.14034961584844
 20
0.3229852316942748
 10
-1.115146520915243
 20
0.324387128498041
 10
-1.09054424203597
 20
0.3298323777881114
 10
-1.067480322039371
 20
0.3390024523154564
 10
-1.046203384257335
 20
0.3514964254536936
 10
-1.030461269731258
 20
0.3638867207156673
 10
-1.016395700757612
 20
0.3779306153227046
  0
LINE
  5
D5
330
B4
100
AcDbEntity
  8
AM_9
100
AcDbLine
 10
-1.453125
 20
-1.155
 30
0.0
 11
-0.8191249999999997
 21
-1.155
 31
0.0
  0
LINE
  5
D6
330
B4
100
AcDbEntity
  8
AM_9
100
AcDbLine
 10
-0.8191249999999997
 20
1.155
 30
0.0
 11
-0.9742668746270862
 21
1.155
 31
0.0
  0
LINE
  5
D7
330
B4
100
AcDbEntity
  8
AM_9
100
AcDbLine
 10
-1.298227342789092
 20
1.155
 30
0.0
 11
-1.453125
 21
1.155
 31
0.0
  0
LWPOLYLINE
  5
D8
330
B4
100
AcDbEntity
  8
AM_9
100
AcDbPolyline
 90
       21
 70
     0
 43
0.0
 10
-1.298624999999292
 20
1.154999999999884
 10
-1.298525986662971
 20
1.15498379342257
 10
-1.29488212012805
 20
1.154393873255462
 10
-1.286256994249786
 20
1.153048235227185
 10
-1.272323885410672
 20
1.151026350938733
 10
-1.254510052348584
 20
1.148717802829725
 10
-1.231896329989636
 20
1.146240524342773
 10
-1.207940148278001
 20
1.144177281125706
 10
-1.180548654001466
 20
1.142534733138016
 10
-1.154888695572541
 20
1.141696141547657
 10
-1.127766036554752
 20
1.1415500348332
 10
-1.103364733160895
 20
1.14206930960979
 10
-1.079203803751199
 20
1.143188797776558
 10
-1.05702254678549
 20
1.144743350316933
 10
-1.036367928870743
 20
1.146640022566709
 10
-1.017523942507808
 20
1.148743921308349
 10
-1.001412017588641
 20
1.150821876167579
 10
-0.9882202503530404
 20
1.152712392277049
 10
-0.9789838380420867
 20
1.154136323883433
 10
-0.974198151141624
 20
1.154906315782236
 10
-0.9736250000000184
 20
1.154999999999997
  0
ELLIPSE
  5
D9
330
B4
100
AcDbEntity
  8
AM_9
100
AcDbEllipse
 10
-1.136124999999998
 20
0.4918642639269114
 30
0.0
 11
0.1536500000000012
 21
0.0
 31
0.0
210
0.0
220
0.0
230
1.0
 40
0.9063077870366512
 41
2.522850281770539
 42
3.141592653589793
  0
LINE
  5
DA
330
B4
100
AcDbEntity
  8
AM_9
100
AcDbLine
 10
-0.9824749999999998
 20
0.491864263926912
 30
0.0
 11
-0.9824749999999997
 21
0.6592422264893171
 31
0.0
  0
LINE
  5
DB
330
B4
100
AcDbEntity
  8
AM_9
100
AcDbLine
 10
-1.289775
 20
0.6537167266102905
 30
0.0
 11
-1.289775
 21
0.491864263926912
 31
0.0
  0
ELLIPSE
  5
DC
330
B4
100
AcDbEntity
  8
AM_9
100
AcDbEllipse
 10
-1.136125
 20
0.4918642639269118
 30
0.0
 11
0.1536499999999998
 21
0.0
 31
0.0
210
0.0
220
0.0
230
1.0
 40
0.9063077870366504
 41
3.141592653589793
 42
6.927911955153301
  0
LINE
  5
DD
330
B4
100
AcDbEntity
  8
AM_9
100
AcDbLine
 10
-1.136125
 20
0.5199880350111358
 30
0.0
 11
-1.136125
 21
0.7897588324253697
 31
0.0
  0
LINE
  5
DF
330
B4
100
AcDbEntity
  8
AM_5
100
AcDbLine
 10
-1.323625
 20
1.546875
 30
0.0
 11
-1.323625
 21
1.155
 31
0.0
  0
LINE
  5
E0
330
B4
100
AcDbEntity
  8
AM_5
100
AcDbLine
 10
-1.229875
 20
1.13
 30
0.0
 11
-1.323625
 21
1.13
 31
0.0
  0
LINE
  5
E1
330
B4
100
AcDbEntity
  8
AM_5
100
AcDbLine
 10
-0.9486249999999998
 20
1.59375
 30
0.0
 11
-0.9486249999999998
 21
1.155
 31
0.0
  0
LINE
  5
E2
330
B4
100
AcDbEntity
  8
AM_5
100
AcDbLine
 10
-1.042375
 20
1.13
 30
0.0
 11
-0.9486249999999998
 21
1.13
 31
0.0
  0
ELLIPSE
  5
E4
330
B4
100
AcDbEntity
  8
AM_4
100
AcDbEllipse
 10
-1.136124999999999
 20
0.4918642639269105
 30
0.0
 11
0.1536500000000016
 21
0.0
 31
0.0
210
0.0
220
0.0
230
1.0
 40
0.9063077870366512
 41
0.6447266479737257
 42
2.522850281770531
  0
LWPOLYLINE
  5
E5
330
B4
100
AcDbEntity
  8
AM_4
100
AcDbPolyline
 90
       11
 70
     0
 43
0.0
 10
-1.289774999349988
 20
0.6537248145305802
 10
-1.288783534076902
 20
0.6694902100128133
 10
-1.28371090108883
 20
0.692173396281489
 10
-1.274521532813431
 20
0.7136191476943571
 10
-1.261396578952377
 20
0.7332644979763938
 10
-1.244770976773056
 20
0.7505915780337036
 10
-1.224973421808835
 20
0.7651827235382235
 10
-1.202664226919943
 20
0.7766312327198052
 10
-1.17843571224137
 20
0.7846070700048264
 10
-1.15300308327275
 20
0.7889552341485261
 10
-1.136125
 20
0.7897588324253696
  0
ELLIPSE
  5
E6
330
B4
100
AcDbEntity
  8
AM_4
100
AcDbEllipse
 10
-1.136124999999999
 20
0.6592422264893176
 30
0.0
 11
0.1536499999999994
 21
0.0
 31
0.0
210
0.0
220
0.0
230
1.0
 40
0.9063077870366487
 41
4.71238898038469
 42
7.853981633974483
  0
LINE
  5
E7
330
B4
100
AcDbEntity
  8
AM_4
100
AcDbLine
 10
-1.136125
 20
-1.59375
 30
0.0
 11
-1.136125
 21
0.5199880350111358
 31
0.0
  0
LINE
  5
E8
330
B4
100
AcDbEntity
  8
AM_4
100
AcDbLine
 10
-1.453125
 20
1.441208333333333
 30
0.0
 11
-1.453125
 21
-1.441208333333333
 31
0.0
  0
ARC
  5
E9
330
B4
100
AcDbEntity
  8
AM_4
100
AcDbCircle
 10
-1.347458333333333
 20
-1.441208333333334
 30
0.0
 40
0.1056666666666664
100
AcDbArc
 50
180.0
 51
270.0
  0
ARC
  5
EA
330
B4
100
AcDbEntity
  8
AM_4
100
AcDbCircle
 10
-1.347458333333333
 20
1.441208333333333
 30
0.0
 40
0.1056666666666664
100
AcDbArc
 50
90.0
 51
180.0
  0
LWPOLYLINE
  5
EB
330
B4
100
AcDbEntity
  8
AM_4
100
AcDbPolyline
 90
       11
 70
     0
 43
0.0
 10
-1.136125
 20
0.511250449469007
 10
-1.16184672922563
 20
0.5133219094703223
 10
-1.186841702282939
 20
0.5194082268745936
 10
-1.210382803082138
 20
0.5293663629671626
 10
-1.231838621436603
 20
0.5428259645581357
 10
-1.250630596223205
 20
0.5594683004531308
 10
-1.266202168436838
 20
0.5787039165694384
 10
-1.278086270949998
 20
0.6000275405621878
 10
-1.285959128108159
 20
0.6227375470170178
 10
-1.289528338142889
 20
0.6460944893221523
 10
-1.289774999349988
 20
0.6537248145305802
  0
LWPOLYLINE
  5
EC
330
B4
100
AcDbEntity
  8
AM_4
100
AcDbPolyline
 90
       11
 70
     0
 43
0.0
 10
-1.136125
 20
1.539225111257285
 10
-1.161483351141469
 20
1.539433983351548
 10
-1.186841702282939
 20
1.540060429663543
 10
-1.210068239925218
 20
1.541000177110839
 10
-1.231838621436603
 20
1.542198119715333
 10
-1.250395288070897
 20
1.543460929813517
 10
-1.266202168436838
 20
1.544711627739477
 10
-1.277957040756281
 20
1.545745862329927
 10
-1.285959128108159
 20
1.546500633388468
 10
-1.289523075558388
 20
1.54684999683551
 10
-1.289774999999937
 20
1.546874999999994
  0
LINE
  5
ED
330
B4
100
AcDbEntity
  8
AM_4
100
AcDbLine
 10
-1.347458333333333
 20
-1.546875
 30
0.0
 11
-1.136125
 21
-1.546875
 31
0.0
  0
LINE
  5
EE
330
B4
100
AcDbEntity
  8
AM_4
100
AcDbLine
 10
-1.289275030724261
 20
1.546875
 30
0.0
 11
-1.347458333333333
 21
1.546875
 31
0.0
  0
LINE
  5
EF
330
B4
100
AcDbEntity
  8
AM_4
100
AcDbLine
 10
-1.347458333333333
 20
1.546875
 30
0.0
 11
-1.347458333333333
 21
-1.546875
 31
0.0
  0
LINE
  5
F0
330
B4
100
AcDbEntity
  8
AM_4
100
AcDbLine
 10
-1.136125
 20
1.583826291940122
 30
0.0
 11
-1.136125
 21
0.7897588324253697
 31
0.0
  0
LWPOLYLINE
  5
F1
330
B4
100
AcDbEntity
  8
AM_4
100
AcDbPolyline
 90
       20
 70
     0
 43
0.0
 10
-1.136125
 20
0.8302926905773781
 10
-1.112497918002793
 20
0.8290697843534947
 10
-1.08921476840654
 20
0.8254261528237798
 10
-1.058383094221128
 20
0.8165001009959976
 10
-1.028929094004459
 20
0.8027192624688106
 10
-1.003915569531892
 20
0.7854948511252777
 10
-0.9821115202631019
 20
0.7639027141726964
 10
-0.9662770143081028
 20
0.740901071632438
 10
-0.9549694602942304
 20
0.7147338318258754
 10
-0.9495350596625346
 20
0.6893254616202225
 10
-0.9490736109844329
 20
0.6624152984080941
 10
-0.9535043063056241
 20
0.6369678646881228
 10
-0.9624586627000119
 20
0.6123479147143142
 10
-0.9757902968063275
 20
0.589090160447988
 10
-0.9929501304766443
 20
0.5679634878225376
 10
-1.01411794464296
 20
0.548993815764717
 10
-1.038866430863774
 20
0.5329385847931812
 10
-1.06674962812713
 20
0.5204392332250196
 10
-1.097200362996881
 20
0.5121114909653607
 10
-1.136125
 20
0.5084151382205259
  0
LINE
  5
F2
330
B4
100
AcDbEntity
  8
AM_4
100
AcDbLine
 10
-1.136125
 20
-1.59375
 30
0.0
 11
-0.8191249999999997
 21
-1.59375
 31
0.0
  0
LINE
  5
F3
330
B4
100
AcDbEntity
  8
AM_4
100
AcDbLine
 10
-0.8191249999999997
 20
1.59375
 30
0.0
 11
-0.9486249999999998
 21
1.59375
 31
0.0
  0
LWPOLYLINE
  5
F4
330
B4
100
AcDbEntity
  8
AM_4
100
AcDbPolyline
 90
       11
 70
     0
 43
0.0
 10
-0.9486250000000357
 20
1.593749999999996
 10
-0.949073610984433
 20
1.593702833033883
 10
-0.9533924519633665
 20
1.593254405019843
 10
-0.9624586627000119
 20
1.59234643697765
 10
-0.9755772056589487
 20
1.591112929399318
 10
-0.9929501304766445
 20
1.589626149044103
 10
-1.01411794464296
 20
1.588041734163982
 10
-1.038866430863774
 20
1.586507352246304
 10
-1.06674962812713
 20
1.585191458231039
 10
-1.097200362996881
 20
1.584256278135053
 10
-1.136125
 20
1.583826291940122
  0
LINE
  5
F5
330
B4
100
AcDbEntity
  8
AM_4
100
AcDbLine
 10
-0.8191249999999997
 20
1.59375
 30
0.0
 11
-0.8191249999999997
 21
-1.59375
 31
0.0
  0
ENDBLK
  5
B7
330
B4
100
AcDbEntity
  8
0
100
AcDbBlockEnd
  0
BLOCK
  5
F8
330
F6
100
AcDbEntity
  8
0
100
AcDbBlockBegin
  2
4_070004i_0_in_070649_2
 70
     2
 10
0.0
 20
0.0
 30
0.0
  3
4_070004i_0_in_070649_2
  1

  0
ATTDEF
  5
FA
330
F6
100
AcDbEntity
  8
AM_6
100
AcDbText
 10
6.203125
 20
1.67325
 30
0.0
 40
0.5
  1
S-2000 Insert -Inch
100
AcDbAttributeDefinition
  3

  2
NN
 70
     8
280
     0
  0
ATTDEF
  5
FB
330
F6
100
AcDbEntity
  8
AM_6
100
AcDbText
 10
6.203125
 20
1.17325
 30
0.0
 40
0.5
  1
S-2000 Bearings
100
AcDbAttributeDefinition
  3

  2
NT
 70
     8
280
     0
  0
ATTDEF
  5
FC
330
F6
100
AcDbEntity
  8
AM_6
100
AcDbText
 10
6.203125
 20
0.6732499999999999
 30
0.0
 40
0.5
  1
070004i
100
AcDbAttributeDefinition
  3

  2
NB
 70
     8
280
     0
  0
ATTDEF
  5
FD
330
F6
100
AcDbEntity
  8
AM_6
100
AcDbText
 10
6.203125
 20
0.1732499999999999
 30
0.0
 40
0.5
  1
$PN.i
100
AcDbAttributeDefinition
  3

  2
NBSYN
 70
     8
280
     0
  0
ATTDEF
  5
FE
330
F6
100
AcDbEntity
  8
AM_6
100
AcDbText
 10
6.203125
 20
-0.3267500000000001
 30
0.0
 40
0.5
  1
070004i
100
AcDbAttributeDefinition
  3

  2
LINA
 70
     8
280
     0
  0
ATTDEF
  5
FF
330
F6
100
AcDbEntity
  8
AM_6
100
AcDbText
 10
6.203125
 20
-0.8267500000000001
 30
0.0
 40
0.5
  1
1-3/4
100
AcDbAttributeDefinition
  3

  2
SS
 70
     8
280
     0
  0
ATTDEF
  5
100
330
F6
100
AcDbEntity
  8
AM_6
100
AcDbText
 10
6.203125
 20
-1.32675
 30
0.0
 40
0.5
  1
2.31
100
AcDbAttributeDefinition
  3

  2
CC
 70
     8
280
     0
  0
ATTDEF
  5
101
330
F6
100
AcDbEntity
  8
AM_6
100
AcDbText
 10
6.203125
 20
-1.82675
 30
0.0
 40
0.5
  1
1.750000
100
AcDbAttributeDefinition
  3

  2
SS1
 70
     8
280
     0
  0
ATTDEF
  5
102
330
F6
100
AcDbEntity
  8
AM_6
100
AcDbText
 10
6.203125
 20
-2.32675
 30
0.0
 40
0.5
  1
070004
100
AcDbAttributeDefinition
  3

  2
PN
 70
     8
280
     0
  0
ATTDEF
  5
103
330
F6
100
AcDbEntity
  8
AM_6
100
AcDbText
 10
6.203125
 20
-2.82675
 30
0.0
 40
0.5
  1
INS-S2-112R
100
AcDbAttributeDefinition
  3

  2
DESCRIPTION
 70
     8
280
     0
  0
ATTDEF
  5
104
330
F6
100
AcDbEntity
  8
AM_6
100
AcDbText
 10
6.203125
 20
-3.32675
 30
0.0
 40
0.5
  1
Contact Seal
100
AcDbAttributeDefinition
  3

  2
ST
 70
     8
280
     0
  0
ATTDEF
  5
105
330
F6
100
AcDbEntity
  8
AM_6
100
AcDbText
 10
6.203125
 20
-3.82675
 30
0.0
 40
0.5
  1
1
100
AcDbAttributeDefinition
  3

  2
ST1
 70
     8
280
     0
  0
ATTDEF
  5
106
330
F6
100
AcDbEntity
  8
AM_6
100
AcDbText
 10
6.203125
 20
-4.326750000000001
 30
0.0
 40
0.5
  1
3.3465
100
AcDbAttributeDefinition
  3

  2
A
 70
     8
280
     0
  0
ATTDEF
  5
107
330
F6
100
AcDbEntity
  8
AM_6
100
AcDbText
 10
6.203125
 20
-4.826750000000001
 30
0.0
 40
0.5
  1
61/64
100
AcDbAttributeDefinition
  3

  2
B
 70
     8
280
     0
  0
ATTDEF
  5
108
330
F6
100
AcDbEntity
  8
AM_6
100
AcDbText
 10
6.203125
 20
-5.326750000000001
 30
0.0
 40
0.5
  1
2-21/32
100
AcDbAttributeDefinition
  3

  2
C
 70
     8
280
     0
  0
ATTDEF
  5
109
330
F6
100
AcDbEntity
  8
AM_6
100
AcDbText
 10
6.203125
 20
-5.826750000000001
 30
0.0
 40
0.5
  1
0.954
100
AcDbAttributeDefinition
  3

  2
D
 70
     8
280
     0
  0
ATTDEF
  5
10A
330
F6
100
AcDbEntity
  8
AM_6
100
AcDbText
 10
6.203125
 20
-6.326750000000001
 30
0.0
 40
0.5
  1
3-3/32
100
AcDbAttributeDefinition
  3

  2
E
 70
     8
280
     0
  0
ATTDEF
  5
10B
330
F6
100
AcDbEntity
  8
AM_6
100
AcDbText
 10
6.203125
 20
-6.826750000000001
 30
0.0
 40
0.5
  1
0.43750
100
AcDbAttributeDefinition
  3

  2
F
 70
     8
280
     0
  0
ATTDEF
  5
10C
330
F6
100
AcDbEntity
  8
AM_6
100
AcDbText
 10
6.203125
 20
-7.326750000000001
 30
0.0
 40
0.5
  1
1
100
AcDbAttributeDefinition
  3

  2
DD
 70
     8
280
     0
  0
ATTDEF
  5
10D
330
F6
100
AcDbEntity
  8
AM_6
100
AcDbText
 10
6.203125
 20
-7.826750000000001
 30
0.0
 40
0.5
  1
baldor
100
AcDbAttributeDefinition
  3

  2
COMPANY
 70
     8
280
     0
  0
LINE
  5
10E
330
F6
100
AcDbEntity
  8
AM_9
100
AcDbLine
 10
-1.341125
 20
1.154877756637566
 30
0.0
 11
-1.341125
 21
0.8750000000000001
 31
0.0
  0
LINE
  5
10F
330
F6
100
AcDbEntity
  8
AM_9
100
AcDbLine
 10
-0.9311250000000002
 20
0.8750000000000001
 30
0.0
 11
-0.9311250000000002
 21
1.154962221367664
 31
0.0
  0
LINE
  5
110
330
F6
100
AcDbEntity
  8
AM_9
100
AcDbLine
 10
-1.341125
 20
0.4881240923105078
 30
0.0
 11
-1.341125
 21
0.3697471187285267
 31
0.0
  0
LINE
  5
111
330
F6
100
AcDbEntity
  8
AM_9
100
AcDbLine
 10
-0.9311250000000002
 20
0.3697209106717949
 30
0.0
 11
-0.9311250000000002
 21
0.4881240923105079
 31
0.0
  0
LWPOLYLINE
  5
112
330
F6
100
AcDbEntity
  8
AM_9
100
AcDbPolyline
 90
        4
 70
     0
 43
0.0
 10
-1.330249679093403
 20
0.4284517948219042
 10
-1.336955910443485
 20
0.4065577583553244
 10
-1.341019726283833
 20
0.3757340511299149
 10
-1.341124998743439
 20
0.3698115500932063
  0
LWPOLYLINE
  5
113
330
F6
100
AcDbEntity
  8
AM_9
100
AcDbPolyline
 90
        7
 70
     0
 43
0.0
 10
-1.215051106182235
 20
0.5325140983074645
 10
-1.23950381725037
 20
0.5225830063512711
 10
-1.267327826845427
 20
0.5064866474973635
 10
-1.291550372334274
 20
0.4865975902299395
 10
-1.311871559178011
 20
0.4627042237763447
 10
-1.327203244620992
 20
0.4357566496083178
 10
-1.330249679093403
 20
0.4284517948219042
  0
LWPOLYLINE
  5
114
330
F6
100
AcDbEntity
  8
AM_9
100
AcDbPolyline
 90
        7
 70
     0
 43
0.0
 10
-0.9416671040358978
 20
0.4275858134181198
 10
-0.9499064402410098
 20
0.445699546548865
 10
-0.9665360475955299
 20
0.4709258560878992
 10
-0.9877117035232115
 20
0.4930959123639926
 10
-1.013576651611343
 20
0.5121307536144065
 10
-1.042933645768286
 20
0.5271356652315872
 10
-1.066714840251297
 20
0.5355129749248358
  0
LWPOLYLINE
  5
115
330
F6
100
AcDbEntity
  8
AM_9
100
AcDbPolyline
 90
        4
 70
     0
 43
0.0
 10
-0.9311250004043291
 20
0.3697793099458534
 10
-0.932210243870969
 20
0.3887759853512512
 10
-0.9384249469161344
 20
0.4181506938978115
 10
-0.9416671040358978
 20
0.4275858134181198
  0
LWPOLYLINE
  5
116
330
F6
100
AcDbEntity
  8
AM_9
100
AcDbPolyline
 90
       11
 70
     0
 43
0.0
 10
-1.341124998743439
 20
0.3698115500932063
 10
-1.339283574870382
 20
0.3449027201794122
 10
-1.332051574539398
 20
0.3142483849699571
 10
-1.319539969582889
 20
0.2848119867095079
 10
-1.302165722800626
 20
0.2573171663985049
 10
-1.279830056527176
 20
0.2321164712545188
 10
-1.253511850912133
 20
0.2105885179680656
 10
-1.223366101982319
 20
0.1932796572068633
 10
-1.190649555685125
 20
0.1811357297778931
 10
-1.163647712911754
 20
0.1755861665252661
 10
-1.136125
 20
0.173705781006791
  0
LWPOLYLINE
  5
117
330
F6
100
AcDbEntity
  8
AM_9
100
AcDbPolyline
 90
        7
 70
     0
 43
0.0
 10
-0.9907887886940853
 20
0.6153157431926004
 10
-0.9780944047857175
 20
0.6033408369111424
 10
-0.9583703354354693
 20
0.5787257344100866
 10
-0.9436806249171024
 20
0.551232841494723
 10
-0.9345669070986323
 20
0.5216613630812378
 10
-0.9311448746843644
 20
0.4907096659398388
 10
-0.9311250005767293
 20
0.4881380287629354
  0
LWPOLYLINE
  5
118
330
F6
100
AcDbEntity
  8
AM_9
100
AcDbPolyline
 90
       12
 70
     0
 43
0.0
 10
-1.282949825767545
 20
0.6140255929217471
 10
-1.282764899355452
 20
0.6141873703698317
 10
-1.256606352391878
 20
0.6333634238699369
 10
-1.227025303144283
 20
0.648436972693003
 10
-1.19475000327932
 20
0.6590286972977397
 10
-1.160770425831918
 20
0.6649324833827778
 10
-1.126529582061244
 20
0.6659645037566182
 10
-1.092562555419073
 20
0.6622764730365414
 10
-1.060085575943977
 20
0.6539702262409812
 10
-1.029717745364522
 20
0.6412787325986631
 10
-1.002043559939227
 20
0.6242252158873672
 10
-0.9907887886940853
 20
0.6153157431926004
  0
LWPOLYLINE
  5
119
330
F6
100
AcDbEntity
  8
AM_9
100
AcDbPolyline
 90
        6
 70
     0
 43
0.0
 10
-1.341124999363773
 20
0.4881094545278523
 10
-1.339919998115517
 20
0.5081490698992479
 10
-1.333423212665202
 20
0.5379371389228211
 10
-1.321545443226722
 20
0.565963361436172
 10
-1.30446151427101
 20
0.5916166019356104
 10
-1.282949825767545
 20
0.6140255929217471
  0
LWPOLYLINE
  5
11A
330
F6
100
AcDbEntity
  8
AM_9
100
AcDbPolyline
 90
       11
 70
     0
 43
0.0
 10
-0.9311250005767293
 20
0.4881380287629354
 10
-0.9335327612939787
 20
0.4596740657920109
 10
-0.9414889537891693
 20
0.4290386003036938
 10
-0.9548275714346212
 20
0.3997597701124795
 10
-0.9731013601267828
 20
0.372643524411945
 10
-0.996191196985514
 20
0.3482500085262513
 10
-1.023198889191245
 20
0.3276763021680447
 10
-1.053685959345697
 20
0.3115511382649416
 10
-1.086560264890734
 20
0.3005496543899619
 10
-1.111151989680055
 20
0.296086952188345
 10
-1.136125
 20
0.2945809289154055
  0
LWPOLYLINE
  5
11B
330
F6
100
AcDbEntity
  8
AM_9
100
AcDbPolyline
 90
       11
 70
     0
 43
0.0
 10
-1.136125
 20
0.173705781006791
 10
-1.102244444254735
 20
0.1765691463619163
 10
-1.069332142944052
 20
0.1849506209614774
 10
-1.038360507777246
 20
0.1985824668204299
 10
-1.010087824048849
 20
0.2168939155495052
 10
-0.9848849958972581
 20
0.2397393691991538
 10
-0.9638898094487447
 20
0.2660345177538186
 10
-0.9475742695849213
 20
0.2953528211428397
 10
-0.9366455482773598
 20
0.3264245936393599
 10
-0.9315784549934008
 20
0.35770096448595
 10
-0.9311250004043291
 20
0.3697793099458534
  0
LWPOLYLINE
  5
11C
330
F6
100
AcDbEntity
  8
AM_9
100
AcDbPolyline
 90
       11
 70
     0
 43
0.0
 10
-1.136125
 20
0.8506468127254697
 10
-1.102728571472026
 20
0.8513021328755287
 10
-1.069332142944052
 20
0.853265073557858
 10
-1.038762651122677
 20
0.8562005763715124
 10
-1.010087824048849
 20
0.859933351906845
 10
-0.9851962910575142
 20
0.8639325640251361
 10
-0.9638898094487447
 20
0.8679083827595097
 10
-0.9477589565570618
 20
0.8712529864065588
 10
-0.9366455482773598
 20
0.8737230978173608
 10
-0.9315901379465293
 20
0.8748911416829138
 10
-0.9311250000011694
 20
0.8749999999997261
  0
LINE
  5
11D
330
F6
100
AcDbEntity
  8
AM_9
100
AcDbLine
 10
1.203125
 20
0.8750000000000001
 30
0.0
 11
-0.9311250000000002
 21
0.8750000000000001
 31
0.0
  0
LINE
  5
11E
330
F6
100
AcDbEntity
  8
AM_9
100
AcDbLine
 10
-1.341125
 20
0.8750000000000001
 30
0.0
 11
-1.453125
 21
0.8750000000000001
 31
0.0
  0
LINE
  5
11F
330
F6
100
AcDbEntity
  8
AM_9
100
AcDbLine
 10
-1.453125
 20
-0.8750000000000001
 30
0.0
 11
1.203125
 21
-0.8750000000000001
 31
0.0
  0
LINE
  5
120
330
F6
100
AcDbEntity
  8
AM_9
100
AcDbLine
 10
-1.335625231216631
 20
0.8737278422114572
 30
0.0
 11
-1.341124999996698
 21
0.8749999999992264
 31
0.0
  0
LINE
  5
121
330
F6
100
AcDbEntity
  8
AM_9
100
AcDbLine
 10
-1.122456251356976
 20
0.8507566248284325
 30
0.0
 11
-1.139841470850481
 21
0.8506549313062155
 31
0.0
  0
LWPOLYLINE
  5
122
330
F6
100
AcDbEntity
  8
AM_9
100
AcDbPolyline
 90
       11
 70
     0
 43
0.0
 10
-1.341124999996698
 20
0.8749999999992264
 10
-1.339368695190083
 20
0.8745901895370881
 10
-1.332051574539398
 20
0.8729187949693501
 10
-1.319761396193909
 20
0.8702426822485132
 10
-1.302165722800625
 20
0.8667003643867668
 10
-1.280181858885328
 20
0.8627585865072033
 10
-1.253511850912133
 20
0.8587081417845457
 10
-1.223842541207085
 20
0.8551575100736802
 10
-1.190649555685125
 20
0.852392472498825
 10
-1.163910795144082
 20
0.8511004937207997
 10
-1.136125
 20
0.8506468127254697
  0
LWPOLYLINE
  5
123
330
F6
100
AcDbEntity
  8
AM_9
100
AcDbPolyline
 90
       11
 70
     0
 43
0.0
 10
-1.136125
 20
0.2945809289154055
 10
-1.17023343538501
 20
0.2974090635686094
 10
-1.203373002252065
 20
0.3057019191665715
 10
-1.234572523479572
 20
0.3192274373077653
 10
-1.263030193923415
 20
0.3374457705877584
 10
-1.28816695531181
 20
0.360055348193841
 10
-1.309049449120014
 20
0.3861162654203096
 10
-1.32512430775001
 20
0.4150579676835031
 10
-1.335830549264894
 20
0.4457796282625968
 10
-1.340738652474625
 20
0.4770156832445993
 10
-1.341124999363773
 20
0.4881094545278523
  0
LWPOLYLINE
  5
124
330
F6
100
AcDbEntity
  8
AM_9
100
AcDbPolyline
 90
       11
 70
     0
 43
0.0
 10
-1.136125
 20
1.136661779070626
 10
-1.169749001126033
 20
1.137158992160605
 10
-1.203373002252065
 20
1.138649328725439
 10
-1.234161334280951
 20
1.140881730434512
 10
-1.263030193923415
 20
1.1437241486673
 10
-1.287854194740477
 20
1.146743976891352
 10
-1.309049449120014
 20
1.149740346818994
 10
-1.324946069430812
 20
1.15223842856459
 10
-1.335830549264894
 20
1.154072054252763
 10
-1.340729431485292
 20
1.154929856477621
 10
-1.341124999999383
 20
1.15499999999989
  0
LINE
  5
125
330
F6
100
AcDbEntity
  8
AM_9
100
AcDbLine
 10
-0.8191249999999997
 20
1.155
 30
0.0
 11
-0.9313398886042883
 21
1.155
 31
0.0
  0
LINE
  5
126
330
F6
100
AcDbEntity
  8
AM_9
100
AcDbLine
 10
-0.381625
 20
1.155
 30
0.0
 11
-0.6406249999999998
 21
1.155
 31
0.0
  0
LINE
  5
127
330
F6
100
AcDbEntity
  8
AM_9
100
AcDbLine
 10
-1.340434419942035
 20
1.155
 30
0.0
 11
-1.453125
 21
1.155
 31
0.0
  0
LINE
  5
128
330
F6
100
AcDbEntity
  8
AM_9
100
AcDbLine
 10
-0.6406249999999998
 20
-1.155
 30
0.0
 11
-0.381625
 21
-1.155
 31
0.0
  0
LINE
  5
129
330
F6
100
AcDbEntity
  8
AM_9
100
AcDbLine
 10
-1.453125
 20
-1.155
 30
0.0
 11
-0.8191249999999997
 21
-1.155
 31
0.0
  0
LINE
  5
12A
330
F6
100
AcDbEntity
  8
AM_9
100
AcDbLine
 10
-0.9419933785532608
 20
1.153120586255201
 30
0.0
 11
-0.9311250000005122
 21
1.154999999999909
 31
0.0
  0
LINE
  5
12B
330
F6
100
AcDbEntity
  8
AM_9
100
AcDbLine
 10
-1.14857218314445
 20
1.136729929388778
 30
0.0
 11
-1.130609740588993
 21
1.136675159439306
 31
0.0
  0
LWPOLYLINE
  5
12C
330
F6
100
AcDbEntity
  8
AM_9
100
AcDbPolyline
 90
       11
 70
     0
 43
0.0
 10
-0.9311250000005122
 20
1.154999999999909
 10
-0.9334382896033364
 20
1.154591660532597
 10
-0.9414889537891693
 20
1.153205615007395
 10
-0.954589750620486
 20
1.151066916719998
 10
-0.9731013601267828
 20
1.148292953543438
 10
-0.9958233684036574
 20
1.14528797593819
 10
-1.023198889191245
 20
1.142257548236119
 10
-1.053211840693594
 20
1.139681794180362
 10
-1.086560264890734
 20
1.13774191404134
 10
-1.110959828794659
 20
1.136940317625246
 10
-1.136125
 20
1.136661779070626
  0
LINE
  5
12D
330
F6
100
AcDbEntity
  8
AM_9
100
AcDbLine
 10
1.203125
 20
-1.155
 30
0.0
 11
1.203125
 21
1.155
 31
0.0
  0
LINE
  5
12E
330
F6
100
AcDbEntity
  8
AM_9
100
AcDbLine
 10
1.203125
 20
1.155
 30
0.0
 11
0.8798750000000002
 21
1.155
 31
0.0
  0
LINE
  5
12F
330
F6
100
AcDbEntity
  8
AM_9
100
AcDbLine
 10
0.8798750000000002
 20
-1.155
 30
0.0
 11
1.203125
 21
-1.155
 31
0.0
  0
LINE
  5
130
330
F6
100
AcDbEntity
  8
AM_9
100
AcDbLine
 10
0.8798750000000002
 20
-1.2432875
 30
0.0
 11
0.8798750000000002
 21
1.2432875
 31
0.0
  0
ARC
  5
131
330
F6
100
AcDbEntity
  8
AM_9
100
AcDbCircle
 10
0.7845625000000007
 20
1.243287500000001
 30
0.0
 40
0.0953124999999995
100
AcDbArc
 50
0.0000008537736463
 51
90.0
  0
ARC
  5
132
330
F6
100
AcDbEntity
  8
AM_9
100
AcDbCircle
 10
0.7845625000000007
 20
-1.243287500000001
 30
0.0
 40
0.0953124999999995
100
AcDbArc
 50
270.0
 51
0.0000008537736463
  0
LINE
  5
133
330
F6
100
AcDbEntity
  8
AM_9
100
AcDbLine
 10
-0.381625
 20
-1.2432875
 30
0.0
 11
-0.381625
 21
1.2432875
 31
0.0
  0
ARC
  5
134
330
F6
100
AcDbEntity
  8
AM_9
100
AcDbCircle
 10
-0.2863125000000006
 20
1.243287500000001
 30
0.0
 40
0.0953124999999995
100
AcDbArc
 50
90.0
 51
180.0
  0
ARC
  5
135
330
F6
100
AcDbEntity
  8
AM_9
100
AcDbCircle
 10
-0.2863125000000003
 20
-1.2432875
 30
0.0
 40
0.0953124999999997
100
AcDbArc
 50
180.0
 51
270.0
  0
LINE
  5
136
330
F6
100
AcDbEntity
  8
AM_9
100
AcDbLine
 10
0.7845625000000003
 20
-1.3386
 30
0.0
 11
0.7845625000000003
 21
1.3386
 31
0.0
  0
LINE
  5
137
330
F6
100
AcDbEntity
  8
AM_9
100
AcDbLine
 10
0.7845625000000003
 20
1.3386
 30
0.0
 11
0.7256875000000002
 21
1.3386
 31
0.0
  0
LINE
  5
138
330
F6
100
AcDbEntity
  8
AM_9
100
AcDbLine
 10
0.7256875000000002
 20
-1.3386
 30
0.0
 11
0.7845625000000003
 21
-1.3386
 31
0.0
  0
LINE
  5
139
330
F6
100
AcDbEntity
  8
AM_9
100
AcDbLine
 10
-0.2863125000000001
 20
-1.3386
 30
0.0
 11
-0.2863125000000001
 21
1.3386
 31
0.0
  0
LINE
  5
13A
330
F6
100
AcDbEntity
  8
AM_9
100
AcDbLine
 10
-0.2274374999999999
 20
1.3386
 30
0.0
 11
-0.2863125000000001
 21
1.3386
 31
0.0
  0
LINE
  5
13B
330
F6
100
AcDbEntity
  8
AM_9
100
AcDbLine
 10
-0.2863125000000001
 20
-1.3386
 30
0.0
 11
-0.2274374999999999
 21
-1.3386
 31
0.0
  0
LINE
  5
13C
330
F6
100
AcDbEntity
  8
AM_9
100
AcDbLine
 10
0.2967812500000019
 20
1.60632
 30
0.0
 11
0.2014687499999982
 21
1.60632
 31
0.0
  0
LINE
  5
13D
330
F6
100
AcDbEntity
  8
AM_9
100
AcDbLine
 10
0.2014687499999982
 20
-1.60632
 30
0.0
 11
0.2967812500000019
 21
-1.60632
 31
0.0
  0
LINE
  5
13E
330
F6
100
AcDbEntity
  8
AM_9
100
AcDbLine
 10
0.2014687499999982
 20
-1.60632
 30
0.0
 11
0.2014687499999982
 21
1.60632
 31
0.0
  0
LINE
  5
13F
330
F6
100
AcDbEntity
  8
AM_9
100
AcDbLine
 10
0.2014687499999982
 20
1.60632
 30
0.0
 11
0.1628266964831365
 21
1.67325
 31
0.0
  0
LINE
  5
140
330
F6
100
AcDbEntity
  8
AM_9
100
AcDbLine
 10
0.1628266964831365
 20
-1.67325
 30
0.0
 11
0.2014687499999982
 21
-1.60632
 31
0.0
  0
LINE
  5
141
330
F6
100
AcDbEntity
  8
AM_9
100
AcDbLine
 10
0.2967812500000019
 20
-1.60632
 30
0.0
 11
0.2967812500000019
 21
1.60632
 31
0.0
  0
LINE
  5
142
330
F6
100
AcDbEntity
  8
AM_9
100
AcDbLine
 10
0.2967812500000019
 20
-1.60632
 30
0.0
 11
0.3354233035168636
 21
-1.67325
 31
0.0
  0
LINE
  5
143
330
F6
100
AcDbEntity
  8
AM_9
100
AcDbLine
 10
0.3354233035168636
 20
1.67325
 30
0.0
 11
0.2967812500000019
 21
1.60632
 31
0.0
  0
LINE
  5
144
330
F6
100
AcDbEntity
  8
AM_9
100
AcDbLine
 10
0.7256875000000002
 20
-1.577937501420267
 30
0.0
 11
0.7256875000000002
 21
1.577937501420267
 31
0.0
  0
ARC
  5
145
330
F6
100
AcDbEntity
  8
AM_9
100
AcDbCircle
 10
0.6303750000000001
 20
1.5779375
 30
0.0
 40
0.0953125
100
AcDbArc
 50
0.0
 51
90.0
  0
ARC
  5
146
330
F6
100
AcDbEntity
  8
AM_9
100
AcDbCircle
 10
0.6303750000000001
 20
-1.5779375
 30
0.0
 40
0.0953124999999999
100
AcDbArc
 50
270.0
 51
0.0
  0
LINE
  5
147
330
F6
100
AcDbEntity
  8
AM_9
100
AcDbLine
 10
-0.2274374999999999
 20
-1.5779375
 30
0.0
 11
-0.2274374999999999
 21
1.5779375
 31
0.0
  0
ARC
  5
148
330
F6
100
AcDbEntity
  8
AM_9
100
AcDbCircle
 10
-0.1321249999999997
 20
1.5779375
 30
0.0
 40
0.0953125000000004
100
AcDbArc
 50
90.0
 51
180.0
  0
ARC
  5
149
330
F6
100
AcDbEntity
  8
AM_9
100
AcDbCircle
 10
-0.1321249999999999
 20
-1.5779375
 30
0.0
 40
0.0953125000000001
100
AcDbArc
 50
180.0
 51
270.0
  0
LINE
  5
14A
330
F6
100
AcDbEntity
  8
AM_9
100
AcDbLine
 10
0.630375
 20
-1.67325
 30
0.0
 11
0.630375
 21
1.67325
 31
0.0
  0
LINE
  5
14B
330
F6
100
AcDbEntity
  8
AM_9
100
AcDbLine
 10
0.3354233035168636
 20
-1.67325
 30
0.0
 11
0.3354233035168636
 21
1.67325
 31
0.0
  0
LINE
  5
14C
330
F6
100
AcDbEntity
  8
AM_9
100
AcDbLine
 10
0.630375
 20
1.67325
 30
0.0
 11
0.3354233035168636
 21
1.67325
 31
0.0
  0
LINE
  5
14D
330
F6
100
AcDbEntity
  8
AM_9
100
AcDbLine
 10
0.3354233035168636
 20
-1.67325
 30
0.0
 11
0.630375
 21
-1.67325
 31
0.0
  0
LINE
  5
14E
330
F6
100
AcDbEntity
  8
AM_9
100
AcDbLine
 10
0.1628266964831365
 20
-1.67325
 30
0.0
 11
0.1628266964831365
 21
1.67325
 31
0.0
  0
LINE
  5
14F
330
F6
100
AcDbEntity
  8
AM_9
100
AcDbLine
 10
-0.1321249999999999
 20
-1.67325
 30
0.0
 11
-0.1321249999999999
 21
1.67325
 31
0.0
  0
LINE
  5
150
330
F6
100
AcDbEntity
  8
AM_9
100
AcDbLine
 10
0.1628266964831365
 20
1.67325
 30
0.0
 11
-0.1321249999999999
 21
1.67325
 31
0.0
  0
LINE
  5
151
330
F6
100
AcDbEntity
  8
AM_9
100
AcDbLine
 10
-0.1321249999999999
 20
-1.67325
 30
0.0
 11
0.1628266964831365
 21
-1.67325
 31
0.0
  0
LINE
  5
154
330
F6
100
AcDbEntity
  8
AM_7
100
AcDbLine
 10
-1.136125
 20
-0.0592307692307692
 30
0.0
 11
-1.136125
 21
1.6169375
 31
0.0
  0
LWPOLYLINE
  5
155
330
F6
100
AcDbEntity
  8
AM_4
100
AcDbPolyline
 90
        7
 70
     0
 43
0.0
 10
-1.066714840251297
 20
0.5355129749248358
 10
-1.075162173249018
 20
0.5377911968645097
 10
-1.109204855212846
 20
0.5438630421348409
 10
-1.143256175064668
 20
0.5451767200051031
 10
-1.177101616006928
 20
0.5419593748452951
 10
-1.209306533153508
 20
0.5343629561815103
 10
-1.215051106182235
 20
0.5325140983074645
  0
LINE
  5
156
330
F6
100
AcDbEntity
  8
AM_4
100
AcDbLine
 10
-0.6406249999999998
 20
1.155
 30
0.0
 11
-0.8191249999999997
 21
1.155
 31
0.0
  0
LINE
  5
157
330
F6
100
AcDbEntity
  8
AM_4
100
AcDbLine
 10
-0.8191249999999997
 20
-1.155
 30
0.0
 11
-0.6406249999999998
 21
-1.155
 31
0.0
  0
ENDBLK
  5
F9
330
F6
100
AcDbEntity
  8
0
100
AcDbBlockEnd
  0
BLOCK
  5
15A
330
158
100
AcDbEntity
  8
0
100
AcDbBlockBegin
  2
5_405015E_Inch_0_in_070649_2
 70
     2
 10
0.0
 20
0.0
 30
0.0
  3
5_405015E_Inch_0_in_070649_2
  1

  0
ATTDEF
  5
15C
330
158
100
AcDbEntity
  8
AM_6
100
AcDbText
 10
4.770137777510708
 20
2.489338338148094
 30
0.0
 40
0.5
  1
405015E -Inch
100
AcDbAttributeDefinition
  3

  2
NN
 70
     8
280
     0
  0
ATTDEF
  5
15D
330
158
100
AcDbEntity
  8
AM_6
100
AcDbText
 10
4.770137777510708
 20
1.989338338148094
 30
0.0
 40
0.5
  1
Grease Fitting
100
AcDbAttributeDefinition
  3

  2
NT
 70
     8
280
     0
  0
ATTDEF
  5
15E
330
158
100
AcDbEntity
  8
AM_6
100
AcDbText
 10
4.770137777510708
 20
1.489338338148094
 30
0.0
 40
0.5
  1
405015E-Inch
100
AcDbAttributeDefinition
  3

  2
NB
 70
     8
280
     0
  0
ATTDEF
  5
15F
330
158
100
AcDbEntity
  8
AM_6
100
AcDbText
 10
4.770137777510708
 20
0.9893383381480945
 30
0.0
 40
0.5
  1
$MN.-Inch
100
AcDbAttributeDefinition
  3

  2
NBSYN
 70
     8
280
     0
  0
ATTDEF
  5
160
330
158
100
AcDbEntity
  8
AM_6
100
AcDbText
 10
4.770137777510708
 20
0.4893383381480945
 30
0.0
 40
0.5
  1
405015E
100
AcDbAttributeDefinition
  3

  2
LINA
 70
     8
280
     0
  0
ATTDEF
  5
161
330
158
100
AcDbEntity
  8
AM_6
100
AcDbText
 10
4.770137777510708
 20
-0.0106616618519055
 30
0.0
 40
0.5
  1
405015E
100
AcDbAttributeDefinition
  3

  2
MN
 70
     8
280
     0
  0
ATTDEF
  5
162
330
158
100
AcDbEntity
  8
AM_6
100
AcDbText
 10
4.770137777510708
 20
-0.5106616618519055
 30
0.0
 40
0.5
  1
1/8 x 27PTF
100
AcDbAttributeDefinition
  3

  2
T
 70
     8
280
     0
  0
ATTDEF
  5
163
330
158
100
AcDbEntity
  8
AM_6
100
AcDbText
 10
4.770137777510708
 20
-1.010661661851906
 30
0.0
 40
0.5
  1
baldor
100
AcDbAttributeDefinition
  3

  2
COMPANY
 70
     8
280
     0
  0
LINE
  5
164
330
158
100
AcDbEntity
  8
AM_9
100
AcDbLine
 10
-0.5000000000000002
 20
2.28273631148104
 30
0.0
 11
-0.4309353907283024
 21
2.402359723744512
 31
0.0
  0
LINE
  5
165
330
158
100
AcDbEntity
  8
AM_9
100
AcDbLine
 10
-0.4309353907283024
 20
2.402359723744512
 30
0.0
 11
-0.5000000000000001
 21
2.442234194499004
 31
0.0
  0
LINE
  5
166
330
158
100
AcDbEntity
  8
AM_9
100
AcDbLine
 10
-0.640625
 20
2.039166666666667
 30
0.0
 11
-0.6255144221513298
 21
2.065338955232288
 31
0.0
  0
LINE
  5
167
330
158
100
AcDbEntity
  8
AM_9
100
AcDbLine
 10
-0.3917650949615606
 20
1.940204666160009
 30
0.0
 11
-0.2298622224892917
 21
2.220628667173324
 31
0.0
  0
LINE
  5
168
330
158
100
AcDbEntity
  8
AM_9
100
AcDbLine
 10
-0.2298622224892917
 20
2.220628667173324
 30
0.0
 11
-0.2433007552600703
 21
2.270781954253049
 31
0.0
  0
LINE
  5
169
330
158
100
AcDbEntity
  8
AM_9
100
AcDbLine
 10
-0.4419183820412857
 20
1.926766133389231
 30
0.0
 11
-0.3917650949615606
 21
1.940204666160009
 31
0.0
  0
LINE
  5
16A
330
158
100
AcDbEntity
  8
AM_9
100
AcDbLine
 10
-0.4419183820412857
 20
1.926766133389231
 30
0.0
 11
-0.2433007552600703
 21
2.270781954253049
 31
0.0
  0
LINE
  5
16B
330
158
100
AcDbEntity
  8
AM_9
100
AcDbLine
 10
-0.2433007552600703
 20
2.270781954253049
 30
0.0
 11
-0.4374344421167676
 21
2.39110303653869
 31
0.0
  0
LINE
  5
16C
330
158
100
AcDbEntity
  8
AM_9
100
AcDbLine
 10
-0.640625
 20
2.033356343072777
 30
0.0
 11
-0.4419183820412857
 21
1.926766133389231
 31
0.0
  0
LWPOLYLINE
  5
16D
330
158
100
AcDbEntity
  8
AM_9
100
AcDbPolyline
 90
        4
 70
     0
 43
0.0
 10
-0.4387881624169186
 20
2.40689352359282
 10
-0.4602589860845594
 20
2.356394057418806
 10
-0.4724026174170017
 20
2.331765503899164
 10
-0.4856228907283024
 20
2.307638195205589
  0
LINE
  5
16E
330
158
100
AcDbEntity
  8
AM_9
100
AcDbLine
 10
-0.6292422633656931
 20
2.065198125315675
 30
0.0
 11
-0.6402424237451037
 21
2.050215820960283
 31
0.0
  0
LWPOLYLINE
  5
16F
330
158
100
AcDbEntity
  8
AM_9
100
AcDbPolyline
 90
        3
 70
     0
 43
0.0
 10
-0.4856228907283024
 20
2.307638195205589
 10
-0.4998208016863801
 20
2.284261520072858
 10
-0.499989236937302
 20
2.283997587290411
  0
LINE
  5
170
330
158
100
AcDbEntity
  8
AM_5
100
AcDbLine
 10
-0.567980794598394
 20
2.034730296794644
 30
0.0
 11
-0.3917650949615605
 21
1.940204666160009
 31
0.0
  0
LINE
  5
171
330
158
100
AcDbEntity
  8
AM_5
100
AcDbLine
 10
-0.6085453231884597
 20
2.034730296794644
 30
0.0
 11
-0.567980794598394
 21
2.034730296794644
 31
0.0
  0
LINE
  5
172
330
158
100
AcDbEntity
  8
AM_5
100
AcDbLine
 10
-0.3998316697460462
 20
2.325973124287153
 30
0.0
 11
-0.2298622224892917
 21
2.220628667173324
 31
0.0
  0
LINE
  5
173
330
158
100
AcDbEntity
  8
AM_5
100
AcDbLine
 10
-0.4374344421167675
 20
2.39110303653869
 30
0.0
 11
-0.3998316697460459
 21
2.325973124287152
 31
0.0
  0
LINE
  5
174
330
158
100
AcDbEntity
  8
AM_5
100
AcDbLine
 10
-0.5857644750479983
 20
2.00392805871036
 30
0.0
 11
-0.3820479892964417
 21
2.356775362371437
 31
0.0
  0
LINE
  5
175
330
158
100
AcDbEntity
  8
AM_7
100
AcDbLine
 10
-0.8927827300685689
 20
2.416416666666667
 30
0.0
 11
-0.2831008458043242
 21
2.064416666666667
 31
0.0
  0
LINE
  5
176
330
158
100
AcDbEntity
  8
AM_4
100
AcDbLine
 10
-0.6653455985041123
 20
2.406349334064033
 30
0.0
 11
-0.6913263606176455
 21
2.421349334064033
 31
0.0
  0
LINE
  5
177
330
158
100
AcDbEntity
  8
AM_4
100
AcDbLine
 10
-0.7963263606176455
 20
2.239483999269301
 30
0.0
 11
-0.7703455985041124
 21
2.2244839992693
 31
0.0
  0
LINE
  5
178
330
158
100
AcDbEntity
  8
AM_4
100
AcDbLine
 10
-0.7703455985041124
 20
2.2244839992693
 30
0.0
 11
-0.6653455985041123
 21
2.406349334064033
 31
0.0
  0
LINE
  5
179
330
158
100
AcDbEntity
  8
AM_4
100
AcDbLine
 10
-0.7703455985041124
 20
2.2244839992693
 30
0.0
 11
-0.7493290280004976
 21
2.19639201041956
 31
0.0
  0
LINE
  5
17A
330
158
100
AcDbEntity
  8
AM_4
100
AcDbLine
 10
-0.6305089372656001
 20
2.402194444532346
 30
0.0
 11
-0.6653455985041123
 21
2.406349334064033
 31
0.0
  0
LINE
  5
17B
330
158
100
AcDbEntity
  8
AM_4
100
AcDbLine
 10
-0.7963263606176455
 20
2.239483999269301
 30
0.0
 11
-0.6913263606176455
 21
2.421349334064033
 31
0.0
  0
LINE
  5
17C
330
158
100
AcDbEntity
  8
AM_4
100
AcDbLine
 10
-0.6913263606176455
 20
2.421349334064033
 30
0.0
 11
-0.7282878848447117
 21
2.477330096177566
 31
0.0
  0
LINE
  5
17D
330
158
100
AcDbEntity
  8
AM_4
100
AcDbLine
 10
-0.8632878848447119
 20
2.243503237155767
 30
0.0
 11
-0.7963263606176455
 21
2.239483999269301
 31
0.0
  0
LINE
  5
17E
330
158
100
AcDbEntity
  8
AM_4
100
AcDbLine
 10
-0.9164088681140606
 20
2.311494995185239
 30
0.0
 11
-0.8137309661808731
 21
2.489338338148094
 31
0.0
  0
LINE
  5
17F
330
158
100
AcDbEntity
  8
AM_4
100
AcDbLine
 10
-0.8632878848447119
 20
2.243503237155767
 30
0.0
 11
-0.7282878848447117
 21
2.477330096177566
 31
0.0
  0
LINE
  5
180
330
158
100
AcDbEntity
  8
AM_4
100
AcDbLine
 10
-0.9164088681140606
 20
2.311494995185239
 30
0.0
 11
-0.8632878848447119
 21
2.243503237155767
 31
0.0
  0
LINE
  5
181
330
158
100
AcDbEntity
  8
AM_4
100
AcDbLine
 10
-0.7282878848447117
 20
2.477330096177566
 30
0.0
 11
-0.8137309661808731
 21
2.489338338148094
 31
0.0
  0
LINE
  5
182
330
158
100
AcDbEntity
  8
AM_4
100
AcDbLine
 10
-0.7493290280004977
 20
2.19639201041956
 30
0.0
 11
-0.6305089372656001
 21
2.402194444532346
 31
0.0
  0
LINE
  5
183
330
158
100
AcDbEntity
  8
AM_4
100
AcDbLine
 10
-0.7493290280004977
 20
2.19639201041956
 30
0.0
 11
-0.7290439830362249
 21
2.122656892776118
 31
0.0
  0
LINE
  5
184
330
158
100
AcDbEntity
  8
AM_4
100
AcDbLine
 10
-0.5565099297532095
 20
2.421494639098097
 30
0.0
 11
-0.6305089372656001
 21
2.402194444532346
 31
0.0
  0
LINE
  5
185
330
158
100
AcDbEntity
  8
AM_4
100
AcDbLine
 10
-0.5000000000000001
 20
2.442234194499004
 30
0.0
 11
-0.5175379311067463
 21
2.452359723744513
 31
0.0
  0
LINE
  5
186
330
158
100
AcDbEntity
  8
AM_4
100
AcDbLine
 10
-0.7362879311067462
 20
2.073473609588821
 30
0.0
 11
-0.5175379311067463
 21
2.452359723744513
 31
0.0
  0
LINE
  5
187
330
158
100
AcDbEntity
  8
AM_4
100
AcDbLine
 10
-0.6255144221513298
 20
2.065338955232288
 30
0.0
 11
-0.5000000000000002
 21
2.28273631148104
 31
0.0
  0
LINE
  5
188
330
158
100
AcDbEntity
  8
AM_4
100
AcDbLine
 10
-0.6496853907283024
 20
2.023473609588821
 30
0.0
 11
-0.640625
 21
2.039166666666667
 31
0.0
  0
LINE
  5
189
330
158
100
AcDbEntity
  8
AM_4
100
AcDbLine
 10
-0.7362879311067462
 20
2.073473609588821
 30
0.0
 11
-0.6496853907283024
 21
2.023473609588821
 31
0.0
  0
LINE
  5
18A
330
158
100
AcDbEntity
  8
AM_4
100
AcDbLine
 10
-0.6431863393398372
 20
2.034730296794644
 30
0.0
 11
-0.640625
 21
2.033356343072777
 31
0.0
  0
LINE
  5
18B
330
158
100
AcDbEntity
  8
AM_4
100
AcDbLine
 10
-0.7290439830362249
 20
2.122656892776118
 30
0.0
 11
-0.5565099297532095
 21
2.421494639098097
 31
0.0
  0
LINE
  5
18C
330
158
100
AcDbEntity
  8
AM_4
100
AcDbLine
 10
-0.7290439830362249
 20
2.122656892776118
 30
0.0
 11
-0.7337879311067463
 21
2.077803736607743
 31
0.0
  0
LINE
  5
18D
330
158
100
AcDbEntity
  8
AM_4
100
AcDbLine
 10
-0.5200379311067462
 20
2.448029596725591
 30
0.0
 11
-0.5565099297532095
 21
2.421494639098097
 31
0.0
  0
LWPOLYLINE
  5
18E
330
158
100
AcDbEntity
  8
AM_4
100
AcDbPolyline
 90
        4
 70
     0
 43
0.0
 10
-0.5722254311067463
 20
2.35763819520559
 10
-0.5580275201486685
 20
2.381014870338321
 10
-0.5427900485609165
 20
2.403829361233162
 10
-0.5096851594181301
 20
2.447825923896205
  0
LWPOLYLINE
  5
18F
330
158
100
AcDbEntity
  8
AM_4
100
AcDbPolyline
 90
        4
 70
     0
 43
0.0
 10
-0.6190601594181301
 20
2.258382866818359
 10
-0.6087559082858092
 20
2.283803921623501
 10
-0.585445704418047
 20
2.333510886512015
 10
-0.5722254311067463
 20
2.35763819520559
  0
LINE
  5
190
330
158
100
AcDbEntity
  8
AM_4
100
AcDbLine
 10
-0.6190601594181301
 20
2.258382866818359
 30
0.0
 11
-0.5481631624169185
 21
2.217450466514974
 31
0.0
  0
LWPOLYLINE
  5
191
330
158
100
AcDbEntity
  8
AM_4
100
AcDbPolyline
 90
        4
 70
     0
 43
0.0
 10
-0.6816004311067462
 20
2.168195138127744
 10
-0.6674025201486685
 20
2.191571813260475
 10
-0.6360120237456975
 20
2.236630942922899
 10
-0.6190601594181301
 20
2.258382866818359
  0
LWPOLYLINE
  5
192
330
158
100
AcDbEntity
  8
AM_4
100
AcDbPolyline
 90
        4
 70
     0
 43
0.0
 10
-0.7284351594181302
 20
2.068939809740514
 10
-0.7069643357504892
 20
2.119439275914527
 10
-0.6948207044180469
 20
2.144067829434169
 10
-0.6816004311067462
 20
2.168195138127744
  0
LINE
  5
193
330
158
100
AcDbEntity
  8
AM_4
100
AcDbLine
 10
-0.6402424237451037
 20
2.050215820960283
 30
0.0
 11
-0.6575381624169186
 21
2.028007409437128
 31
0.0
  0
LWPOLYLINE
  5
194
330
158
100
AcDbEntity
  8
AM_4
100
AcDbPolyline
 90
        4
 70
     0
 43
0.0
 10
-0.5949978907283024
 20
2.118195138127744
 10
-0.6091958016863801
 20
2.094818462995013
 10
-0.6244143692890719
 20
2.072031064250799
 10
-0.6292422633656931
 20
2.065198125315675
  0
LWPOLYLINE
  5
195
330
158
100
AcDbEntity
  8
AM_4
100
AcDbPolyline
 90
        3
 70
     0
 43
0.0
 10
-0.499989236937302
 20
2.283997587290411
 10
-0.5312112980893511
 20
2.239202390410434
 10
-0.5481631624169185
 20
2.217450466514974
  0
LWPOLYLINE
  5
196
330
158
100
AcDbEntity
  8
AM_4
100
AcDbPolyline
 90
        4
 70
     0
 43
0.0
 10
-0.5481631624169185
 20
2.217450466514974
 10
-0.563935774068607
 20
2.179439127990631
 10
-0.5817776174170017
 20
2.142322446821318
 10
-0.5949978907283024
 20
2.118195138127744
  0
ENDBLK
  5
15B
330
158
100
AcDbEntity
  8
0
100
AcDbBlockEnd
  0
BLOCK
  5
199
330
197
100
AcDbEntity
  8
0
100
AcDbBlockBegin
  2
6_070649H_0_in_070649_2
 70
     2
 10
0.0
 20
0.0
 30
0.0
  3
6_070649H_0_in_070649_2
  1

  0
ATTDEF
  5
19B
330
197
100
AcDbEntity
  8
AM_6
100
AcDbText
 10
6.365953947368421
 20
3.0625
 30
0.0
 40
0.5
  1
FC-S2 -(Contact Seal)-Housing
100
AcDbAttributeDefinition
  3

  2
NN
 70
     8
280
     0
  0
ATTDEF
  5
19C
330
197
100
AcDbEntity
  8
AM_6
100
AcDbText
 10
6.365953947368421
 20
2.5625
 30
0.0
 40
0.5
  1
S-2000 Piloted Flange Bearing -Inch
100
AcDbAttributeDefinition
  3

  2
NT
 70
     8
280
     0
  0
ATTDEF
  5
19D
330
197
100
AcDbEntity
  8
AM_6
100
AcDbText
 10
6.365953947368421
 20
2.0625
 30
0.0
 40
0.5
  1
070649H
100
AcDbAttributeDefinition
  3

  2
NB
 70
     8
280
     0
  0
ATTDEF
  5
19E
330
197
100
AcDbEntity
  8
AM_6
100
AcDbText
 10
6.365953947368421
 20
1.5625
 30
0.0
 40
0.5
  1
$PN.H
100
AcDbAttributeDefinition
  3

  2
NBSYN
 70
     8
280
     0
  0
ATTDEF
  5
19F
330
197
100
AcDbEntity
  8
AM_6
100
AcDbText
 10
6.365953947368421
 20
1.0625
 30
0.0
 40
0.5
  1
070649
100
AcDbAttributeDefinition
  3

  2
LINA
 70
     8
280
     0
  0
ATTDEF
  5
1A0
330
197
100
AcDbEntity
  8
AM_6
100
AcDbText
 10
6.365953947368421
 20
0.5625
 30
0.0
 40
0.5
  1
1-3/4
100
AcDbAttributeDefinition
  3

  2
SS
 70
     8
280
     0
  0
ATTDEF
  5
1A1
330
197
100
AcDbEntity
  8
AM_6
100
AcDbText
 10
6.365953947368421
 20
0.0625
 30
0.0
 40
0.5
  1
070649
100
AcDbAttributeDefinition
  3

  2
PN
 70
     8
280
     0
  0
ATTDEF
  5
1A2
330
197
100
AcDbEntity
  8
AM_6
100
AcDbText
 10
6.365953947368421
 20
-0.4375
 30
0.0
 40
0.5
  1
FC-S2-112R
100
AcDbAttributeDefinition
  3

  2
DESCRIPTION
 70
     8
280
     0
  0
ATTDEF
  5
1A3
330
197
100
AcDbEntity
  8
AM_6
100
AcDbText
 10
6.365953947368421
 20
-0.9375
 30
0.0
 40
0.5
  1
Non-Expansion Type
100
AcDbAttributeDefinition
  3

  2
EF
 70
     8
280
     0
  0
ATTDEF
  5
1A4
330
197
100
AcDbEntity
  8
AM_6
100
AcDbText
 10
6.365953947368421
 20
-1.4375
 30
0.0
 40
0.5
  1
2-43/64
100
AcDbAttributeDefinition
  3

  2
A
 70
     8
280
     0
  0
ATTDEF
  5
1A5
330
197
100
AcDbEntity
  8
AM_6
100
AcDbText
 10
6.365953947368421
 20
-1.9375
 30
0.0
 40
0.5
  1
6-1/8
100
AcDbAttributeDefinition
  3

  2
B
 70
     8
280
     0
  0
ATTDEF
  5
1A6
330
197
100
AcDbEntity
  8
AM_6
100
AcDbText
 10
6.365953947368421
 20
-2.4375
 30
0.0
 40
0.5
  1
1-29/32
100
AcDbAttributeDefinition
  3

  2
C
 70
     8
280
     0
  0
ATTDEF
  5
1A7
330
197
100
AcDbEntity
  8
AM_6
100
AcDbText
 10
6.365953947368421
 20
-2.9375
 30
0.0
 40
0.5
  1
5-1/8
100
AcDbAttributeDefinition
  3

  2
DD
 70
     8
280
     0
  0
ATTDEF
  5
1A8
330
197
100
AcDbEntity
  8
AM_6
100
AcDbText
 10
6.365953947368421
 20
-3.4375
 30
0.0
 40
0.5
  1
7/8
100
AcDbAttributeDefinition
  3

  2
E
 70
     8
280
     0
  0
ATTDEF
  5
1A9
330
197
100
AcDbEntity
  8
AM_6
100
AcDbText
 10
6.365953947368421
 20
-3.9375
 30
0.0
 40
0.5
  1
7/16
100
AcDbAttributeDefinition
  3

  2
F
 70
     8
280
     0
  0
ATTDEF
  5
1AA
330
197
100
AcDbEntity
  8
AM_6
100
AcDbText
 10
6.365953947368421
 20
-4.4375
 30
0.0
 40
0.5
  1
1-29/64
100
AcDbAttributeDefinition
  3

  2
G
 70
     8
280
     0
  0
ATTDEF
  5
1AB
330
197
100
AcDbEntity
  8
AM_6
100
AcDbText
 10
6.365953947368421
 20
-4.9375
 30
0.0
 40
0.5
  1
1/2
100
AcDbAttributeDefinition
  3

  2
H
 70
     8
280
     0
  0
ATTDEF
  5
1AC
330
197
100
AcDbEntity
  8
AM_6
100
AcDbText
 10
6.365953947368421
 20
-5.4375
 30
0.0
 40
0.5
  1
4.250
100
AcDbAttributeDefinition
  3

  2
K
 70
     8
280
     0
  0
ATTDEF
  5
1AD
330
197
100
AcDbEntity
  8
AM_6
100
AcDbText
 10
6.365953947368421
 20
-5.9375
 30
0.0
 40
0.5
  1
3-3/16
100
AcDbAttributeDefinition
  3

  2
L
 70
     8
280
     0
  0
ATTDEF
  5
1AE
330
197
100
AcDbEntity
  8
AM_6
100
AcDbText
 10
6.365953947368421
 20
-6.4375
 30
0.0
 40
0.5
  1
7/16-14
100
AcDbAttributeDefinition
  3

  2
M
 70
     8
280
     0
  0
ATTDEF
  5
1AF
330
197
100
AcDbEntity
  8
AM_6
100
AcDbText
 10
6.365953947368421
 20
-6.9375
 30
0.0
 40
0.5
  1
0.4375
100
AcDbAttributeDefinition
  3

  2
MNDM
 70
     8
280
     0
  0
ATTDEF
  5
1B0
330
197
100
AcDbEntity
  8
AM_6
100
AcDbText
 10
6.365953947368421
 20
-7.4375
 30
0.0
 40
0.5
  1
0.3602
100
AcDbAttributeDefinition
  3

  2
MKDM
 70
     8
280
     0
  0
ATTDEF
  5
1B1
330
197
100
AcDbEntity
  8
AM_6
100
AcDbText
 10
6.365953947368421
 20
-7.9375
 30
0.0
 40
0.5
  1
2-23/32
100
AcDbAttributeDefinition
  3

  2
N
 70
     8
280
     0
  0
ATTDEF
  5
1B2
330
197
100
AcDbEntity
  8
AM_6
100
AcDbText
 10
6.365953947368421
 20
-8.4375
 30
0.0
 40
0.5
  1
2.718750
100
AcDbAttributeDefinition
  3

  2
N1
 70
     8
280
     0
  0
ATTDEF
  5
1B3
330
197
100
AcDbEntity
  8
AM_6
100
AcDbText
 10
6.365953947368421
 20
-8.9375
 30
0.0
 40
0.5
  1
1-7/32
100
AcDbAttributeDefinition
  3

  2
P
 70
     8
280
     0
  0
ATTDEF
  5
1B4
330
197
100
AcDbEntity
  8
AM_6
100
AcDbText
 10
6.365953947368421
 20
-9.4375
 30
0.0
 40
0.5
  1
1-17/64
100
AcDbAttributeDefinition
  3

  2
Q
 70
     8
280
     0
  0
ATTDEF
  5
1B5
330
197
100
AcDbEntity
  8
AM_6
100
AcDbText
 10
6.365953947368421
 20
-9.9375
 30
0.0
 40
0.5
  1
1.265625
100
AcDbAttributeDefinition
  3

  2
Q1
 70
     8
280
     0
  0
ATTDEF
  5
1B6
330
197
100
AcDbEntity
  8
AM_6
100
AcDbText
 10
6.365953947368421
 20
-10.4375
 30
0.0
 40
0.5
  1
1/4
100
AcDbAttributeDefinition
  3

  2
X
 70
     8
280
     0
  0
ATTDEF
  5
1B7
330
197
100
AcDbEntity
  8
AM_6
100
AcDbText
 10
6.365953947368421
 20
-10.9375
 30
0.0
 40
0.5
  1
0.020
100
AcDbAttributeDefinition
  3

  2
Y
 70
     8
280
     0
  0
ATTDEF
  5
1B8
330
197
100
AcDbEntity
  8
AM_6
100
AcDbText
 10
6.365953947368421
 20
-11.4375
 30
0.0
 40
0.5
  1
2-5/64
100
AcDbAttributeDefinition
  3

  2
Z
 70
     8
280
     0
  0
ATTDEF
  5
1B9
330
197
100
AcDbEntity
  8
AM_6
100
AcDbText
 10
6.365953947368421
 20
-11.9375
 30
0.0
 40
0.5
  1
baldor
100
AcDbAttributeDefinition
  3

  2
COMPANY
 70
     8
280
     0
  0
LINE
  5
1BA
330
197
100
AcDbEntity
  8
AM_9
100
AcDbLine
 10
-0.0000000000000003
 20
-2.928333333333321
 30
0.0
 11
-0.4500000000000001
 21
-2.928333333333321
 31
0.0
  0
LINE
  5
1BB
330
197
100
AcDbEntity
  8
AM_9
100
AcDbLine
 10
-0.640625
 20
1.979166666666667
 30
0.0
 11
-0.5908734059999524
 21
2.065338955232288
 31
0.0
  0
LINE
  5
1BC
330
197
100
AcDbEntity
  8
AM_9
100
AcDbLine
 10
-0.4500000000000001
 20
2.309338851859483
 30
0.0
 11
-0.4999999999999998
 21
2.22273631148104
 31
0.0
  0
LINE
  5
1BD
330
197
100
AcDbEntity
  8
AM_9
100
AcDbLine
 10
-0.4500000000000001
 20
-1.989047229239223
 30
0.0
 11
-0.5000000000000001
 21
-1.989047229239223
 31
0.0
  0
LINE
  5
1BE
330
197
100
AcDbEntity
  8
AM_9
100
AcDbLine
 10
-0.4500000000000001
 20
-1.943835240311471
 30
0.0
 11
-0.5000000000000001
 21
-1.943835240311471
 31
0.0
  0
LINE
  5
1BF
330
197
100
AcDbEntity
  8
AM_9
100
AcDbLine
 10
-0.4500000000000001
 20
1.989047229239223
 30
0.0
 11
-0.5000000000000001
 21
1.989047229239223
 31
0.0
  0
LINE
  5
1C0
330
197
100
AcDbEntity
  8
AM_9
100
AcDbLine
 10
-0.5000000000000001
 20
1.943835240311471
 30
0.0
 11
-0.4500000000000001
 21
1.943835240311471
 31
0.0
  0
LINE
  5
1C1
330
197
100
AcDbEntity
  8
AM_9
100
AcDbLine
 10
-0.4500000000000001
 20
2.065338955232288
 30
0.0
 11
-0.5
 21
2.065338955232288
 31
0.0
  0
LINE
  5
1C2
330
197
100
AcDbEntity
  8
AM_9
100
AcDbLine
 10
-0.4500000000000001
 20
1.962905215015526
 30
0.0
 11
-0.5000000000000001
 21
1.962905215015526
 31
0.0
  0
LINE
  5
1C3
330
197
100
AcDbEntity
  8
AM_9
100
AcDbLine
 10
-0.4500000000000001
 20
-1.962905215015527
 30
0.0
 11
-0.5000000000000001
 21
-1.962905215015527
 31
0.0
  0
LINE
  5
1C4
330
197
100
AcDbEntity
  8
AM_9
100
AcDbLine
 10
-0.5
 20
-2.125
 30
0.0
 11
-0.4500000000000001
 21
-2.125
 31
0.0
  0
LINE
  5
1C5
330
197
100
AcDbEntity
  8
AM_9
100
AcDbLine
 10
-0.4409539473684211
 20
-1.67325
 30
0.0
 11
1.265625
 21
-1.67325
 31
0.0
  0
LINE
  5
1C6
330
197
100
AcDbEntity
  8
AM_9
100
AcDbLine
 10
1.265625
 20
1.67325
 30
0.0
 11
-0.4409539473684211
 21
1.67325
 31
0.0
  0
LINE
  5
1C7
330
197
100
AcDbEntity
  8
AM_9
100
AcDbLine
 10
-0.4409539473684211
 20
1.67325
 30
0.0
 11
-0.640625
 21
1.745924319802495
 31
0.0
  0
LINE
  5
1C8
330
197
100
AcDbEntity
  8
AM_9
100
AcDbLine
 10
-0.640625
 20
-1.745924319802495
 30
0.0
 11
-0.4409539473684211
 21
-1.67325
 31
0.0
  0
LINE
  5
1C9
330
197
100
AcDbEntity
  8
AM_9
100
AcDbLine
 10
-0.4409539473684211
 20
1.67325
 30
0.0
 11
-0.4409539473684211
 21
-1.67325
 31
0.0
  0
LINE
  5
1CA
330
197
100
AcDbEntity
  8
AM_9
100
AcDbLine
 10
-0.4500000000000001
 20
-1.943835240311471
 30
0.0
 11
-0.4500000000000001
 21
-2.495056726536931
 31
0.0
  0
LINE
  5
1CB
330
197
100
AcDbEntity
  8
AM_9
100
AcDbLine
 10
-0.4500000000000001
 20
2.49505672653693
 30
0.0
 11
-0.4500000000000001
 21
1.943835240311471
 31
0.0
  0
LINE
  5
1CC
330
197
100
AcDbEntity
  8
AM_9
100
AcDbLine
 10
-0.0000000000000003
 20
2.030711126790528
 30
0.0
 11
-0.5000000000000001
 21
2.030711126790528
 31
0.0
  0
LINE
  5
1CD
330
197
100
AcDbEntity
  8
AM_9
100
AcDbLine
 10
-0.5000000000000001
 20
1.593211126790528
 30
0.0
 11
-0.0000000000000003
 21
1.593211126790528
 31
0.0
  0
LINE
  5
1CE
330
197
100
AcDbEntity
  8
AM_9
100
AcDbLine
 10
-0.0000000000000003
 20
-1.593211126790528
 30
0.0
 11
-0.5000000000000001
 21
-1.593211126790528
 31
0.0
  0
LINE
  5
1CF
330
197
100
AcDbEntity
  8
AM_9
100
AcDbLine
 10
-0.5000000000000001
 20
-2.030711126790528
 30
0.0
 11
-0.0000000000000003
 21
-2.030711126790528
 31
0.0
  0
LINE
  5
1D0
330
197
100
AcDbEntity
  8
AM_9
100
AcDbLine
 10
-0.0386499999999999
 20
0.1801000000000001
 30
0.0
 11
-0.4113499999999997
 21
0.1801000000000001
 31
0.0
  0
LINE
  5
1D1
330
197
100
AcDbEntity
  8
AM_9
100
AcDbLine
 10
-0.4113499999999997
 20
-0.1801000000000001
 30
0.0
 11
-0.0386499999999999
 21
-0.1801000000000001
 31
0.0
  0
LINE
  5
1D2
330
197
100
AcDbEntity
  8
AM_9
100
AcDbLine
 10
-0.0386499999999999
 20
-0.1801000000000001
 30
0.0
 11
-0.0386499999999999
 21
0.1801000000000001
 31
0.0
  0
LINE
  5
1D3
330
197
100
AcDbEntity
  8
AM_9
100
AcDbLine
 10
-0.0386499999999999
 20
-0.1801000000000001
 30
0.0
 11
0.0000000000000003
 21
-0.2187499999999999
 31
0.0
  0
LINE
  5
1D4
330
197
100
AcDbEntity
  8
AM_9
100
AcDbLine
 10
0.0000000000000003
 20
0.2187499999999999
 30
0.0
 11
-0.0386499999999999
 21
0.1801000000000001
 31
0.0
  0
LINE
  5
1D5
330
197
100
AcDbEntity
  8
AM_9
100
AcDbLine
 10
-0.4113499999999997
 20
-0.1801000000000001
 30
0.0
 11
-0.4113499999999997
 21
0.1801000000000001
 31
0.0
  0
LINE
  5
1D6
330
197
100
AcDbEntity
  8
AM_9
100
AcDbLine
 10
-0.4113499999999997
 20
0.1801000000000001
 30
0.0
 11
-0.4499999999999996
 21
0.2187499999999999
 31
0.0
  0
LINE
  5
1D7
330
197
100
AcDbEntity
  8
AM_9
100
AcDbLine
 10
-0.4499999999999996
 20
-0.2187499999999999
 30
0.0
 11
-0.4113499999999997
 21
-0.1801000000000001
 31
0.0
  0
LINE
  5
1D8
330
197
100
AcDbEntity
  8
AM_5
100
AcDbLine
 10
-0.0000000000000005
 20
-0.2187499999999999
 30
0.0
 11
-0.4500000000000004
 21
-0.2187499999999999
 31
0.0
  0
LINE
  5
1D9
330
197
100
AcDbEntity
  8
AM_5
100
AcDbLine
 10
-0.0000000000000005
 20
0.2187499999999997
 30
0.0
 11
-0.4500000000000004
 21
0.2187499999999997
 31
0.0
  0
LINE
  5
1DA
330
197
100
AcDbEntity
  8
AM_7
100
AcDbLine
 10
-0.5250000000000002
 20
1.811961126790528
 30
0.0
 11
0.0249999999999996
 21
1.811961126790528
 31
0.0
  0
LINE
  5
1DB
330
197
100
AcDbEntity
  8
AM_7
100
AcDbLine
 10
-0.5250000000000002
 20
-1.811961126790528
 30
0.0
 11
0.0249999999999996
 21
-1.811961126790528
 31
0.0
  0
LINE
  5
1DC
330
197
100
AcDbEntity
  8
AM_7
100
AcDbLine
 10
-1.5859375
 20
0.0
 30
0.0
 11
1.365953947368421
 21
0.0
 31
0.0
  0
LINE
  5
1DD
330
197
100
AcDbEntity
  8
AM_4
100
AcDbLine
 10
-0.4999999999999998
 20
2.22273631148104
 30
0.0
 11
-0.5908734059999524
 21
2.065338955232288
 31
0.0
  0
LINE
  5
1DE
330
197
100
AcDbEntity
  8
AM_4
100
AcDbLine
 10
-0.5
 20
2.065338955232288
 30
0.0
 11
-0.640625
 21
2.065338955232288
 31
0.0
  0
LINE
  5
1DF
330
197
100
AcDbEntity
  8
AM_4
100
AcDbLine
 10
-0.640625
 20
-2.125
 30
0.0
 11
-0.5
 21
-2.125
 31
0.0
  0
LINE
  5
1E0
330
197
100
AcDbEntity
  8
AM_4
100
AcDbLine
 10
-0.640625
 20
-2.125
 30
0.0
 11
-0.640625
 21
2.065338955232288
 31
0.0
  0
LINE
  5
1E1
330
197
100
AcDbEntity
  8
AM_4
100
AcDbLine
 10
-0.640625
 20
1.705750167209492
 30
0.0
 11
-0.5000000000000001
 21
1.705750167209492
 31
0.0
  0
LINE
  5
1E2
330
197
100
AcDbEntity
  8
AM_4
100
AcDbLine
 10
-0.640625
 20
-1.705750167209491
 30
0.0
 11
-0.5000000000000001
 21
-1.705750167209491
 31
0.0
  0
LINE
  5
1E3
330
197
100
AcDbEntity
  8
AM_4
100
AcDbLine
 10
1.265625
 20
-2.023809523809524
 30
0.0
 11
1.265625
 21
2.023809523809524
 31
0.0
  0
LINE
  5
1E4
330
197
100
AcDbEntity
  8
AM_4
100
AcDbLine
 10
0.875
 20
-2.023809523809524
 30
0.0
 11
1.265625
 21
-2.023809523809524
 31
0.0
  0
LINE
  5
1E5
330
197
100
AcDbEntity
  8
AM_4
100
AcDbLine
 10
1.265625
 20
2.023809523809524
 30
0.0
 11
0.875
 21
2.023809523809524
 31
0.0
  0
LINE
  5
1E6
330
197
100
AcDbEntity
  8
AM_4
100
AcDbLine
 10
-0.640625
 20
-1.267296874084676
 30
0.0
 11
-0.5000000000000001
 21
-1.267296874084676
 31
0.0
  0
LINE
  5
1E7
330
197
100
AcDbEntity
  8
AM_4
100
AcDbLine
 10
-0.4500000000000001
 20
-0.8140197275649107
 30
0.0
 11
-0.5000000000000001
 21
-0.8140197275649107
 31
0.0
  0
LINE
  5
1E8
330
197
100
AcDbEntity
  8
AM_4
100
AcDbLine
 10
-0.4500000000000001
 20
0.81401972756491
 30
0.0
 11
-0.5000000000000001
 21
0.8140197275649095
 31
0.0
  0
LINE
  5
1E9
330
197
100
AcDbEntity
  8
AM_4
100
AcDbLine
 10
-0.640625
 20
1.267296874084677
 30
0.0
 11
-0.5000000000000001
 21
1.267296874084677
 31
0.0
  0
LINE
  5
1EA
330
197
100
AcDbEntity
  8
AM_4
100
AcDbLine
 10
0.875
 20
-2.125
 30
0.0
 11
0.875
 21
2.125
 31
0.0
  0
LINE
  5
1EB
330
197
100
AcDbEntity
  8
AM_4
100
AcDbLine
 10
-0.0000000000000003
 20
-2.125
 30
0.0
 11
0.875
 21
-2.125
 31
0.0
  0
LINE
  5
1EC
330
197
100
AcDbEntity
  8
AM_4
100
AcDbLine
 10
0.875
 20
2.125
 30
0.0
 11
-0.0000000000000003
 21
2.125
 31
0.0
  0
LINE
  5
1ED
330
197
100
AcDbEntity
  8
AM_4
100
AcDbLine
 10
-0.4500000000000001
 20
-1.053180863425015
 30
0.0
 11
-0.5000000000000001
 21
-1.053180863425015
 31
0.0
  0
LINE
  5
1EE
330
197
100
AcDbEntity
  8
AM_4
100
AcDbLine
 10
-0.4500000000000001
 20
1.053180863425013
 30
0.0
 11
-0.5000000000000001
 21
1.053180863425013
 31
0.0
  0
LINE
  5
1EF
330
197
100
AcDbEntity
  8
AM_4
100
AcDbLine
 10
-0.5000000000000001
 20
-2.495056726536931
 30
0.0
 11
-0.5000000000000001
 21
-0.8140197275649107
 31
0.0
  0
LINE
  5
1F0
330
197
100
AcDbEntity
  8
AM_4
100
AcDbLine
 10
-0.5000000000000001
 20
-2.495056726536931
 30
0.0
 11
-0.4500000000000001
 21
-2.495056726536931
 31
0.0
  0
LINE
  5
1F1
330
197
100
AcDbEntity
  8
AM_4
100
AcDbLine
 10
-0.4500000000000001
 20
-2.495056726536931
 30
0.0
 11
-0.4500000000000001
 21
-3.057834429824561
 31
0.0
  0
LINE
  5
1F2
330
197
100
AcDbEntity
  8
AM_4
100
AcDbLine
 10
-0.0000000000000003
 20
-3.057834429824561
 30
0.0
 11
-0.4500000000000001
 21
-3.057834429824561
 31
0.0
  0
LINE
  5
1F3
330
197
100
AcDbEntity
  8
AM_4
100
AcDbLine
 10
-0.0000000000000003
 20
-3.057834429824561
 30
0.0
 11
-0.0000000000000003
 21
3.0625
 31
0.0
  0
LINE
  5
1F4
330
197
100
AcDbEntity
  8
AM_4
100
AcDbLine
 10
-0.4500000000000001
 20
2.49505672653693
 30
0.0
 11
-0.5000000000000001
 21
2.49505672653693
 31
0.0
  0
LINE
  5
1F5
330
197
100
AcDbEntity
  8
AM_4
100
AcDbLine
 10
-0.5000000000000001
 20
0.8140197275649095
 30
0.0
 11
-0.5000000000000001
 21
2.49505672653693
 31
0.0
  0
LINE
  5
1F6
330
197
100
AcDbEntity
  8
AM_4
100
AcDbLine
 10
-0.4999999999999998
 20
1.775837318383315
 30
0.0
 11
-0.4499999999999998
 21
1.775837318383315
 31
0.0
  0
LINE
  5
1F7
330
197
100
AcDbEntity
  8
AM_4
100
AcDbLine
 10
-0.4499999999999998
 20
1.775837318383315
 30
0.0
 11
-0.4499999999999998
 21
-1.775837318383316
 31
0.0
  0
LINE
  5
1F8
330
197
100
AcDbEntity
  8
AM_4
100
AcDbLine
 10
-0.4499999999999998
 20
-1.775837318383316
 30
0.0
 11
-0.4999999999999998
 21
-1.775837318383316
 31
0.0
  0
LINE
  5
1F9
330
197
100
AcDbEntity
  8
AM_4
100
AcDbLine
 10
-0.0000000000000003
 20
3.0625
 30
0.0
 11
-0.4500000000000001
 21
3.0625
 31
0.0
  0
LINE
  5
1FA
330
197
100
AcDbEntity
  8
AM_4
100
AcDbLine
 10
-0.4500000000000001
 20
3.0625
 30
0.0
 11
-0.4500000000000001
 21
2.49505672653693
 31
0.0
  0
ENDBLK
  5
19A
330
197
100
AcDbEntity
  8
0
100
AcDbBlockEnd
  0
ENDSEC
  0
SECTION
  2
ENTITIES
  0
INSERT
  5
6F
330
1F
100
AcDbEntity
  8
0
100
AcDbBlockReference
  2
1_070649_2
 10
0.0
 20
0.0
 30
0.0
  0
POINT
  5
1FC
330
1F
100
AcDbEntity
  8
ConnectionPoints
100
AcDbPoint
 10
-1.453125
 20
0.0
 30
0.0000000000000001
  0
POINT
  5
1FD
330
1F
100
AcDbEntity
  8
ConnectionPoints
100
AcDbPoint
 10
-1.453125
 20
0.0
 30
0.0000000000000001
  0
POINT
  5
1FE
330
1F
100
AcDbEntity
  8
ConnectionPoints
100
AcDbPoint
 10
1.951375
 20
0.0
 30
-0.0000000000000001
  0
POINT
  5
1FF
330
1F
100
AcDbEntity
  8
ConnectionPoints
100
AcDbPoint
 10
-1.453125
 20
0.0
 30
0.0000000000000001
  0
POINT
  5
200
330
1F
100
AcDbEntity
  8
ConnectionPoints
100
AcDbPoint
 10
-0.5403103907283024
 20
2.212916666666667
 30
0.0
  0
POINT
  5
201
330
1F
100
AcDbEntity
  8
ConnectionPoints
100
AcDbPoint
 10
1.21875
 20
0.0
 30
-0.0000000000000001
  0
POINT
  5
202
330
1F
100
AcDbEntity
  8
ConnectionPoints
100
AcDbPoint
 10
-0.5403103907283024
 20
2.212916666666667
 30
0.0
  0
POINT
  5
203
330
1F
100
AcDbEntity
  8
ConnectionPoints
100
AcDbPoint
 10
-0.5087365478819947
 20
2.5228125
 30
0.0
  0
POINT
  5
204
330
1F
100
AcDbEntity
  8
ConnectionPoints
100
AcDbPoint
 10
-1.203125
 20
0.0
 30
0.0000000000000001
  0
POINT
  5
205
330
1F
100
AcDbEntity
  8
ConnectionPoints
100
AcDbPoint
 10
-1.453125
 20
0.0
 30
0.0000000000000001
  0
ENDSEC
  0
SECTION
  2
OBJECTS
  0
DICTIONARY
  5
C
330
0
100
AcDbDictionary
281
     1
  3
ACAD_DETAILVIEWSTYLE
350
20D
  3
ACAD_GROUP
350
D
  3
ACAD_LAYOUT
350
1A
  3
ACAD_MATERIAL
350
43
  3
ACAD_MLEADERSTYLE
350
6B
  3
ACAD_MLINESTYLE
350
17
  3
ACAD_PLOTSETTINGS
350
19
  3
ACAD_PLOTSTYLENAME
350
E
  3
ACAD_SCALELIST
350
47
  3
ACAD_SECTIONVIEWSTYLE
350
20E
  3
ACAD_TABLESTYLE
350
69
  3
ACAD_VISUALSTYLE
350
2A
  3
ACDB_RECOMPOSE_DATA
350
20A
  3
AcDbVariableDictionary
350
206
  0
SUN
  5
6D
330
29
100
AcDbSun
 90
        1
290
     0
 63
     7
421
 16777215
 40
1.0
291
     1
 91
  2455826
 92
 54000000
292
     0
 70
     2
 71
   256
280
     1
  0
DICTIONARY
  5
20D
102
{ACAD_REACTORS
330
C
102
}
330
C
100
AcDbDictionary
281
     1
  0
DICTIONARY
  5
D
102
{ACAD_REACTORS
330
C
102
}
330
C
100
AcDbDictionary
281
     1
  0
DICTIONARY
  5
1A
102
{ACAD_REACTORS
330
C
102
}
330
C
100
AcDbDictionary
281
     1
  3
Layout1
350
1E
  3
Layout2
350
26
  3
Model
350
22
  0
DICTIONARY
  5
43
102
{ACAD_REACTORS
330
C
102
}
330
C
100
AcDbDictionary
281
     1
  3
ByBlock
350
45
  3
ByLayer
350
44
  3
Global
350
46
  0
DICTIONARY
  5
6B
102
{ACAD_REACTORS
330
C
102
}
330
C
100
AcDbDictionary
281
     1
  3
Standard
350
6C
  0
DICTIONARY
  5
17
102
{ACAD_REACTORS
330
C
102
}
330
C
100
AcDbDictionary
281
     1
  3
Standard
350
18
  0
DICTIONARY
  5
19
102
{ACAD_REACTORS
330
C
102
}
330
C
100
AcDbDictionary
281
     1
  0
ACDBDICTIONARYWDFLT
  5
E
102
{ACAD_REACTORS
330
C
102
}
330
C
100
AcDbDictionary
281
     1
  3
Normal
350
F
100
AcDbDictionaryWithDefault
340
F
  0
DICTIONARY
  5
47
102
{ACAD_REACTORS
330
C
102
}
330
C
100
AcDbDictionary
281
     1
  3
A0
350
48
  3
A1
350
49
  3
A2
350
4A
  3
A3
350
4B
  3
A4
350
4C
  3
A5
350
4D
  3
A6
350
4E
  3
A7
350
4F
  3
A8
350
50
  3
A9
350
51
  3
B0
350
52
  3
B1
350
53
  3
B2
350
54
  3
B3
350
55
  3
B4
350
56
  3
B5
350
57
  3
B6
350
58
  3
B7
350
59
  3
B8
350
5A
  3
B9
350
5B
  3
C0
350
5C
  3
C1
350
5D
  3
C2
350
5E
  3
C3
350
5F
  3
C4
350
60
  3
C5
350
61
  3
C6
350
62
  3
C7
350
63
  3
C8
350
64
  3
C9
350
65
  3
D0
350
66
  3
D1
350
67
  3
D2
350
68
  0
DICTIONARY
  5
20E
102
{ACAD_REACTORS
330
C
102
}
330
C
100
AcDbDictionary
281
     1
  0
DICTIONARY
  5
69
102
{ACAD_REACTORS
330
C
102
}
330
C
100
AcDbDictionary
281
     1
  3
Standard
350
6A
  0
DICTIONARY
  5
2A
102
{ACAD_REACTORS
330
C
102
}
330
C
100
AcDbDictionary
281
     1
  3
2dWireframe
350
2F
  3
Basic
350
32
  3
Brighten
350
36
  3
ColorChange
350
3A
  3
Conceptual
350
34
  3
Dim
350
35
  3
EdgeColorOff
350
3D
  3
Facepattern
350
39
  3
Flat
350
2B
  3
FlatWithEdges
350
2C
  3
Gouraud
350
2D
  3
GouraudWithEdges
350
2E
  3
Hidden
350
31
  3
JitterOff
350
3B
  3
Linepattern
350
38
  3
OverhangOff
350
3C
  3
Realistic
350
33
  3
Shaded
350
42
  3
Shaded with edges
350
41
  3
Shades of Gray
350
3E
  3
Sketchy
350
3F
  3
Thicken
350
37
  3
Wireframe
350
30
  3
X-Ray
350
40
  0
XRECORD
  5
20A
102
{ACAD_REACTORS
330
C
102
}
330
C
100
AcDbXrecord
280
     1
 90
        1
330
6A
  0
DICTIONARY
  5
206
102
{ACAD_REACTORS
330
C
102
}
330
C
100
AcDbDictionary
281
     1
  3
CANNOSCALE
350
207
  3
CMLEADERSTYLE
350
20C
  3
CTABLESTYLE
350
20B
  0
LAYOUT
  5
1E
102
{ACAD_REACTORS
330
1A
102
}
330
1A
100
AcDbPlotSettings
  1

  2
none_device
  4

  6

 40
0.0
 41
0.0
 42
0.0
 43
0.0
 44
0.0
 45
0.0
 46
0.0
 47
0.0
 48
0.0
 49
0.0
140
0.0
141
0.0
142
1.0
143
1.0
 70
   688
 72
     0
 73
     0
 74
     5
  7

 75
    16
 76
     0
 77
     2
 78
   300
147
1.0
148
0.0
149
0.0
100
AcDbLayout
  1
Layout1
 70
     1
 71
     1
 10
0.0
 20
0.0
 11
12.0
 21
9.0
 12
0.0
 22
0.0
 32
0.0
 14
1.000000000000000E+20
 24
1.000000000000000E+20
 34
1.000000000000000E+20
 15
-1.000000000000000E+20
 25
-1.000000000000000E+20
 35
-1.000000000000000E+20
146
0.0
 13
0.0
 23
0.0
 33
0.0
 16
1.0
 26
0.0
 36
0.0
 17
0.0
 27
1.0
 37
0.0
 76
     0
330
1B
  0
LAYOUT
  5
26
102
{ACAD_REACTORS
330
1A
102
}
330
1A
100
AcDbPlotSettings
  1

  2
none_device
  4

  6

 40
0.0
 41
0.0
 42
0.0
 43
0.0
 44
0.0
 45
0.0
 46
0.0
 47
0.0
 48
0.0
 49
0.0
140
0.0
141
0.0
142
1.0
143
1.0
 70
   688
 72
     0
 73
     0
 74
     5
  7

 75
    16
 76
     0
 77
     2
 78
   300
147
1.0
148
0.0
149
0.0
100
AcDbLayout
  1
Layout2
 70
     1
 71
     2
 10
0.0
 20
0.0
 11
0.0
 21
0.0
 12
0.0
 22
0.0
 32
0.0
 14
0.0
 24
0.0
 34
0.0
 15
0.0
 25
0.0
 35
0.0
146
0.0
 13
0.0
 23
0.0
 33
0.0
 16
1.0
 26
0.0
 36
0.0
 17
0.0
 27
1.0
 37
0.0
 76
     0
330
23
  0
LAYOUT
  5
22
102
{ACAD_REACTORS
330
1A
102
}
330
1A
100
AcDbPlotSettings
  1

  2
none_device
  4
Letter_(8.50_x_11.00_Inches)
  6

 40
6.35
 41
6.35
 42
6.35000508
 43
6.35000508
 44
215.9
 45
279.4
 46
0.0
 47
0.0
 48
0.0
 49
0.0
140
0.0
141
0.0
142
1.0
143
1.0
 70
  1712
 72
     0
 73
     0
 74
     0
  7

 75
     0
 76
     0
 77
     2
 78
   300
147
1.0
148
0.0
149
0.0
100
AcDbLayout
  1
Model
 70
     1
 71
     0
 10
0.0
 20
0.0
 11
12.0
 21
9.0
 12
0.0
 22
0.0
 32
0.0
 14
1.000000000000000E+20
 24
1.000000000000000E+20
 34
1.000000000000000E+20
 15
-1.000000000000000E+20
 25
-1.000000000000000E+20
 35
-1.000000000000000E+20
146
0.0
 13
0.0
 23
0.0
 33
0.0
 16
1.0
 26
0.0
 36
0.0
 17
0.0
 27
1.0
 37
0.0
 76
     0
330
1F
331
29
  0
MATERIAL
  5
45
102
{ACAD_REACTORS
330
43
102
}
330
43
100
AcDbMaterial
  1
ByBlock
 72
     1
 94
      127
  0
MATERIAL
  5
44
102
{ACAD_REACTORS
330
43
102
}
330
43
100
AcDbMaterial
  1
ByLayer
 72
     1
 94
      127
  0
MATERIAL
  5
46
102
{ACAD_REACTORS
330
43
102
}
330
43
100
AcDbMaterial
  1
Global
 72
     1
 94
      127
  0
MLEADERSTYLE
  5
6C
102
{ACAD_REACTORS
330
6B
102
}
330
6B
100
AcDbMLeaderStyle
179
     2
170
     2
171
     1
172
     0
 90
        2
 40
0.0
 41
0.0
173
     1
 91
-1056964608
340
14
 92
       -2
290
     1
 42
0.09
291
     1
 43
0.36
  3
Standard
341
0
 44
0.18
300

342
11
174
     1
178
     6
175
     1
176
     0
 93
-1056964608
 45
0.18
292
     0
297
     0
 46
0.18
343
0
 94
-1056964608
 47
1.0
 49
1.0
140
1.0
293
     1
141
0.0
294
     1
177
     0
142
1.0
295
     0
296
     0
143
0.125
271
     0
272
     9
273
     9
298
     0
  0
MLINESTYLE
  5
18
102
{ACAD_REACTORS
330
17
102
}
330
17
100
AcDbMlineStyle
  2
Standard
 70
     0
  3

 62
   256
 51
90.0
 52
90.0
 71
     2
 49
0.5
 62
   256
  6
BYLAYER
 49
-0.5
 62
   256
  6
BYLAYER
  0
ACDBPLACEHOLDER
  5
F
102
{ACAD_REACTORS
330
E
102
}
330
E
  0
SCALE
  5
48
102
{ACAD_REACTORS
330
47
102
}
330
47
100
AcDbScale
 70
     0
300
1:1
140
1.0
141
1.0
290
     1
  0
SCALE
  5
49
102
{ACAD_REACTORS
330
47
102
}
330
47
100
AcDbScale
 70
     0
300
1:2
140
1.0
141
2.0
290
     0
  0
SCALE
  5
4A
102
{ACAD_REACTORS
330
47
102
}
330
47
100
AcDbScale
 70
     0
300
1:4
140
1.0
141
4.0
290
     0
  0
SCALE
  5
4B
102
{ACAD_REACTORS
330
47
102
}
330
47
100
AcDbScale
 70
     0
300
1:5
140
1.0
141
5.0
290
     0
  0
SCALE
  5
4C
102
{ACAD_REACTORS
330
47
102
}
330
47
100
AcDbScale
 70
     0
300
1:8
140
1.0
141
8.0
290
     0
  0
SCALE
  5
4D
102
{ACAD_REACTORS
330
47
102
}
330
47
100
AcDbScale
 70
     0
300
1:10
140
1.0
141
10.0
290
     0
  0
SCALE
  5
4E
102
{ACAD_REACTORS
330
47
102
}
330
47
100
AcDbScale
 70
     0
300
1:16
140
1.0
141
16.0
290
     0
  0
SCALE
  5
4F
102
{ACAD_REACTORS
330
47
102
}
330
47
100
AcDbScale
 70
     0
300
1:20
140
1.0
141
20.0
290
     0
  0
SCALE
  5
50
102
{ACAD_REACTORS
330
47
102
}
330
47
100
AcDbScale
 70
     0
300
1:30
140
1.0
141
30.0
290
     0
  0
SCALE
  5
51
102
{ACAD_REACTORS
330
47
102
}
330
47
100
AcDbScale
 70
     0
300
1:40
140
1.0
141
40.0
290
     0
  0
SCALE
  5
52
102
{ACAD_REACTORS
330
47
102
}
330
47
100
AcDbScale
 70
     0
300
1:50
140
1.0
141
50.0
290
     0
  0
SCALE
  5
53
102
{ACAD_REACTORS
330
47
102
}
330
47
100
AcDbScale
 70
     0
300
1:100
140
1.0
141
100.0
290
     0
  0
SCALE
  5
54
102
{ACAD_REACTORS
330
47
102
}
330
47
100
AcDbScale
 70
     0
300
2:1
140
2.0
141
1.0
290
     0
  0
SCALE
  5
55
102
{ACAD_REACTORS
330
47
102
}
330
47
100
AcDbScale
 70
     0
300
4:1
140
4.0
141
1.0
290
     0
  0
SCALE
  5
56
102
{ACAD_REACTORS
330
47
102
}
330
47
100
AcDbScale
 70
     0
300
8:1
140
8.0
141
1.0
290
     0
  0
SCALE
  5
57
102
{ACAD_REACTORS
330
47
102
}
330
47
100
AcDbScale
 70
     0
300
10:1
140
10.0
141
1.0
290
     0
  0
SCALE
  5
58
102
{ACAD_REACTORS
330
47
102
}
330
47
100
AcDbScale
 70
     0
300
100:1
140
100.0
141
1.0
290
     0
  0
SCALE
  5
59
102
{ACAD_REACTORS
330
47
102
}
330
47
100
AcDbScale
 70
     0
300
1/128" = 1'-0"
140
0.0078125
141
12.0
290
     0
  0
SCALE
  5
5A
102
{ACAD_REACTORS
330
47
102
}
330
47
100
AcDbScale
 70
     0
300
1/64" = 1'-0"
140
0.015625
141
12.0
290
     0
  0
SCALE
  5
5B
102
{ACAD_REACTORS
330
47
102
}
330
47
100
AcDbScale
 70
     0
300
1/32" = 1'-0"
140
0.03125
141
12.0
290
     0
  0
SCALE
  5
5C
102
{ACAD_REACTORS
330
47
102
}
330
47
100
AcDbScale
 70
     0
300
1/16" = 1'-0"
140
0.0625
141
12.0
290
     0
  0
SCALE
  5
5D
102
{ACAD_REACTORS
330
47
102
}
330
47
100
AcDbScale
 70
     0
300
3/32" = 1'-0"
140
0.09375
141
12.0
290
     0
  0
SCALE
  5
5E
102
{ACAD_REACTORS
330
47
102
}
330
47
100
AcDbScale
 70
     0
300
1/8" = 1'-0"
140
0.125
141
12.0
290
     0
  0
SCALE
  5
5F
102
{ACAD_REACTORS
330
47
102
}
330
47
100
AcDbScale
 70
     0
300
3/16" = 1'-0"
140
0.1875
141
12.0
290
     0
  0
SCALE
  5
60
102
{ACAD_REACTORS
330
47
102
}
330
47
100
AcDbScale
 70
     0
300
1/4" = 1'-0"
140
0.25
141
12.0
290
     0
  0
SCALE
  5
61
102
{ACAD_REACTORS
330
47
102
}
330
47
100
AcDbScale
 70
     0
300
3/8" = 1'-0"
140
0.375
141
12.0
290
     0
  0
SCALE
  5
62
102
{ACAD_REACTORS
330
47
102
}
330
47
100
AcDbScale
 70
     0
300
1/2" = 1'-0"
140
0.5
141
12.0
290
     0
  0
SCALE
  5
63
102
{ACAD_REACTORS
330
47
102
}
330
47
100
AcDbScale
 70
     0
300
3/4" = 1'-0"
140
0.75
141
12.0
290
     0
  0
SCALE
  5
64
102
{ACAD_REACTORS
330
47
102
}
330
47
100
AcDbScale
 70
     0
300
1" = 1'-0"
140
1.0
141
12.0
290
     0
  0
SCALE
  5
65
102
{ACAD_REACTORS
330
47
102
}
330
47
100
AcDbScale
 70
     0
300
1-1/2" = 1'-0"
140
1.5
141
12.0
290
     0
  0
SCALE
  5
66
102
{ACAD_REACTORS
330
47
102
}
330
47
100
AcDbScale
 70
     0
300
3" = 1'-0"
140
3.0
141
12.0
290
     0
  0
SCALE
  5
67
102
{ACAD_REACTORS
330
47
102
}
330
47
100
AcDbScale
 70
     0
300
6" = 1'-0"
140
6.0
141
12.0
290
     0
  0
SCALE
  5
68
102
{ACAD_REACTORS
330
47
102
}
330
47
100
AcDbScale
 70
     0
300
1'-0" = 1'-0"
140
12.0
141
12.0
290
     0
  0
TABLESTYLE
  5
6A
102
{ACAD_REACTORS
330
69
102
}
102
{ACAD_XDICTIONARY
360
208
102
}
330
69
100
AcDbTableStyle
  3
Standard
 70
     0
 71
     0
 40
0.06
 41
0.06
280
     0
281
     0
  7
Standard
140
0.18
170
     2
 62
     0
 63
   257
283
     0
 90
        4
 91
        0
  1

274
    -2
284
     1
 64
     0
275
    -2
285
     1
 65
     0
276
    -2
286
     1
 66
     0
277
    -2
287
     1
 67
     0
278
    -2
288
     1
 68
     0
279
    -2
289
     1
 69
     0
  7
Standard
140
0.25
170
     5
 62
     0
 63
   257
283
     0
 90
        4
 91
        0
  1

274
    -2
284
     1
 64
     0
275
    -2
285
     1
 65
     0
276
    -2
286
     1
 66
     0
277
    -2
287
     1
 67
     0
278
    -2
288
     1
 68
     0
279
    -2
289
     1
 69
     0
  7
Standard
140
0.18
170
     5
 62
     0
 63
   257
283
     0
 90
        4
 91
        0
  1

274
    -2
284
     1
 64
     0
275
    -2
285
     1
 65
     0
276
    -2
286
     1
 66
     0
277
    -2
287
     1
 67
     0
278
    -2
288
     1
 68
     0
279
    -2
289
     1
 69
     0
  0
VISUALSTYLE
  5
2F
102
{ACAD_REACTORS
330
2A
102
}
330
2A
100
AcDbVisualStyle
  2
2dWireframe
 70
     4
177
     3
291
     0
 70
    58
 90
        0
176
     1
 90
        2
176
     1
 90
        0
176
     1
 90
        0
176
     1
 40
0.6
176
     1
 40
30.0
176
     1
 62
     7
420
 16777215
176
     1
 90
        1
176
     1
 90
        4
176
     1
 62
     7
176
     1
 62
   257
176
     1
 90
        1
176
     1
 90
        1
176
     1
 40
1.0
176
     1
 90
        0
176
     1
 62
   257
176
     1
 40
1.0
176
     1
 90
        1
176
     1
 90
        6
176
     1
 90
        2
176
     1
 62
     7
176
     1
 90
        5
176
     1
 90
        0
176
     1
 90
        0
176
     1
290
     0
176
     1
 90
        1
176
     1
 40
0.0
176
     1
 90
        0
176
     1
290
     1
176
     1
290
     1
176
     1
290
     0
176
     1
290
     0
176
     1
290
     0
176
     1
290
     0
176
     1
290
     0
176
     1
290
     0
176
     1
290
     0
176
     1
 90
       50
176
     1
 40
0.0
176
     1
 40
1.0
176
     1
 90
        0
176
     1
 62
    18
420
        0
176
     1
 90
       50
176
     1
 90
        3
176
     1
 62
     5
420
      255
176
     1
290
     0
176
     1
 90
       50
176
     1
 90
       50
176
     1
 90
       50
176
     1
290
     0
176
     1
 90
       50
176
     1
 62
   256
176
     0
 40
1.0
176
     0
 90
        2
176
     1
  1
strokes_ogs.tif
176
     1
290
     0
176
     1
 40
1.0
176
     1
 40
1.0
176
     1
  0
VISUALSTYLE
  5
32
102
{ACAD_REACTORS
330
2A
102
}
330
2A
100
AcDbVisualStyle
  2
Basic
 70
     7
177
     3
291
     1
 70
    58
 90
        1
176
     1
 90
        0
176
     1
 90
        1
176
     1
 90
        0
176
     1
 40
0.6
176
     1
 40
30.0
176
     1
 62
     7
420
 16777215
176
     1
 90
        0
176
     1
 90
        4
176
     1
 62
     7
176
     1
 62
   257
176
     1
 90
        1
176
     1
 90
        1
176
     1
 40
1.0
176
     1
 90
        8
176
     1
 62
     7
176
     1
 40
1.0
176
     1
 90
        1
176
     1
 90
        6
176
     1
 90
        2
176
     1
 62
     7
176
     1
 90
        5
176
     1
 90
        0
176
     1
 90
        0
176
     1
290
     0
176
     1
 90
        1
176
     1
 40
0.0
176
     1
 90
        0
176
     1
290
     0
176
     1
290
     1
176
     1
290
     1
176
     1
290
     0
176
     1
290
     0
176
     1
290
     0
176
     1
290
     0
176
     1
290
     0
176
     1
290
     0
176
     1
 90
       50
176
     1
 40
0.0
176
     1
 40
1.0
176
     1
 90
        0
176
     1
 62
    18
420
        0
176
     1
 90
       50
176
     1
 90
        3
176
     1
 62
     5
420
      255
176
     1
290
     0
176
     1
 90
       50
176
     1
 90
       50
176
     1
 90
       50
176
     1
290
     0
176
     1
 90
       50
176
     1
 62
   256
176
     0
 40
1.0
176
     0
 90
        2
176
     1
  1
strokes_ogs.tif
176
     1
290
     0
176
     1
 40
1.0
176
     1
 40
1.0
176
     1
  0
VISUALSTYLE
  5
36
102
{ACAD_REACTORS
330
2A
102
}
330
2A
100
AcDbVisualStyle
  2
Brighten
 70
    12
177
     3
291
     1
 70
    58
 90
        2
176
     1
 90
        2
176
     1
 90
        0
176
     1
 90
        0
176
     1
 40
0.6
176
     1
 40
30.0
176
     1
 62
     7
420
 16777215
176
     1
 90
        1
176
     1
 90
        4
176
     1
 62
     7
176
     1
 62
   257
176
     1
 90
        1
176
     1
 90
        1
176
     1
 40
1.0
176
     1
 90
        8
176
     1
 62
     7
176
     1
 40
1.0
176
     1
 90
        1
176
     1
 90
        6
176
     1
 90
        2
176
     1
 62
     7
176
     1
 90
        5
176
     1
 90
        0
176
     1
 90
        0
176
     1
290
     0
176
     1
 90
        1
176
     1
 40
50.0
176
     1
 90
        0
176
     1
290
     0
176
     1
290
     1
176
     1
290
     1
176
     1
290
     0
176
     1
290
     0
176
     1
290
     0
176
     1
290
     0
176
     1
290
     0
176
     1
290
     0
176
     1
 90
       50
176
     1
 40
0.0
176
     1
 40
1.0
176
     1
 90
        0
176
     1
 62
    18
420
        0
176
     1
 90
       50
176
     1
 90
        3
176
     1
 62
     5
420
      255
176
     1
290
     0
176
     1
 90
       50
176
     1
 90
       50
176
     1
 90
       50
176
     1
290
     0
176
     1
 90
       50
176
     1
 62
   256
176
     0
 40
1.0
176
     0
 90
        2
176
     1
  1
strokes_ogs.tif
176
     1
290
     0
176
     1
 40
1.0
176
     1
 40
1.0
176
     1
  0
VISUALSTYLE
  5
3A
102
{ACAD_REACTORS
330
2A
102
}
330
2A
100
AcDbVisualStyle
  2
ColorChange
 70
    16
177
     3
291
     1
 70
    58
 90
        2
176
     1
 90
        2
176
     1
 90
        3
176
     1
 90
        0
176
     1
 40
0.6
176
     1
 40
30.0
176
     1
 62
     8
420
  8421504
176
     1
 90
        1
176
     1
 90
        4
176
     1
 62
     7
176
     1
 62
   257
176
     1
 90
        1
176
     1
 90
        1
176
     1
 40
1.0
176
     1
 90
        8
176
     1
 62
     8
420
  8421504
176
     1
 40
1.0
176
     1
 90
        1
176
     1
 90
        6
176
     1
 90
        2
176
     1
 62
     7
176
     1
 90
        5
176
     1
 90
        0
176
     1
 90
        0
176
     1
290
     0
176
     1
 90
        1
176
     1
 40
0.0
176
     1
 90
        0
176
     1
290
     0
176
     1
290
     1
176
     1
290
     1
176
     1
290
     0
176
     1
290
     0
176
     1
290
     0
176
     1
290
     0
176
     1
290
     0
176
     1
290
     0
176
     1
 90
       50
176
     1
 40
0.0
176
     1
 40
1.0
176
     1
 90
        0
176
     1
 62
    18
420
        0
176
     1
 90
       50
176
     1
 90
        3
176
     1
 62
     5
420
      255
176
     1
290
     0
176
     1
 90
       50
176
     1
 90
       50
176
     1
 90
       50
176
     1
290
     0
176
     1
 90
       50
176
     1
 62
   256
176
     0
 40
1.0
176
     0
 90
        2
176
     1
  1
strokes_ogs.tif
176
     1
290
     0
176
     1
 40
1.0
176
     1
 40
1.0
176
     1
  0
VISUALSTYLE
  5
34
102
{ACAD_REACTORS
330
2A
102
}
330
2A
100
AcDbVisualStyle
  2
Conceptual
 70
     9
177
     3
291
     0
 70
    58
 90
        3
176
     1
 90
        2
176
     1
 90
        0
176
     1
 90
        0
176
     1
 40
0.6
176
     1
 40
30.0
176
     1
 62
     7
420
 16777215
176
     1
 90
        2
176
     1
 90
        2
176
     1
 62
     7
176
     1
 62
   257
176
     1
 90
        1
176
     1
 90
        1
176
     1
 40
179.0
176
     1
 90
        8
176
     1
 62
     7
176
     1
 40
1.0
176
     1
 90
        1
176
     1
 90
        6
176
     1
 90
        2
176
     1
 62
     7
176
     1
 90
        3
176
     1
 90
        0
176
     1
 90
        0
176
     1
290
     0
176
     1
 90
        1
176
     1
 40
0.0
176
     1
 90
        0
176
     1
290
     0
176
     1
290
     1
176
     1
290
     1
176
     1
290
     0
176
     1
290
     0
176
     1
290
     0
176
     1
290
     0
176
     1
290
     0
176
     1
290
     0
176
     1
 90
       50
176
     1
 40
0.0
176
     1
 40
1.0
176
     1
 90
        0
176
     1
 62
    18
420
        0
176
     1
 90
       50
176
     1
 90
        3
176
     1
 62
     5
420
      255
176
     1
290
     0
176
     1
 90
       50
176
     1
 90
       50
176
     1
 90
       50
176
     1
290
     0
176
     1
 90
       50
176
     1
 62
   256
176
     0
 40
1.0
176
     0
 90
        2
176
     1
  1
strokes_ogs.tif
176
     1
290
     0
176
     1
 40
1.0
176
     1
 40
1.0
176
     1
  0
VISUALSTYLE
  5
35
102
{ACAD_REACTORS
330
2A
102
}
330
2A
100
AcDbVisualStyle
  2
Dim
 70
    11
177
     3
291
     1
 70
    58
 90
        2
176
     1
 90
        2
176
     1
 90
        0
176
     1
 90
        0
176
     1
 40
0.6
176
     1
 40
30.0
176
     1
 62
     7
420
 16777215
176
     1
 90
        1
176
     1
 90
        4
176
     1
 62
     7
176
     1
 62
   257
176
     1
 90
        1
176
     1
 90
        1
176
     1
 40
1.0
176
     1
 90
        8
176
     1
 62
     7
176
     1
 40
1.0
176
     1
 90
        1
176
     1
 90
        6
176
     1
 90
        2
176
     1
 62
     7
176
     1
 90
        5
176
     1
 90
        0
176
     1
 90
        0
176
     1
290
     0
176
     1
 90
        1
176
     1
 40
-50.0
176
     1
 90
        0
176
     1
290
     0
176
     1
290
     1
176
     1
290
     1
176
     1
290
     0
176
     1
290
     0
176
     1
290
     0
176
     1
290
     0
176
     1
290
     0
176
     1
290
     0
176
     1
 90
       50
176
     1
 40
0.0
176
     1
 40
1.0
176
     1
 90
        0
176
     1
 62
    18
420
        0
176
     1
 90
       50
176
     1
 90
        3
176
     1
 62
     5
420
      255
176
     1
290
     0
176
     1
 90
       50
176
     1
 90
       50
176
     1
 90
       50
176
     1
290
     0
176
     1
 90
       50
176
     1
 62
   256
176
     0
 40
1.0
176
     0
 90
        2
176
     1
  1
strokes_ogs.tif
176
     1
290
     0
176
     1
 40
1.0
176
     1
 40
1.0
176
     1
  0
VISUALSTYLE
  5
3D
102
{ACAD_REACTORS
330
2A
102
}
330
2A
100
AcDbVisualStyle
  2
EdgeColorOff
 70
    22
177
     3
291
     1
 70
    58
 90
        2
176
     0
 90
        2
176
     0
 90
        0
176
     0
 90
        0
176
     0
 40
0.6
176
     0
 40
30.0
176
     0
 62
     7
420
 16777215
176
     0
 90
        1
176
     0
 90
        4
176
     0
 62
     7
176
     0
 62
   257
176
     0
 90
        1
176
     0
 90
        1
176
     0
 40
1.0
176
     0
 90
        8
176
     2
 62
     7
176
     0
 40
1.0
176
     0
 90
        1
176
     0
 90
        6
176
     0
 90
        2
176
     0
 62
     7
176
     0
 90
        5
176
     0
 90
        0
176
     0
 90
        0
176
     0
290
     0
176
     0
 90
        1
176
     0
 40
0.0
176
     0
 90
        0
176
     0
290
     0
176
     0
290
     1
176
     0
290
     1
176
     0
290
     0
176
     0
290
     0
176
     0
290
     0
176
     0
290
     0
176
     0
290
     0
176
     0
290
     0
176
     0
 90
       50
176
     0
 40
0.0
176
     0
 40
1.0
176
     0
 90
        0
176
     0
 62
    18
420
        0
176
     0
 90
       50
176
     0
 90
        3
176
     0
 62
     5
420
      255
176
     0
290
     0
176
     0
 90
       50
176
     0
 90
       50
176
     0
 90
       50
176
     0
290
     0
176
     0
 90
       50
176
     0
 62
   256
176
     0
 40
1.0
176
     0
 90
        2
176
     0
  1
strokes_ogs.tif
176
     0
290
     0
176
     0
 40
1.0
176
     0
 40
1.0
176
     0
  0
VISUALSTYLE
  5
39
102
{ACAD_REACTORS
330
2A
102
}
330
2A
100
AcDbVisualStyle
  2
Facepattern
 70
    15
177
     3
291
     1
 70
    58
 90
        2
176
     1
 90
        2
176
     1
 90
        0
176
     1
 90
        0
176
     1
 40
0.6
176
     1
 40
30.0
176
     1
 62
     7
420
 16777215
176
     1
 90
        1
176
     1
 90
        4
176
     1
 62
     7
176
     1
 62
   257
176
     1
 90
        1
176
     1
 90
        1
176
     1
 40
1.0
176
     1
 90
        8
176
     1
 62
     7
176
     1
 40
1.0
176
     1
 90
        1
176
     1
 90
        6
176
     1
 90
        2
176
     1
 62
     7
176
     1
 90
        5
176
     1
 90
        0
176
     1
 90
        0
176
     1
290
     0
176
     1
 90
        1
176
     1
 40
0.0
176
     1
 90
        0
176
     1
290
     0
176
     1
290
     1
176
     1
290
     1
176
     1
290
     0
176
     1
290
     0
176
     1
290
     0
176
     1
290
     0
176
     1
290
     0
176
     1
290
     0
176
     1
 90
       50
176
     1
 40
0.0
176
     1
 40
1.0
176
     1
 90
        0
176
     1
 62
    18
420
        0
176
     1
 90
       50
176
     1
 90
        3
176
     1
 62
     5
420
      255
176
     1
290
     0
176
     1
 90
       50
176
     1
 90
       50
176
     1
 90
       50
176
     1
290
     0
176
     1
 90
       50
176
     1
 62
   256
176
     0
 40
1.0
176
     0
 90
        2
176
     1
  1
strokes_ogs.tif
176
     1
290
     0
176
     1
 40
1.0
176
     1
 40
1.0
176
     1
  0
VISUALSTYLE
  5
2B
102
{ACAD_REACTORS
330
2A
102
}
330
2A
100
AcDbVisualStyle
  2
Flat
 70
     0
177
     3
291
     1
 70
    58
 90
        2
176
     1
 90
        1
176
     1
 90
        1
176
     1
 90
        2
176
     1
 40
0.6
176
     1
 40
30.0
176
     1
 62
     7
420
 16777215
176
     1
 90
        0
176
     1
 90
        0
176
     1
 62
     7
176
     1
 62
   257
176
     1
 90
        1
176
     1
 90
        1
176
     1
 40
1.0
176
     1
 90
        8
176
     1
 62
     7
176
     1
 40
1.0
176
     1
 90
        1
176
     1
 90
        6
176
     1
 90
        2
176
     1
 62
     7
176
     1
 90
        5
176
     1
 90
        0
176
     1
 90
        0
176
     1
290
     0
176
     1
 90
       13
176
     1
 40
0.0
176
     1
 90
        0
176
     1
290
     0
176
     1
290
     1
176
     1
290
     1
176
     1
290
     0
176
     1
290
     0
176
     1
290
     0
176
     1
290
     0
176
     1
290
     0
176
     1
290
     0
176
     1
 90
       50
176
     1
 40
0.0
176
     1
 40
1.0
176
     1
 90
        0
176
     1
 62
    18
420
        0
176
     1
 90
       50
176
     1
 90
        3
176
     1
 62
     5
420
      255
176
     1
290
     0
176
     1
 90
       50
176
     1
 90
       50
176
     1
 90
       50
176
     1
290
     0
176
     1
 90
       50
176
     1
 62
   256
176
     0
 40
1.0
176
     0
 90
        2
176
     1
  1
strokes_ogs.tif
176
     1
290
     0
176
     1
 40
1.0
176
     1
 40
1.0
176
     1
  0
VISUALSTYLE
  5
2C
102
{ACAD_REACTORS
330
2A
102
}
330
2A
100
AcDbVisualStyle
  2
FlatWithEdges
 70
     1
177
     3
291
     1
 70
    58
 90
        2
176
     1
 90
        1
176
     1
 90
        1
176
     1
 90
        2
176
     1
 40
0.6
176
     1
 40
30.0
176
     1
 62
     7
420
 16777215
176
     1
 90
        1
176
     1
 90
        0
176
     1
 62
     7
176
     1
 62
   257
176
     1
 90
        1
176
     1
 90
        1
176
     1
 40
1.0
176
     1
 90
        0
176
     1
 62
   257
176
     1
 40
1.0
176
     1
 90
        1
176
     1
 90
        6
176
     1
 90
        2
176
     1
 62
     7
176
     1
 90
        5
176
     1
 90
        0
176
     1
 90
        0
176
     1
290
     0
176
     1
 90
       13
176
     1
 40
0.0
176
     1
 90
        0
176
     1
290
     0
176
     1
290
     1
176
     1
290
     1
176
     1
290
     0
176
     1
290
     0
176
     1
290
     0
176
     1
290
     0
176
     1
290
     0
176
     1
290
     0
176
     1
 90
       50
176
     1
 40
0.0
176
     1
 40
1.0
176
     1
 90
        0
176
     1
 62
    18
420
        0
176
     1
 90
       50
176
     1
 90
        3
176
     1
 62
     5
420
      255
176
     1
290
     0
176
     1
 90
       50
176
     1
 90
       50
176
     1
 90
       50
176
     1
290
     0
176
     1
 90
       50
176
     1
 62
   256
176
     0
 40
1.0
176
     0
 90
        2
176
     1
  1
strokes_ogs.tif
176
     1
290
     0
176
     1
 40
1.0
176
     1
 40
1.0
176
     1
  0
VISUALSTYLE
  5
2D
102
{ACAD_REACTORS
330
2A
102
}
330
2A
100
AcDbVisualStyle
  2
Gouraud
 70
     2
177
     3
291
     1
 70
    58
 90
        2
176
     1
 90
        2
176
     1
 90
        1
176
     1
 90
        2
176
     1
 40
0.6
176
     1
 40
30.0
176
     1
 62
     7
420
 16777215
176
     1
 90
        0
176
     1
 90
        0
176
     1
 62
     7
176
     1
 62
   257
176
     1
 90
        1
176
     1
 90
        1
176
     1
 40
1.0
176
     1
 90
        0
176
     1
 62
     7
176
     1
 40
1.0
176
     1
 90
        1
176
     1
 90
        6
176
     1
 90
        2
176
     1
 62
     7
176
     1
 90
        5
176
     1
 90
        0
176
     1
 90
        0
176
     1
290
     0
176
     1
 90
       13
176
     1
 40
0.0
176
     1
 90
        0
176
     1
290
     0
176
     1
290
     1
176
     1
290
     1
176
     1
290
     0
176
     1
290
     0
176
     1
290
     0
176
     1
290
     0
176
     1
290
     0
176
     1
290
     0
176
     1
 90
       50
176
     1
 40
0.0
176
     1
 40
1.0
176
     1
 90
        0
176
     1
 62
    18
420
        0
176
     1
 90
       50
176
     1
 90
        3
176
     1
 62
     5
420
      255
176
     1
290
     0
176
     1
 90
       50
176
     1
 90
       50
176
     1
 90
       50
176
     1
290
     0
176
     1
 90
       50
176
     1
 62
   256
176
     0
 40
1.0
176
     0
 90
        2
176
     1
  1
strokes_ogs.tif
176
     1
290
     0
176
     1
 40
1.0
176
     1
 40
1.0
176
     1
  0
VISUALSTYLE
  5
2E
102
{ACAD_REACTORS
330
2A
102
}
330
2A
100
AcDbVisualStyle
  2
GouraudWithEdges
 70
     3
177
     3
291
     1
 70
    58
 90
        2
176
     1
 90
        2
176
     1
 90
        1
176
     1
 90
        2
176
     1
 40
0.6
176
     1
 40
30.0
176
     1
 62
     7
420
 16777215
176
     1
 90
        1
176
     1
 90
        0
176
     1
 62
     7
176
     1
 62
   257
176
     1
 90
        1
176
     1
 90
        1
176
     1
 40
1.0
176
     1
 90
        0
176
     1
 62
   257
176
     1
 40
1.0
176
     1
 90
        1
176
     1
 90
        6
176
     1
 90
        2
176
     1
 62
     7
176
     1
 90
        5
176
     1
 90
        0
176
     1
 90
        0
176
     1
290
     0
176
     1
 90
       13
176
     1
 40
0.0
176
     1
 90
        0
176
     1
290
     0
176
     1
290
     1
176
     1
290
     1
176
     1
290
     0
176
     1
290
     0
176
     1
290
     0
176
     1
290
     0
176
     1
290
     0
176
     1
290
     0
176
     1
 90
       50
176
     1
 40
0.0
176
     1
 40
1.0
176
     1
 90
        0
176
     1
 62
    18
420
        0
176
     1
 90
       50
176
     1
 90
        3
176
     1
 62
     5
420
      255
176
     1
290
     0
176
     1
 90
       50
176
     1
 90
       50
176
     1
 90
       50
176
     1
290
     0
176
     1
 90
       50
176
     1
 62
   256
176
     0
 40
1.0
176
     0
 90
        2
176
     1
  1
strokes_ogs.tif
176
     1
290
     0
176
     1
 40
1.0
176
     1
 40
1.0
176
     1
  0
VISUALSTYLE
  5
31
102
{ACAD_REACTORS
330
2A
102
}
330
2A
100
AcDbVisualStyle
  2
Hidden
 70
     6
177
     3
291
     0
 70
    58
 90
        1
176
     1
 90
        2
176
     1
 90
        2
176
     1
 90
        0
176
     1
 40
0.6
176
     1
 40
30.0
176
     1
 62
     7
420
 16777215
176
     1
 90
        2
176
     1
 90
        2
176
     1
 62
     7
176
     1
 62
   257
176
     1
 90
        2
176
     1
 90
        1
176
     1
 40
40.0
176
     1
 90
        0
176
     1
 62
   257
176
     1
 40
1.0
176
     1
 90
        1
176
     1
 90
        6
176
     1
 90
        2
176
     1
 62
     7
176
     1
 90
        3
176
     1
 90
        0
176
     1
 90
        0
176
     1
290
     0
176
     1
 90
        1
176
     1
 40
0.0
176
     1
 90
        0
176
     1
290
     0
176
     1
290
     1
176
     1
290
     1
176
     1
290
     0
176
     1
290
     0
176
     1
290
     0
176
     1
290
     0
176
     1
290
     0
176
     1
290
     0
176
     1
 90
       50
176
     1
 40
0.0
176
     1
 40
1.0
176
     1
 90
        0
176
     1
 62
    18
420
        0
176
     1
 90
       50
176
     1
 90
        3
176
     1
 62
     5
420
      255
176
     1
290
     0
176
     1
 90
       50
176
     1
 90
       50
176
     1
 90
       50
176
     1
290
     0
176
     1
 90
       50
176
     1
 62
   256
176
     0
 40
1.0
176
     0
 90
        2
176
     1
  1
strokes_ogs.tif
176
     1
290
     0
176
     1
 40
1.0
176
     1
 40
1.0
176
     1
  0
VISUALSTYLE
  5
3B
102
{ACAD_REACTORS
330
2A
102
}
330
2A
100
AcDbVisualStyle
  2
JitterOff
 70
    20
177
     3
291
     1
 70
    58
 90
        2
176
     0
 90
        2
176
     0
 90
        0
176
     0
 90
        0
176
     0
 40
0.6
176
     0
 40
30.0
176
     0
 62
     7
420
 16777215
176
     0
 90
        1
176
     0
 90
        4
176
     0
 62
     7
176
     0
 62
   257
176
     0
 90
        1
176
     0
 90
        1
176
     0
 40
1.0
176
     0
 90
       10
176
     2
 62
     7
176
     0
 40
1.0
176
     0
 90
        1
176
     0
 90
        6
176
     0
 90
        2
176
     0
 62
     7
176
     0
 90
        5
176
     0
 90
        0
176
     0
 90
        0
176
     0
290
     0
176
     0
 90
        1
176
     0
 40
0.0
176
     0
 90
        0
176
     0
290
     0
176
     0
290
     1
176
     0
290
     1
176
     0
290
     0
176
     0
290
     0
176
     0
290
     0
176
     0
290
     0
176
     0
290
     0
176
     0
290
     0
176
     0
 90
       50
176
     0
 40
0.0
176
     0
 40
1.0
176
     0
 90
        0
176
     0
 62
    18
420
        0
176
     0
 90
       50
176
     0
 90
        3
176
     0
 62
     5
420
      255
176
     0
290
     0
176
     0
 90
       50
176
     0
 90
       50
176
     0
 90
       50
176
     0
290
     0
176
     0
 90
       50
176
     0
 62
   256
176
     0
 40
1.0
176
     0
 90
        2
176
     0
  1
strokes_ogs.tif
176
     0
290
     0
176
     0
 40
1.0
176
     0
 40
1.0
176
     0
  0
VISUALSTYLE
  5
38
102
{ACAD_REACTORS
330
2A
102
}
330
2A
100
AcDbVisualStyle
  2
Linepattern
 70
    14
177
     3
291
     1
 70
    58
 90
        2
176
     1
 90
        2
176
     1
 90
        0
176
     1
 90
        0
176
     1
 40
0.6
176
     1
 40
30.0
176
     1
 62
     7
420
 16777215
176
     1
 90
        1
176
     1
 90
        4
176
     1
 62
     7
176
     1
 62
   257
176
     1
 90
        7
176
     1
 90
        7
176
     1
 40
1.0
176
     1
 90
        8
176
     1
 62
     7
176
     1
 40
1.0
176
     1
 90
        1
176
     1
 90
        6
176
     1
 90
        2
176
     1
 62
     7
176
     1
 90
        5
176
     1
 90
        0
176
     1
 90
        0
176
     1
290
     0
176
     1
 90
        1
176
     1
 40
0.0
176
     1
 90
        0
176
     1
290
     0
176
     1
290
     1
176
     1
290
     1
176
     1
290
     0
176
     1
290
     0
176
     1
290
     0
176
     1
290
     0
176
     1
290
     0
176
     1
290
     0
176
     1
 90
       50
176
     1
 40
0.0
176
     1
 40
1.0
176
     1
 90
        0
176
     1
 62
    18
420
        0
176
     1
 90
       50
176
     1
 90
        3
176
     1
 62
     5
420
      255
176
     1
290
     0
176
     1
 90
       50
176
     1
 90
       50
176
     1
 90
       50
176
     1
290
     0
176
     1
 90
       50
176
     1
 62
   256
176
     0
 40
1.0
176
     0
 90
        2
176
     1
  1
strokes_ogs.tif
176
     1
290
     0
176
     1
 40
1.0
176
     1
 40
1.0
176
     1
  0
VISUALSTYLE
  5
3C
102
{ACAD_REACTORS
330
2A
102
}
330
2A
100
AcDbVisualStyle
  2
OverhangOff
 70
    21
177
     3
291
     1
 70
    58
 90
        2
176
     0
 90
        2
176
     0
 90
        0
176
     0
 90
        0
176
     0
 40
0.6
176
     0
 40
30.0
176
     0
 62
     7
420
 16777215
176
     0
 90
        1
176
     0
 90
        4
176
     0
 62
     7
176
     0
 62
   257
176
     0
 90
        1
176
     0
 90
        1
176
     0
 40
1.0
176
     0
 90
        9
176
     2
 62
     7
176
     0
 40
1.0
176
     0
 90
        1
176
     0
 90
        6
176
     0
 90
        2
176
     0
 62
     7
176
     0
 90
        5
176
     0
 90
        0
176
     0
 90
        0
176
     0
290
     0
176
     0
 90
        1
176
     0
 40
0.0
176
     0
 90
        0
176
     0
290
     0
176
     0
290
     1
176
     0
290
     1
176
     0
290
     0
176
     0
290
     0
176
     0
290
     0
176
     0
290
     0
176
     0
290
     0
176
     0
290
     0
176
     0
 90
       50
176
     0
 40
0.0
176
     0
 40
1.0
176
     0
 90
        0
176
     0
 62
    18
420
        0
176
     0
 90
       50
176
     0
 90
        3
176
     0
 62
     5
420
      255
176
     0
290
     0
176
     0
 90
       50
176
     0
 90
       50
176
     0
 90
       50
176
     0
290
     0
176
     0
 90
       50
176
     0
 62
   256
176
     0
 40
1.0
176
     0
 90
        2
176
     0
  1
strokes_ogs.tif
176
     0
290
     0
176
     0
 40
1.0
176
     0
 40
1.0
176
     0
  0
VISUALSTYLE
  5
33
102
{ACAD_REACTORS
330
2A
102
}
330
2A
100
AcDbVisualStyle
  2
Realistic
 70
     8
177
     3
291
     0
 70
    58
 90
        2
176
     1
 90
        3
176
     1
 90
        0
176
     1
 90
        2
176
     1
 40
0.6
176
     1
 40
30.0
176
     1
 62
     7
420
 16777215
176
     1
 90
        0
176
     1
 90
        0
176
     1
 62
     7
176
     1
 62
   257
176
     1
 90
        1
176
     1
 90
        1
176
     1
 40
1.0
176
     1
 90
        8
176
     1
 62
   257
176
     1
 40
1.0
176
     1
 90
        1
176
     1
 90
        6
176
     1
 90
        2
176
     1
 62
     7
176
     1
 90
        3
176
     1
 90
        0
176
     1
 90
        0
176
     1
290
     0
176
     1
 90
       13
176
     1
 40
0.0
176
     1
 90
        0
176
     1
290
     0
176
     1
290
     1
176
     1
290
     1
176
     1
290
     0
176
     1
290
     0
176
     1
290
     0
176
     1
290
     0
176
     1
290
     0
176
     1
290
     0
176
     1
 90
       50
176
     1
 40
0.0
176
     1
 40
1.0
176
     1
 90
        0
176
     1
 62
    18
420
        0
176
     1
 90
       50
176
     1
 90
        3
176
     1
 62
     5
420
      255
176
     1
290
     0
176
     1
 90
       50
176
     1
 90
       50
176
     1
 90
       50
176
     1
290
     0
176
     1
 90
       50
176
     1
 62
   256
176
     0
 40
1.0
176
     0
 90
        2
176
     1
  1
strokes_ogs.tif
176
     1
290
     0
176
     1
 40
1.0
176
     1
 40
1.0
176
     1
  0
VISUALSTYLE
  5
42
102
{ACAD_REACTORS
330
2A
102
}
330
2A
100
AcDbVisualStyle
  2
Shaded
 70
    27
177
     3
291
     0
 70
    58
 90
        2
176
     1
 90
        2
176
     1
 90
        1
176
     1
 90
        2
176
     1
 40
0.6
176
     1
 40
30.0
176
     1
 62
     7
420
 16777215
176
     1
 90
        0
176
     1
 90
        4
176
     1
 62
     7
176
     1
 62
   257
176
     1
 90
        1
176
     1
 90
        1
176
     1
 40
1.0
176
     1
 90
        8
176
     1
 62
   257
176
     1
 40
1.0
176
     1
 90
        1
176
     1
 90
        6
176
     1
 90
        2
176
     1
 62
     8
420
  7895160
176
     1
 90
        3
176
     1
 90
        0
176
     1
 90
        0
176
     1
290
     0
176
     1
 90
        5
176
     1
 40
0.0
176
     1
 90
        0
176
     1
290
     0
176
     1
290
     1
176
     1
290
     1
176
     1
290
     0
176
     1
290
     0
176
     1
290
     0
176
     1
290
     0
176
     1
290
     0
176
     1
290
     0
176
     1
 90
       50
176
     1
 40
0.0
176
     1
 40
1.0
176
     1
 90
        0
176
     1
 62
    18
420
        0
176
     1
 90
       50
176
     1
 90
        3
176
     1
 62
     5
420
      255
176
     1
290
     0
176
     1
 90
       50
176
     1
 90
       50
176
     1
 90
       50
176
     1
290
     0
176
     1
 90
       50
176
     1
 62
   256
176
     0
 40
1.0
176
     0
 90
        2
176
     1
  1
strokes_ogs.tif
176
     1
290
     0
176
     1
 40
1.0
176
     1
 40
1.0
176
     1
  0
VISUALSTYLE
  5
41
102
{ACAD_REACTORS
330
2A
102
}
330
2A
100
AcDbVisualStyle
  2
Shaded with edges
 70
    26
177
     3
291
     0
 70
    58
 90
        2
176
     1
 90
        2
176
     1
 90
        1
176
     1
 90
        2
176
     1
 40
0.6
176
     1
 40
30.0
176
     1
 62
     7
420
 16777215
176
     1
 90
        1
176
     1
 90
       10
176
     1
 62
     7
176
     1
 62
   257
176
     1
 90
        2
176
     1
 90
        1
176
     1
 40
1.0
176
     1
 90
        8
176
     1
 62
   257
176
     1
 40
1.0
176
     1
 90
        1
176
     1
 90
        6
176
     1
 90
        2
176
     1
 62
     7
176
     1
 90
        3
176
     1
 90
        0
176
     1
 90
        0
176
     1
290
     0
176
     1
 90
        5
176
     1
 40
0.0
176
     1
 90
        0
176
     1
290
     0
176
     1
290
     1
176
     1
290
     1
176
     1
290
     0
176
     1
290
     0
176
     1
290
     0
176
     1
290
     0
176
     1
290
     0
176
     1
290
     0
176
     1
 90
       50
176
     1
 40
0.0
176
     1
 40
1.0
176
     1
 90
        0
176
     1
 62
    18
420
        0
176
     1
 90
       50
176
     1
 90
        3
176
     1
 62
     5
420
      255
176
     1
290
     0
176
     1
 90
       50
176
     1
 90
       50
176
     1
 90
       50
176
     1
290
     0
176
     1
 90
       50
176
     1
 62
   256
176
     0
 40
1.0
176
     0
 90
        2
176
     1
  1
strokes_ogs.tif
176
     1
290
     0
176
     1
 40
1.0
176
     1
 40
1.0
176
     1
  0
VISUALSTYLE
  5
3E
102
{ACAD_REACTORS
330
2A
102
}
330
2A
100
AcDbVisualStyle
  2
Shades of Gray
 70
    23
177
     3
291
     0
 70
    58
 90
        2
176
     1
 90
        2
176
     1
 90
        3
176
     1
 90
        0
176
     1
 40
0.6
176
     1
 40
30.0
176
     1
 62
     7
420
 16777215
176
     1
 90
        2
176
     1
 90
        2
176
     1
 62
     7
176
     1
 62
     7
176
     1
 90
        1
176
     1
 90
        1
176
     1
 40
40.0
176
     1
 90
        8
176
     1
 62
     7
176
     1
 40
1.0
176
     1
 90
        1
176
     1
 90
        6
176
     1
 90
        2
176
     1
 62
     7
176
     1
 90
        3
176
     1
 90
        0
176
     1
 90
        0
176
     1
290
     0
176
     1
 90
        1
176
     1
 40
0.0
176
     1
 90
        0
176
     1
290
     0
176
     1
290
     1
176
     1
290
     1
176
     1
290
     0
176
     1
290
     0
176
     1
290
     0
176
     1
290
     0
176
     1
290
     0
176
     1
290
     0
176
     1
 90
       50
176
     1
 40
0.0
176
     1
 40
1.0
176
     1
 90
        0
176
     1
 62
    18
420
        0
176
     1
 90
       50
176
     1
 90
        3
176
     1
 62
     5
420
      255
176
     1
290
     0
176
     1
 90
       50
176
     1
 90
       50
176
     1
 90
       50
176
     1
290
     0
176
     1
 90
       50
176
     1
 62
   256
176
     0
 40
1.0
176
     0
 90
        2
176
     1
  1
strokes_ogs.tif
176
     1
290
     0
176
     1
 40
1.0
176
     1
 40
1.0
176
     1
  0
VISUALSTYLE
  5
3F
102
{ACAD_REACTORS
330
2A
102
}
330
2A
100
AcDbVisualStyle
  2
Sketchy
 70
    24
177
     3
291
     0
 70
    58
 90
        1
176
     1
 90
        2
176
     1
 90
        2
176
     1
 90
        0
176
     1
 40
0.6
176
     1
 40
30.0
176
     1
 62
     7
420
 16777215
176
     1
 90
        2
176
     1
 90
        2
176
     1
 62
     7
176
     1
 62
     7
176
     1
 90
        1
176
     1
 90
        1
176
     1
 40
40.0
176
     1
 90
       11
176
     1
 62
     7
176
     1
 40
1.0
176
     1
 90
        1
176
     1
 90
        6
176
     1
 90
        2
176
     1
 62
     7
176
     1
 90
        6
176
     1
 90
        0
176
     1
 90
        0
176
     1
290
     0
176
     1
 90
        1
176
     1
 40
0.0
176
     1
 90
        0
176
     1
290
     0
176
     1
290
     1
176
     1
290
     1
176
     1
290
     0
176
     1
290
     0
176
     1
290
     0
176
     1
290
     0
176
     1
290
     0
176
     1
290
     0
176
     1
 90
       50
176
     1
 40
0.0
176
     1
 40
1.0
176
     1
 90
        0
176
     1
 62
    18
420
        0
176
     1
 90
       50
176
     1
 90
        3
176
     1
 62
     5
420
      255
176
     1
290
     0
176
     1
 90
       50
176
     1
 90
       50
176
     1
 90
       50
176
     1
290
     0
176
     1
 90
       50
176
     1
 62
   256
176
     0
 40
1.0
176
     0
 90
        2
176
     1
  1
strokes_ogs.tif
176
     1
290
     0
176
     1
 40
1.0
176
     1
 40
1.0
176
     1
  0
VISUALSTYLE
  5
37
102
{ACAD_REACTORS
330
2A
102
}
330
2A
100
AcDbVisualStyle
  2
Thicken
 70
    13
177
     3
291
     1
 70
    58
 90
        2
176
     1
 90
        2
176
     1
 90
        0
176
     1
 90
        0
176
     1
 40
0.6
176
     1
 40
30.0
176
     1
 62
     7
420
 16777215
176
     1
 90
        1
176
     1
 90
        4
176
     1
 62
     7
176
     1
 62
   257
176
     1
 90
        1
176
     1
 90
        1
176
     1
 40
1.0
176
     1
 90
       12
176
     1
 62
     7
176
     1
 40
1.0
176
     1
 90
        1
176
     1
 90
        6
176
     1
 90
        2
176
     1
 62
     7
176
     1
 90
        5
176
     1
 90
        0
176
     1
 90
        0
176
     1
290
     0
176
     1
 90
        1
176
     1
 40
0.0
176
     1
 90
        0
176
     1
290
     0
176
     1
290
     1
176
     1
290
     1
176
     1
290
     0
176
     1
290
     0
176
     1
290
     0
176
     1
290
     0
176
     1
290
     0
176
     1
290
     0
176
     1
 90
       50
176
     1
 40
0.0
176
     1
 40
1.0
176
     1
 90
        0
176
     1
 62
    18
420
        0
176
     1
 90
       50
176
     1
 90
        3
176
     1
 62
     5
420
      255
176
     1
290
     0
176
     1
 90
       50
176
     1
 90
       50
176
     1
 90
       50
176
     1
290
     0
176
     1
 90
       50
176
     1
 62
   256
176
     0
 40
1.0
176
     0
 90
        2
176
     1
  1
strokes_ogs.tif
176
     1
290
     0
176
     1
 40
1.0
176
     1
 40
1.0
176
     1
  0
VISUALSTYLE
  5
30
102
{ACAD_REACTORS
330
2A
102
}
330
2A
100
AcDbVisualStyle
  2
Wireframe
 70
     5
177
     3
291
     0
 70
    58
 90
        0
176
     1
 90
        2
176
     1
 90
        0
176
     1
 90
        0
176
     1
 40
0.6
176
     1
 40
30.0
176
     1
 62
     7
420
 16777215
176
     1
 90
        1
176
     1
 90
        4
176
     1
 62
     7
176
     1
 62
   257
176
     1
 90
        1
176
     1
 90
        1
176
     1
 40
1.0
176
     1
 90
        0
176
     1
 62
   257
176
     1
 40
1.0
176
     1
 90
        1
176
     1
 90
        6
176
     1
 90
        2
176
     1
 62
     7
176
     1
 90
        3
176
     1
 90
        0
176
     1
 90
        0
176
     1
290
     0
176
     1
 90
        1
176
     1
 40
0.0
176
     1
 90
        0
176
     1
290
     0
176
     1
290
     1
176
     1
290
     1
176
     1
290
     0
176
     1
290
     0
176
     1
290
     0
176
     1
290
     0
176
     1
290
     0
176
     1
290
     0
176
     1
 90
       50
176
     1
 40
0.0
176
     1
 40
1.0
176
     1
 90
        0
176
     1
 62
    18
420
        0
176
     1
 90
       50
176
     1
 90
        3
176
     1
 62
     5
420
      255
176
     1
290
     0
176
     1
 90
       50
176
     1
 90
       50
176
     1
 90
       50
176
     1
290
     0
176
     1
 90
       50
176
     1
 62
   256
176
     0
 40
1.0
176
     0
 90
        2
176
     1
  1
strokes_ogs.tif
176
     1
290
     0
176
     1
 40
1.0
176
     1
 40
1.0
176
     1
  0
VISUALSTYLE
  5
40
102
{ACAD_REACTORS
330
2A
102
}
330
2A
100
AcDbVisualStyle
  2
X-Ray
 70
    25
177
     3
291
     0
 70
    58
 90
        2
176
     1
 90
        2
176
     1
 90
        1
176
     1
 90
        1
176
     1
 40
0.5
176
     1
 40
30.0
176
     1
 62
     7
420
 16777215
176
     1
 90
        1
176
     1
 90
        0
176
     1
 62
     7
176
     1
 62
   257
176
     1
 90
        1
176
     1
 90
        1
176
     1
 40
1.0
176
     1
 90
        8
176
     1
 62
     7
176
     1
 40
1.0
176
     1
 90
        1
176
     1
 90
        6
176
     1
 90
        2
176
     1
 62
     7
176
     1
 90
        3
176
     1
 90
        0
176
     1
 90
        0
176
     1
290
     0
176
     1
 90
       13
176
     1
 40
0.0
176
     1
 90
        0
176
     1
290
     0
176
     1
290
     1
176
     1
290
     1
176
     1
290
     0
176
     1
290
     0
176
     1
290
     0
176
     1
290
     0
176
     1
290
     0
176
     1
290
     0
176
     1
 90
       50
176
     1
 40
0.0
176
     1
 40
1.0
176
     1
 90
        0
176
     1
 62
    18
420
        0
176
     1
 90
       50
176
     1
 90
        3
176
     1
 62
     5
420
      255
176
     1
290
     0
176
     1
 90
       50
176
     1
 90
       50
176
     1
 90
       50
176
     1
290
     0
176
     1
 90
       50
176
     1
 62
   256
176
     0
 40
1.0
176
     0
 90
        2
176
     1
  1
strokes_ogs.tif
176
     1
290
     0
176
     1
 40
1.0
176
     1
 40
1.0
176
     1
  0
DICTIONARYVAR
  5
207
102
{ACAD_REACTORS
330
206
102
}
330
206
100
DictionaryVariables
280
     0
  1
1:1
  0
DICTIONARYVAR
  5
20C
102
{ACAD_REACTORS
330
206
102
}
330
206
100
DictionaryVariables
280
     0
  1
Standard
  0
DICTIONARYVAR
  5
20B
102
{ACAD_REACTORS
330
206
102
}
330
206
100
DictionaryVariables
280
     0
  1
Standard
  0
DICTIONARY
  5
208
330
6A
100
AcDbDictionary
280
     1
281
     1
  3
ACAD_ROUNDTRIP_2008_TABLESTYLE_CELLSTYLEMAP
360
209
  0
CELLSTYLEMAP
  5
209
102
{ACAD_REACTORS
330
208
102
}
330
208
100
AcDbCellStyleMap
 90
        3
300
CELLSTYLE
  1
TABLEFORMAT_BEGIN
 90
        5
170
     1
 91
        0
 92
    32768
 62
   257
 93
        1
300
CONTENTFORMAT
  1
CONTENTFORMAT_BEGIN
 90
        0
 91
        0
 92
        4
 93
        0
300

 40
0.0
140
1.0
 94
        5
 62
     0
340
11
144
0.25
309
CONTENTFORMAT_END
171
     1
301
MARGIN
  1
CELLMARGIN_BEGIN
 40
0.06
 40
0.06
 40
0.06
 40
0.06
 40
0.06
 40
0.06
309
CELLMARGIN_END
 94
        6
 95
        1
302
GRIDFORMAT
  1
GRIDFORMAT_BEGIN
 90
        0
 91
        1
 62
     0
 92
       -2
340
14
 93
        0
 40
0.045
309
GRIDFORMAT_END
 95
        2
302
GRIDFORMAT
  1
GRIDFORMAT_BEGIN
 90
        0
 91
        1
 62
     0
 92
       -2
340
14
 93
        0
 40
0.045
309
GRIDFORMAT_END
 95
        4
302
GRIDFORMAT
  1
GRIDFORMAT_BEGIN
 90
        0
 91
        1
 62
     0
 92
       -2
340
14
 93
        0
 40
0.045
309
GRIDFORMAT_END
 95
        8
302
GRIDFORMAT
  1
GRIDFORMAT_BEGIN
 90
        0
 91
        1
 62
     0
 92
       -2
340
14
 93
        0
 40
0.045
309
GRIDFORMAT_END
 95
       16
302
GRIDFORMAT
  1
GRIDFORMAT_BEGIN
 90
        0
 91
        1
 62
     0
 92
       -2
340
14
 93
        0
 40
0.045
309
GRIDFORMAT_END
 95
       32
302
GRIDFORMAT
  1
GRIDFORMAT_BEGIN
 90
        0
 91
        1
 62
     0
 92
       -2
340
14
 93
        0
 40
0.045
309
GRIDFORMAT_END
309
TABLEFORMAT_END
  1
CELLSTYLE_BEGIN
 90
        1
 91
        1
300
_TITLE
309
CELLSTYLE_END
300
CELLSTYLE
  1
TABLEFORMAT_BEGIN
 90
        5
170
     1
 91
        0
 92
        0
 62
   257
 93
        1
300
CONTENTFORMAT
  1
CONTENTFORMAT_BEGIN
 90
        0
 91
        0
 92
        4
 93
        0
300

 40
0.0
140
1.0
 94
        5
 62
     0
340
11
144
0.18
309
CONTENTFORMAT_END
171
     1
301
MARGIN
  1
CELLMARGIN_BEGIN
 40
0.06
 40
0.06
 40
0.06
 40
0.06
 40
0.06
 40
0.06
309
CELLMARGIN_END
 94
        6
 95
        1
302
GRIDFORMAT
  1
GRIDFORMAT_BEGIN
 90
        0
 91
        1
 62
     0
 92
       -2
340
14
 93
        0
 40
0.045
309
GRIDFORMAT_END
 95
        2
302
GRIDFORMAT
  1
GRIDFORMAT_BEGIN
 90
        0
 91
        1
 62
     0
 92
       -2
340
14
 93
        0
 40
0.045
309
GRIDFORMAT_END
 95
        4
302
GRIDFORMAT
  1
GRIDFORMAT_BEGIN
 90
        0
 91
        1
 62
     0
 92
       -2
340
14
 93
        0
 40
0.045
309
GRIDFORMAT_END
 95
        8
302
GRIDFORMAT
  1
GRIDFORMAT_BEGIN
 90
        0
 91
        1
 62
     0
 92
       -2
340
14
 93
        0
 40
0.045
309
GRIDFORMAT_END
 95
       16
302
GRIDFORMAT
  1
GRIDFORMAT_BEGIN
 90
        0
 91
        1
 62
     0
 92
       -2
340
14
 93
        0
 40
0.045
309
GRIDFORMAT_END
 95
       32
302
GRIDFORMAT
  1
GRIDFORMAT_BEGIN
 90
        0
 91
        1
 62
     0
 92
       -2
340
14
 93
        0
 40
0.045
309
GRIDFORMAT_END
309
TABLEFORMAT_END
  1
CELLSTYLE_BEGIN
 90
        2
 91
        1
300
_HEADER
309
CELLSTYLE_END
300
CELLSTYLE
  1
TABLEFORMAT_BEGIN
 90
        5
170
     1
 91
        0
 92
        0
 62
   257
 93
        1
300
CONTENTFORMAT
  1
CONTENTFORMAT_BEGIN
 90
        0
 91
        0
 92
        4
 93
        0
300

 40
0.0
140
1.0
 94
        2
 62
     0
340
11
144
0.18
309
CONTENTFORMAT_END
171
     1
301
MARGIN
  1
CELLMARGIN_BEGIN
 40
0.06
 40
0.06
 40
0.06
 40
0.06
 40
0.06
 40
0.06
309
CELLMARGIN_END
 94
        6
 95
        1
302
GRIDFORMAT
  1
GRIDFORMAT_BEGIN
 90
        0
 91
        1
 62
     0
 92
       -2
340
14
 93
        0
 40
0.045
309
GRIDFORMAT_END
 95
        2
302
GRIDFORMAT
  1
GRIDFORMAT_BEGIN
 90
        0
 91
        1
 62
     0
 92
       -2
340
14
 93
        0
 40
0.045
309
GRIDFORMAT_END
 95
        4
302
GRIDFORMAT
  1
GRIDFORMAT_BEGIN
 90
        0
 91
        1
 62
     0
 92
       -2
340
14
 93
        0
 40
0.045
309
GRIDFORMAT_END
 95
        8
302
GRIDFORMAT
  1
GRIDFORMAT_BEGIN
 90
        0
 91
        1
 62
     0
 92
       -2
340
14
 93
        0
 40
0.045
309
GRIDFORMAT_END
 95
       16
302
GRIDFORMAT
  1
GRIDFORMAT_BEGIN
 90
        0
 91
        1
 62
     0
 92
       -2
340
14
 93
        0
 40
0.045
309
GRIDFORMAT_END
 95
       32
302
GRIDFORMAT
  1
GRIDFORMAT_BEGIN
 90
        0
 91
        1
 62
     0
 92
       -2
340
14
 93
        0
 40
0.045
309
GRIDFORMAT_END
309
TABLEFORMAT_END
  1
CELLSTYLE_BEGIN
 90
        3
 91
        2
300
_DATA
309
CELLSTYLE_END
  0
ENDSEC
  0
EOF