0
SECTION
  2
HEADER
  9
$ACADVER
  1
AC1027
  9
$ACADMAINTVER
 70
     8
  9
$DWGCODEPAGE
  3
ANSI_1252
  9
$REQUIREDVERSIONS
160
                 0
  9
$COMMENTS
  1
File was created by Cadenas
  9
$CUSTOMPROPERTYTAG
  1
NN
  9
$CUSTOMPROPERTY
  1
S-2000 Piloted Flange Trident Seal
  9
$CUSTOMPROPERTYTAG
  1
NT
  9
$CUSTOMPROPERTY
  1
S-2000 Piloted Flange Bearing -Inch
  9
$CUSTOMPROPERTYTAG
  1
NB
  9
$CUSTOMPROPERTY
  1
070645
  9
$CUSTOMPROPERTYTAG
  1
NBSYN
  9
$CUSTOMPROPERTY
  1
$PN.
  9
$CUSTOMPROPERTYTAG
  1
LINA
  9
$CUSTOMPROPERTY
  1
070645
  9
$CUSTOMPROPERTYTAG
  1
SS
  9
$CUSTOMPROPERTY
  1
1-7/16
  9
$CUSTOMPROPERTYTAG
  1
PN
  9
$CUSTOMPROPERTY
  1
070645
  9
$CUSTOMPROPERTYTAG
  1
DESCRIPTION
  9
$CUSTOMPROPERTY
  1
FC-S2-107R
  9
$CUSTOMPROPERTYTAG
  1
EF
  9
$CUSTOMPROPERTY
  1
Non-Expansion Type
  9
$CUSTOMPROPERTYTAG
  1
ST
  9
$CUSTOMPROPERTY
  1
Contact Seal
  9
$CUSTOMPROPERTYTAG
  1
A
  9
$CUSTOMPROPERTY
  1
2-17/32
  9
$CUSTOMPROPERTYTAG
  1
B
  9
$CUSTOMPROPERTY
  1
5-1/4
  9
$CUSTOMPROPERTYTAG
  1
C
  9
$CUSTOMPROPERTY
  1
1-27/32
  9
$CUSTOMPROPERTYTAG
  1
D
  9
$CUSTOMPROPERTY
  1
3-3/32
  9
$CUSTOMPROPERTYTAG
  1
DD
  9
$CUSTOMPROPERTY
  1
4-3/8
  9
$CUSTOMPROPERTYTAG
  1
E
  9
$CUSTOMPROPERTY
  1
3/4
  9
$CUSTOMPROPERTYTAG
  1
F
  9
$CUSTOMPROPERTY
  1
3/8
  9
$CUSTOMPROPERTYTAG
  1
G
  9
$CUSTOMPROPERTY
  1
1-5/16
  9
$CUSTOMPROPERTYTAG
  1
H
  9
$CUSTOMPROPERTY
  1
1/2
  9
$CUSTOMPROPERTYTAG
  1
K
  9
$CUSTOMPROPERTY
  1
3.625
  9
$CUSTOMPROPERTYTAG
  1
L
  9
$CUSTOMPROPERTY
  1
2-3/4
  9
$CUSTOMPROPERTYTAG
  1
M
  9
$CUSTOMPROPERTY
  1
3/8-16
  9
$CUSTOMPROPERTYTAG
  1
N
  9
$CUSTOMPROPERTY
  1
2-17/32
  9
$CUSTOMPROPERTYTAG
  1
P
  9
$CUSTOMPROPERTY
  1
1-7/32
  9
$CUSTOMPROPERTYTAG
  1
Q
  9
$CUSTOMPROPERTY
  1
1-7/32
  9
$CUSTOMPROPERTYTAG
  1
X
  9
$CUSTOMPROPERTY
  1
3/16
  9
$CUSTOMPROPERTYTAG
  1
Y
  9
$CUSTOMPROPERTY
  1
0.020
  9
$CUSTOMPROPERTYTAG
  1
Z
  9
$CUSTOMPROPERTY
  1
1-51/64
  9
$CUSTOMPROPERTYTAG
  1
COMPANY
  9
$CUSTOMPROPERTY
  1
baldor
  9
$INSBASE
 10
0.0
 20
0.0
 30
0.0
  9
$EXTMIN
 10
1.000000000000000E+20
 20
1.000000000000000E+20
 30
1.000000000000000E+20
  9
$EXTMAX
 10
-1.000000000000000E+20
 20
-1.000000000000000E+20
 30
-1.000000000000000E+20
  9
$LIMMIN
 10
0.0
 20
0.0
  9
$LIMMAX
 10
12.0
 20
9.0
  9
$ORTHOMODE
 70
     0
  9
$REGENMODE
 70
     1
  9
$FILLMODE
 70
     1
  9
$QTEXTMODE
 70
     0
  9
$MIRRTEXT
 70
     1
  9
$LTSCALE
 40
1.0
  9
$ATTMODE
 70
     1
  9
$TEXTSIZE
 40
0.2
  9
$TRACEWID
 40
0.05
  9
$TEXTSTYLE
  7
Standard
  9
$CLAYER
  8
0
  9
$CELTYPE
  6
ByLayer
  9
$CECOLOR
 62
   256
  9
$CELTSCALE
 40
1.0
  9
$DISPSILH
 70
     0
  9
$DIMSCALE
 40
1.0
  9
$DIMASZ
 40
0.18
  9
$DIMEXO
 40
0.0625
  9
$DIMDLI
 40
0.38
  9
$DIMRND
 40
0.0
  9
$DIMDLE
 40
0.0
  9
$DIMEXE
 40
0.18
  9
$DIMTP
 40
0.0
  9
$DIMTM
 40
0.0
  9
$DIMTXT
 40
0.18
  9
$DIMCEN
 40
0.09
  9
$DIMTSZ
 40
0.0
  9
$DIMTOL
 70
     0
  9
$DIMLIM
 70
     0
  9
$DIMTIH
 70
     1
  9
$DIMTOH
 70
     1
  9
$DIMSE1
 70
     0
  9
$DIMSE2
 70
     0
  9
$DIMTAD
 70
     0
  9
$DIMZIN
 70
     0
  9
$DIMBLK
  1

  9
$DIMASO
 70
     1
  9
$DIMSHO
 70
     1
  9
$DIMPOST
  1

  9
$DIMAPOST
  1

  9
$DIMALT
 70
     0
  9
$DIMALTD
 70
     2
  9
$DIMALTF
 40
25.4
  9
$DIMLFAC
 40
1.0
  9
$DIMTOFL
 70
     0
  9
$DIMTVP
 40
0.0
  9
$DIMTIX
 70
     0
  9
$DIMSOXD
 70
     0
  9
$DIMSAH
 70
     0
  9
$DIMBLK1
  1

  9
$DIMBLK2
  1

  9
$DIMSTYLE
  2
Standard
  9
$DIMCLRD
 70
     0
  9
$DIMCLRE
 70
     0
  9
$DIMCLRT
 70
     0
  9
$DIMTFAC
 40
1.0
  9
$DIMGAP
 40
0.09
  9
$DIMJUST
 70
     0
  9
$DIMSD1
 70
     0
  9
$DIMSD2
 70
     0
  9
$DIMTOLJ
 70
     1
  9
$DIMTZIN
 70
     0
  9
$DIMALTZ
 70
     0
  9
$DIMALTTZ
 70
     0
  9
$DIMUPT
 70
     0
  9
$DIMDEC
 70
     4
  9
$DIMTDEC
 70
     4
  9
$DIMALTU
 70
     2
  9
$DIMALTTD
 70
     2
  9
$DIMTXSTY
  7
Standard
  9
$DIMAUNIT
 70
     0
  9
$DIMADEC
 70
     0
  9
$DIMALTRND
 40
0.0
  9
$DIMAZIN
 70
     0
  9
$DIMDSEP
 70
    46
  9
$DIMATFIT
 70
     3
  9
$DIMFRAC
 70
     0
  9
$DIMLDRBLK
  1

  9
$DIMLUNIT
 70
     2
  9
$DIMLWD
 70
    -2
  9
$DIMLWE
 70
    -2
  9
$DIMTMOVE
 70
     0
  9
$DIMFXL
 40
1.0
  9
$DIMFXLON
 70
     0
  9
$DIMJOGANG
 40
0.7853981633974483
  9
$DIMTFILL
 70
     0
  9
$DIMTFILLCLR
 70
     0
  9
$DIMARCSYM
 70
     0
  9
$DIMLTYPE
  6

  9
$DIMLTEX1
  6

  9
$DIMLTEX2
  6

  9
$DIMTXTDIRECTION
 70
     0
  9
$LUNITS
 70
     2
  9
$LUPREC
 70
     4
  9
$SKETCHINC
 40
0.1
  9
$FILLETRAD
 40
0.5
  9
$AUNITS
 70
     0
  9
$AUPREC
 70
     0
  9
$MENU
  1
.
  9
$ELEVATION
 40
0.0
  9
$PELEVATION
 40
0.0
  9
$THICKNESS
 40
0.0
  9
$LIMCHECK
 70
     0
  9
$CHAMFERA
 40
0.0
  9
$CHAMFERB
 40
0.0
  9
$CHAMFERC
 40
0.0
  9
$CHAMFERD
 40
0.0
  9
$SKPOLY
 70
     0
  9
$TDCREATE
 40
2458168.985479491
  9
$TDUCREATE
 40
2458168.943812824
  9
$TDUPDATE
 40
2458168.985479491
  9
$TDUUPDATE
 40
2458168.943812824
  9
$TDINDWG
 40
0.0000000116
  9
$TDUSRTIMER
 40
0.0000000116
  9
$USRTIMER
 70
     1
  9
$ANGBASE
 50
0.0
  9
$ANGDIR
 70
     0
  9
$PDMODE
 70
     0
  9
$PDSIZE
 40
0.0
  9
$PLINEWID
 40
0.0
  9
$SPLFRAME
 70
     0
  9
$SPLINETYPE
 70
     6
  9
$SPLINESEGS
 70
     8
  9
$HANDSEED
  5
1D9
  9
$SURFTAB1
 70
     6
  9
$SURFTAB2
 70
     6
  9
$SURFTYPE
 70
     6
  9
$SURFU
 70
     6
  9
$SURFV
 70
     6
  9
$UCSBASE
  2

  9
$UCSNAME
  2

  9
$UCSORG
 10
0.0
 20
0.0
 30
0.0
  9
$UCSXDIR
 10
1.0
 20
0.0
 30
0.0
  9
$UCSYDIR
 10
0.0
 20
1.0
 30
0.0
  9
$UCSORTHOREF
  2

  9
$UCSORTHOVIEW
 70
     0
  9
$UCSORGTOP
 10
0.0
 20
0.0
 30
0.0
  9
$UCSORGBOTTOM
 10
0.0
 20
0.0
 30
0.0
  9
$UCSORGLEFT
 10
0.0
 20
0.0
 30
0.0
  9
$UCSORGRIGHT
 10
0.0
 20
0.0
 30
0.0
  9
$UCSORGFRONT
 10
0.0
 20
0.0
 30
0.0
  9
$UCSORGBACK
 10
0.0
 20
0.0
 30
0.0
  9
$PUCSBASE
  2

  9
$PUCSNAME
  2

  9
$PUCSORG
 10
0.0
 20
0.0
 30
0.0
  9
$PUCSXDIR
 10
1.0
 20
0.0
 30
0.0
  9
$PUCSYDIR
 10
0.0
 20
1.0
 30
0.0
  9
$PUCSORTHOREF
  2

  9
$PUCSORTHOVIEW
 70
     0
  9
$PUCSORGTOP
 10
0.0
 20
0.0
 30
0.0
  9
$PUCSORGBOTTOM
 10
0.0
 20
0.0
 30
0.0
  9
$PUCSORGLEFT
 10
0.0
 20
0.0
 30
0.0
  9
$PUCSORGRIGHT
 10
0.0
 20
0.0
 30
0.0
  9
$PUCSORGFRONT
 10
0.0
 20
0.0
 30
0.0
  9
$PUCSORGBACK
 10
0.0
 20
0.0
 30
0.0
  9
$USERI1
 70
     0
  9
$USERI2
 70
     0
  9
$USERI3
 70
     0
  9
$USERI4
 70
     0
  9
$USERI5
 70
     0
  9
$USERR1
 40
0.0
  9
$USERR2
 40
0.0
  9
$USERR3
 40
0.0
  9
$USERR4
 40
0.0
  9
$USERR5
 40
0.0
  9
$WORLDVIEW
 70
     1
  9
$SHADEDGE
 70
     3
  9
$SHADEDIF
 70
    70
  9
$TILEMODE
 70
     1
  9
$MAXACTVP
 70
    64
  9
$PINSBASE
 10
0.0
 20
0.0
 30
0.0
  9
$PLIMCHECK
 70
     0
  9
$PEXTMIN
 10
1.000000000000000E+20
 20
1.000000000000000E+20
 30
1.000000000000000E+20
  9
$PEXTMAX
 10
-1.000000000000000E+20
 20
-1.000000000000000E+20
 30
-1.000000000000000E+20
  9
$PLIMMIN
 10
0.0
 20
0.0
  9
$PLIMMAX
 10
12.0
 20
9.0
  9
$UNITMODE
 70
     0
  9
$VISRETAIN
 70
     1
  9
$PLINEGEN
 70
     0
  9
$PSLTSCALE
 70
     1
  9
$TREEDEPTH
 70
  3020
  9
$CMLSTYLE
  2
Standard
  9
$CMLJUST
 70
     0
  9
$CMLSCALE
 40
1.0
  9
$PROXYGRAPHICS
 70
     1
  9
$MEASUREMENT
 70
     0
  9
$CELWEIGHT
370
    -1
  9
$ENDCAPS
280
     0
  9
$JOINSTYLE
280
     0
  9
$LWDISPLAY
290
     0
  9
$INSUNITS
 70
     1
  9
$HYPERLINKBASE
  1

  9
$STYLESHEET
  1

  9
$XEDIT
290
     1
  9
$CEPSNTYPE
380
     0
  9
$PSTYLEMODE
290
     1
  9
$FINGERPRINTGUID
  2
{B86DC821-7B29-4E7D-A9A5-528278F8E4B6}
  9
$VERSIONGUID
  2
{FAEB1C32-E019-11D5-929B-00C0DF256EC4}
  9
$EXTNAMES
290
     1
  9
$PSVPSCALE
 40
0.0
  9
$OLESTARTUP
290
     0
  9
$SORTENTS
280
   127
  9
$INDEXCTL
280
     0
  9
$HIDETEXT
280
     1
  9
$XCLIPFRAME
280
     2
  9
$HALOGAP
280
     0
  9
$OBSCOLOR
 70
   257
  9
$OBSLTYPE
280
     0
  9
$INTERSECTIONDISPLAY
280
     0
  9
$INTERSECTIONCOLOR
 70
   257
  9
$DIMASSOC
280
     2
  9
$PROJECTNAME
  1

  9
$CAMERADISPLAY
290
     0
  9
$LENSLENGTH
 40
50.0
  9
$CAMERAHEIGHT
 40
0.0
  9
$STEPSPERSEC
 40
2.0
  9
$STEPSIZE
 40
6.0
  9
$3DDWFPREC
 40
2.0
  9
$PSOLWIDTH
 40
0.25
  9
$PSOLHEIGHT
 40
4.0
  9
$LOFTANG1
 40
1.570796326794897
  9
$LOFTANG2
 40
1.570796326794897
  9
$LOFTMAG1
 40
0.0
  9
$LOFTMAG2
 40
0.0
  9
$LOFTPARAM
 70
     7
  9
$LOFTNORMALS
280
     1
  9
$LATITUDE
 40
37.795
  9
$LONGITUDE
 40
-122.394
  9
$NORTHDIRECTION
 40
0.0
  9
$TIMEZONE
 70
 -8000
  9
$LIGHTGLYPHDISPLAY
280
     1
  9
$TILEMODELIGHTSYNCH
280
     1
  9
$CMATERIAL
347
44
  9
$SOLIDHIST
280
     0
  9
$SHOWHIST
280
     1
  9
$DWFFRAME
280
     2
  9
$DGNFRAME
280
     2
  9
$REALWORLDSCALE
290
     1
  9
$INTERFERECOLOR
 62
   256
  9
$CSHADOW
280
     0
  9
$SHADOWPLANELOCATION
 40
0.0
  0
ENDSEC
  0
SECTION
  2
CLASSES
  0
CLASS
  1
ACDBDICTIONARYWDFLT
  2
AcDbDictionaryWithDefault
  3
ObjectDBX Classes
 90
        0
 91
        4
280
     0
281
     0
  0
CLASS
  1
VISUALSTYLE
  2
AcDbVisualStyle
  3
ObjectDBX Classes
 90
     4095
 91
        4
280
     0
281
     0
  0
CLASS
  1
MATERIAL
  2
AcDbMaterial
  3
ObjectDBX Classes
 90
     1153
 91
        4
280
     0
281
     0
  0
CLASS
  1
SCALE
  2
AcDbScale
  3
ObjectDBX Classes
 90
     1153
 91
        4
280
     0
281
     0
  0
CLASS
  1
TABLESTYLE
  2
AcDbTableStyle
  3
ObjectDBX Classes
 90
     4095
 91
        4
280
     0
281
     0
  0
CLASS
  1
MLEADERSTYLE
  2
AcDbMLeaderStyle
  3
ACDB_MLEADERSTYLE_CLASS
 90
     4095
 91
        4
280
     0
281
     0
  0
CLASS
  1
SUN
  2
AcDbSun
  3
SCENEOE
 90
     1153
 91
        4
280
     0
281
     0
  0
CLASS
  1
DICTIONARYVAR
  2
AcDbDictionaryVar
  3
ObjectDBX Classes
 90
        0
 91
        4
280
     0
281
     0
  0
CLASS
  1
CELLSTYLEMAP
  2
AcDbCellStyleMap
  3
ObjectDBX Classes
 90
     1152
 91
        4
280
     0
281
     0
  0
ENDSEC
  0
SECTION
  2
TABLES
  0
TABLE
  2
VPORT
  5
8
330
0
100
AcDbSymbolTable
 70
     1
  0
VPORT
  5
29
330
8
100
AcDbSymbolTableRecord
100
AcDbViewportTableRecord
  2
*Active
 70
     0
 10
0.0
 20
0.0
 11
1.0
 21
1.0
 12
-0.0000000000000036
 22
0.0019995300751781
 13
0.0
 23
0.0
 14
0.5
 24
0.5
 15
0.5
 25
0.5
 16
0.0
 26
0.0
 36
1.0
 17
0.0
 27
0.0
 37
0.0
 40
5.350920958646597
 41
1.000762306411346
 42
50.0
 43
0.0
 44
0.0
 50
0.0
 51
0.0
 71
     0
 72
   100
 73
     1
 74
     3
 75
     0
 76
     0
 77
     0
 78
     0
281
     0
 65
     1
110
0.0
120
0.0
130
0.0
111
1.0
121
0.0
131
0.0
112
0.0
122
1.0
132
0.0
 79
     0
146
0.0
348
2F
 60
     3
 61
     5
292
     1
282
     1
141
0.0
142
0.0
 63
   250
361
6D
  0
ENDTAB
  0
TABLE
  2
LTYPE
  5
5
330
0
100
AcDbSymbolTable
 70
     3
  0
LTYPE
  5
14
330
5
100
AcDbSymbolTableRecord
100
AcDbLinetypeTableRecord
  2
ByBlock
 70
     0
  3

 72
    65
 73
     0
 40
0.0
  0
LTYPE
  5
15
330
5
100
AcDbSymbolTableRecord
100
AcDbLinetypeTableRecord
  2
ByLayer
 70
     0
  3

 72
    65
 73
     0
 40
0.0
  0
LTYPE
  5
16
330
5
100
AcDbSymbolTableRecord
100
AcDbLinetypeTableRecord
  2
Continuous
 70
     0
  3
Solid line
 72
    65
 73
     0
 40
0.0
  0
LTYPE
  5
A7
330
5
100
AcDbSymbolTableRecord
100
AcDbLinetypeTableRecord
  2
Dashed
 70
     0
  3

 72
    65
 73
     2
 40
2.0
 49
1.0
 74
     0
 49
-1.0
 74
     0
  0
LTYPE
  5
107
330
5
100
AcDbSymbolTableRecord
100
AcDbLinetypeTableRecord
  2
Center
 70
     0
  3

 72
    65
 73
     4
 40
1.5
 49
0.45
 74
     0
 49
-0.5
 74
     0
 49
0.05
 74
     0
 49
-0.5
 74
     0
  0
ENDTAB
  0
TABLE
  2
LAYER
  5
2
330
0
100
AcDbSymbolTable
 70
     7
  0
LAYER
  5
10
330
2
100
AcDbSymbolTableRecord
100
AcDbLayerTableRecord
  2
0
 70
     0
 62
     7
  6
Continuous
370
    -3
390
F
347
46
348
0
  0
LAYER
  5
72
330
2
100
AcDbSymbolTableRecord
100
AcDbLayerTableRecord
  2
AM_6
 70
     0
 62
    -2
  6
Continuous
370
    35
390
F
347
46
348
0
  0
LAYER
  5
A8
330
2
100
AcDbSymbolTableRecord
100
AcDbLayerTableRecord
  2
AM_9
 70
     0
 62
     6
  6
Dashed
370
    25
390
F
347
46
348
0
  0
LAYER
  5
CD
330
2
100
AcDbSymbolTableRecord
100
AcDbLayerTableRecord
  2
AM_5
 70
     0
 62
     3
  6
Continuous
370
    25
390
F
347
46
348
0
  0
LAYER
  5
D6
330
2
100
AcDbSymbolTableRecord
100
AcDbLayerTableRecord
  2
AM_4
 70
     0
 62
     7
  6
Continuous
370
    50
390
F
347
46
348
0
  0
LAYER
  5
108
330
2
100
AcDbSymbolTableRecord
100
AcDbLayerTableRecord
  2
AM_7
 70
     0
 62
     7
  6
Center
370
    25
390
F
347
46
348
0
  0
LAYER
  5
1C5
330
2
100
AcDbSymbolTableRecord
100
AcDbLayerTableRecord
  2
ConnectionPoints
 70
     0
 62
     7
  6
Continuous
370
    50
390
F
347
46
348
0
  0
ENDTAB
  0
TABLE
  2
STYLE
  5
3
330
0
100
AcDbSymbolTable
 70
     1
  0
STYLE
  5
11
330
3
100
AcDbSymbolTableRecord
100
AcDbTextStyleTableRecord
  2
Standard
 70
     0
 40
0.0
 41
1.0
 50
0.0
 71
     0
 42
0.2
  3
txt
  4

  0
ENDTAB
  0
TABLE
  2
VIEW
  5
6
330
0
100
AcDbSymbolTable
 70
     0
  0
ENDTAB
  0
TABLE
  2
UCS
  5
7
330
0
100
AcDbSymbolTable
 70
     0
  0
ENDTAB
  0
TABLE
  2
APPID
  5
9
330
0
100
AcDbSymbolTable
 70
     1
  0
APPID
  5
12
330
9
100
AcDbSymbolTableRecord
100
AcDbRegAppTableRecord
  2
ACAD
 70
     0
  0
ENDTAB
  0
TABLE
  2
DIMSTYLE
  5
A
330
0
100
AcDbSymbolTable
 70
     1
100
AcDbDimStyleTable
  0
DIMSTYLE
105
27
330
A
100
AcDbSymbolTableRecord
100
AcDbDimStyleTableRecord
  2
Standard
 70
     0
178
     0
340
11
  0
ENDTAB
  0
TABLE
  2
BLOCK_RECORD
  5
1
330
0
100
AcDbSymbolTable
 70
     7
  0
BLOCK_RECORD
  5
1F
330
1
100
AcDbSymbolTableRecord
100
AcDbBlockTableRecord
  2
*Model_Space
340
22
 70
     0
280
     1
281
     0
  0
BLOCK_RECORD
  5
1B
330
1
100
AcDbSymbolTableRecord
100
AcDbBlockTableRecord
  2
*Paper_Space
340
1E
 70
     0
280
     1
281
     0
  0
BLOCK_RECORD
  5
23
330
1
100
AcDbSymbolTableRecord
100
AcDbBlockTableRecord
  2
*Paper_Space0
340
26
 70
     0
280
     1
281
     0
  0
BLOCK_RECORD
  5
6E
330
1
100
AcDbSymbolTableRecord
100
AcDbBlockTableRecord
  2
1_070645_0
340
0
102
{BLKREFS
331
6F
102
}
 70
     0
280
     1
281
     0
  0
BLOCK_RECORD
  5
90
330
1
100
AcDbSymbolTableRecord
100
AcDbBlockTableRecord
  2
2_1_7_16_Disc_0_in_070645_0
340
0
102
{BLKREFS
331
91
102
}
 70
     0
280
     1
281
     0
  0
BLOCK_RECORD
  5
AA
330
1
100
AcDbSymbolTableRecord
100
AcDbBlockTableRecord
  2
3_1_7_16CS2i_0_in_070645_0
340
0
102
{BLKREFS
331
AB
102
}
 70
     0
280
     1
281
     0
  0
BLOCK_RECORD
  5
E8
330
1
100
AcDbSymbolTableRecord
100
AcDbBlockTableRecord
  2
4_070001i_0_in_070645_0
340
0
102
{BLKREFS
331
E9
102
}
 70
     0
280
     1
281
     0
  0
BLOCK_RECORD
  5
10D
330
1
100
AcDbSymbolTableRecord
100
AcDbBlockTableRecord
  2
5_405015E_Inch_0_in_070645_0
340
0
102
{BLKREFS
331
10E
102
}
 70
     0
280
     1
281
     0
  0
BLOCK_RECORD
  5
164
330
1
100
AcDbSymbolTableRecord
100
AcDbBlockTableRecord
  2
6_070645H_0_in_070645_0
340
0
102
{BLKREFS
331
165
102
}
 70
     0
280
     1
281
     0
  0
ENDTAB
  0
ENDSEC
  0
SECTION
  2
BLOCKS
  0
BLOCK
  5
20
330
1F
100
AcDbEntity
  8
0
100
AcDbBlockBegin
  2
*Model_Space
 70
     0
 10
0.0
 20
0.0
 30
0.0
  3
*Model_Space
  1

  0
ENDBLK
  5
21
330
1F
100
AcDbEntity
  8
0
100
AcDbBlockEnd
  0
BLOCK
  5
1C
330
1B
100
AcDbEntity
 67
     1
  8
0
100
AcDbBlockBegin
  2
*Paper_Space
 70
     0
 10
0.0
 20
0.0
 30
0.0
  3
*Paper_Space
  1

  0
ENDBLK
  5
1D
330
1B
100
AcDbEntity
 67
     1
  8
0
100
AcDbBlockEnd
  0
BLOCK
  5
24
330
23
100
AcDbEntity
  8
0
100
AcDbBlockBegin
  2
*Paper_Space0
 70
     0
 10
0.0
 20
0.0
 30
0.0
  3
*Paper_Space0
  1

  0
ENDBLK
  5
25
330
23
100
AcDbEntity
  8
0
100
AcDbBlockEnd
  0
BLOCK
  5
70
330
6E
100
AcDbEntity
  8
0
100
AcDbBlockBegin
  2
1_070645_0
 70
     2
 10
0.0
 20
0.0
 30
0.0
  3
1_070645_0
  1

  0
ATTDEF
  5
73
330
6E
100
AcDbEntity
  8
AM_6
100
AcDbText
 10
7.623144414636466
 20
2.622520209716116
 30
0.0
 40
0.5
  1
S-2000 Piloted Flange Trident Seal
100
AcDbAttributeDefinition
  3

  2
NN
 70
     8
280
     0
  0
ATTDEF
  5
74
330
6E
100
AcDbEntity
  8
AM_6
100
AcDbText
 10
7.623144414636466
 20
2.122520209716116
 30
0.0
 40
0.5
  1
S-2000 Piloted Flange Bearing -Inch
100
AcDbAttributeDefinition
  3

  2
NT
 70
     8
280
     0
  0
ATTDEF
  5
75
330
6E
100
AcDbEntity
  8
AM_6
100
AcDbText
 10
7.623144414636466
 20
1.622520209716116
 30
0.0
 40
0.5
  1
070645
100
AcDbAttributeDefinition
  3

  2
NB
 70
     8
280
     0
  0
ATTDEF
  5
76
330
6E
100
AcDbEntity
  8
AM_6
100
AcDbText
 10
7.623144414636466
 20
1.122520209716116
 30
0.0
 40
0.5
  1
$PN.
100
AcDbAttributeDefinition
  3

  2
NBSYN
 70
     8
280
     0
  0
ATTDEF
  5
77
330
6E
100
AcDbEntity
  8
AM_6
100
AcDbText
 10
7.623144414636466
 20
0.6225202097161162
 30
0.0
 40
0.5
  1
070645
100
AcDbAttributeDefinition
  3

  2
LINA
 70
     8
280
     0
  0
ATTDEF
  5
78
330
6E
100
AcDbEntity
  8
AM_6
100
AcDbText
 10
7.623144414636466
 20
0.1225202097161162
 30
0.0
 40
0.5
  1
1-7/16
100
AcDbAttributeDefinition
  3

  2
SS
 70
     8
280
     0
  0
ATTDEF
  5
79
330
6E
100
AcDbEntity
  8
AM_6
100
AcDbText
 10
7.623144414636466
 20
-0.3774797902838838
 30
0.0
 40
0.5
  1
070645
100
AcDbAttributeDefinition
  3

  2
PN
 70
     8
280
     0
  0
ATTDEF
  5
7A
330
6E
100
AcDbEntity
  8
AM_6
100
AcDbText
 10
7.623144414636466
 20
-0.8774797902838838
 30
0.0
 40
0.5
  1
FC-S2-107R
100
AcDbAttributeDefinition
  3

  2
DESCRIPTION
 70
     8
280
     0
  0
ATTDEF
  5
7B
330
6E
100
AcDbEntity
  8
AM_6
100
AcDbText
 10
7.623144414636466
 20
-1.377479790283884
 30
0.0
 40
0.5
  1
Non-Expansion Type
100
AcDbAttributeDefinition
  3

  2
EF
 70
     8
280
     0
  0
ATTDEF
  5
7C
330
6E
100
AcDbEntity
  8
AM_6
100
AcDbText
 10
7.623144414636466
 20
-1.877479790283884
 30
0.0
 40
0.5
  1
Contact Seal
100
AcDbAttributeDefinition
  3

  2
ST
 70
     8
280
     0
  0
ATTDEF
  5
7D
330
6E
100
AcDbEntity
  8
AM_6
100
AcDbText
 10
7.623144414636466
 20
-2.377479790283884
 30
0.0
 40
0.5
  1
2-17/32
100
AcDbAttributeDefinition
  3

  2
A
 70
     8
280
     0
  0
ATTDEF
  5
7E
330
6E
100
AcDbEntity
  8
AM_6
100
AcDbText
 10
7.623144414636466
 20
-2.877479790283884
 30
0.0
 40
0.5
  1
5-1/4
100
AcDbAttributeDefinition
  3

  2
B
 70
     8
280
     0
  0
ATTDEF
  5
7F
330
6E
100
AcDbEntity
  8
AM_6
100
AcDbText
 10
7.623144414636466
 20
-3.377479790283884
 30
0.0
 40
0.5
  1
1-27/32
100
AcDbAttributeDefinition
  3

  2
C
 70
     8
280
     0
  0
ATTDEF
  5
80
330
6E
100
AcDbEntity
  8
AM_6
100
AcDbText
 10
7.623144414636466
 20
-3.877479790283884
 30
0.0
 40
0.5
  1
3-3/32
100
AcDbAttributeDefinition
  3

  2
D
 70
     8
280
     0
  0
ATTDEF
  5
81
330
6E
100
AcDbEntity
  8
AM_6
100
AcDbText
 10
7.623144414636466
 20
-4.377479790283884
 30
0.0
 40
0.5
  1
4-3/8
100
AcDbAttributeDefinition
  3

  2
DD
 70
     8
280
     0
  0
ATTDEF
  5
82
330
6E
100
AcDbEntity
  8
AM_6
100
AcDbText
 10
7.623144414636466
 20
-4.877479790283884
 30
0.0
 40
0.5
  1
3/4
100
AcDbAttributeDefinition
  3

  2
E
 70
     8
280
     0
  0
ATTDEF
  5
83
330
6E
100
AcDbEntity
  8
AM_6
100
AcDbText
 10
7.623144414636466
 20
-5.377479790283884
 30
0.0
 40
0.5
  1
3/8
100
AcDbAttributeDefinition
  3

  2
F
 70
     8
280
     0
  0
ATTDEF
  5
84
330
6E
100
AcDbEntity
  8
AM_6
100
AcDbText
 10
7.623144414636466
 20
-5.877479790283884
 30
0.0
 40
0.5
  1
1-5/16
100
AcDbAttributeDefinition
  3

  2
G
 70
     8
280
     0
  0
ATTDEF
  5
85
330
6E
100
AcDbEntity
  8
AM_6
100
AcDbText
 10
7.623144414636466
 20
-6.377479790283884
 30
0.0
 40
0.5
  1
1/2
100
AcDbAttributeDefinition
  3

  2
H
 70
     8
280
     0
  0
ATTDEF
  5
86
330
6E
100
AcDbEntity
  8
AM_6
100
AcDbText
 10
7.623144414636466
 20
-6.877479790283884
 30
0.0
 40
0.5
  1
3.625
100
AcDbAttributeDefinition
  3

  2
K
 70
     8
280
     0
  0
ATTDEF
  5
87
330
6E
100
AcDbEntity
  8
AM_6
100
AcDbText
 10
7.623144414636466
 20
-7.377479790283884
 30
0.0
 40
0.5
  1
2-3/4
100
AcDbAttributeDefinition
  3

  2
L
 70
     8
280
     0
  0
ATTDEF
  5
88
330
6E
100
AcDbEntity
  8
AM_6
100
AcDbText
 10
7.623144414636466
 20
-7.877479790283884
 30
0.0
 40
0.5
  1
3/8-16
100
AcDbAttributeDefinition
  3

  2
M
 70
     8
280
     0
  0
ATTDEF
  5
89
330
6E
100
AcDbEntity
  8
AM_6
100
AcDbText
 10
7.623144414636466
 20
-8.377479790283884
 30
0.0
 40
0.5
  1
2-17/32
100
AcDbAttributeDefinition
  3

  2
N
 70
     8
280
     0
  0
ATTDEF
  5
8A
330
6E
100
AcDbEntity
  8
AM_6
100
AcDbText
 10
7.623144414636466
 20
-8.877479790283884
 30
0.0
 40
0.5
  1
1-7/32
100
AcDbAttributeDefinition
  3

  2
P
 70
     8
280
     0
  0
ATTDEF
  5
8B
330
6E
100
AcDbEntity
  8
AM_6
100
AcDbText
 10
7.623144414636466
 20
-9.377479790283884
 30
0.0
 40
0.5
  1
1-7/32
100
AcDbAttributeDefinition
  3

  2
Q
 70
     8
280
     0
  0
ATTDEF
  5
8C
330
6E
100
AcDbEntity
  8
AM_6
100
AcDbText
 10
7.623144414636466
 20
-9.877479790283884
 30
0.0
 40
0.5
  1
3/16
100
AcDbAttributeDefinition
  3

  2
X
 70
     8
280
     0
  0
ATTDEF
  5
8D
330
6E
100
AcDbEntity
  8
AM_6
100
AcDbText
 10
7.623144414636466
 20
-10.37747979028388
 30
0.0
 40
0.5
  1
0.020
100
AcDbAttributeDefinition
  3

  2
Y
 70
     8
280
     0
  0
ATTDEF
  5
8E
330
6E
100
AcDbEntity
  8
AM_6
100
AcDbText
 10
7.623144414636466
 20
-10.87747979028388
 30
0.0
 40
0.5
  1
1-51/64
100
AcDbAttributeDefinition
  3

  2
Z
 70
     8
280
     0
  0
ATTDEF
  5
8F
330
6E
100
AcDbEntity
  8
AM_6
100
AcDbText
 10
7.623144414636466
 20
-11.37747979028388
 30
0.0
 40
0.5
  1
baldor
100
AcDbAttributeDefinition
  3

  2
COMPANY
 70
     8
280
     0
  0
INSERT
  5
91
330
6E
100
AcDbEntity
  8
0
100
AcDbBlockReference
  2
2_1_7_16_Disc_0_in_070645_0
 10
0.0
 20
0.0
 30
0.0
  0
INSERT
  5
AB
330
6E
100
AcDbEntity
  8
0
100
AcDbBlockReference
  2
3_1_7_16CS2i_0_in_070645_0
 10
0.0
 20
0.0
 30
0.0
  0
INSERT
  5
E9
330
6E
100
AcDbEntity
  8
0
100
AcDbBlockReference
  2
4_070001i_0_in_070645_0
 10
0.0
 20
0.0
 30
0.0
  0
INSERT
  5
10E
330
6E
100
AcDbEntity
  8
0
100
AcDbBlockReference
  2
5_405015E_Inch_0_in_070645_0
 10
0.0
 20
0.0
 30
0.0
  0
INSERT
  5
165
330
6E
100
AcDbEntity
  8
0
100
AcDbBlockReference
  2
6_070645H_0_in_070645_0
 10
0.0
 20
0.0
 30
0.0
  0
ENDBLK
  5
71
330
6E
100
AcDbEntity
  8
0
100
AcDbBlockEnd
  0
BLOCK
  5
92
330
90
100
AcDbEntity
  8
0
100
AcDbBlockBegin
  2
2_1_7_16_Disc_0_in_070645_0
 70
     2
 10
0.0
 20
0.0
 30
0.0
  3
2_1_7_16_Disc_0_in_070645_0
  1

  0
ATTDEF
  5
94
330
90
100
AcDbEntity
  8
AM_6
100
AcDbText
 10
6.481050000000001
 20
1.48105
 30
0.0
 40
0.5
  1
S-2000 -Disc -Inch
100
AcDbAttributeDefinition
  3

  2
NN
 70
     8
280
     0
  0
ATTDEF
  5
95
330
90
100
AcDbEntity
  8
AM_6
100
AcDbText
 10
6.481050000000001
 20
0.9810500000000004
 30
0.0
 40
0.5
  1
S-2000 Bearings
100
AcDbAttributeDefinition
  3

  2
NT
 70
     8
280
     0
  0
ATTDEF
  5
96
330
90
100
AcDbEntity
  8
AM_6
100
AcDbText
 10
6.481050000000001
 20
0.4810500000000004
 30
0.0
 40
0.5
  1
1-7/16-Disc
100
AcDbAttributeDefinition
  3

  2
NB
 70
     8
280
     0
  0
ATTDEF
  5
97
330
90
100
AcDbEntity
  8
AM_6
100
AcDbText
 10
6.481050000000001
 20
-0.0189499999999996
 30
0.0
 40
0.5
  1
$SS.-Disc
100
AcDbAttributeDefinition
  3

  2
NBSYN
 70
     8
280
     0
  0
ATTDEF
  5
98
330
90
100
AcDbEntity
  8
AM_6
100
AcDbText
 10
6.481050000000001
 20
-0.5189499999999996
 30
0.0
 40
0.5
  1
1-7/16-Disc
100
AcDbAttributeDefinition
  3

  2
LINA
 70
     8
280
     0
  0
ATTDEF
  5
99
330
90
100
AcDbEntity
  8
AM_6
100
AcDbText
 10
6.481050000000001
 20
-1.01895
 30
0.0
 40
0.5
  1
1-7/16
100
AcDbAttributeDefinition
  3

  2
SS
 70
     8
280
     0
  0
ATTDEF
  5
9A
330
90
100
AcDbEntity
  8
AM_6
100
AcDbText
 10
6.481050000000001
 20
-1.51895
 30
0.0
 40
0.5
  1
1.75
100
AcDbAttributeDefinition
  3

  2
CC
 70
     8
280
     0
  0
ATTDEF
  5
9B
330
90
100
AcDbEntity
  8
AM_6
100
AcDbText
 10
6.481050000000001
 20
-2.018949999999999
 30
0.0
 40
0.5
  1
0.35
100
AcDbAttributeDefinition
  3

  2
CSD
 70
     8
280
     0
  0
ATTDEF
  5
9C
330
90
100
AcDbEntity
  8
AM_6
100
AcDbText
 10
6.481050000000001
 20
-2.518949999999999
 30
0.0
 40
0.5
  1
1.437500
100
AcDbAttributeDefinition
  3

  2
SS1
 70
     8
280
     0
  0
ATTDEF
  5
9D
330
90
100
AcDbEntity
  8
AM_6
100
AcDbText
 10
6.481050000000001
 20
-3.018949999999999
 30
0.0
 40
0.5
  1
3.1496
100
AcDbAttributeDefinition
  3

  2
A
 70
     8
280
     0
  0
ATTDEF
  5
9E
330
90
100
AcDbEntity
  8
AM_6
100
AcDbText
 10
6.481050000000001
 20
-3.518949999999999
 30
0.0
 40
0.5
  1
61/64
100
AcDbAttributeDefinition
  3

  2
B
 70
     8
280
     0
  0
ATTDEF
  5
9F
330
90
100
AcDbEntity
  8
AM_6
100
AcDbText
 10
6.481050000000001
 20
-4.018949999999999
 30
0.0
 40
0.5
  1
0.953125
100
AcDbAttributeDefinition
  3

  2
B1
 70
     8
280
     0
  0
ATTDEF
  5
A0
330
90
100
AcDbEntity
  8
AM_6
100
AcDbText
 10
6.481050000000001
 20
-4.518949999999999
 30
0.0
 40
0.5
  1
2-17/32
100
AcDbAttributeDefinition
  3

  2
C
 70
     8
280
     0
  0
ATTDEF
  5
A1
330
90
100
AcDbEntity
  8
AM_6
100
AcDbText
 10
6.481050000000001
 20
-5.018949999999999
 30
0.0
 40
0.5
  1
2.531250
100
AcDbAttributeDefinition
  3

  2
C1
 70
     8
280
     0
  0
ATTDEF
  5
A2
330
90
100
AcDbEntity
  8
AM_6
100
AcDbText
 10
6.481050000000001
 20
-5.518949999999999
 30
0.0
 40
0.5
  1
0.970
100
AcDbAttributeDefinition
  3

  2
D
 70
     8
280
     0
  0
ATTDEF
  5
A3
330
90
100
AcDbEntity
  8
AM_6
100
AcDbText
 10
6.481050000000001
 20
-6.018949999999999
 30
0.0
 40
0.5
  1
2-21/32
100
AcDbAttributeDefinition
  3

  2
E
 70
     8
280
     0
  0
ATTDEF
  5
A4
330
90
100
AcDbEntity
  8
AM_6
100
AcDbText
 10
6.481050000000001
 20
-6.518949999999999
 30
0.0
 40
0.5
  1
2.656250
100
AcDbAttributeDefinition
  3

  2
E1
 70
     8
280
     0
  0
ATTDEF
  5
A5
330
90
100
AcDbEntity
  8
AM_6
100
AcDbText
 10
6.481050000000001
 20
-7.018949999999999
 30
0.0
 40
0.5
  1
0.286
100
AcDbAttributeDefinition
  3

  2
F
 70
     8
280
     0
  0
ATTDEF
  5
A6
330
90
100
AcDbEntity
  8
AM_6
100
AcDbText
 10
6.481050000000001
 20
-7.518949999999999
 30
0.0
 40
0.5
  1
baldor
100
AcDbAttributeDefinition
  3

  2
COMPANY
 70
     8
280
     0
  0
CIRCLE
  5
A9
330
90
100
AcDbEntity
  8
AM_9
100
AcDbCircle
 10
0.0
 20
0.0
 30
0.0
 40
1.48105
  0
ENDBLK
  5
93
330
90
100
AcDbEntity
  8
0
100
AcDbBlockEnd
  0
BLOCK
  5
AC
330
AA
100
AcDbEntity
  8
0
100
AcDbBlockBegin
  2
3_1_7_16CS2i_0_in_070645_0
 70
     2
 10
0.0
 20
0.0
 30
0.0
  3
3_1_7_16CS2i_0_in_070645_0
  1

  0
ATTDEF
  5
AE
330
AA
100
AcDbEntity
  8
AM_6
100
AcDbText
 10
6.374781221263771
 20
1.374963543381437
 30
0.0
 40
0.5
  1
S-2000 Collar -Inch
100
AcDbAttributeDefinition
  3

  2
NN
 70
     8
280
     0
  0
ATTDEF
  5
AF
330
AA
100
AcDbEntity
  8
AM_6
100
AcDbText
 10
6.374781221263771
 20
0.8749635433814367
 30
0.0
 40
0.5
  1
S-2000 Bearings
100
AcDbAttributeDefinition
  3

  2
NT
 70
     8
280
     0
  0
ATTDEF
  5
B0
330
AA
100
AcDbEntity
  8
AM_6
100
AcDbText
 10
6.374781221263771
 20
0.3749635433814367
 30
0.0
 40
0.5
  1
1-7/16CS2i
100
AcDbAttributeDefinition
  3

  2
NB
 70
     8
280
     0
  0
ATTDEF
  5
B1
330
AA
100
AcDbEntity
  8
AM_6
100
AcDbText
 10
6.374781221263771
 20
-0.1250364566185633
 30
0.0
 40
0.5
  1
$BORE.CS2i
100
AcDbAttributeDefinition
  3

  2
NBSYN
 70
     8
280
     0
  0
ATTDEF
  5
B2
330
AA
100
AcDbEntity
  8
AM_6
100
AcDbText
 10
6.374781221263771
 20
-0.6250364566185633
 30
0.0
 40
0.5
  1
1-7/16CS2i
100
AcDbAttributeDefinition
  3

  2
LINA
 70
     8
280
     0
  0
ATTDEF
  5
B3
330
AA
100
AcDbEntity
  8
AM_6
100
AcDbText
 10
6.374781221263771
 20
-1.125036456618563
 30
0.0
 40
0.5
  1
1-7/16
100
AcDbAttributeDefinition
  3

  2
BORE
 70
     8
280
     0
  0
ATTDEF
  5
B4
330
AA
100
AcDbEntity
  8
AM_6
100
AcDbText
 10
6.374781221263771
 20
-1.625036456618563
 30
0.0
 40
0.5
  1
1.437500
100
AcDbAttributeDefinition
  3

  2
BORE1
 70
     8
280
     0
  0
ATTDEF
  5
B5
330
AA
100
AcDbEntity
  8
AM_6
100
AcDbText
 10
6.374781221263771
 20
-2.125036456618563
 30
0.0
 40
0.5
  1
2-3/4
100
AcDbAttributeDefinition
  3

  2
L1
 70
     8
280
     0
  0
ATTDEF
  5
B6
330
AA
100
AcDbEntity
  8
AM_6
100
AcDbText
 10
6.374781221263771
 20
-2.625036456618563
 30
0.0
 40
0.5
  1
2.75000
100
AcDbAttributeDefinition
  3

  2
L
 70
     8
280
     0
  0
ATTDEF
  5
B7
330
AA
100
AcDbEntity
  8
AM_6
100
AcDbText
 10
6.374781221263771
 20
-3.125036456618563
 30
0.0
 40
0.5
  1
2.65625
100
AcDbAttributeDefinition
  3

  2
L2
 70
     8
280
     0
  0
ATTDEF
  5
B8
330
AA
100
AcDbEntity
  8
AM_6
100
AcDbText
 10
6.374781221263771
 20
-3.625036456618563
 30
0.0
 40
0.5
  1
3.00
100
AcDbAttributeDefinition
  3

  2
A
 70
     8
280
     0
  0
ATTDEF
  5
B9
330
AA
100
AcDbEntity
  8
AM_6
100
AcDbText
 10
6.374781221263771
 20
-4.125036456618563
 30
0.0
 40
0.5
  1
1.25
100
AcDbAttributeDefinition
  3

  2
B
 70
     8
280
     0
  0
ATTDEF
  5
BA
330
AA
100
AcDbEntity
  8
AM_6
100
AcDbText
 10
6.374781221263771
 20
-4.625036456618563
 30
0.0
 40
0.5
  1
1.75
100
AcDbAttributeDefinition
  3

  2
C
 70
     8
280
     0
  0
ATTDEF
  5
BB
330
AA
100
AcDbEntity
  8
AM_6
100
AcDbText
 10
6.374781221263771
 20
-5.125036456618563
 30
0.0
 40
0.5
  1
2.81
100
AcDbAttributeDefinition
  3

  2
D
 70
     8
280
     0
  0
ATTDEF
  5
BC
330
AA
100
AcDbEntity
  8
AM_6
100
AcDbText
 10
6.374781221263771
 20
-5.625036456618563
 30
0.0
 40
0.5
  1
0.35
100
AcDbAttributeDefinition
  3

  2
E
 70
     8
280
     0
  0
ATTDEF
  5
BD
330
AA
100
AcDbEntity
  8
AM_6
100
AcDbText
 10
6.374781221263771
 20
-6.125036456618563
 30
0.0
 40
0.5
  1
0.286
100
AcDbAttributeDefinition
  3

  2
F
 70
     8
280
     0
  0
ATTDEF
  5
BE
330
AA
100
AcDbEntity
  8
AM_6
100
AcDbText
 10
6.374781221263771
 20
-6.625036456618563
 30
0.0
 40
0.5
  1
5/16-18
100
AcDbAttributeDefinition
  3

  2
CS
 70
     8
280
     0
  0
ATTDEF
  5
BF
330
AA
100
AcDbEntity
  8
AM_6
100
AcDbText
 10
6.374781221263771
 20
-7.125036456618563
 30
0.0
 40
0.5
  1
0.3125
100
AcDbAttributeDefinition
  3

  2
NDM
 70
     8
280
     0
  0
ATTDEF
  5
C0
330
AA
100
AcDbEntity
  8
AM_6
100
AcDbText
 10
6.374781221263771
 20
-7.625036456618563
 30
0.0
 40
0.5
  1
0.2520
100
AcDbAttributeDefinition
  3

  2
KDM
 70
     8
280
     0
  0
ATTDEF
  5
C1
330
AA
100
AcDbEntity
  8
AM_6
100
AcDbText
 10
6.374781221263771
 20
-8.125036456618563
 30
0.0
 40
0.5
  1
1
100
AcDbAttributeDefinition
  3

  2
DD
 70
     8
280
     0
  0
ATTDEF
  5
C2
330
AA
100
AcDbEntity
  8
AM_6
100
AcDbText
 10
6.374781221263771
 20
-8.625036456618563
 30
0.0
 40
0.5
  1
baldor
100
AcDbAttributeDefinition
  3

  2
COMPANY
 70
     8
280
     0
  0
LINE
  5
C3
330
AA
100
AcDbEntity
  8
AM_9
100
AcDbLine
 10
0.1262
 20
0.8842166666666609
 30
0.0
 11
0.1262
 21
1.322115568180407
 31
0.0
  0
LINE
  5
C4
330
AA
100
AcDbEntity
  8
AM_9
100
AcDbLine
 10
-0.1262
 20
1.322115568180407
 30
0.0
 11
-0.1262
 21
0.8842166666666609
 31
0.0
  0
LINE
  5
C5
330
AA
100
AcDbEntity
  8
AM_9
100
AcDbLine
 10
0.8547068750592607
 20
0.2593100679447944
 30
0.0
 11
1.251578059435964
 21
0.4443741405206955
 31
0.0
  0
LINE
  5
C6
330
AA
100
AcDbEntity
  8
AM_9
100
AcDbLine
 10
1.144909210172611
 20
0.673126225968746
 30
0.0
 11
0.7480380257959083
 21
0.4880621533928448
 31
0.0
  0
LINE
  5
C7
330
AA
100
AcDbEntity
  8
AM_9
100
AcDbLine
 10
-0.1262
 20
0.8842166666666609
 30
0.0
 11
0.1262
 21
0.8842166666666609
 31
0.0
  0
LINE
  5
C8
330
AA
100
AcDbEntity
  8
AM_9
100
AcDbLine
 10
-0.1262
 20
0.8842166666666609
 30
0.0
 11
-0.1479733631918634
 21
0.8624433034748016
 31
0.0
  0
LINE
  5
C9
330
AA
100
AcDbEntity
  8
AM_9
100
AcDbLine
 10
0.1477817019798408
 20
0.8626349646868241
 30
0.0
 11
0.1262
 21
0.8842166666666609
 31
0.0
  0
LINE
  5
CA
330
AA
100
AcDbEntity
  8
AM_9
100
AcDbLine
 10
0.7480380257959082
 20
0.4880621533928448
 30
0.0
 11
0.8547068750592609
 21
0.2593100679447943
 31
0.0
  0
LINE
  5
CB
330
AA
100
AcDbEntity
  8
AM_9
100
AcDbLine
 10
0.7480380257959082
 20
0.4880621533928448
 30
0.0
 11
0.7194147268975049
 21
0.4984801821983714
 31
0.0
  0
LINE
  5
CC
330
AA
100
AcDbEntity
  8
AM_9
100
AcDbLine
 10
0.8442456215342964
 20
0.2305680101057559
 30
0.0
 11
0.8547068750592609
 21
0.2593100679447943
 31
0.0
  0
LINE
  5
CE
330
AA
100
AcDbEntity
  8
AM_5
100
AcDbLine
 10
-0.15625
 20
1.318901798135479
 30
0.0
 11
-0.15625
 21
0.8609360821222444
 31
0.0
  0
LINE
  5
CF
330
AA
100
AcDbEntity
  8
AM_5
100
AcDbLine
 10
-0.078125
 20
0.8541666666666666
 30
0.0
 11
-0.15625
 21
0.8541666666666666
 31
0.0
  0
LINE
  5
D0
330
AA
100
AcDbEntity
  8
AM_5
100
AcDbLine
 10
0.15625
 20
1.318901798135479
 30
0.0
 11
0.15625
 21
0.8609360821222444
 31
0.0
  0
LINE
  5
D1
330
AA
100
AcDbEntity
  8
AM_5
100
AcDbLine
 10
0.078125
 20
0.8541666666666666
 30
0.0
 11
0.15625
 21
0.8541666666666666
 31
0.0
  0
LINE
  5
D2
330
AA
100
AcDbEntity
  8
AM_5
100
AcDbLine
 10
1.261365073383809
 20
0.4157813936102223
 30
0.0
 11
0.8463071787651992
 21
0.2222367187718743
 31
0.0
  0
LINE
  5
D3
330
AA
100
AcDbEntity
  8
AM_5
100
AcDbLine
 10
0.8071549531256307
 20
0.2901811360412757
 30
0.0
 11
0.8401720048241229
 21
0.2193758401790374
 31
0.0
  0
LINE
  5
D4
330
AA
100
AcDbEntity
  8
AM_5
100
AcDbLine
 10
1.12929686658984
 20
0.6990025770591756
 30
0.0
 11
0.7142389719712304
 21
0.5054579022208273
 31
0.0
  0
LINE
  5
D5
330
AA
100
AcDbEntity
  8
AM_5
100
AcDbLine
 10
0.7411208497286466
 20
0.4317917277657523
 30
0.0
 11
0.7081037980301543
 21
0.5025970236279905
 31
0.0
  0
ARC
  5
D7
330
AA
100
AcDbEntity
  8
AM_4
100
AcDbCircle
 10
0.0000000000000001
 20
-0.0000000000000002
 30
0.0
 40
1.375
100
AcDbArc
 50
96.18897677146306
 51
18.81102322853696
  0
ARC
  5
D8
330
AA
100
AcDbEntity
  8
AM_4
100
AcDbCircle
 10
0.0000000000000007
 20
0.0000000000000012
 30
0.0
 40
1.374999999999999
100
AcDbArc
 50
31.18897677146305
 51
83.81102322853698
  0
LWPOLYLINE
  5
D9
330
AA
100
AcDbEntity
  8
AM_4
100
AcDbPolyline
 90
       20
 70
     0
 43
0.0
 10
-0.1482361201500411
 20
1.366986120150041
 10
-0.1470729124633054
 20
1.367111757838239
 10
-0.1435272678807329
 20
1.367488545975684
 10
-0.1349071611276211
 20
1.368365834810445
 10
-0.1216536395559408
 20
1.369607751140009
 10
-0.1051740788061588
 20
1.3709717039922
 10
-0.0846605728749428
 20
1.372391193282909
 10
-0.0629456271430199
 20
1.373558461814994
 10
-0.0384496724713533
 20
1.374462303115966
 10
-0.0148128453016497
 20
1.374920208453592
 10
0.0100127105203584
 20
1.374963543381437
 10
0.0330079054838706
 20
1.374603753150546
 10
0.0557160680211961
 20
1.373870707077001
 10
0.0764451586983132
 20
1.372873314516525
 10
0.0956384975152395
 20
1.371669886595542
 10
0.1125112614412572
 20
1.370389074696999
 10
0.126716966669634
 20
1.369148571323816
 10
0.1377086384026034
 20
1.368086741003399
 10
0.1450079466451511
 20
1.367332328078934
 10
0.148236120150041
 20
1.366986120150041
  0
LINE
  5
DA
330
AA
100
AcDbEntity
  8
AM_4
100
AcDbLine
 10
-0.1262
 20
1.34495
 30
0.0
 11
-0.1482361201500411
 21
1.366986120150041
 31
0.0
  0
LINE
  5
DB
330
AA
100
AcDbEntity
  8
AM_4
100
AcDbLine
 10
0.148236120150041
 20
1.366986120150041
 30
0.0
 11
0.1262
 21
1.34495
 31
0.0
  0
LWPOLYLINE
  5
DC
330
AA
100
AcDbEntity
  8
AM_4
100
AcDbPolyline
 90
       20
 70
     0
 43
0.0
 10
1.176262874038004
 20
0.7120608479335562
 10
1.176868333263775
 20
0.7110597205305221
 10
1.178708273437042
 20
0.7080055127829642
 10
1.183146381671485
 20
0.7005638011899226
 10
1.189873120360383
 20
0.689076887904278
 10
1.198073844769797
 20
0.6747177650532961
 10
1.20802972118644
 20
0.6567261169850118
 10
1.218264758365651
 20
0.6375390015711062
 10
1.229436354557986
 20
0.6157201069407842
 10
1.239840712542727
 20
0.5944913855738717
 10
1.250371720573527
 20
0.5720101051467508
 10
1.25976382920944
 20
0.5510173269649237
 10
1.268696348023578
 20
0.530126943770674
 10
1.276552895648716
 20
0.5109184911616327
 10
1.283573675040601
 20
0.4930148281165235
 10
1.289543603404397
 20
0.4771816162833635
 10
1.294422915987854
 20
0.4637826156352803
 10
1.29810585210136
 20
0.4533720290668613
 10
1.300506942754651
 20
0.4464377804878872
 10
1.301557456887996
 20
0.4433657479093907
  0
LINE
  5
DD
330
AA
100
AcDbEntity
  8
AM_4
100
AcDbLine
 10
1.165604233543266
 20
0.682776473852179
 30
0.0
 11
1.176262874038004
 21
0.7120608479335562
 31
0.0
  0
LINE
  5
DE
330
AA
100
AcDbEntity
  8
AM_4
100
AcDbLine
 10
1.301557456887996
 20
0.4433657479093907
 30
0.0
 11
1.272273082806619
 21
0.4540243884041286
 31
0.0
  0
LINE
  5
DF
330
AA
100
AcDbEntity
  8
AM_4
100
AcDbLine
 10
0.1262
 20
1.34495
 30
0.0
 11
0.1262
 21
1.322115568180407
 31
0.0
  0
LINE
  5
E0
330
AA
100
AcDbEntity
  8
AM_4
100
AcDbLine
 10
0.1262
 20
1.34495
 30
0.0
 11
-0.1262
 21
1.34495
 31
0.0
  0
LINE
  5
E1
330
AA
100
AcDbEntity
  8
AM_4
100
AcDbLine
 10
-0.1262
 20
1.322115568180407
 30
0.0
 11
-0.1262
 21
1.34495
 31
0.0
  0
LINE
  5
E2
330
AA
100
AcDbEntity
  8
AM_4
100
AcDbLine
 10
1.272273082806619
 20
0.4540243884041286
 30
0.0
 11
1.251578059435964
 21
0.4443741405206955
 31
0.0
  0
LINE
  5
E3
330
AA
100
AcDbEntity
  8
AM_4
100
AcDbLine
 10
1.272273082806619
 20
0.4540243884041286
 30
0.0
 11
1.165604233543266
 21
0.682776473852179
 31
0.0
  0
LINE
  5
E4
330
AA
100
AcDbEntity
  8
AM_4
100
AcDbLine
 10
1.144909210172611
 20
0.673126225968746
 30
0.0
 11
1.165604233543266
 21
0.682776473852179
 31
0.0
  0
CIRCLE
  5
E5
330
AA
100
AcDbEntity
  8
AM_4
100
AcDbCircle
 10
0.0
 20
0.0
 30
0.0
 40
0.875
  0
CIRCLE
  5
E6
330
AA
100
AcDbEntity
  8
AM_4
100
AcDbCircle
 10
0.0
 20
0.0
 30
0.0
 40
1.232791666666667
  0
CIRCLE
  5
E7
330
AA
100
AcDbEntity
  8
AM_4
100
AcDbCircle
 10
0.0000000000000001
 20
0.0000000000000001
 30
0.0
 40
1.328125
  0
ENDBLK
  5
AD
330
AA
100
AcDbEntity
  8
0
100
AcDbBlockEnd
  0
BLOCK
  5
EA
330
E8
100
AcDbEntity
  8
0
100
AcDbBlockBegin
  2
4_070001i_0_in_070645_0
 70
     2
 10
0.0
 20
0.0
 30
0.0
  3
4_070001i_0_in_070645_0
  1

  0
ATTDEF
  5
EC
330
E8
100
AcDbEntity
  8
AM_6
100
AcDbText
 10
6.511808
 20
1.511808
 30
0.0
 40
0.5
  1
S-2000 Insert -Inch
100
AcDbAttributeDefinition
  3

  2
NN
 70
     8
280
     0
  0
ATTDEF
  5
ED
330
E8
100
AcDbEntity
  8
AM_6
100
AcDbText
 10
6.511808
 20
1.011808
 30
0.0
 40
0.5
  1
S-2000 Bearings
100
AcDbAttributeDefinition
  3

  2
NT
 70
     8
280
     0
  0
ATTDEF
  5
EE
330
E8
100
AcDbEntity
  8
AM_6
100
AcDbText
 10
6.511808
 20
0.511808
 30
0.0
 40
0.5
  1
070001i
100
AcDbAttributeDefinition
  3

  2
NB
 70
     8
280
     0
  0
ATTDEF
  5
EF
330
E8
100
AcDbEntity
  8
AM_6
100
AcDbText
 10
6.511808
 20
0.011808
 30
0.0
 40
0.5
  1
$PN.i
100
AcDbAttributeDefinition
  3

  2
NBSYN
 70
     8
280
     0
  0
ATTDEF
  5
F0
330
E8
100
AcDbEntity
  8
AM_6
100
AcDbText
 10
6.511808
 20
-0.488192
 30
0.0
 40
0.5
  1
070001i
100
AcDbAttributeDefinition
  3

  2
LINA
 70
     8
280
     0
  0
ATTDEF
  5
F1
330
E8
100
AcDbEntity
  8
AM_6
100
AcDbText
 10
6.511808
 20
-0.988192
 30
0.0
 40
0.5
  1
1-7/16
100
AcDbAttributeDefinition
  3

  2
SS
 70
     8
280
     0
  0
ATTDEF
  5
F2
330
E8
100
AcDbEntity
  8
AM_6
100
AcDbText
 10
6.511808
 20
-1.488192
 30
0.0
 40
0.5
  1
1.75
100
AcDbAttributeDefinition
  3

  2
CC
 70
     8
280
     0
  0
ATTDEF
  5
F3
330
E8
100
AcDbEntity
  8
AM_6
100
AcDbText
 10
6.511808
 20
-1.988192
 30
0.0
 40
0.5
  1
1.437500
100
AcDbAttributeDefinition
  3

  2
SS1
 70
     8
280
     0
  0
ATTDEF
  5
F4
330
E8
100
AcDbEntity
  8
AM_6
100
AcDbText
 10
6.511808
 20
-2.488192
 30
0.0
 40
0.5
  1
070001
100
AcDbAttributeDefinition
  3

  2
PN
 70
     8
280
     0
  0
ATTDEF
  5
F5
330
E8
100
AcDbEntity
  8
AM_6
100
AcDbText
 10
6.511808
 20
-2.988192
 30
0.0
 40
0.5
  1
INS-S2-107R
100
AcDbAttributeDefinition
  3

  2
DESCRIPTION
 70
     8
280
     0
  0
ATTDEF
  5
F6
330
E8
100
AcDbEntity
  8
AM_6
100
AcDbText
 10
6.511808
 20
-3.488192
 30
0.0
 40
0.5
  1
Contact Seal
100
AcDbAttributeDefinition
  3

  2
ST
 70
     8
280
     0
  0
ATTDEF
  5
F7
330
E8
100
AcDbEntity
  8
AM_6
100
AcDbText
 10
6.511808
 20
-3.988192
 30
0.0
 40
0.5
  1
1
100
AcDbAttributeDefinition
  3

  2
ST1
 70
     8
280
     0
  0
ATTDEF
  5
F8
330
E8
100
AcDbEntity
  8
AM_6
100
AcDbText
 10
6.511808
 20
-4.488192
 30
0.0
 40
0.5
  1
3.1496
100
AcDbAttributeDefinition
  3

  2
A
 70
     8
280
     0
  0
ATTDEF
  5
F9
330
E8
100
AcDbEntity
  8
AM_6
100
AcDbText
 10
6.511808
 20
-4.988192
 30
0.0
 40
0.5
  1
61/64
100
AcDbAttributeDefinition
  3

  2
B
 70
     8
280
     0
  0
ATTDEF
  5
FA
330
E8
100
AcDbEntity
  8
AM_6
100
AcDbText
 10
6.511808
 20
-5.488192
 30
0.0
 40
0.5
  1
2-17/32
100
AcDbAttributeDefinition
  3

  2
C
 70
     8
280
     0
  0
ATTDEF
  5
FB
330
E8
100
AcDbEntity
  8
AM_6
100
AcDbText
 10
6.511808
 20
-5.988192
 30
0.0
 40
0.5
  1
0.970
100
AcDbAttributeDefinition
  3

  2
D
 70
     8
280
     0
  0
ATTDEF
  5
FC
330
E8
100
AcDbEntity
  8
AM_6
100
AcDbText
 10
6.511808
 20
-6.488192
 30
0.0
 40
0.5
  1
2-21/32
100
AcDbAttributeDefinition
  3

  2
E
 70
     8
280
     0
  0
ATTDEF
  5
FD
330
E8
100
AcDbEntity
  8
AM_6
100
AcDbText
 10
6.511808
 20
-6.988192
 30
0.0
 40
0.5
  1
0.28125
100
AcDbAttributeDefinition
  3

  2
F
 70
     8
280
     0
  0
ATTDEF
  5
FE
330
E8
100
AcDbEntity
  8
AM_6
100
AcDbText
 10
6.511808
 20
-7.488192
 30
0.0
 40
0.5
  1
1
100
AcDbAttributeDefinition
  3

  2
DD
 70
     8
280
     0
  0
ATTDEF
  5
FF
330
E8
100
AcDbEntity
  8
AM_6
100
AcDbText
 10
6.511808
 20
-7.988192
 30
0.0
 40
0.5
  1
baldor
100
AcDbAttributeDefinition
  3

  2
COMPANY
 70
     8
280
     0
  0
CIRCLE
  5
100
330
E8
100
AcDbEntity
  8
AM_9
100
AcDbCircle
 10
0.0
 20
0.0
 30
0.0
 40
1.511808
  0
CIRCLE
  5
101
330
E8
100
AcDbEntity
  8
AM_9
100
AcDbCircle
 10
0.0
 20
0.0
 30
0.0
 40
1.25984
  0
CIRCLE
  5
102
330
E8
100
AcDbEntity
  8
AM_9
100
AcDbCircle
 10
0.0
 20
0.0
 30
0.0
 40
1.1645275
  0
LINE
  5
103
330
E8
100
AcDbEntity
  8
AM_9
100
AcDbLine
 10
0.7031191444953069
 20
0.5209609774919887
 30
0.0
 11
0.5579269588393947
 21
0.4532567494163744
 31
0.0
  0
LINE
  5
104
330
E8
100
AcDbEntity
  8
AM_9
100
AcDbLine
 10
0.7057636545785458
 20
0.136011861158999
 30
0.0
 11
0.8509552656574009
 21
0.2037158213049313
 31
0.0
  0
LINE
  5
105
330
E8
100
AcDbEntity
  8
AM_9
100
AcDbLine
 10
-0.175
 20
0.857409978613044
 30
0.0
 11
-0.175
 21
0.6972081269544077
 31
0.0
  0
LINE
  5
106
330
E8
100
AcDbEntity
  8
AM_9
100
AcDbLine
 10
0.175
 20
0.697120192291114
 30
0.0
 11
0.1749999999999999
 21
0.8573214099741124
 31
0.0
  0
LINE
  5
109
330
E8
100
AcDbEntity
  8
AM_7
100
AcDbLine
 10
-0.0406676571106189
 20
-0.0189636399499032
 30
0.0
 11
1.269774972462806
 21
0.5921057937929591
 31
0.0
  0
CIRCLE
  5
10A
330
E8
100
AcDbEntity
  8
AM_4
100
AcDbCircle
 10
0.0
 20
0.0
 30
0.0
 40
1.4794875
  0
CIRCLE
  5
10B
330
E8
100
AcDbEntity
  8
AM_4
100
AcDbCircle
 10
0.0
 20
0.0
 30
0.0
 40
0.875
  0
CIRCLE
  5
10C
330
E8
100
AcDbEntity
  8
AM_4
100
AcDbCircle
 10
0.0
 20
0.0
 30
0.0
 40
0.7187499999999998
  0
ENDBLK
  5
EB
330
E8
100
AcDbEntity
  8
0
100
AcDbBlockEnd
  0
BLOCK
  5
10F
330
10D
100
AcDbEntity
  8
0
100
AcDbBlockBegin
  2
5_405015E_Inch_0_in_070645_0
 70
     2
 10
0.0
 20
0.0
 30
0.0
  3
5_405015E_Inch_0_in_070645_0
  1

  0
ATTDEF
  5
111
330
10D
100
AcDbEntity
  8
AM_6
100
AcDbText
 10
5.252590742770462
 20
2.166421671481425
 30
0.0
 40
0.5
  1
405015E -Inch
100
AcDbAttributeDefinition
  3

  2
NN
 70
     8
280
     0
  0
ATTDEF
  5
112
330
10D
100
AcDbEntity
  8
AM_6
100
AcDbText
 10
5.252590742770462
 20
1.666421671481425
 30
0.0
 40
0.5
  1
Grease Fitting
100
AcDbAttributeDefinition
  3

  2
NT
 70
     8
280
     0
  0
ATTDEF
  5
113
330
10D
100
AcDbEntity
  8
AM_6
100
AcDbText
 10
5.252590742770462
 20
1.166421671481425
 30
0.0
 40
0.5
  1
405015E-Inch
100
AcDbAttributeDefinition
  3

  2
NB
 70
     8
280
     0
  0
ATTDEF
  5
114
330
10D
100
AcDbEntity
  8
AM_6
100
AcDbText
 10
5.252590742770462
 20
0.6664216714814253
 30
0.0
 40
0.5
  1
$MN.-Inch
100
AcDbAttributeDefinition
  3

  2
NBSYN
 70
     8
280
     0
  0
ATTDEF
  5
115
330
10D
100
AcDbEntity
  8
AM_6
100
AcDbText
 10
5.252590742770462
 20
0.1664216714814253
 30
0.0
 40
0.5
  1
405015E
100
AcDbAttributeDefinition
  3

  2
LINA
 70
     8
280
     0
  0
ATTDEF
  5
116
330
10D
100
AcDbEntity
  8
AM_6
100
AcDbText
 10
5.252590742770462
 20
-0.3335783285185747
 30
0.0
 40
0.5
  1
405015E
100
AcDbAttributeDefinition
  3

  2
MN
 70
     8
280
     0
  0
ATTDEF
  5
117
330
10D
100
AcDbEntity
  8
AM_6
100
AcDbText
 10
5.252590742770462
 20
-0.8335783285185747
 30
0.0
 40
0.5
  1
1/8 x 27PTF
100
AcDbAttributeDefinition
  3

  2
T
 70
     8
280
     0
  0
ATTDEF
  5
118
330
10D
100
AcDbEntity
  8
AM_6
100
AcDbText
 10
5.252590742770462
 20
-1.333578328518575
 30
0.0
 40
0.5
  1
baldor
100
AcDbAttributeDefinition
  3

  2
COMPANY
 70
     8
280
     0
  0
ELLIPSE
  5
119
330
10D
100
AcDbEntity
  8
AM_9
100
AcDbEllipse
 10
0.0
 20
1.7575
 30
0.0
 11
-0.161902872472269
 21
1.982738345459263E-17
 31
0.0
210
0.0
220
0.0
230
1.0
 40
0.8660254037844383
 41
0.0
 42
6.283185307179586
  0
ELLIPSE
  5
11A
330
10D
100
AcDbEntity
  8
AM_9
100
AcDbEllipse
 10
-0.0000000000000002
 20
1.89
 30
0.0
 11
0.21875
 21
0.0
 31
0.0
210
0.0
220
0.0
230
1.0
 40
0.8660254037844382
 41
1.570796326794897
 42
2.617993877991493
  0
LWPOLYLINE
  5
11B
330
10D
100
AcDbEntity
  8
AM_9
100
AcDbPolyline
 90
        3
 70
     0
 43
0.0
 10
-0.1894430570778459
 20
1.984721528538923
 10
-0.1578692142315383
 20
2.033278983200902
 10
-0.1262953713852306
 20
2.083976856926153
  0
LINE
  5
11C
330
10D
100
AcDbEntity
  8
AM_9
100
AcDbLine
 10
-0.0210976335426353
 20
2.079579046601663
 30
0.0
 11
0.0
 21
2.079443057077845
 31
0.0
  0
LWPOLYLINE
  5
11D
330
10D
100
AcDbEntity
  8
AM_9
100
AcDbPolyline
 90
        4
 70
     0
 43
0.0
 10
-0.1262953713852306
 20
2.083976856926153
 10
-0.0967996321117978
 20
2.082184263336768
 10
-0.0485424412477544
 20
2.080155971199382
 10
-0.0210976335426353
 20
2.079579046601663
  0
ELLIPSE
  5
11E
330
10D
100
AcDbEntity
  8
AM_9
100
AcDbEllipse
 10
0.0000000000000002
 20
1.89
 30
0.0
 11
0.21875
 21
0.0
 31
0.0
210
0.0
220
0.0
230
1.0
 40
0.8660254037844382
 41
0.5235987755983
 42
1.570796326794897
  0
LWPOLYLINE
  5
11F
330
10D
100
AcDbEntity
  8
AM_9
100
AcDbPolyline
 90
        3
 70
     0
 43
0.0
 10
0.1262953713852306
 20
2.083976856926153
 10
0.1577272497321276
 20
2.03350250203231
 10
0.1894430570778459
 20
1.984721528538923
  0
LWPOLYLINE
  5
120
330
10D
100
AcDbEntity
  8
AM_9
100
AcDbPolyline
 90
        3
 70
     0
 43
0.0
 10
0.0
 20
2.079443057077845
 10
0.0631476856926153
 20
2.080639747470363
 10
0.1262953713852306
 20
2.083976856926153
  0
LINE
  5
121
330
10D
100
AcDbEntity
  8
AM_9
100
AcDbLine
 10
-0.1262953713852306
 20
2.124909257229538
 30
0.0
 11
-0.1262953713852306
 21
2.083976856926153
 31
0.0
  0
LINE
  5
122
330
10D
100
AcDbEntity
  8
AM_9
100
AcDbLine
 10
0.1262953713852306
 20
2.124909257229538
 30
0.0
 11
0.1262953713852306
 21
2.083976856926153
 31
0.0
  0
LWPOLYLINE
  5
123
330
10D
100
AcDbEntity
  8
AM_9
100
AcDbPolyline
 90
        3
 70
     0
 43
0.0
 10
0.0
 20
2.129443057077846
 10
-0.0483998160558989
 20
2.128734276719277
 10
-0.0876643906215056
 20
2.127177270281705
  0
LWPOLYLINE
  5
124
330
10D
100
AcDbEntity
  8
AM_9
100
AcDbPolyline
 90
        3
 70
     0
 43
0.0
 10
0.0878491423263088
 20
2.127168054366515
 10
0.0634316146914367
 20
2.128235794603035
 10
0.0
 20
2.129443057077846
  0
ELLIPSE
  5
125
330
10D
100
AcDbEntity
  8
AM_9
100
AcDbEllipse
 10
0.0
 20
1.89
 30
0.0
 11
0.21875
 21
0.0
 31
0.0
210
0.0
220
0.0
230
1.0
 40
0.866025403784439
 41
4.71238898038469
 42
6.806784082777884
  0
LWPOLYLINE
  5
126
330
10D
100
AcDbEntity
  8
AM_9
100
AcDbPolyline
 90
        3
 70
     0
 43
0.0
 10
0.1894430570778459
 20
1.984721528538923
 10
0.2210168999241536
 20
1.938557454661979
 10
0.2525907427704612
 20
1.894533799848307
  0
ELLIPSE
  5
127
330
10D
100
AcDbEntity
  8
AM_9
100
AcDbEllipse
 10
0.0
 20
1.89
 30
0.0
 11
0.21875
 21
0.0
 31
0.0
210
0.0
220
0.0
230
1.0
 40
0.866025403784438
 41
2.617993877991496
 42
3.665191429188094
  0
LWPOLYLINE
  5
128
330
10D
100
AcDbEntity
  8
AM_9
100
AcDbPolyline
 90
        3
 70
     0
 43
0.0
 10
-0.2525907427704612
 20
1.894533799848307
 10
-0.2211588644235643
 20
1.938355079995155
 10
-0.1894430570778459
 20
1.984721528538923
  0
LINE
  5
129
330
10D
100
AcDbEntity
  8
AM_9
100
AcDbLine
 10
0.1983264404626879
 20
1.766546710626154
 30
0.0
 11
0.2054502516015135
 21
1.88035489783229
 31
0.0
  0
LINE
  5
12A
330
10D
100
AcDbEntity
  8
AM_9
100
AcDbLine
 10
-0.2054502516015135
 20
1.88035489783229
 30
0.0
 11
-0.1983264404626879
 21
1.766546710626154
 31
0.0
  0
ELLIPSE
  5
12B
330
10D
100
AcDbEntity
  8
AM_9
100
AcDbEllipse
 10
-0.0000000000000003
 20
1.889999999999999
 30
0.0
 11
0.2187499999999996
 21
0.0
 31
0.0
210
0.0
220
0.0
230
1.0
 40
0.8660254037844387
 41
3.665191429188091
 42
4.71238898038469
  0
ELLIPSE
  5
12C
330
10D
100
AcDbEntity
  8
AM_9
100
AcDbEllipse
 10
0.0000000000000001
 20
1.939999999999999
 30
0.0
 11
0.2187499999999989
 21
3.259629011154160E-9
 31
0.0
210
0.0
220
0.0
230
1.0
 40
0.8660254037844461
 41
1.032970315581404
 42
1.570796313890112
  0
ELLIPSE
  5
12D
330
10D
100
AcDbEntity
  8
AM_9
100
AcDbEllipse
 10
-0.0000000000000001
 20
1.939999999999999
 30
0.0
 11
0.218749999999999
 21
0.0
 31
0.0
210
0.0
220
0.0
230
1.0
 40
0.8660254037844458
 41
1.570796326794897
 42
2.108622323974777
  0
ELLIPSE
  5
12E
330
10D
100
AcDbEntity
  8
AM_9
100
AcDbEllipse
 10
0.0
 20
1.94
 30
0.0
 11
0.213749999999999
 21
0.0
 31
0.0
210
0.0
220
0.0
230
1.0
 40
0.866025403784442
 41
0.9862868522353248
 42
2.155305801354468
  0
ELLIPSE
  5
12F
330
10D
100
AcDbEntity
  8
AM_9
100
AcDbEllipse
 10
0.0
 20
1.949159099270441
 30
0.0
 11
0.172534053283015
 21
0.0
 31
0.0
210
0.0
220
0.0
230
1.0
 40
0.8660254037844397
 41
0.6732704101475218
 42
2.468322243442271
  0
ELLIPSE
  5
130
330
10D
100
AcDbEntity
  8
AM_9
100
AcDbEllipse
 10
0.0000000000000007
 20
1.976376560809286
 30
0.0
 11
0.1188200907348968
 21
0.0
 31
0.0
210
0.0
220
0.0
230
1.0
 40
0.8660254037844397
 41
0.0521714424105886
 42
2.305085124374393
  0
LINE
  5
131
330
10D
100
AcDbEntity
  8
AM_9
100
AcDbLine
 10
-0.0703562363973515
 20
2.06
 30
0.0
 11
-0.079616518023802
 21
2.052760904853149
 31
0.0
  0
LINE
  5
132
330
10D
100
AcDbEntity
  8
AM_9
100
AcDbLine
 10
0.079616518023802
 20
2.052760904853149
 30
0.0
 11
0.0703562363973515
 21
2.06
 31
0.0
  0
ELLIPSE
  5
133
330
10D
100
AcDbEntity
  8
AM_9
100
AcDbEllipse
 10
-0.0000000000000007
 20
1.976376560809286
 30
0.0
 11
0.1188200907348968
 21
0.0
 31
0.0
210
0.0
220
0.0
230
1.0
 40
0.8660254037844394
 41
2.305085124374382
 42
3.089421211179207
  0
LINE
  5
134
330
10D
100
AcDbEntity
  8
AM_9
100
AcDbLine
 10
0.105
 20
1.9925
 30
0.0
 11
0.105
 21
2.0075
 31
0.0
  0
LINE
  5
135
330
10D
100
AcDbEntity
  8
AM_9
100
AcDbLine
 10
-0.105
 20
2.0075
 30
0.0
 11
-0.105
 21
1.9925
 31
0.0
  0
ELLIPSE
  5
136
330
10D
100
AcDbEntity
  8
AM_9
100
AcDbEllipse
 10
0.0000000000000004
 20
2.0075
 30
0.0
 11
0.1050000000000004
 21
0.0
 31
0.0
210
0.0
220
0.0
230
1.0
 40
0.8660254037844372
 41
0.0
 42
4.188790204786387
  0
ELLIPSE
  5
137
330
10D
100
AcDbEntity
  8
AM_9
100
AcDbEllipse
 10
-0.000000000000001
 20
1.992500000000002
 30
0.0
 11
0.105000000000001
 21
0.0
 31
0.0
210
0.0
220
0.0
230
1.0
 40
0.866025403784441
 41
5.858105981271261
 42
9.42477796076938
  0
ELLIPSE
  5
138
330
10D
100
AcDbEntity
  8
AM_9
100
AcDbEllipse
 10
0.0000000000000005
 20
1.992500000000002
 30
0.0
 11
0.1050000000000006
 21
0.0
 31
0.0
210
0.0
220
0.0
230
1.0
 40
0.8660254037844447
 41
3.141592653589793
 42
3.566671979498119
  0
ELLIPSE
  5
139
330
10D
100
AcDbEntity
  8
AM_9
100
AcDbEllipse
 10
-0.0000000000000004
 20
2.0075
 30
0.0
 11
0.1050000000000005
 21
0.0
 31
0.0
210
0.0
220
0.0
230
1.0
 40
0.8660254037844368
 41
5.235987755982991
 42
6.283185307179586
  0
ELLIPSE
  5
13A
330
10D
100
AcDbEntity
  8
AM_9
100
AcDbEllipse
 10
0.0
 20
2.0375
 30
0.0
 11
0.1350000000000001
 21
0.0
 31
0.0
210
0.0
220
0.0
230
1.0
 40
0.8660254037844374
 41
0.7751090107151226
 42
2.366483642874671
  0
ELLIPSE
  5
13B
330
10D
100
AcDbEntity
  8
AM_9
100
AcDbEllipse
 10
0.0
 20
1.89
 30
0.0
 11
0.2057518972230696
 21
0.0
 31
0.0
210
0.0
220
0.0
230
1.0
 40
0.8660254037844407
 41
0.0
 42
6.283185307179586
  0
ELLIPSE
  5
13C
330
10D
100
AcDbEntity
  8
AM_9
100
AcDbEllipse
 10
0.0
 20
1.775857377154473
 30
0.0
 11
0.1986176267812153
 21
0.0
 31
0.0
210
0.0
220
0.0
230
1.0
 40
0.8660254037844437
 41
0.0
 42
6.283185307179586
  0
LWPOLYLINE
  5
13D
330
10D
100
AcDbEntity
  8
AM_4
100
AcDbPolyline
 90
        3
 70
     0
 43
0.0
 10
-0.1262953713852306
 20
2.124909257229538
 10
-0.1577272497321276
 20
2.08108797708269
 10
-0.1894430570778459
 20
2.034721528538923
  0
LINE
  5
13E
330
10D
100
AcDbEntity
  8
AM_4
100
AcDbLine
 10
-0.0876643906215056
 20
2.127177270281705
 30
0.0
 11
-0.1262953713852306
 21
2.124909257229538
 31
0.0
  0
LWPOLYLINE
  5
13F
330
10D
100
AcDbEntity
  8
AM_4
100
AcDbPolyline
 90
        3
 70
     0
 43
0.0
 10
0.1894430570778459
 20
2.034721528538923
 10
0.1578692142315383
 20
2.080885602415867
 10
0.1262953713852306
 20
2.124909257229538
  0
LINE
  5
140
330
10D
100
AcDbEntity
  8
AM_4
100
AcDbLine
 10
0.1262953713852306
 20
2.124909257229538
 30
0.0
 11
0.0878491423263088
 21
2.127168054366515
 31
0.0
  0
LWPOLYLINE
  5
141
330
10D
100
AcDbEntity
  8
AM_4
100
AcDbPolyline
 90
        3
 70
     0
 43
0.0
 10
0.2525907427704612
 20
1.935466200151692
 10
0.2211588644235643
 20
1.985940555045535
 10
0.1894430570778459
 20
2.034721528538923
  0
LWPOLYLINE
  5
142
330
10D
100
AcDbEntity
  8
AM_4
100
AcDbPolyline
 90
        3
 70
     0
 43
0.0
 10
-0.1894430570778459
 20
2.034721528538923
 10
-0.2210168999241536
 20
1.986164073876944
 10
-0.2525907427704612
 20
1.935466200151692
  0
LWPOLYLINE
  5
143
330
10D
100
AcDbEntity
  8
AM_4
100
AcDbPolyline
 90
        3
 70
     0
 43
0.0
 10
-0.2525907427704612
 20
1.935466200151692
 10
-0.2211588644235643
 20
1.891644920004844
 10
-0.1894430570778459
 20
1.845278471461077
  0
LINE
  5
144
330
10D
100
AcDbEntity
  8
AM_4
100
AcDbLine
 10
-0.2525907427704612
 20
1.935466200151692
 30
0.0
 11
-0.2525907427704612
 21
1.894533799848307
 31
0.0
  0
LWPOLYLINE
  5
145
330
10D
100
AcDbEntity
  8
AM_4
100
AcDbPolyline
 90
        3
 70
     0
 43
0.0
 10
-0.1894430570778459
 20
1.795278471461077
 10
-0.2210168999241536
 20
1.843835926123056
 10
-0.2525907427704612
 20
1.894533799848307
  0
LWPOLYLINE
  5
146
330
10D
100
AcDbEntity
  8
AM_4
100
AcDbPolyline
 90
        3
 70
     0
 43
0.0
 10
-0.1262953713852306
 20
1.705090742770461
 10
-0.1577272497321276
 20
1.748912022917309
 10
-0.1894430570778459
 20
1.795278471461077
  0
LINE
  5
147
330
10D
100
AcDbEntity
  8
AM_4
100
AcDbLine
 10
0.2525907427704612
 20
1.935466200151692
 30
0.0
 11
0.2525907427704612
 21
1.894533799848307
 31
0.0
  0
LWPOLYLINE
  5
148
330
10D
100
AcDbEntity
  8
AM_4
100
AcDbPolyline
 90
        3
 70
     0
 43
0.0
 10
0.1894430570778459
 20
1.845278471461077
 10
0.2210168999241535
 20
1.891442545338021
 10
0.2525907427704612
 20
1.935466200151692
  0
LWPOLYLINE
  5
149
330
10D
100
AcDbEntity
  8
AM_4
100
AcDbPolyline
 90
        3
 70
     0
 43
0.0
 10
0.1894430570778459
 20
1.795278471461077
 10
0.1578692142315383
 20
1.749114397584133
 10
0.1262953713852306
 20
1.705090742770461
  0
LWPOLYLINE
  5
14A
330
10D
100
AcDbEntity
  8
AM_4
100
AcDbPolyline
 90
        3
 70
     0
 43
0.0
 10
0.2525907427704612
 20
1.894533799848307
 10
0.2211588644235643
 20
1.844059444954464
 10
0.1894430570778459
 20
1.795278471461077
  0
ELLIPSE
  5
14B
330
10D
100
AcDbEntity
  8
AM_4
100
AcDbEllipse
 10
0.0
 20
1.94
 30
0.0
 11
0.2187499999999998
 21
0.0
 31
0.0
210
0.0
220
0.0
230
1.0
 40
0.8660254037844377
 41
0.5235987755982991
 42
1.032970329615019
  0
ELLIPSE
  5
14C
330
10D
100
AcDbEntity
  8
AM_4
100
AcDbEllipse
 10
0.0
 20
1.94
 30
0.0
 11
0.2187499999999999
 21
0.0
 31
0.0
210
0.0
220
0.0
230
1.0
 40
0.8660254037844395
 41
2.108622323974776
 42
2.617993877991495
  0
ELLIPSE
  5
14D
330
10D
100
AcDbEntity
  8
AM_4
100
AcDbEllipse
 10
0.0
 20
1.94
 30
0.0
 11
0.21875
 21
0.0
 31
0.0
210
0.0
220
0.0
230
1.0
 40
0.866025403784438
 41
2.617993877991495
 42
3.665191429188093
  0
ELLIPSE
  5
14E
330
10D
100
AcDbEntity
  8
AM_4
100
AcDbEllipse
 10
-0.0000000000000004
 20
1.939999999999999
 30
0.0
 11
0.2187499999999992
 21
0.0
 31
0.0
210
0.0
220
0.0
230
1.0
 40
0.866025403784437
 41
3.665191429188091
 42
6.806784082777888
  0
LWPOLYLINE
  5
14F
330
10D
100
AcDbEntity
  8
AM_4
100
AcDbPolyline
 90
        3
 70
     0
 43
0.0
 10
-0.1894430570778459
 20
1.845278471461077
 10
-0.1578692142315383
 20
1.796721016799098
 10
-0.1262953713852306
 20
1.746023143073847
  0
LINE
  5
150
330
10D
100
AcDbEntity
  8
AM_4
100
AcDbLine
 10
0.1262953713852306
 20
1.746023143073847
 30
0.0
 11
0.1262953713852306
 21
1.705090742770461
 31
0.0
  0
LWPOLYLINE
  5
151
330
10D
100
AcDbEntity
  8
AM_4
100
AcDbPolyline
 90
        4
 70
     0
 43
0.0
 10
-0.1262953713852306
 20
1.746023143073847
 10
-0.0967996321117978
 20
1.747815736663232
 10
-0.0485424412477544
 20
1.749844028800618
 10
0.0
 20
1.750556942922154
  0
LINE
  5
152
330
10D
100
AcDbEntity
  8
AM_4
100
AcDbLine
 10
-0.1262953713852306
 20
1.746023143073847
 30
0.0
 11
-0.1262953713852306
 21
1.705090742770461
 31
0.0
  0
LWPOLYLINE
  5
153
330
10D
100
AcDbEntity
  8
AM_4
100
AcDbPolyline
 90
        4
 70
     0
 43
0.0
 10
0.0
 20
1.700556942922154
 10
-0.0483998160558989
 20
1.701265723280723
 10
-0.0967996321117978
 20
1.703298149181076
 10
-0.1262953713852306
 20
1.705090742770461
  0
LWPOLYLINE
  5
154
330
10D
100
AcDbEntity
  8
AM_4
100
AcDbPolyline
 90
        3
 70
     0
 43
0.0
 10
0.1262953713852306
 20
1.705090742770461
 10
0.0634316146914367
 20
1.701764205396964
 10
0.0
 20
1.700556942922154
  0
LWPOLYLINE
  5
155
330
10D
100
AcDbEntity
  8
AM_4
100
AcDbPolyline
 90
        3
 70
     0
 43
0.0
 10
0.0
 20
1.750556942922154
 10
0.0631476856926153
 20
1.749360252529637
 10
0.1262953713852306
 20
1.746023143073847
  0
LWPOLYLINE
  5
156
330
10D
100
AcDbEntity
  8
AM_4
100
AcDbPolyline
 90
        3
 70
     0
 43
0.0
 10
0.1262953713852306
 20
1.746023143073847
 10
0.1577272497321276
 20
1.796497497967689
 10
0.1894430570778459
 20
1.845278471461077
  0
ELLIPSE
  5
157
330
10D
100
AcDbEntity
  8
AM_4
100
AcDbEllipse
 10
0.0000000000000001
 20
1.94
 30
0.0
 11
0.2137499999999999
 21
0.0
 31
0.0
210
0.0
220
0.0
230
1.0
 40
0.8660254037844395
 41
2.155305801354465
 42
6.283185307179586
  0
ELLIPSE
  5
158
330
10D
100
AcDbEntity
  8
AM_4
100
AcDbEllipse
 10
0.0000000000000001
 20
1.94
 30
0.0
 11
0.2137499999999999
 21
3.185123205184936E-9
 31
0.0
210
0.0
220
0.0
230
1.0
 40
0.866025403784438
 41
0.0000017304280906
 42
0.9862868380208264
  0
ELLIPSE
  5
159
330
10D
100
AcDbEntity
  8
AM_4
100
AcDbEllipse
 10
0.0
 20
1.949159099270441
 30
0.0
 11
0.1725340532830152
 21
0.0
 31
0.0
210
0.0
220
0.0
230
1.0
 40
0.8660254037844385
 41
2.468322243442268
 42
6.956455717327112
  0
ELLIPSE
  5
15A
330
10D
100
AcDbEntity
  8
AM_4
100
AcDbEllipse
 10
0.0000000000000559
 20
1.976376560809217
 30
0.0
 11
0.1188200907348416
 21
0.0
 31
0.0
210
0.0
220
0.0
230
1.0
 40
0.8660254037844478
 41
3.089421211178575
 42
6.335356749590858
  0
ELLIPSE
  5
15B
330
10D
100
AcDbEntity
  8
AM_4
100
AcDbEllipse
 10
0.0
 20
1.9925
 30
0.0
 11
0.105
 21
0.0
 31
0.0
210
0.0
220
0.0
230
1.0
 40
0.8660254037844404
 41
3.5666719794981
 42
5.858105981271279
  0
LINE
  5
15C
330
10D
100
AcDbEntity
  8
AM_4
100
AcDbLine
 10
0.0525
 20
1.92875
 30
0.0
 11
0.0675000000000001
 21
1.93625
 31
0.0
  0
LINE
  5
15D
330
10D
100
AcDbEntity
  8
AM_4
100
AcDbLine
 10
-0.0675000000000001
 20
1.93625
 30
0.0
 11
-0.0525
 21
1.92875
 31
0.0
  0
ELLIPSE
  5
15E
330
10D
100
AcDbEntity
  8
AM_4
100
AcDbEllipse
 10
0.0
 20
2.0075
 30
0.0
 11
0.1050000000000006
 21
0.0
 31
0.0
210
0.0
220
0.0
230
1.0
 40
0.8660254037844318
 41
4.188790204786393
 42
5.235987755982985
  0
ELLIPSE
  5
15F
330
10D
100
AcDbEntity
  8
AM_4
100
AcDbEllipse
 10
0.0000000000000024
 20
2.077499999999999
 30
0.0
 11
0.102677901933185
 21
0.0
 31
0.0
210
0.0
220
0.0
230
1.0
 40
0.8660254037844434
 41
0.0
 42
2.366483642874689
  0
ELLIPSE
  5
160
330
10D
100
AcDbEntity
  8
AM_4
100
AcDbEllipse
 10
-0.0000000000000001
 20
2.037499999999999
 30
0.0
 11
0.135
 21
0.0
 31
0.0
210
0.0
220
0.0
230
1.0
 40
0.8660254037844412
 41
2.366483642874671
 42
7.058294317894708
  0
LINE
  5
161
330
10D
100
AcDbEntity
  8
AM_4
100
AcDbLine
 10
-0.0733474205218687
 20
2.139726847792107
 30
0.0
 11
-0.0964365416902991
 21
2.119315310731619
 31
0.0
  0
LINE
  5
162
330
10D
100
AcDbEntity
  8
AM_4
100
AcDbLine
 10
0.0964365416902991
 20
2.119315310731619
 30
0.0
 11
0.0733474205218687
 21
2.139726847792107
 31
0.0
  0
ELLIPSE
  5
163
330
10D
100
AcDbEntity
  8
AM_4
100
AcDbEllipse
 10
0.0000000000000002
 20
2.0775
 30
0.0
 11
0.1026779019331873
 21
0.0
 31
0.0
210
0.0
220
0.0
230
1.0
 40
0.8660254037844375
 41
2.366483642874676
 42
6.283185307179586
  0
ENDBLK
  5
110
330
10D
100
AcDbEntity
  8
0
100
AcDbBlockEnd
  0
BLOCK
  5
166
330
164
100
AcDbEntity
  8
0
100
AcDbBlockBegin
  2
6_070645H_0_in_070645_0
 70
     2
 10
0.0
 20
0.0
 30
0.0
  3
6_070645H_0_in_070645_0
  1

  0
ATTDEF
  5
168
330
164
100
AcDbEntity
  8
AM_6
100
AcDbText
 10
7.623144414636466
 20
2.622520209716116
 30
0.0
 40
0.5
  1
FC-S2 -(Contact Seal)-Housing
100
AcDbAttributeDefinition
  3

  2
NN
 70
     8
280
     0
  0
ATTDEF
  5
169
330
164
100
AcDbEntity
  8
AM_6
100
AcDbText
 10
7.623144414636466
 20
2.122520209716116
 30
0.0
 40
0.5
  1
S-2000 Piloted Flange Bearing -Inch
100
AcDbAttributeDefinition
  3

  2
NT
 70
     8
280
     0
  0
ATTDEF
  5
16A
330
164
100
AcDbEntity
  8
AM_6
100
AcDbText
 10
7.623144414636466
 20
1.622520209716116
 30
0.0
 40
0.5
  1
070645H
100
AcDbAttributeDefinition
  3

  2
NB
 70
     8
280
     0
  0
ATTDEF
  5
16B
330
164
100
AcDbEntity
  8
AM_6
100
AcDbText
 10
7.623144414636466
 20
1.122520209716116
 30
0.0
 40
0.5
  1
$PN.H
100
AcDbAttributeDefinition
  3

  2
NBSYN
 70
     8
280
     0
  0
ATTDEF
  5
16C
330
164
100
AcDbEntity
  8
AM_6
100
AcDbText
 10
7.623144414636466
 20
0.6225202097161162
 30
0.0
 40
0.5
  1
070645
100
AcDbAttributeDefinition
  3

  2
LINA
 70
     8
280
     0
  0
ATTDEF
  5
16D
330
164
100
AcDbEntity
  8
AM_6
100
AcDbText
 10
7.623144414636466
 20
0.1225202097161162
 30
0.0
 40
0.5
  1
1-7/16
100
AcDbAttributeDefinition
  3

  2
SS
 70
     8
280
     0
  0
ATTDEF
  5
16E
330
164
100
AcDbEntity
  8
AM_6
100
AcDbText
 10
7.623144414636466
 20
-0.3774797902838838
 30
0.0
 40
0.5
  1
070645
100
AcDbAttributeDefinition
  3

  2
PN
 70
     8
280
     0
  0
ATTDEF
  5
16F
330
164
100
AcDbEntity
  8
AM_6
100
AcDbText
 10
7.623144414636466
 20
-0.8774797902838838
 30
0.0
 40
0.5
  1
FC-S2-107R
100
AcDbAttributeDefinition
  3

  2
DESCRIPTION
 70
     8
280
     0
  0
ATTDEF
  5
170
330
164
100
AcDbEntity
  8
AM_6
100
AcDbText
 10
7.623144414636466
 20
-1.377479790283884
 30
0.0
 40
0.5
  1
Non-Expansion Type
100
AcDbAttributeDefinition
  3

  2
EF
 70
     8
280
     0
  0
ATTDEF
  5
171
330
164
100
AcDbEntity
  8
AM_6
100
AcDbText
 10
7.623144414636466
 20
-1.877479790283884
 30
0.0
 40
0.5
  1
2-17/32
100
AcDbAttributeDefinition
  3

  2
A
 70
     8
280
     0
  0
ATTDEF
  5
172
330
164
100
AcDbEntity
  8
AM_6
100
AcDbText
 10
7.623144414636466
 20
-2.377479790283884
 30
0.0
 40
0.5
  1
5-1/4
100
AcDbAttributeDefinition
  3

  2
B
 70
     8
280
     0
  0
ATTDEF
  5
173
330
164
100
AcDbEntity
  8
AM_6
100
AcDbText
 10
7.623144414636466
 20
-2.877479790283884
 30
0.0
 40
0.5
  1
1-27/32
100
AcDbAttributeDefinition
  3

  2
C
 70
     8
280
     0
  0
ATTDEF
  5
174
330
164
100
AcDbEntity
  8
AM_6
100
AcDbText
 10
7.623144414636466
 20
-3.377479790283884
 30
0.0
 40
0.5
  1
4-3/8
100
AcDbAttributeDefinition
  3

  2
DD
 70
     8
280
     0
  0
ATTDEF
  5
175
330
164
100
AcDbEntity
  8
AM_6
100
AcDbText
 10
7.623144414636466
 20
-3.877479790283884
 30
0.0
 40
0.5
  1
3/4
100
AcDbAttributeDefinition
  3

  2
E
 70
     8
280
     0
  0
ATTDEF
  5
176
330
164
100
AcDbEntity
  8
AM_6
100
AcDbText
 10
7.623144414636466
 20
-4.377479790283884
 30
0.0
 40
0.5
  1
3/8
100
AcDbAttributeDefinition
  3

  2
F
 70
     8
280
     0
  0
ATTDEF
  5
177
330
164
100
AcDbEntity
  8
AM_6
100
AcDbText
 10
7.623144414636466
 20
-4.877479790283884
 30
0.0
 40
0.5
  1
1-5/16
100
AcDbAttributeDefinition
  3

  2
G
 70
     8
280
     0
  0
ATTDEF
  5
178
330
164
100
AcDbEntity
  8
AM_6
100
AcDbText
 10
7.623144414636466
 20
-5.377479790283884
 30
0.0
 40
0.5
  1
1/2
100
AcDbAttributeDefinition
  3

  2
H
 70
     8
280
     0
  0
ATTDEF
  5
179
330
164
100
AcDbEntity
  8
AM_6
100
AcDbText
 10
7.623144414636466
 20
-5.877479790283884
 30
0.0
 40
0.5
  1
3.625
100
AcDbAttributeDefinition
  3

  2
K
 70
     8
280
     0
  0
ATTDEF
  5
17A
330
164
100
AcDbEntity
  8
AM_6
100
AcDbText
 10
7.623144414636466
 20
-6.377479790283884
 30
0.0
 40
0.5
  1
2-3/4
100
AcDbAttributeDefinition
  3

  2
L
 70
     8
280
     0
  0
ATTDEF
  5
17B
330
164
100
AcDbEntity
  8
AM_6
100
AcDbText
 10
7.623144414636466
 20
-6.877479790283884
 30
0.0
 40
0.5
  1
3/8-16
100
AcDbAttributeDefinition
  3

  2
M
 70
     8
280
     0
  0
ATTDEF
  5
17C
330
164
100
AcDbEntity
  8
AM_6
100
AcDbText
 10
7.623144414636466
 20
-7.377479790283884
 30
0.0
 40
0.5
  1
0.3750
100
AcDbAttributeDefinition
  3

  2
MNDM
 70
     8
280
     0
  0
ATTDEF
  5
17D
330
164
100
AcDbEntity
  8
AM_6
100
AcDbText
 10
7.623144414636466
 20
-7.877479790283884
 30
0.0
 40
0.5
  1
0.3299
100
AcDbAttributeDefinition
  3

  2
MKDM
 70
     8
280
     0
  0
ATTDEF
  5
17E
330
164
100
AcDbEntity
  8
AM_6
100
AcDbText
 10
7.623144414636466
 20
-8.377479790283884
 30
0.0
 40
0.5
  1
2-17/32
100
AcDbAttributeDefinition
  3

  2
N
 70
     8
280
     0
  0
ATTDEF
  5
17F
330
164
100
AcDbEntity
  8
AM_6
100
AcDbText
 10
7.623144414636466
 20
-8.877479790283884
 30
0.0
 40
0.5
  1
2.531250
100
AcDbAttributeDefinition
  3

  2
N1
 70
     8
280
     0
  0
ATTDEF
  5
180
330
164
100
AcDbEntity
  8
AM_6
100
AcDbText
 10
7.623144414636466
 20
-9.377479790283884
 30
0.0
 40
0.5
  1
1-7/32
100
AcDbAttributeDefinition
  3

  2
P
 70
     8
280
     0
  0
ATTDEF
  5
181
330
164
100
AcDbEntity
  8
AM_6
100
AcDbText
 10
7.623144414636466
 20
-9.877479790283884
 30
0.0
 40
0.5
  1
1-7/32
100
AcDbAttributeDefinition
  3

  2
Q
 70
     8
280
     0
  0
ATTDEF
  5
182
330
164
100
AcDbEntity
  8
AM_6
100
AcDbText
 10
7.623144414636466
 20
-10.37747979028388
 30
0.0
 40
0.5
  1
1.218750
100
AcDbAttributeDefinition
  3

  2
Q1
 70
     8
280
     0
  0
ATTDEF
  5
183
330
164
100
AcDbEntity
  8
AM_6
100
AcDbText
 10
7.623144414636466
 20
-10.87747979028388
 30
0.0
 40
0.5
  1
3/16
100
AcDbAttributeDefinition
  3

  2
X
 70
     8
280
     0
  0
ATTDEF
  5
184
330
164
100
AcDbEntity
  8
AM_6
100
AcDbText
 10
7.623144414636466
 20
-11.37747979028388
 30
0.0
 40
0.5
  1
0.020
100
AcDbAttributeDefinition
  3

  2
Y
 70
     8
280
     0
  0
ATTDEF
  5
185
330
164
100
AcDbEntity
  8
AM_6
100
AcDbText
 10
7.623144414636466
 20
-11.87747979028388
 30
0.0
 40
0.5
  1
1-51/64
100
AcDbAttributeDefinition
  3

  2
Z
 70
     8
280
     0
  0
ATTDEF
  5
186
330
164
100
AcDbEntity
  8
AM_6
100
AcDbText
 10
7.623144414636466
 20
-12.37747979028388
 30
0.0
 40
0.5
  1
baldor
100
AcDbAttributeDefinition
  3

  2
COMPANY
 70
     8
280
     0
  0
CIRCLE
  5
187
330
164
100
AcDbEntity
  8
AM_9
100
AcDbCircle
 10
0.0
 20
0.0
 30
0.0
 40
1.726190476190476
  0
ARC
  5
188
330
164
100
AcDbEntity
  8
AM_9
100
AcDbCircle
 10
0.0000000000000056
 20
0.0000000000000062
 30
0.0
 40
1.812500000000008
100
AcDbArc
 50
216.0945878933717
 51
233.9054121066283
  0
ARC
  5
189
330
164
100
AcDbEntity
  8
AM_9
100
AcDbCircle
 10
0.0
 20
0.0000000000000013
 30
0.0
 40
1.812499999999999
100
AcDbArc
 50
126.0945878933717
 51
143.9054121066284
  0
ARC
  5
18A
330
164
100
AcDbEntity
  8
AM_9
100
AcDbCircle
 10
0.0000000000000004
 20
-0.0000000000000016
 30
0.0
 40
1.812500000000001
100
AcDbArc
 50
73.98660557605153
 51
106.0133944239485
  0
ARC
  5
18B
330
164
100
AcDbEntity
  8
AM_9
100
AcDbCircle
 10
-0.000000000000002
 20
-0.0000000000000002
 30
0.0
 40
1.812500000000001
100
AcDbArc
 50
306.0945878933717
 51
53.9054121066283
  0
LINE
  5
18C
330
164
100
AcDbEntity
  8
AM_9
100
AcDbLine
 10
-0.2181267161501423
 20
1.990608891324553
 30
0.0
 11
0.2181236635358569
 21
1.990608891324553
 31
0.0
  0
LINE
  5
18D
330
164
100
AcDbEntity
  8
AM_7
100
AcDbLine
 10
-1.8125
 20
0.0
 30
0.0
 11
1.8125
 21
0.0
 31
0.0
  0
LINE
  5
18E
330
164
100
AcDbEntity
  8
AM_7
100
AcDbLine
 10
0.0
 20
-1.8125
 30
0.0
 11
0.0
 21
1.8125
 31
0.0
  0
LINE
  5
18F
330
164
100
AcDbEntity
  8
AM_7
100
AcDbLine
 10
1.990625
 20
0.0
 30
0.0
 11
2.384375
 21
0.0
 31
0.0
  0
LINE
  5
190
330
164
100
AcDbEntity
  8
AM_7
100
AcDbLine
 10
2.1875
 20
-0.1968749999999998
 30
0.0
 11
2.1875
 21
0.1968749999999998
 31
0.0
  0
LINE
  5
191
330
164
100
AcDbEntity
  8
AM_7
100
AcDbLine
 10
-2.384375
 20
0.0
 30
0.0
 11
-1.990625
 21
0.0
 31
0.0
  0
LINE
  5
192
330
164
100
AcDbEntity
  8
AM_7
100
AcDbLine
 10
-2.1875
 20
-0.1968749999999998
 30
0.0
 11
-2.1875
 21
0.1968749999999998
 31
0.0
  0
LINE
  5
193
330
164
100
AcDbEntity
  8
AM_7
100
AcDbLine
 10
1.349921083845573
 20
1.546796083845573
 30
0.0
 11
1.743671083845573
 21
1.546796083845573
 31
0.0
  0
LINE
  5
194
330
164
100
AcDbEntity
  8
AM_7
100
AcDbLine
 10
1.546796083845573
 20
1.349921083845573
 30
0.0
 11
1.546796083845573
 21
1.743671083845573
 31
0.0
  0
LINE
  5
195
330
164
100
AcDbEntity
  8
AM_7
100
AcDbLine
 10
1.349921083845573
 20
-1.546796083845573
 30
0.0
 11
1.743671083845573
 21
-1.546796083845573
 31
0.0
  0
LINE
  5
196
330
164
100
AcDbEntity
  8
AM_7
100
AcDbLine
 10
1.546796083845573
 20
-1.743671083845573
 30
0.0
 11
1.546796083845573
 21
-1.349921083845573
 31
0.0
  0
LINE
  5
197
330
164
100
AcDbEntity
  8
AM_7
100
AcDbLine
 10
-1.743671083845573
 20
-1.546796083845573
 30
0.0
 11
-1.349921083845573
 21
-1.546796083845573
 31
0.0
  0
LINE
  5
198
330
164
100
AcDbEntity
  8
AM_7
100
AcDbLine
 10
-1.546796083845573
 20
-1.743671083845573
 30
0.0
 11
-1.546796083845573
 21
-1.349921083845573
 31
0.0
  0
LINE
  5
199
330
164
100
AcDbEntity
  8
AM_7
100
AcDbLine
 10
-1.743671083845573
 20
1.546796083845573
 30
0.0
 11
-1.349921083845573
 21
1.546796083845573
 31
0.0
  0
LINE
  5
19A
330
164
100
AcDbEntity
  8
AM_7
100
AcDbLine
 10
-1.546796083845573
 20
1.349921083845573
 30
0.0
 11
-1.546796083845573
 21
1.743671083845573
 31
0.0
  0
CIRCLE
  5
19B
330
164
100
AcDbEntity
  8
AM_4
100
AcDbCircle
 10
2.1875
 20
0.0
 30
0.0
 40
0.1649500000000001
  0
ARC
  5
19C
330
164
100
AcDbEntity
  8
AM_4
100
AcDbCircle
 10
-0.0000000000000035
 20
-0.0000000000000087
 30
0.0
 40
2.624999999999991
100
AcDbArc
 50
273.1630575633314
 51
266.8369424366686
  0
ARC
  5
19D
330
164
100
AcDbEntity
  8
AM_4
100
AcDbCircle
 10
-0.0000000000000033
 20
-2.659999999999996
 30
0.0
 40
0.1500000000000024
100
AcDbArc
 50
15.06969036299501
 51
164.9303096370052
  0
CIRCLE
  5
19E
330
164
100
AcDbEntity
  8
AM_4
100
AcDbCircle
 10
-2.1875
 20
0.0
 30
0.0
 40
0.1649500000000001
  0
LINE
  5
19F
330
164
100
AcDbEntity
  8
AM_4
100
AcDbLine
 10
1.689670124698043
 20
0.8836824225619223
 30
0.0
 11
2.137665643454645
 21
1.523486329703563
 31
0.0
  0
ARC
  5
1A0
330
164
100
AcDbEntity
  8
AM_4
100
AcDbCircle
 10
0.7761368407461008
 20
1.843261133002231
 30
0.0
 40
0.1875000000000019
100
AcDbArc
 50
247.1656358476501
 51
304.9999999999998
  0
ARC
  5
1A1
330
164
100
AcDbEntity
  8
AM_4
100
AcDbCircle
 10
1.843261133002232
 20
0.7761368407461007
 30
0.0
 40
0.1875000000000024
100
AcDbArc
 50
145.0000000000003
 51
202.8343641523502
  0
LINE
  5
1A2
330
164
100
AcDbEntity
  8
AM_4
100
AcDbLine
 10
1.523486329703563
 20
2.137665643454646
 30
0.0
 11
0.8836824225619223
 21
1.689670124698043
 31
0.0
  0
CIRCLE
  5
1A3
330
164
100
AcDbEntity
  8
AM_4
100
AcDbCircle
 10
1.546796083845573
 20
1.546796083845573
 30
0.0
 40
0.1875
  0
ARC
  5
1A4
330
164
100
AcDbEntity
  8
AM_4
100
AcDbCircle
 10
0.7761368407461003
 20
-1.843261133002231
 30
0.0
 40
0.187500000000002
100
AcDbArc
 50
55.00000000000023
 51
112.8343641523495
  0
LINE
  5
1A5
330
164
100
AcDbEntity
  8
AM_4
100
AcDbLine
 10
0.883682422561922
 20
-1.689670124698043
 30
0.0
 11
1.523486329703563
 21
-2.137665643454645
 31
0.0
  0
ARC
  5
1A6
330
164
100
AcDbEntity
  8
AM_4
100
AcDbCircle
 10
1.843261133002231
 20
-0.7761368407461011
 30
0.0
 40
0.1875000000000017
100
AcDbArc
 50
157.1656358476502
 51
214.9999999999997
  0
LINE
  5
1A7
330
164
100
AcDbEntity
  8
AM_4
100
AcDbLine
 10
2.137665643454645
 20
-1.523486329703563
 30
0.0
 11
1.689670124698043
 21
-0.8836824225619223
 31
0.0
  0
CIRCLE
  5
1A8
330
164
100
AcDbEntity
  8
AM_4
100
AcDbCircle
 10
1.546796083845573
 20
-1.546796083845573
 30
0.0
 40
0.1875
  0
LINE
  5
1A9
330
164
100
AcDbEntity
  8
AM_4
100
AcDbLine
 10
-1.523486329703564
 20
-2.137665643454646
 30
0.0
 11
-0.8836824225619218
 21
-1.689670124698043
 31
0.0
  0
ARC
  5
1AA
330
164
100
AcDbEntity
  8
AM_4
100
AcDbCircle
 10
-0.7761368407461009
 20
-1.843261133002231
 30
0.0
 40
0.1875000000000017
100
AcDbArc
 50
67.16563584765014
 51
124.9999999999995
  0
LINE
  5
1AB
330
164
100
AcDbEntity
  8
AM_4
100
AcDbLine
 10
-1.689670124698043
 20
-0.883682422561922
 30
0.0
 11
-2.137665643454646
 21
-1.523486329703565
 31
0.0
  0
ARC
  5
1AC
330
164
100
AcDbEntity
  8
AM_4
100
AcDbCircle
 10
-1.84326113300223
 20
-0.7761368407461009
 30
0.0
 40
0.1875000000000007
100
AcDbArc
 50
325.0000000000002
 51
22.83436415235017
  0
CIRCLE
  5
1AD
330
164
100
AcDbEntity
  8
AM_4
100
AcDbCircle
 10
-1.546796083845573
 20
-1.546796083845573
 30
0.0
 40
0.1875
  0
ARC
  5
1AE
330
164
100
AcDbEntity
  8
AM_4
100
AcDbCircle
 10
-0.7761368407461006
 20
1.843261133002232
 30
0.0
 40
0.1875000000000024
100
AcDbArc
 50
235.0000000000003
 51
292.8343641523496
  0
CIRCLE
  5
1AF
330
164
100
AcDbEntity
  8
AM_4
100
AcDbCircle
 10
-1.546796083845573
 20
1.546796083845573
 30
0.0
 40
0.1875
  0
LINE
  5
1B0
330
164
100
AcDbEntity
  8
AM_4
100
AcDbLine
 10
-0.8836824225619223
 20
1.689670124698043
 30
0.0
 11
-1.523486329703564
 21
2.137665643454646
 31
0.0
  0
LINE
  5
1B1
330
164
100
AcDbEntity
  8
AM_4
100
AcDbLine
 10
-2.137665643454647
 20
1.523486329703565
 30
0.0
 11
-1.689670124698043
 21
0.8836824225619223
 31
0.0
  0
ARC
  5
1B2
330
164
100
AcDbEntity
  8
AM_4
100
AcDbCircle
 10
-1.843261133002231
 20
0.7761368407461007
 30
0.0
 40
0.1875000000000021
100
AcDbArc
 50
337.1656358476502
 51
34.99999999999972
  0
ARC
  5
1B3
330
164
100
AcDbEntity
  8
AM_4
100
AcDbCircle
 10
-0.0000000000000007
 20
0.0
 30
0.0
 40
1.8125
100
AcDbArc
 50
106.0133944239485
 51
126.0945878933717
  0
ARC
  5
1B4
330
164
100
AcDbEntity
  8
AM_4
100
AcDbCircle
 10
-0.0000000000000007
 20
0.0
 30
0.0
 40
1.8125
100
AcDbArc
 50
323.9054121066284
 51
36.09458789337166
  0
ARC
  5
1B5
330
164
100
AcDbEntity
  8
AM_4
100
AcDbCircle
 10
0.0000000000000001
 20
0.0000000000000002
 30
0.0
 40
1.8125
100
AcDbArc
 50
233.9054121066284
 51
306.0945878933717
  0
ARC
  5
1B6
330
164
100
AcDbEntity
  8
AM_4
100
AcDbCircle
 10
0.0000000000000002
 20
-0.0000000000000001
 30
0.0
 40
1.8125
100
AcDbArc
 50
143.9054121066284
 51
216.0945878933716
  0
ARC
  5
1B7
330
164
100
AcDbEntity
  8
AM_4
100
AcDbCircle
 10
-1.546875
 20
1.546874999999999
 30
0.0
 40
0.4861111111111107
100
AcDbArc
 50
279.7463873419416
 51
350.2536126580584
  0
ARC
  5
1B8
330
164
100
AcDbEntity
  8
AM_4
100
AcDbCircle
 10
1.546875
 20
-1.546874999999998
 30
0.0
 40
0.4861111111111099
100
AcDbArc
 50
99.74638734194151
 51
170.2536126580585
  0
ARC
  5
1B9
330
164
100
AcDbEntity
  8
AM_4
100
AcDbCircle
 10
0.0000000000000092
 20
0.0000000000000207
 30
0.0
 40
1.812499999999978
100
AcDbArc
 50
53.90541210662821
 51
73.98660557605162
  0
ARC
  5
1BA
330
164
100
AcDbEntity
  8
AM_4
100
AcDbCircle
 10
1.546875
 20
1.546875000000001
 30
0.0
 40
0.4861111111111113
100
AcDbArc
 50
189.7463873419416
 51
260.2536126580584
  0
LINE
  5
1BB
330
164
100
AcDbEntity
  8
AM_4
100
AcDbLine
 10
0.5
 20
1.6875
 30
0.0
 11
0.5
 21
1.990608891324553
 31
0.0
  0
LINE
  5
1BC
330
164
100
AcDbEntity
  8
AM_4
100
AcDbLine
 10
-0.5
 20
1.6875
 30
0.0
 11
-0.5
 21
1.990608891324553
 31
0.0
  0
ARC
  5
1BD
330
164
100
AcDbEntity
  8
AM_4
100
AcDbCircle
 10
-1.546875
 20
-1.546875000000001
 30
0.0
 40
0.4861111111111113
100
AcDbArc
 50
9.74638734194163
 51
80.25361265805843
  0
LINE
  5
1BE
330
164
100
AcDbEntity
  8
AM_4
100
AcDbLine
 10
0.5
 20
1.6875
 30
0.0
 11
-0.5
 21
1.6875
 31
0.0
  0
LINE
  5
1BF
330
164
100
AcDbEntity
  8
AM_4
100
AcDbLine
 10
0.2181236635358569
 20
1.990608891324553
 30
0.0
 11
0.5
 21
1.990608891324553
 31
0.0
  0
LINE
  5
1C0
330
164
100
AcDbEntity
  8
AM_4
100
AcDbLine
 10
-0.5
 20
1.990608891324553
 30
0.0
 11
-0.2181267161501423
 21
1.990608891324553
 31
0.0
  0
CIRCLE
  5
1C1
330
164
100
AcDbEntity
  8
AM_4
100
AcDbCircle
 10
0.0
 20
0.0
 30
0.0
 40
1.5748
  0
CIRCLE
  5
1C2
330
164
100
AcDbEntity
  8
AM_4
100
AcDbCircle
 10
0.0
 20
0.0
 30
0.0
 40
1.64867159030995
  0
ARC
  5
1C3
330
164
100
AcDbEntity
  8
AM_5
100
AcDbCircle
 10
2.1875
 20
0.0000000000000001
 30
0.0
 40
0.1874999999999999
100
AcDbArc
 50
75.00000000000006
 51
15.0
  0
ARC
  5
1C4
330
164
100
AcDbEntity
  8
AM_5
100
AcDbCircle
 10
-2.1875
 20
0.0
 30
0.0
 40
0.1874999999999999
100
AcDbArc
 50
75.00000000000006
 51
15.00000000000004
  0
ENDBLK
  5
167
330
164
100
AcDbEntity
  8
0
100
AcDbBlockEnd
  0
ENDSEC
  0
SECTION
  2
ENTITIES
  0
INSERT
  5
6F
330
1F
100
AcDbEntity
  8
0
100
AcDbBlockReference
  2
1_070645_0
 10
0.0
 20
0.0
 30
0.0
  0
POINT
  5
1C6
330
1F
100
AcDbEntity
  8
ConnectionPoints
100
AcDbPoint
 10
0.0
 20
0.0
 30
1.3125
  0
POINT
  5
1C7
330
1F
100
AcDbEntity
  8
ConnectionPoints
100
AcDbPoint
 10
0.0
 20
0.0
 30
1.3125
  0
POINT
  5
1C8
330
1F
100
AcDbEntity
  8
ConnectionPoints
100
AcDbPoint
 10
0.0
 20
0.0
 30
-1.81
  0
POINT
  5
1C9
330
1F
100
AcDbEntity
  8
ConnectionPoints
100
AcDbPoint
 10
0.0
 20
0.0
 30
1.3125
  0
POINT
  5
1CA
330
1F
100
AcDbEntity
  8
ConnectionPoints
100
AcDbPoint
 10
0.0
 20
1.89
 30
0.5427275866404782
  0
POINT
  5
1CB
330
1F
100
AcDbEntity
  8
ConnectionPoints
100
AcDbPoint
 10
0.0
 20
0.0
 30
-1.171875
  0
POINT
  5
1CC
330
1F
100
AcDbEntity
  8
ConnectionPoints
100
AcDbPoint
 10
0.0
 20
1.89
 30
0.5427275866404782
  0
POINT
  5
1CD
330
1F
100
AcDbEntity
  8
ConnectionPoints
100
AcDbPoint
 10
0.0
 20
2.155625
 30
0.5156642927722146
  0
POINT
  5
1CE
330
1F
100
AcDbEntity
  8
ConnectionPoints
100
AcDbPoint
 10
0.0
 20
0.0
 30
1.125
  0
POINT
  5
1CF
330
1F
100
AcDbEntity
  8
ConnectionPoints
100
AcDbPoint
 10
0.0
 20
0.0
 30
1.3125
  0
ENDSEC
  0
SECTION
  2
OBJECTS
  0
DICTIONARY
  5
C
330
0
100
AcDbDictionary
281
     1
  3
ACAD_DETAILVIEWSTYLE
350
1D7
  3
ACAD_GROUP
350
D
  3
ACAD_LAYOUT
350
1A
  3
ACAD_MATERIAL
350
43
  3
ACAD_MLEADERSTYLE
350
6B
  3
ACAD_MLINESTYLE
350
17
  3
ACAD_PLOTSETTINGS
350
19
  3
ACAD_PLOTSTYLENAME
350
E
  3
ACAD_SCALELIST
350
47
  3
ACAD_SECTIONVIEWSTYLE
350
1D8
  3
ACAD_TABLESTYLE
350
69
  3
ACAD_VISUALSTYLE
350
2A
  3
ACDB_RECOMPOSE_DATA
350
1D4
  3
AcDbVariableDictionary
350
1D0
  0
SUN
  5
6D
330
29
100
AcDbSun
 90
        1
290
     0
 63
     7
421
 16777215
 40
1.0
291
     1
 91
  2455826
 92
 54000000
292
     0
 70
     2
 71
   256
280
     1
  0
DICTIONARY
  5
1D7
102
{ACAD_REACTORS
330
C
102
}
330
C
100
AcDbDictionary
281
     1
  0
DICTIONARY
  5
D
102
{ACAD_REACTORS
330
C
102
}
330
C
100
AcDbDictionary
281
     1
  0
DICTIONARY
  5
1A
102
{ACAD_REACTORS
330
C
102
}
330
C
100
AcDbDictionary
281
     1
  3
Layout1
350
1E
  3
Layout2
350
26
  3
Model
350
22
  0
DICTIONARY
  5
43
102
{ACAD_REACTORS
330
C
102
}
330
C
100
AcDbDictionary
281
     1
  3
ByBlock
350
45
  3
ByLayer
350
44
  3
Global
350
46
  0
DICTIONARY
  5
6B
102
{ACAD_REACTORS
330
C
102
}
330
C
100
AcDbDictionary
281
     1
  3
Standard
350
6C
  0
DICTIONARY
  5
17
102
{ACAD_REACTORS
330
C
102
}
330
C
100
AcDbDictionary
281
     1
  3
Standard
350
18
  0
DICTIONARY
  5
19
102
{ACAD_REACTORS
330
C
102
}
330
C
100
AcDbDictionary
281
     1
  0
ACDBDICTIONARYWDFLT
  5
E
102
{ACAD_REACTORS
330
C
102
}
330
C
100
AcDbDictionary
281
     1
  3
Normal
350
F
100
AcDbDictionaryWithDefault
340
F
  0
DICTIONARY
  5
47
102
{ACAD_REACTORS
330
C
102
}
330
C
100
AcDbDictionary
281
     1
  3
A0
350
48
  3
A1
350
49
  3
A2
350
4A
  3
A3
350
4B
  3
A4
350
4C
  3
A5
350
4D
  3
A6
350
4E
  3
A7
350
4F
  3
A8
350
50
  3
A9
350
51
  3
B0
350
52
  3
B1
350
53
  3
B2
350
54
  3
B3
350
55
  3
B4
350
56
  3
B5
350
57
  3
B6
350
58
  3
B7
350
59
  3
B8
350
5A
  3
B9
350
5B
  3
C0
350
5C
  3
C1
350
5D
  3
C2
350
5E
  3
C3
350
5F
  3
C4
350
60
  3
C5
350
61
  3
C6
350
62
  3
C7
350
63
  3
C8
350
64
  3
C9
350
65
  3
D0
350
66
  3
D1
350
67
  3
D2
350
68
  0
DICTIONARY
  5
1D8
102
{ACAD_REACTORS
330
C
102
}
330
C
100
AcDbDictionary
281
     1
  0
DICTIONARY
  5
69
102
{ACAD_REACTORS
330
C
102
}
330
C
100
AcDbDictionary
281
     1
  3
Standard
350
6A
  0
DICTIONARY
  5
2A
102
{ACAD_REACTORS
330
C
102
}
330
C
100
AcDbDictionary
281
     1
  3
2dWireframe
350
2F
  3
Basic
350
32
  3
Brighten
350
36
  3
ColorChange
350
3A
  3
Conceptual
350
34
  3
Dim
350
35
  3
EdgeColorOff
350
3D
  3
Facepattern
350
39
  3
Flat
350
2B
  3
FlatWithEdges
350
2C
  3
Gouraud
350
2D
  3
GouraudWithEdges
350
2E
  3
Hidden
350
31
  3
JitterOff
350
3B
  3
Linepattern
350
38
  3
OverhangOff
350
3C
  3
Realistic
350
33
  3
Shaded
350
42
  3
Shaded with edges
350
41
  3
Shades of Gray
350
3E
  3
Sketchy
350
3F
  3
Thicken
350
37
  3
Wireframe
350
30
  3
X-Ray
350
40
  0
XRECORD
  5
1D4
102
{ACAD_REACTORS
330
C
102
}
330
C
100
AcDbXrecord
280
     1
 90
        1
330
6A
  0
DICTIONARY
  5
1D0
102
{ACAD_REACTORS
330
C
102
}
330
C
100
AcDbDictionary
281
     1
  3
CANNOSCALE
350
1D1
  3
CMLEADERSTYLE
350
1D6
  3
CTABLESTYLE
350
1D5
  0
LAYOUT
  5
1E
102
{ACAD_REACTORS
330
1A
102
}
330
1A
100
AcDbPlotSettings
  1

  2
none_device
  4

  6

 40
0.0
 41
0.0
 42
0.0
 43
0.0
 44
0.0
 45
0.0
 46
0.0
 47
0.0
 48
0.0
 49
0.0
140
0.0
141
0.0
142
1.0
143
1.0
 70
   688
 72
     0
 73
     0
 74
     5
  7

 75
    16
 76
     0
 77
     2
 78
   300
147
1.0
148
0.0
149
0.0
100
AcDbLayout
  1
Layout1
 70
     1
 71
     1
 10
0.0
 20
0.0
 11
12.0
 21
9.0
 12
0.0
 22
0.0
 32
0.0
 14
1.000000000000000E+20
 24
1.000000000000000E+20
 34
1.000000000000000E+20
 15
-1.000000000000000E+20
 25
-1.000000000000000E+20
 35
-1.000000000000000E+20
146
0.0
 13
0.0
 23
0.0
 33
0.0
 16
1.0
 26
0.0
 36
0.0
 17
0.0
 27
1.0
 37
0.0
 76
     0
330
1B
  0
LAYOUT
  5
26
102
{ACAD_REACTORS
330
1A
102
}
330
1A
100
AcDbPlotSettings
  1

  2
none_device
  4

  6

 40
0.0
 41
0.0
 42
0.0
 43
0.0
 44
0.0
 45
0.0
 46
0.0
 47
0.0
 48
0.0
 49
0.0
140
0.0
141
0.0
142
1.0
143
1.0
 70
   688
 72
     0
 73
     0
 74
     5
  7

 75
    16
 76
     0
 77
     2
 78
   300
147
1.0
148
0.0
149
0.0
100
AcDbLayout
  1
Layout2
 70
     1
 71
     2
 10
0.0
 20
0.0
 11
0.0
 21
0.0
 12
0.0
 22
0.0
 32
0.0
 14
0.0
 24
0.0
 34
0.0
 15
0.0
 25
0.0
 35
0.0
146
0.0
 13
0.0
 23
0.0
 33
0.0
 16
1.0
 26
0.0
 36
0.0
 17
0.0
 27
1.0
 37
0.0
 76
     0
330
23
  0
LAYOUT
  5
22
102
{ACAD_REACTORS
330
1A
102
}
330
1A
100
AcDbPlotSettings
  1

  2
none_device
  4
Letter_(8.50_x_11.00_Inches)
  6

 40
6.35
 41
6.35
 42
6.35000508
 43
6.35000508
 44
215.9
 45
279.4
 46
0.0
 47
0.0
 48
0.0
 49
0.0
140
0.0
141
0.0
142
1.0
143
1.0
 70
  1712
 72
     0
 73
     0
 74
     0
  7

 75
     0
 76
     0
 77
     2
 78
   300
147
1.0
148
0.0
149
0.0
100
AcDbLayout
  1
Model
 70
     1
 71
     0
 10
0.0
 20
0.0
 11
12.0
 21
9.0
 12
0.0
 22
0.0
 32
0.0
 14
1.000000000000000E+20
 24
1.000000000000000E+20
 34
1.000000000000000E+20
 15
-1.000000000000000E+20
 25
-1.000000000000000E+20
 35
-1.000000000000000E+20
146
0.0
 13
0.0
 23
0.0
 33
0.0
 16
1.0
 26
0.0
 36
0.0
 17
0.0
 27
1.0
 37
0.0
 76
     0
330
1F
331
29
  0
MATERIAL
  5
45
102
{ACAD_REACTORS
330
43
102
}
330
43
100
AcDbMaterial
  1
ByBlock
 72
     1
 94
      127
  0
MATERIAL
  5
44
102
{ACAD_REACTORS
330
43
102
}
330
43
100
AcDbMaterial
  1
ByLayer
 72
     1
 94
      127
  0
MATERIAL
  5
46
102
{ACAD_REACTORS
330
43
102
}
330
43
100
AcDbMaterial
  1
Global
 72
     1
 94
      127
  0
MLEADERSTYLE
  5
6C
102
{ACAD_REACTORS
330
6B
102
}
330
6B
100
AcDbMLeaderStyle
179
     2
170
     2
171
     1
172
     0
 90
        2
 40
0.0
 41
0.0
173
     1
 91
-1056964608
340
14
 92
       -2
290
     1
 42
0.09
291
     1
 43
0.36
  3
Standard
341
0
 44
0.18
300

342
11
174
     1
178
     6
175
     1
176
     0
 93
-1056964608
 45
0.18
292
     0
297
     0
 46
0.18
343
0
 94
-1056964608
 47
1.0
 49
1.0
140
1.0
293
     1
141
0.0
294
     1
177
     0
142
1.0
295
     0
296
     0
143
0.125
271
     0
272
     9
273
     9
298
     0
  0
MLINESTYLE
  5
18
102
{ACAD_REACTORS
330
17
102
}
330
17
100
AcDbMlineStyle
  2
Standard
 70
     0
  3

 62
   256
 51
90.0
 52
90.0
 71
     2
 49
0.5
 62
   256
  6
BYLAYER
 49
-0.5
 62
   256
  6
BYLAYER
  0
ACDBPLACEHOLDER
  5
F
102
{ACAD_REACTORS
330
E
102
}
330
E
  0
SCALE
  5
48
102
{ACAD_REACTORS
330
47
102
}
330
47
100
AcDbScale
 70
     0
300
1:1
140
1.0
141
1.0
290
     1
  0
SCALE
  5
49
102
{ACAD_REACTORS
330
47
102
}
330
47
100
AcDbScale
 70
     0
300
1:2
140
1.0
141
2.0
290
     0
  0
SCALE
  5
4A
102
{ACAD_REACTORS
330
47
102
}
330
47
100
AcDbScale
 70
     0
300
1:4
140
1.0
141
4.0
290
     0
  0
SCALE
  5
4B
102
{ACAD_REACTORS
330
47
102
}
330
47
100
AcDbScale
 70
     0
300
1:5
140
1.0
141
5.0
290
     0
  0
SCALE
  5
4C
102
{ACAD_REACTORS
330
47
102
}
330
47
100
AcDbScale
 70
     0
300
1:8
140
1.0
141
8.0
290
     0
  0
SCALE
  5
4D
102
{ACAD_REACTORS
330
47
102
}
330
47
100
AcDbScale
 70
     0
300
1:10
140
1.0
141
10.0
290
     0
  0
SCALE
  5
4E
102
{ACAD_REACTORS
330
47
102
}
330
47
100
AcDbScale
 70
     0
300
1:16
140
1.0
141
16.0
290
     0
  0
SCALE
  5
4F
102
{ACAD_REACTORS
330
47
102
}
330
47
100
AcDbScale
 70
     0
300
1:20
140
1.0
141
20.0
290
     0
  0
SCALE
  5
50
102
{ACAD_REACTORS
330
47
102
}
330
47
100
AcDbScale
 70
     0
300
1:30
140
1.0
141
30.0
290
     0
  0
SCALE
  5
51
102
{ACAD_REACTORS
330
47
102
}
330
47
100
AcDbScale
 70
     0
300
1:40
140
1.0
141
40.0
290
     0
  0
SCALE
  5
52
102
{ACAD_REACTORS
330
47
102
}
330
47
100
AcDbScale
 70
     0
300
1:50
140
1.0
141
50.0
290
     0
  0
SCALE
  5
53
102
{ACAD_REACTORS
330
47
102
}
330
47
100
AcDbScale
 70
     0
300
1:100
140
1.0
141
100.0
290
     0
  0
SCALE
  5
54
102
{ACAD_REACTORS
330
47
102
}
330
47
100
AcDbScale
 70
     0
300
2:1
140
2.0
141
1.0
290
     0
  0
SCALE
  5
55
102
{ACAD_REACTORS
330
47
102
}
330
47
100
AcDbScale
 70
     0
300
4:1
140
4.0
141
1.0
290
     0
  0
SCALE
  5
56
102
{ACAD_REACTORS
330
47
102
}
330
47
100
AcDbScale
 70
     0
300
8:1
140
8.0
141
1.0
290
     0
  0
SCALE
  5
57
102
{ACAD_REACTORS
330
47
102
}
330
47
100
AcDbScale
 70
     0
300
10:1
140
10.0
141
1.0
290
     0
  0
SCALE
  5
58
102
{ACAD_REACTORS
330
47
102
}
330
47
100
AcDbScale
 70
     0
300
100:1
140
100.0
141
1.0
290
     0
  0
SCALE
  5
59
102
{ACAD_REACTORS
330
47
102
}
330
47
100
AcDbScale
 70
     0
300
1/128" = 1'-0"
140
0.0078125
141
12.0
290
     0
  0
SCALE
  5
5A
102
{ACAD_REACTORS
330
47
102
}
330
47
100
AcDbScale
 70
     0
300
1/64" = 1'-0"
140
0.015625
141
12.0
290
     0
  0
SCALE
  5
5B
102
{ACAD_REACTORS
330
47
102
}
330
47
100
AcDbScale
 70
     0
300
1/32" = 1'-0"
140
0.03125
141
12.0
290
     0
  0
SCALE
  5
5C
102
{ACAD_REACTORS
330
47
102
}
330
47
100
AcDbScale
 70
     0
300
1/16" = 1'-0"
140
0.0625
141
12.0
290
     0
  0
SCALE
  5
5D
102
{ACAD_REACTORS
330
47
102
}
330
47
100
AcDbScale
 70
     0
300
3/32" = 1'-0"
140
0.09375
141
12.0
290
     0
  0
SCALE
  5
5E
102
{ACAD_REACTORS
330
47
102
}
330
47
100
AcDbScale
 70
     0
300
1/8" = 1'-0"
140
0.125
141
12.0
290
     0
  0
SCALE
  5
5F
102
{ACAD_REACTORS
330
47
102
}
330
47
100
AcDbScale
 70
     0
300
3/16" = 1'-0"
140
0.1875
141
12.0
290
     0
  0
SCALE
  5
60
102
{ACAD_REACTORS
330
47
102
}
330
47
100
AcDbScale
 70
     0
300
1/4" = 1'-0"
140
0.25
141
12.0
290
     0
  0
SCALE
  5
61
102
{ACAD_REACTORS
330
47
102
}
330
47
100
AcDbScale
 70
     0
300
3/8" = 1'-0"
140
0.375
141
12.0
290
     0
  0
SCALE
  5
62
102
{ACAD_REACTORS
330
47
102
}
330
47
100
AcDbScale
 70
     0
300
1/2" = 1'-0"
140
0.5
141
12.0
290
     0
  0
SCALE
  5
63
102
{ACAD_REACTORS
330
47
102
}
330
47
100
AcDbScale
 70
     0
300
3/4" = 1'-0"
140
0.75
141
12.0
290
     0
  0
SCALE
  5
64
102
{ACAD_REACTORS
330
47
102
}
330
47
100
AcDbScale
 70
     0
300
1" = 1'-0"
140
1.0
141
12.0
290
     0
  0
SCALE
  5
65
102
{ACAD_REACTORS
330
47
102
}
330
47
100
AcDbScale
 70
     0
300
1-1/2" = 1'-0"
140
1.5
141
12.0
290
     0
  0
SCALE
  5
66
102
{ACAD_REACTORS
330
47
102
}
330
47
100
AcDbScale
 70
     0
300
3" = 1'-0"
140
3.0
141
12.0
290
     0
  0
SCALE
  5
67
102
{ACAD_REACTORS
330
47
102
}
330
47
100
AcDbScale
 70
     0
300
6" = 1'-0"
140
6.0
141
12.0
290
     0
  0
SCALE
  5
68
102
{ACAD_REACTORS
330
47
102
}
330
47
100
AcDbScale
 70
     0
300
1'-0" = 1'-0"
140
12.0
141
12.0
290
     0
  0
TABLESTYLE
  5
6A
102
{ACAD_REACTORS
330
69
102
}
102
{ACAD_XDICTIONARY
360
1D2
102
}
330
69
100
AcDbTableStyle
  3
Standard
 70
     0
 71
     0
 40
0.06
 41
0.06
280
     0
281
     0
  7
Standard
140
0.18
170
     2
 62
     0
 63
   257
283
     0
 90
        4
 91
        0
  1

274
    -2
284
     1
 64
     0
275
    -2
285
     1
 65
     0
276
    -2
286
     1
 66
     0
277
    -2
287
     1
 67
     0
278
    -2
288
     1
 68
     0
279
    -2
289
     1
 69
     0
  7
Standard
140
0.25
170
     5
 62
     0
 63
   257
283
     0
 90
        4
 91
        0
  1

274
    -2
284
     1
 64
     0
275
    -2
285
     1
 65
     0
276
    -2
286
     1
 66
     0
277
    -2
287
     1
 67
     0
278
    -2
288
     1
 68
     0
279
    -2
289
     1
 69
     0
  7
Standard
140
0.18
170
     5
 62
     0
 63
   257
283
     0
 90
        4
 91
        0
  1

274
    -2
284
     1
 64
     0
275
    -2
285
     1
 65
     0
276
    -2
286
     1
 66
     0
277
    -2
287
     1
 67
     0
278
    -2
288
     1
 68
     0
279
    -2
289
     1
 69
     0
  0
VISUALSTYLE
  5
2F
102
{ACAD_REACTORS
330
2A
102
}
330
2A
100
AcDbVisualStyle
  2
2dWireframe
 70
     4
177
     3
291
     0
 70
    58
 90
        0
176
     1
 90
        2
176
     1
 90
        0
176
     1
 90
        0
176
     1
 40
0.6
176
     1
 40
30.0
176
     1
 62
     7
420
 16777215
176
     1
 90
        1
176
     1
 90
        4
176
     1
 62
     7
176
     1
 62
   257
176
     1
 90
        1
176
     1
 90
        1
176
     1
 40
1.0
176
     1
 90
        0
176
     1
 62
   257
176
     1
 40
1.0
176
     1
 90
        1
176
     1
 90
        6
176
     1
 90
        2
176
     1
 62
     7
176
     1
 90
        5
176
     1
 90
        0
176
     1
 90
        0
176
     1
290
     0
176
     1
 90
        1
176
     1
 40
0.0
176
     1
 90
        0
176
     1
290
     1
176
     1
290
     1
176
     1
290
     0
176
     1
290
     0
176
     1
290
     0
176
     1
290
     0
176
     1
290
     0
176
     1
290
     0
176
     1
290
     0
176
     1
 90
       50
176
     1
 40
0.0
176
     1
 40
1.0
176
     1
 90
        0
176
     1
 62
    18
420
        0
176
     1
 90
       50
176
     1
 90
        3
176
     1
 62
     5
420
      255
176
     1
290
     0
176
     1
 90
       50
176
     1
 90
       50
176
     1
 90
       50
176
     1
290
     0
176
     1
 90
       50
176
     1
 62
   256
176
     0
 40
1.0
176
     0
 90
        2
176
     1
  1
strokes_ogs.tif
176
     1
290
     0
176
     1
 40
1.0
176
     1
 40
1.0
176
     1
  0
VISUALSTYLE
  5
32
102
{ACAD_REACTORS
330
2A
102
}
330
2A
100
AcDbVisualStyle
  2
Basic
 70
     7
177
     3
291
     1
 70
    58
 90
        1
176
     1
 90
        0
176
     1
 90
        1
176
     1
 90
        0
176
     1
 40
0.6
176
     1
 40
30.0
176
     1
 62
     7
420
 16777215
176
     1
 90
        0
176
     1
 90
        4
176
     1
 62
     7
176
     1
 62
   257
176
     1
 90
        1
176
     1
 90
        1
176
     1
 40
1.0
176
     1
 90
        8
176
     1
 62
     7
176
     1
 40
1.0
176
     1
 90
        1
176
     1
 90
        6
176
     1
 90
        2
176
     1
 62
     7
176
     1
 90
        5
176
     1
 90
        0
176
     1
 90
        0
176
     1
290
     0
176
     1
 90
        1
176
     1
 40
0.0
176
     1
 90
        0
176
     1
290
     0
176
     1
290
     1
176
     1
290
     1
176
     1
290
     0
176
     1
290
     0
176
     1
290
     0
176
     1
290
     0
176
     1
290
     0
176
     1
290
     0
176
     1
 90
       50
176
     1
 40
0.0
176
     1
 40
1.0
176
     1
 90
        0
176
     1
 62
    18
420
        0
176
     1
 90
       50
176
     1
 90
        3
176
     1
 62
     5
420
      255
176
     1
290
     0
176
     1
 90
       50
176
     1
 90
       50
176
     1
 90
       50
176
     1
290
     0
176
     1
 90
       50
176
     1
 62
   256
176
     0
 40
1.0
176
     0
 90
        2
176
     1
  1
strokes_ogs.tif
176
     1
290
     0
176
     1
 40
1.0
176
     1
 40
1.0
176
     1
  0
VISUALSTYLE
  5
36
102
{ACAD_REACTORS
330
2A
102
}
330
2A
100
AcDbVisualStyle
  2
Brighten
 70
    12
177
     3
291
     1
 70
    58
 90
        2
176
     1
 90
        2
176
     1
 90
        0
176
     1
 90
        0
176
     1
 40
0.6
176
     1
 40
30.0
176
     1
 62
     7
420
 16777215
176
     1
 90
        1
176
     1
 90
        4
176
     1
 62
     7
176
     1
 62
   257
176
     1
 90
        1
176
     1
 90
        1
176
     1
 40
1.0
176
     1
 90
        8
176
     1
 62
     7
176
     1
 40
1.0
176
     1
 90
        1
176
     1
 90
        6
176
     1
 90
        2
176
     1
 62
     7
176
     1
 90
        5
176
     1
 90
        0
176
     1
 90
        0
176
     1
290
     0
176
     1
 90
        1
176
     1
 40
50.0
176
     1
 90
        0
176
     1
290
     0
176
     1
290
     1
176
     1
290
     1
176
     1
290
     0
176
     1
290
     0
176
     1
290
     0
176
     1
290
     0
176
     1
290
     0
176
     1
290
     0
176
     1
 90
       50
176
     1
 40
0.0
176
     1
 40
1.0
176
     1
 90
        0
176
     1
 62
    18
420
        0
176
     1
 90
       50
176
     1
 90
        3
176
     1
 62
     5
420
      255
176
     1
290
     0
176
     1
 90
       50
176
     1
 90
       50
176
     1
 90
       50
176
     1
290
     0
176
     1
 90
       50
176
     1
 62
   256
176
     0
 40
1.0
176
     0
 90
        2
176
     1
  1
strokes_ogs.tif
176
     1
290
     0
176
     1
 40
1.0
176
     1
 40
1.0
176
     1
  0
VISUALSTYLE
  5
3A
102
{ACAD_REACTORS
330
2A
102
}
330
2A
100
AcDbVisualStyle
  2
ColorChange
 70
    16
177
     3
291
     1
 70
    58
 90
        2
176
     1
 90
        2
176
     1
 90
        3
176
     1
 90
        0
176
     1
 40
0.6
176
     1
 40
30.0
176
     1
 62
     8
420
  8421504
176
     1
 90
        1
176
     1
 90
        4
176
     1
 62
     7
176
     1
 62
   257
176
     1
 90
        1
176
     1
 90
        1
176
     1
 40
1.0
176
     1
 90
        8
176
     1
 62
     8
420
  8421504
176
     1
 40
1.0
176
     1
 90
        1
176
     1
 90
        6
176
     1
 90
        2
176
     1
 62
     7
176
     1
 90
        5
176
     1
 90
        0
176
     1
 90
        0
176
     1
290
     0
176
     1
 90
        1
176
     1
 40
0.0
176
     1
 90
        0
176
     1
290
     0
176
     1
290
     1
176
     1
290
     1
176
     1
290
     0
176
     1
290
     0
176
     1
290
     0
176
     1
290
     0
176
     1
290
     0
176
     1
290
     0
176
     1
 90
       50
176
     1
 40
0.0
176
     1
 40
1.0
176
     1
 90
        0
176
     1
 62
    18
420
        0
176
     1
 90
       50
176
     1
 90
        3
176
     1
 62
     5
420
      255
176
     1
290
     0
176
     1
 90
       50
176
     1
 90
       50
176
     1
 90
       50
176
     1
290
     0
176
     1
 90
       50
176
     1
 62
   256
176
     0
 40
1.0
176
     0
 90
        2
176
     1
  1
strokes_ogs.tif
176
     1
290
     0
176
     1
 40
1.0
176
     1
 40
1.0
176
     1
  0
VISUALSTYLE
  5
34
102
{ACAD_REACTORS
330
2A
102
}
330
2A
100
AcDbVisualStyle
  2
Conceptual
 70
     9
177
     3
291
     0
 70
    58
 90
        3
176
     1
 90
        2
176
     1
 90
        0
176
     1
 90
        0
176
     1
 40
0.6
176
     1
 40
30.0
176
     1
 62
     7
420
 16777215
176
     1
 90
        2
176
     1
 90
        2
176
     1
 62
     7
176
     1
 62
   257
176
     1
 90
        1
176
     1
 90
        1
176
     1
 40
179.0
176
     1
 90
        8
176
     1
 62
     7
176
     1
 40
1.0
176
     1
 90
        1
176
     1
 90
        6
176
     1
 90
        2
176
     1
 62
     7
176
     1
 90
        3
176
     1
 90
        0
176
     1
 90
        0
176
     1
290
     0
176
     1
 90
        1
176
     1
 40
0.0
176
     1
 90
        0
176
     1
290
     0
176
     1
290
     1
176
     1
290
     1
176
     1
290
     0
176
     1
290
     0
176
     1
290
     0
176
     1
290
     0
176
     1
290
     0
176
     1
290
     0
176
     1
 90
       50
176
     1
 40
0.0
176
     1
 40
1.0
176
     1
 90
        0
176
     1
 62
    18
420
        0
176
     1
 90
       50
176
     1
 90
        3
176
     1
 62
     5
420
      255
176
     1
290
     0
176
     1
 90
       50
176
     1
 90
       50
176
     1
 90
       50
176
     1
290
     0
176
     1
 90
       50
176
     1
 62
   256
176
     0
 40
1.0
176
     0
 90
        2
176
     1
  1
strokes_ogs.tif
176
     1
290
     0
176
     1
 40
1.0
176
     1
 40
1.0
176
     1
  0
VISUALSTYLE
  5
35
102
{ACAD_REACTORS
330
2A
102
}
330
2A
100
AcDbVisualStyle
  2
Dim
 70
    11
177
     3
291
     1
 70
    58
 90
        2
176
     1
 90
        2
176
     1
 90
        0
176
     1
 90
        0
176
     1
 40
0.6
176
     1
 40
30.0
176
     1
 62
     7
420
 16777215
176
     1
 90
        1
176
     1
 90
        4
176
     1
 62
     7
176
     1
 62
   257
176
     1
 90
        1
176
     1
 90
        1
176
     1
 40
1.0
176
     1
 90
        8
176
     1
 62
     7
176
     1
 40
1.0
176
     1
 90
        1
176
     1
 90
        6
176
     1
 90
        2
176
     1
 62
     7
176
     1
 90
        5
176
     1
 90
        0
176
     1
 90
        0
176
     1
290
     0
176
     1
 90
        1
176
     1
 40
-50.0
176
     1
 90
        0
176
     1
290
     0
176
     1
290
     1
176
     1
290
     1
176
     1
290
     0
176
     1
290
     0
176
     1
290
     0
176
     1
290
     0
176
     1
290
     0
176
     1
290
     0
176
     1
 90
       50
176
     1
 40
0.0
176
     1
 40
1.0
176
     1
 90
        0
176
     1
 62
    18
420
        0
176
     1
 90
       50
176
     1
 90
        3
176
     1
 62
     5
420
      255
176
     1
290
     0
176
     1
 90
       50
176
     1
 90
       50
176
     1
 90
       50
176
     1
290
     0
176
     1
 90
       50
176
     1
 62
   256
176
     0
 40
1.0
176
     0
 90
        2
176
     1
  1
strokes_ogs.tif
176
     1
290
     0
176
     1
 40
1.0
176
     1
 40
1.0
176
     1
  0
VISUALSTYLE
  5
3D
102
{ACAD_REACTORS
330
2A
102
}
330
2A
100
AcDbVisualStyle
  2
EdgeColorOff
 70
    22
177
     3
291
     1
 70
    58
 90
        2
176
     0
 90
        2
176
     0
 90
        0
176
     0
 90
        0
176
     0
 40
0.6
176
     0
 40
30.0
176
     0
 62
     7
420
 16777215
176
     0
 90
        1
176
     0
 90
        4
176
     0
 62
     7
176
     0
 62
   257
176
     0
 90
        1
176
     0
 90
        1
176
     0
 40
1.0
176
     0
 90
        8
176
     2
 62
     7
176
     0
 40
1.0
176
     0
 90
        1
176
     0
 90
        6
176
     0
 90
        2
176
     0
 62
     7
176
     0
 90
        5
176
     0
 90
        0
176
     0
 90
        0
176
     0
290
     0
176
     0
 90
        1
176
     0
 40
0.0
176
     0
 90
        0
176
     0
290
     0
176
     0
290
     1
176
     0
290
     1
176
     0
290
     0
176
     0
290
     0
176
     0
290
     0
176
     0
290
     0
176
     0
290
     0
176
     0
290
     0
176
     0
 90
       50
176
     0
 40
0.0
176
     0
 40
1.0
176
     0
 90
        0
176
     0
 62
    18
420
        0
176
     0
 90
       50
176
     0
 90
        3
176
     0
 62
     5
420
      255
176
     0
290
     0
176
     0
 90
       50
176
     0
 90
       50
176
     0
 90
       50
176
     0
290
     0
176
     0
 90
       50
176
     0
 62
   256
176
     0
 40
1.0
176
     0
 90
        2
176
     0
  1
strokes_ogs.tif
176
     0
290
     0
176
     0
 40
1.0
176
     0
 40
1.0
176
     0
  0
VISUALSTYLE
  5
39
102
{ACAD_REACTORS
330
2A
102
}
330
2A
100
AcDbVisualStyle
  2
Facepattern
 70
    15
177
     3
291
     1
 70
    58
 90
        2
176
     1
 90
        2
176
     1
 90
        0
176
     1
 90
        0
176
     1
 40
0.6
176
     1
 40
30.0
176
     1
 62
     7
420
 16777215
176
     1
 90
        1
176
     1
 90
        4
176
     1
 62
     7
176
     1
 62
   257
176
     1
 90
        1
176
     1
 90
        1
176
     1
 40
1.0
176
     1
 90
        8
176
     1
 62
     7
176
     1
 40
1.0
176
     1
 90
        1
176
     1
 90
        6
176
     1
 90
        2
176
     1
 62
     7
176
     1
 90
        5
176
     1
 90
        0
176
     1
 90
        0
176
     1
290
     0
176
     1
 90
        1
176
     1
 40
0.0
176
     1
 90
        0
176
     1
290
     0
176
     1
290
     1
176
     1
290
     1
176
     1
290
     0
176
     1
290
     0
176
     1
290
     0
176
     1
290
     0
176
     1
290
     0
176
     1
290
     0
176
     1
 90
       50
176
     1
 40
0.0
176
     1
 40
1.0
176
     1
 90
        0
176
     1
 62
    18
420
        0
176
     1
 90
       50
176
     1
 90
        3
176
     1
 62
     5
420
      255
176
     1
290
     0
176
     1
 90
       50
176
     1
 90
       50
176
     1
 90
       50
176
     1
290
     0
176
     1
 90
       50
176
     1
 62
   256
176
     0
 40
1.0
176
     0
 90
        2
176
     1
  1
strokes_ogs.tif
176
     1
290
     0
176
     1
 40
1.0
176
     1
 40
1.0
176
     1
  0
VISUALSTYLE
  5
2B
102
{ACAD_REACTORS
330
2A
102
}
330
2A
100
AcDbVisualStyle
  2
Flat
 70
     0
177
     3
291
     1
 70
    58
 90
        2
176
     1
 90
        1
176
     1
 90
        1
176
     1
 90
        2
176
     1
 40
0.6
176
     1
 40
30.0
176
     1
 62
     7
420
 16777215
176
     1
 90
        0
176
     1
 90
        0
176
     1
 62
     7
176
     1
 62
   257
176
     1
 90
        1
176
     1
 90
        1
176
     1
 40
1.0
176
     1
 90
        8
176
     1
 62
     7
176
     1
 40
1.0
176
     1
 90
        1
176
     1
 90
        6
176
     1
 90
        2
176
     1
 62
     7
176
     1
 90
        5
176
     1
 90
        0
176
     1
 90
        0
176
     1
290
     0
176
     1
 90
       13
176
     1
 40
0.0
176
     1
 90
        0
176
     1
290
     0
176
     1
290
     1
176
     1
290
     1
176
     1
290
     0
176
     1
290
     0
176
     1
290
     0
176
     1
290
     0
176
     1
290
     0
176
     1
290
     0
176
     1
 90
       50
176
     1
 40
0.0
176
     1
 40
1.0
176
     1
 90
        0
176
     1
 62
    18
420
        0
176
     1
 90
       50
176
     1
 90
        3
176
     1
 62
     5
420
      255
176
     1
290
     0
176
     1
 90
       50
176
     1
 90
       50
176
     1
 90
       50
176
     1
290
     0
176
     1
 90
       50
176
     1
 62
   256
176
     0
 40
1.0
176
     0
 90
        2
176
     1
  1
strokes_ogs.tif
176
     1
290
     0
176
     1
 40
1.0
176
     1
 40
1.0
176
     1
  0
VISUALSTYLE
  5
2C
102
{ACAD_REACTORS
330
2A
102
}
330
2A
100
AcDbVisualStyle
  2
FlatWithEdges
 70
     1
177
     3
291
     1
 70
    58
 90
        2
176
     1
 90
        1
176
     1
 90
        1
176
     1
 90
        2
176
     1
 40
0.6
176
     1
 40
30.0
176
     1
 62
     7
420
 16777215
176
     1
 90
        1
176
     1
 90
        0
176
     1
 62
     7
176
     1
 62
   257
176
     1
 90
        1
176
     1
 90
        1
176
     1
 40
1.0
176
     1
 90
        0
176
     1
 62
   257
176
     1
 40
1.0
176
     1
 90
        1
176
     1
 90
        6
176
     1
 90
        2
176
     1
 62
     7
176
     1
 90
        5
176
     1
 90
        0
176
     1
 90
        0
176
     1
290
     0
176
     1
 90
       13
176
     1
 40
0.0
176
     1
 90
        0
176
     1
290
     0
176
     1
290
     1
176
     1
290
     1
176
     1
290
     0
176
     1
290
     0
176
     1
290
     0
176
     1
290
     0
176
     1
290
     0
176
     1
290
     0
176
     1
 90
       50
176
     1
 40
0.0
176
     1
 40
1.0
176
     1
 90
        0
176
     1
 62
    18
420
        0
176
     1
 90
       50
176
     1
 90
        3
176
     1
 62
     5
420
      255
176
     1
290
     0
176
     1
 90
       50
176
     1
 90
       50
176
     1
 90
       50
176
     1
290
     0
176
     1
 90
       50
176
     1
 62
   256
176
     0
 40
1.0
176
     0
 90
        2
176
     1
  1
strokes_ogs.tif
176
     1
290
     0
176
     1
 40
1.0
176
     1
 40
1.0
176
     1
  0
VISUALSTYLE
  5
2D
102
{ACAD_REACTORS
330
2A
102
}
330
2A
100
AcDbVisualStyle
  2
Gouraud
 70
     2
177
     3
291
     1
 70
    58
 90
        2
176
     1
 90
        2
176
     1
 90
        1
176
     1
 90
        2
176
     1
 40
0.6
176
     1
 40
30.0
176
     1
 62
     7
420
 16777215
176
     1
 90
        0
176
     1
 90
        0
176
     1
 62
     7
176
     1
 62
   257
176
     1
 90
        1
176
     1
 90
        1
176
     1
 40
1.0
176
     1
 90
        0
176
     1
 62
     7
176
     1
 40
1.0
176
     1
 90
        1
176
     1
 90
        6
176
     1
 90
        2
176
     1
 62
     7
176
     1
 90
        5
176
     1
 90
        0
176
     1
 90
        0
176
     1
290
     0
176
     1
 90
       13
176
     1
 40
0.0
176
     1
 90
        0
176
     1
290
     0
176
     1
290
     1
176
     1
290
     1
176
     1
290
     0
176
     1
290
     0
176
     1
290
     0
176
     1
290
     0
176
     1
290
     0
176
     1
290
     0
176
     1
 90
       50
176
     1
 40
0.0
176
     1
 40
1.0
176
     1
 90
        0
176
     1
 62
    18
420
        0
176
     1
 90
       50
176
     1
 90
        3
176
     1
 62
     5
420
      255
176
     1
290
     0
176
     1
 90
       50
176
     1
 90
       50
176
     1
 90
       50
176
     1
290
     0
176
     1
 90
       50
176
     1
 62
   256
176
     0
 40
1.0
176
     0
 90
        2
176
     1
  1
strokes_ogs.tif
176
     1
290
     0
176
     1
 40
1.0
176
     1
 40
1.0
176
     1
  0
VISUALSTYLE
  5
2E
102
{ACAD_REACTORS
330
2A
102
}
330
2A
100
AcDbVisualStyle
  2
GouraudWithEdges
 70
     3
177
     3
291
     1
 70
    58
 90
        2
176
     1
 90
        2
176
     1
 90
        1
176
     1
 90
        2
176
     1
 40
0.6
176
     1
 40
30.0
176
     1
 62
     7
420
 16777215
176
     1
 90
        1
176
     1
 90
        0
176
     1
 62
     7
176
     1
 62
   257
176
     1
 90
        1
176
     1
 90
        1
176
     1
 40
1.0
176
     1
 90
        0
176
     1
 62
   257
176
     1
 40
1.0
176
     1
 90
        1
176
     1
 90
        6
176
     1
 90
        2
176
     1
 62
     7
176
     1
 90
        5
176
     1
 90
        0
176
     1
 90
        0
176
     1
290
     0
176
     1
 90
       13
176
     1
 40
0.0
176
     1
 90
        0
176
     1
290
     0
176
     1
290
     1
176
     1
290
     1
176
     1
290
     0
176
     1
290
     0
176
     1
290
     0
176
     1
290
     0
176
     1
290
     0
176
     1
290
     0
176
     1
 90
       50
176
     1
 40
0.0
176
     1
 40
1.0
176
     1
 90
        0
176
     1
 62
    18
420
        0
176
     1
 90
       50
176
     1
 90
        3
176
     1
 62
     5
420
      255
176
     1
290
     0
176
     1
 90
       50
176
     1
 90
       50
176
     1
 90
       50
176
     1
290
     0
176
     1
 90
       50
176
     1
 62
   256
176
     0
 40
1.0
176
     0
 90
        2
176
     1
  1
strokes_ogs.tif
176
     1
290
     0
176
     1
 40
1.0
176
     1
 40
1.0
176
     1
  0
VISUALSTYLE
  5
31
102
{ACAD_REACTORS
330
2A
102
}
330
2A
100
AcDbVisualStyle
  2
Hidden
 70
     6
177
     3
291
     0
 70
    58
 90
        1
176
     1
 90
        2
176
     1
 90
        2
176
     1
 90
        0
176
     1
 40
0.6
176
     1
 40
30.0
176
     1
 62
     7
420
 16777215
176
     1
 90
        2
176
     1
 90
        2
176
     1
 62
     7
176
     1
 62
   257
176
     1
 90
        2
176
     1
 90
        1
176
     1
 40
40.0
176
     1
 90
        0
176
     1
 62
   257
176
     1
 40
1.0
176
     1
 90
        1
176
     1
 90
        6
176
     1
 90
        2
176
     1
 62
     7
176
     1
 90
        3
176
     1
 90
        0
176
     1
 90
        0
176
     1
290
     0
176
     1
 90
        1
176
     1
 40
0.0
176
     1
 90
        0
176
     1
290
     0
176
     1
290
     1
176
     1
290
     1
176
     1
290
     0
176
     1
290
     0
176
     1
290
     0
176
     1
290
     0
176
     1
290
     0
176
     1
290
     0
176
     1
 90
       50
176
     1
 40
0.0
176
     1
 40
1.0
176
     1
 90
        0
176
     1
 62
    18
420
        0
176
     1
 90
       50
176
     1
 90
        3
176
     1
 62
     5
420
      255
176
     1
290
     0
176
     1
 90
       50
176
     1
 90
       50
176
     1
 90
       50
176
     1
290
     0
176
     1
 90
       50
176
     1
 62
   256
176
     0
 40
1.0
176
     0
 90
        2
176
     1
  1
strokes_ogs.tif
176
     1
290
     0
176
     1
 40
1.0
176
     1
 40
1.0
176
     1
  0
VISUALSTYLE
  5
3B
102
{ACAD_REACTORS
330
2A
102
}
330
2A
100
AcDbVisualStyle
  2
JitterOff
 70
    20
177
     3
291
     1
 70
    58
 90
        2
176
     0
 90
        2
176
     0
 90
        0
176
     0
 90
        0
176
     0
 40
0.6
176
     0
 40
30.0
176
     0
 62
     7
420
 16777215
176
     0
 90
        1
176
     0
 90
        4
176
     0
 62
     7
176
     0
 62
   257
176
     0
 90
        1
176
     0
 90
        1
176
     0
 40
1.0
176
     0
 90
       10
176
     2
 62
     7
176
     0
 40
1.0
176
     0
 90
        1
176
     0
 90
        6
176
     0
 90
        2
176
     0
 62
     7
176
     0
 90
        5
176
     0
 90
        0
176
     0
 90
        0
176
     0
290
     0
176
     0
 90
        1
176
     0
 40
0.0
176
     0
 90
        0
176
     0
290
     0
176
     0
290
     1
176
     0
290
     1
176
     0
290
     0
176
     0
290
     0
176
     0
290
     0
176
     0
290
     0
176
     0
290
     0
176
     0
290
     0
176
     0
 90
       50
176
     0
 40
0.0
176
     0
 40
1.0
176
     0
 90
        0
176
     0
 62
    18
420
        0
176
     0
 90
       50
176
     0
 90
        3
176
     0
 62
     5
420
      255
176
     0
290
     0
176
     0
 90
       50
176
     0
 90
       50
176
     0
 90
       50
176
     0
290
     0
176
     0
 90
       50
176
     0
 62
   256
176
     0
 40
1.0
176
     0
 90
        2
176
     0
  1
strokes_ogs.tif
176
     0
290
     0
176
     0
 40
1.0
176
     0
 40
1.0
176
     0
  0
VISUALSTYLE
  5
38
102
{ACAD_REACTORS
330
2A
102
}
330
2A
100
AcDbVisualStyle
  2
Linepattern
 70
    14
177
     3
291
     1
 70
    58
 90
        2
176
     1
 90
        2
176
     1
 90
        0
176
     1
 90
        0
176
     1
 40
0.6
176
     1
 40
30.0
176
     1
 62
     7
420
 16777215
176
     1
 90
        1
176
     1
 90
        4
176
     1
 62
     7
176
     1
 62
   257
176
     1
 90
        7
176
     1
 90
        7
176
     1
 40
1.0
176
     1
 90
        8
176
     1
 62
     7
176
     1
 40
1.0
176
     1
 90
        1
176
     1
 90
        6
176
     1
 90
        2
176
     1
 62
     7
176
     1
 90
        5
176
     1
 90
        0
176
     1
 90
        0
176
     1
290
     0
176
     1
 90
        1
176
     1
 40
0.0
176
     1
 90
        0
176
     1
290
     0
176
     1
290
     1
176
     1
290
     1
176
     1
290
     0
176
     1
290
     0
176
     1
290
     0
176
     1
290
     0
176
     1
290
     0
176
     1
290
     0
176
     1
 90
       50
176
     1
 40
0.0
176
     1
 40
1.0
176
     1
 90
        0
176
     1
 62
    18
420
        0
176
     1
 90
       50
176
     1
 90
        3
176
     1
 62
     5
420
      255
176
     1
290
     0
176
     1
 90
       50
176
     1
 90
       50
176
     1
 90
       50
176
     1
290
     0
176
     1
 90
       50
176
     1
 62
   256
176
     0
 40
1.0
176
     0
 90
        2
176
     1
  1
strokes_ogs.tif
176
     1
290
     0
176
     1
 40
1.0
176
     1
 40
1.0
176
     1
  0
VISUALSTYLE
  5
3C
102
{ACAD_REACTORS
330
2A
102
}
330
2A
100
AcDbVisualStyle
  2
OverhangOff
 70
    21
177
     3
291
     1
 70
    58
 90
        2
176
     0
 90
        2
176
     0
 90
        0
176
     0
 90
        0
176
     0
 40
0.6
176
     0
 40
30.0
176
     0
 62
     7
420
 16777215
176
     0
 90
        1
176
     0
 90
        4
176
     0
 62
     7
176
     0
 62
   257
176
     0
 90
        1
176
     0
 90
        1
176
     0
 40
1.0
176
     0
 90
        9
176
     2
 62
     7
176
     0
 40
1.0
176
     0
 90
        1
176
     0
 90
        6
176
     0
 90
        2
176
     0
 62
     7
176
     0
 90
        5
176
     0
 90
        0
176
     0
 90
        0
176
     0
290
     0
176
     0
 90
        1
176
     0
 40
0.0
176
     0
 90
        0
176
     0
290
     0
176
     0
290
     1
176
     0
290
     1
176
     0
290
     0
176
     0
290
     0
176
     0
290
     0
176
     0
290
     0
176
     0
290
     0
176
     0
290
     0
176
     0
 90
       50
176
     0
 40
0.0
176
     0
 40
1.0
176
     0
 90
        0
176
     0
 62
    18
420
        0
176
     0
 90
       50
176
     0
 90
        3
176
     0
 62
     5
420
      255
176
     0
290
     0
176
     0
 90
       50
176
     0
 90
       50
176
     0
 90
       50
176
     0
290
     0
176
     0
 90
       50
176
     0
 62
   256
176
     0
 40
1.0
176
     0
 90
        2
176
     0
  1
strokes_ogs.tif
176
     0
290
     0
176
     0
 40
1.0
176
     0
 40
1.0
176
     0
  0
VISUALSTYLE
  5
33
102
{ACAD_REACTORS
330
2A
102
}
330
2A
100
AcDbVisualStyle
  2
Realistic
 70
     8
177
     3
291
     0
 70
    58
 90
        2
176
     1
 90
        3
176
     1
 90
        0
176
     1
 90
        2
176
     1
 40
0.6
176
     1
 40
30.0
176
     1
 62
     7
420
 16777215
176
     1
 90
        0
176
     1
 90
        0
176
     1
 62
     7
176
     1
 62
   257
176
     1
 90
        1
176
     1
 90
        1
176
     1
 40
1.0
176
     1
 90
        8
176
     1
 62
   257
176
     1
 40
1.0
176
     1
 90
        1
176
     1
 90
        6
176
     1
 90
        2
176
     1
 62
     7
176
     1
 90
        3
176
     1
 90
        0
176
     1
 90
        0
176
     1
290
     0
176
     1
 90
       13
176
     1
 40
0.0
176
     1
 90
        0
176
     1
290
     0
176
     1
290
     1
176
     1
290
     1
176
     1
290
     0
176
     1
290
     0
176
     1
290
     0
176
     1
290
     0
176
     1
290
     0
176
     1
290
     0
176
     1
 90
       50
176
     1
 40
0.0
176
     1
 40
1.0
176
     1
 90
        0
176
     1
 62
    18
420
        0
176
     1
 90
       50
176
     1
 90
        3
176
     1
 62
     5
420
      255
176
     1
290
     0
176
     1
 90
       50
176
     1
 90
       50
176
     1
 90
       50
176
     1
290
     0
176
     1
 90
       50
176
     1
 62
   256
176
     0
 40
1.0
176
     0
 90
        2
176
     1
  1
strokes_ogs.tif
176
     1
290
     0
176
     1
 40
1.0
176
     1
 40
1.0
176
     1
  0
VISUALSTYLE
  5
42
102
{ACAD_REACTORS
330
2A
102
}
330
2A
100
AcDbVisualStyle
  2
Shaded
 70
    27
177
     3
291
     0
 70
    58
 90
        2
176
     1
 90
        2
176
     1
 90
        1
176
     1
 90
        2
176
     1
 40
0.6
176
     1
 40
30.0
176
     1
 62
     7
420
 16777215
176
     1
 90
        0
176
     1
 90
        4
176
     1
 62
     7
176
     1
 62
   257
176
     1
 90
        1
176
     1
 90
        1
176
     1
 40
1.0
176
     1
 90
        8
176
     1
 62
   257
176
     1
 40
1.0
176
     1
 90
        1
176
     1
 90
        6
176
     1
 90
        2
176
     1
 62
     8
420
  7895160
176
     1
 90
        3
176
     1
 90
        0
176
     1
 90
        0
176
     1
290
     0
176
     1
 90
        5
176
     1
 40
0.0
176
     1
 90
        0
176
     1
290
     0
176
     1
290
     1
176
     1
290
     1
176
     1
290
     0
176
     1
290
     0
176
     1
290
     0
176
     1
290
     0
176
     1
290
     0
176
     1
290
     0
176
     1
 90
       50
176
     1
 40
0.0
176
     1
 40
1.0
176
     1
 90
        0
176
     1
 62
    18
420
        0
176
     1
 90
       50
176
     1
 90
        3
176
     1
 62
     5
420
      255
176
     1
290
     0
176
     1
 90
       50
176
     1
 90
       50
176
     1
 90
       50
176
     1
290
     0
176
     1
 90
       50
176
     1
 62
   256
176
     0
 40
1.0
176
     0
 90
        2
176
     1
  1
strokes_ogs.tif
176
     1
290
     0
176
     1
 40
1.0
176
     1
 40
1.0
176
     1
  0
VISUALSTYLE
  5
41
102
{ACAD_REACTORS
330
2A
102
}
330
2A
100
AcDbVisualStyle
  2
Shaded with edges
 70
    26
177
     3
291
     0
 70
    58
 90
        2
176
     1
 90
        2
176
     1
 90
        1
176
     1
 90
        2
176
     1
 40
0.6
176
     1
 40
30.0
176
     1
 62
     7
420
 16777215
176
     1
 90
        1
176
     1
 90
       10
176
     1
 62
     7
176
     1
 62
   257
176
     1
 90
        2
176
     1
 90
        1
176
     1
 40
1.0
176
     1
 90
        8
176
     1
 62
   257
176
     1
 40
1.0
176
     1
 90
        1
176
     1
 90
        6
176
     1
 90
        2
176
     1
 62
     7
176
     1
 90
        3
176
     1
 90
        0
176
     1
 90
        0
176
     1
290
     0
176
     1
 90
        5
176
     1
 40
0.0
176
     1
 90
        0
176
     1
290
     0
176
     1
290
     1
176
     1
290
     1
176
     1
290
     0
176
     1
290
     0
176
     1
290
     0
176
     1
290
     0
176
     1
290
     0
176
     1
290
     0
176
     1
 90
       50
176
     1
 40
0.0
176
     1
 40
1.0
176
     1
 90
        0
176
     1
 62
    18
420
        0
176
     1
 90
       50
176
     1
 90
        3
176
     1
 62
     5
420
      255
176
     1
290
     0
176
     1
 90
       50
176
     1
 90
       50
176
     1
 90
       50
176
     1
290
     0
176
     1
 90
       50
176
     1
 62
   256
176
     0
 40
1.0
176
     0
 90
        2
176
     1
  1
strokes_ogs.tif
176
     1
290
     0
176
     1
 40
1.0
176
     1
 40
1.0
176
     1
  0
VISUALSTYLE
  5
3E
102
{ACAD_REACTORS
330
2A
102
}
330
2A
100
AcDbVisualStyle
  2
Shades of Gray
 70
    23
177
     3
291
     0
 70
    58
 90
        2
176
     1
 90
        2
176
     1
 90
        3
176
     1
 90
        0
176
     1
 40
0.6
176
     1
 40
30.0
176
     1
 62
     7
420
 16777215
176
     1
 90
        2
176
     1
 90
        2
176
     1
 62
     7
176
     1
 62
     7
176
     1
 90
        1
176
     1
 90
        1
176
     1
 40
40.0
176
     1
 90
        8
176
     1
 62
     7
176
     1
 40
1.0
176
     1
 90
        1
176
     1
 90
        6
176
     1
 90
        2
176
     1
 62
     7
176
     1
 90
        3
176
     1
 90
        0
176
     1
 90
        0
176
     1
290
     0
176
     1
 90
        1
176
     1
 40
0.0
176
     1
 90
        0
176
     1
290
     0
176
     1
290
     1
176
     1
290
     1
176
     1
290
     0
176
     1
290
     0
176
     1
290
     0
176
     1
290
     0
176
     1
290
     0
176
     1
290
     0
176
     1
 90
       50
176
     1
 40
0.0
176
     1
 40
1.0
176
     1
 90
        0
176
     1
 62
    18
420
        0
176
     1
 90
       50
176
     1
 90
        3
176
     1
 62
     5
420
      255
176
     1
290
     0
176
     1
 90
       50
176
     1
 90
       50
176
     1
 90
       50
176
     1
290
     0
176
     1
 90
       50
176
     1
 62
   256
176
     0
 40
1.0
176
     0
 90
        2
176
     1
  1
strokes_ogs.tif
176
     1
290
     0
176
     1
 40
1.0
176
     1
 40
1.0
176
     1
  0
VISUALSTYLE
  5
3F
102
{ACAD_REACTORS
330
2A
102
}
330
2A
100
AcDbVisualStyle
  2
Sketchy
 70
    24
177
     3
291
     0
 70
    58
 90
        1
176
     1
 90
        2
176
     1
 90
        2
176
     1
 90
        0
176
     1
 40
0.6
176
     1
 40
30.0
176
     1
 62
     7
420
 16777215
176
     1
 90
        2
176
     1
 90
        2
176
     1
 62
     7
176
     1
 62
     7
176
     1
 90
        1
176
     1
 90
        1
176
     1
 40
40.0
176
     1
 90
       11
176
     1
 62
     7
176
     1
 40
1.0
176
     1
 90
        1
176
     1
 90
        6
176
     1
 90
        2
176
     1
 62
     7
176
     1
 90
        6
176
     1
 90
        0
176
     1
 90
        0
176
     1
290
     0
176
     1
 90
        1
176
     1
 40
0.0
176
     1
 90
        0
176
     1
290
     0
176
     1
290
     1
176
     1
290
     1
176
     1
290
     0
176
     1
290
     0
176
     1
290
     0
176
     1
290
     0
176
     1
290
     0
176
     1
290
     0
176
     1
 90
       50
176
     1
 40
0.0
176
     1
 40
1.0
176
     1
 90
        0
176
     1
 62
    18
420
        0
176
     1
 90
       50
176
     1
 90
        3
176
     1
 62
     5
420
      255
176
     1
290
     0
176
     1
 90
       50
176
     1
 90
       50
176
     1
 90
       50
176
     1
290
     0
176
     1
 90
       50
176
     1
 62
   256
176
     0
 40
1.0
176
     0
 90
        2
176
     1
  1
strokes_ogs.tif
176
     1
290
     0
176
     1
 40
1.0
176
     1
 40
1.0
176
     1
  0
VISUALSTYLE
  5
37
102
{ACAD_REACTORS
330
2A
102
}
330
2A
100
AcDbVisualStyle
  2
Thicken
 70
    13
177
     3
291
     1
 70
    58
 90
        2
176
     1
 90
        2
176
     1
 90
        0
176
     1
 90
        0
176
     1
 40
0.6
176
     1
 40
30.0
176
     1
 62
     7
420
 16777215
176
     1
 90
        1
176
     1
 90
        4
176
     1
 62
     7
176
     1
 62
   257
176
     1
 90
        1
176
     1
 90
        1
176
     1
 40
1.0
176
     1
 90
       12
176
     1
 62
     7
176
     1
 40
1.0
176
     1
 90
        1
176
     1
 90
        6
176
     1
 90
        2
176
     1
 62
     7
176
     1
 90
        5
176
     1
 90
        0
176
     1
 90
        0
176
     1
290
     0
176
     1
 90
        1
176
     1
 40
0.0
176
     1
 90
        0
176
     1
290
     0
176
     1
290
     1
176
     1
290
     1
176
     1
290
     0
176
     1
290
     0
176
     1
290
     0
176
     1
290
     0
176
     1
290
     0
176
     1
290
     0
176
     1
 90
       50
176
     1
 40
0.0
176
     1
 40
1.0
176
     1
 90
        0
176
     1
 62
    18
420
        0
176
     1
 90
       50
176
     1
 90
        3
176
     1
 62
     5
420
      255
176
     1
290
     0
176
     1
 90
       50
176
     1
 90
       50
176
     1
 90
       50
176
     1
290
     0
176
     1
 90
       50
176
     1
 62
   256
176
     0
 40
1.0
176
     0
 90
        2
176
     1
  1
strokes_ogs.tif
176
     1
290
     0
176
     1
 40
1.0
176
     1
 40
1.0
176
     1
  0
VISUALSTYLE
  5
30
102
{ACAD_REACTORS
330
2A
102
}
330
2A
100
AcDbVisualStyle
  2
Wireframe
 70
     5
177
     3
291
     0
 70
    58
 90
        0
176
     1
 90
        2
176
     1
 90
        0
176
     1
 90
        0
176
     1
 40
0.6
176
     1
 40
30.0
176
     1
 62
     7
420
 16777215
176
     1
 90
        1
176
     1
 90
        4
176
     1
 62
     7
176
     1
 62
   257
176
     1
 90
        1
176
     1
 90
        1
176
     1
 40
1.0
176
     1
 90
        0
176
     1
 62
   257
176
     1
 40
1.0
176
     1
 90
        1
176
     1
 90
        6
176
     1
 90
        2
176
     1
 62
     7
176
     1
 90
        3
176
     1
 90
        0
176
     1
 90
        0
176
     1
290
     0
176
     1
 90
        1
176
     1
 40
0.0
176
     1
 90
        0
176
     1
290
     0
176
     1
290
     1
176
     1
290
     1
176
     1
290
     0
176
     1
290
     0
176
     1
290
     0
176
     1
290
     0
176
     1
290
     0
176
     1
290
     0
176
     1
 90
       50
176
     1
 40
0.0
176
     1
 40
1.0
176
     1
 90
        0
176
     1
 62
    18
420
        0
176
     1
 90
       50
176
     1
 90
        3
176
     1
 62
     5
420
      255
176
     1
290
     0
176
     1
 90
       50
176
     1
 90
       50
176
     1
 90
       50
176
     1
290
     0
176
     1
 90
       50
176
     1
 62
   256
176
     0
 40
1.0
176
     0
 90
        2
176
     1
  1
strokes_ogs.tif
176
     1
290
     0
176
     1
 40
1.0
176
     1
 40
1.0
176
     1
  0
VISUALSTYLE
  5
40
102
{ACAD_REACTORS
330
2A
102
}
330
2A
100
AcDbVisualStyle
  2
X-Ray
 70
    25
177
     3
291
     0
 70
    58
 90
        2
176
     1
 90
        2
176
     1
 90
        1
176
     1
 90
        1
176
     1
 40
0.5
176
     1
 40
30.0
176
     1
 62
     7
420
 16777215
176
     1
 90
        1
176
     1
 90
        0
176
     1
 62
     7
176
     1
 62
   257
176
     1
 90
        1
176
     1
 90
        1
176
     1
 40
1.0
176
     1
 90
        8
176
     1
 62
     7
176
     1
 40
1.0
176
     1
 90
        1
176
     1
 90
        6
176
     1
 90
        2
176
     1
 62
     7
176
     1
 90
        3
176
     1
 90
        0
176
     1
 90
        0
176
     1
290
     0
176
     1
 90
       13
176
     1
 40
0.0
176
     1
 90
        0
176
     1
290
     0
176
     1
290
     1
176
     1
290
     1
176
     1
290
     0
176
     1
290
     0
176
     1
290
     0
176
     1
290
     0
176
     1
290
     0
176
     1
290
     0
176
     1
 90
       50
176
     1
 40
0.0
176
     1
 40
1.0
176
     1
 90
        0
176
     1
 62
    18
420
        0
176
     1
 90
       50
176
     1
 90
        3
176
     1
 62
     5
420
      255
176
     1
290
     0
176
     1
 90
       50
176
     1
 90
       50
176
     1
 90
       50
176
     1
290
     0
176
     1
 90
       50
176
     1
 62
   256
176
     0
 40
1.0
176
     0
 90
        2
176
     1
  1
strokes_ogs.tif
176
     1
290
     0
176
     1
 40
1.0
176
     1
 40
1.0
176
     1
  0
DICTIONARYVAR
  5
1D1
102
{ACAD_REACTORS
330
1D0
102
}
330
1D0
100
DictionaryVariables
280
     0
  1
1:1
  0
DICTIONARYVAR
  5
1D6
102
{ACAD_REACTORS
330
1D0
102
}
330
1D0
100
DictionaryVariables
280
     0
  1
Standard
  0
DICTIONARYVAR
  5
1D5
102
{ACAD_REACTORS
330
1D0
102
}
330
1D0
100
DictionaryVariables
280
     0
  1
Standard
  0
DICTIONARY
  5
1D2
330
6A
100
AcDbDictionary
280
     1
281
     1
  3
ACAD_ROUNDTRIP_2008_TABLESTYLE_CELLSTYLEMAP
360
1D3
  0
CELLSTYLEMAP
  5
1D3
102
{ACAD_REACTORS
330
1D2
102
}
330
1D2
100
AcDbCellStyleMap
 90
        3
300
CELLSTYLE
  1
TABLEFORMAT_BEGIN
 90
        5
170
     1
 91
        0
 92
    32768
 62
   257
 93
        1
300
CONTENTFORMAT
  1
CONTENTFORMAT_BEGIN
 90
        0
 91
        0
 92
        4
 93
        0
300

 40
0.0
140
1.0
 94
        5
 62
     0
340
11
144
0.25
309
CONTENTFORMAT_END
171
     1
301
MARGIN
  1
CELLMARGIN_BEGIN
 40
0.06
 40
0.06
 40
0.06
 40
0.06
 40
0.06
 40
0.06
309
CELLMARGIN_END
 94
        6
 95
        1
302
GRIDFORMAT
  1
GRIDFORMAT_BEGIN
 90
        0
 91
        1
 62
     0
 92
       -2
340
14
 93
        0
 40
0.045
309
GRIDFORMAT_END
 95
        2
302
GRIDFORMAT
  1
GRIDFORMAT_BEGIN
 90
        0
 91
        1
 62
     0
 92
       -2
340
14
 93
        0
 40
0.045
309
GRIDFORMAT_END
 95
        4
302
GRIDFORMAT
  1
GRIDFORMAT_BEGIN
 90
        0
 91
        1
 62
     0
 92
       -2
340
14
 93
        0
 40
0.045
309
GRIDFORMAT_END
 95
        8
302
GRIDFORMAT
  1
GRIDFORMAT_BEGIN
 90
        0
 91
        1
 62
     0
 92
       -2
340
14
 93
        0
 40
0.045
309
GRIDFORMAT_END
 95
       16
302
GRIDFORMAT
  1
GRIDFORMAT_BEGIN
 90
        0
 91
        1
 62
     0
 92
       -2
340
14
 93
        0
 40
0.045
309
GRIDFORMAT_END
 95
       32
302
GRIDFORMAT
  1
GRIDFORMAT_BEGIN
 90
        0
 91
        1
 62
     0
 92
       -2
340
14
 93
        0
 40
0.045
309
GRIDFORMAT_END
309
TABLEFORMAT_END
  1
CELLSTYLE_BEGIN
 90
        1
 91
        1
300
_TITLE
309
CELLSTYLE_END
300
CELLSTYLE
  1
TABLEFORMAT_BEGIN
 90
        5
170
     1
 91
        0
 92
        0
 62
   257
 93
        1
300
CONTENTFORMAT
  1
CONTENTFORMAT_BEGIN
 90
        0
 91
        0
 92
        4
 93
        0
300

 40
0.0
140
1.0
 94
        5
 62
     0
340
11
144
0.18
309
CONTENTFORMAT_END
171
     1
301
MARGIN
  1
CELLMARGIN_BEGIN
 40
0.06
 40
0.06
 40
0.06
 40
0.06
 40
0.06
 40
0.06
309
CELLMARGIN_END
 94
        6
 95
        1
302
GRIDFORMAT
  1
GRIDFORMAT_BEGIN
 90
        0
 91
        1
 62
     0
 92
       -2
340
14
 93
        0
 40
0.045
309
GRIDFORMAT_END
 95
        2
302
GRIDFORMAT
  1
GRIDFORMAT_BEGIN
 90
        0
 91
        1
 62
     0
 92
       -2
340
14
 93
        0
 40
0.045
309
GRIDFORMAT_END
 95
        4
302
GRIDFORMAT
  1
GRIDFORMAT_BEGIN
 90
        0
 91
        1
 62
     0
 92
       -2
340
14
 93
        0
 40
0.045
309
GRIDFORMAT_END
 95
        8
302
GRIDFORMAT
  1
GRIDFORMAT_BEGIN
 90
        0
 91
        1
 62
     0
 92
       -2
340
14
 93
        0
 40
0.045
309
GRIDFORMAT_END
 95
       16
302
GRIDFORMAT
  1
GRIDFORMAT_BEGIN
 90
        0
 91
        1
 62
     0
 92
       -2
340
14
 93
        0
 40
0.045
309
GRIDFORMAT_END
 95
       32
302
GRIDFORMAT
  1
GRIDFORMAT_BEGIN
 90
        0
 91
        1
 62
     0
 92
       -2
340
14
 93
        0
 40
0.045
309
GRIDFORMAT_END
309
TABLEFORMAT_END
  1
CELLSTYLE_BEGIN
 90
        2
 91
        1
300
_HEADER
309
CELLSTYLE_END
300
CELLSTYLE
  1
TABLEFORMAT_BEGIN
 90
        5
170
     1
 91
        0
 92
        0
 62
   257
 93
        1
300
CONTENTFORMAT
  1
CONTENTFORMAT_BEGIN
 90
        0
 91
        0
 92
        4
 93
        0
300

 40
0.0
140
1.0
 94
        2
 62
     0
340
11
144
0.18
309
CONTENTFORMAT_END
171
     1
301
MARGIN
  1
CELLMARGIN_BEGIN
 40
0.06
 40
0.06
 40
0.06
 40
0.06
 40
0.06
 40
0.06
309
CELLMARGIN_END
 94
        6
 95
        1
302
GRIDFORMAT
  1
GRIDFORMAT_BEGIN
 90
        0
 91
        1
 62
     0
 92
       -2
340
14
 93
        0
 40
0.045
309
GRIDFORMAT_END
 95
        2
302
GRIDFORMAT
  1
GRIDFORMAT_BEGIN
 90
        0
 91
        1
 62
     0
 92
       -2
340
14
 93
        0
 40
0.045
309
GRIDFORMAT_END
 95
        4
302
GRIDFORMAT
  1
GRIDFORMAT_BEGIN
 90
        0
 91
        1
 62
     0
 92
       -2
340
14
 93
        0
 40
0.045
309
GRIDFORMAT_END
 95
        8
302
GRIDFORMAT
  1
GRIDFORMAT_BEGIN
 90
        0
 91
        1
 62
     0
 92
       -2
340
14
 93
        0
 40
0.045
309
GRIDFORMAT_END
 95
       16
302
GRIDFORMAT
  1
GRIDFORMAT_BEGIN
 90
        0
 91
        1
 62
     0
 92
       -2
340
14
 93
        0
 40
0.045
309
GRIDFORMAT_END
 95
       32
302
GRIDFORMAT
  1
GRIDFORMAT_BEGIN
 90
        0
 91
        1
 62
     0
 92
       -2
340
14
 93
        0
 40
0.045
309
GRIDFORMAT_END
309
TABLEFORMAT_END
  1
CELLSTYLE_BEGIN
 90
        3
 91
        2
300
_DATA
309
CELLSTYLE_END
  0
ENDSEC
  0
EOF