0
SECTION
  2
HEADER
  9
$ACADVER
  1
AC1027
  9
$ACADMAINTVER
 70
     8
  9
$DWGCODEPAGE
  3
ANSI_1252
  9
$REQUIREDVERSIONS
160
                 0
  9
$COMMENTS
  1
File was created by Cadenas
  9
$CUSTOMPROPERTYTAG
  1
NN
  9
$CUSTOMPROPERTY
  1
S-2000 Flange Bearing - Square Labyrinth Seal
  9
$CUSTOMPROPERTYTAG
  1
NT
  9
$CUSTOMPROPERTY
  1
S-2000 4 Bolt Square Flange Bearing -Inch
  9
$CUSTOMPROPERTYTAG
  1
NB
  9
$CUSTOMPROPERTY
  1
070602
  9
$CUSTOMPROPERTYTAG
  1
NBSYN
  9
$CUSTOMPROPERTY
  1
$PN.
  9
$CUSTOMPROPERTYTAG
  1
LINA
  9
$CUSTOMPROPERTY
  1
070602
  9
$CUSTOMPROPERTYTAG
  1
SS
  9
$CUSTOMPROPERTY
  1
1-1/2
  9
$CUSTOMPROPERTYTAG
  1
PN
  9
$CUSTOMPROPERTY
  1
070602
  9
$CUSTOMPROPERTYTAG
  1
DESCRIPTION
  9
$CUSTOMPROPERTY
  1
F4S-S2-108L
  9
$CUSTOMPROPERTYTAG
  1
EF
  9
$CUSTOMPROPERTY
  1
Non-Expansion Type
  9
$CUSTOMPROPERTYTAG
  1
ST
  9
$CUSTOMPROPERTY
  1
Labyrinth Seal
  9
$CUSTOMPROPERTYTAG
  1
A
  9
$CUSTOMPROPERTY
  1
2-17/32
  9
$CUSTOMPROPERTYTAG
  1
B
  9
$CUSTOMPROPERTY
  1
4-3/4
  9
$CUSTOMPROPERTYTAG
  1
C
  9
$CUSTOMPROPERTY
  1
2-49/64
  9
$CUSTOMPROPERTYTAG
  1
D
  9
$CUSTOMPROPERTY
  1
3-17/32
  9
$CUSTOMPROPERTYTAG
  1
F
  9
$CUSTOMPROPERTY
  1
1/2
  9
$CUSTOMPROPERTYTAG
  1
G
  9
$CUSTOMPROPERTY
  1
63/64
  9
$CUSTOMPROPERTYTAG
  1
H
  9
$CUSTOMPROPERTY
  1
1/2
  9
$CUSTOMPROPERTYTAG
  1
J
  9
$CUSTOMPROPERTY
  1
3-13/16
  9
$CUSTOMPROPERTYTAG
  1
K
  9
$CUSTOMPROPERTY
  1
5
  9
$CUSTOMPROPERTYTAG
  1
L
  9
$CUSTOMPROPERTY
  1
2-3/4
  9
$CUSTOMPROPERTYTAG
  1
N
  9
$CUSTOMPROPERTY
  1
2-31/64
  9
$CUSTOMPROPERTYTAG
  1
P
  9
$CUSTOMPROPERTY
  1
15/64
  9
$CUSTOMPROPERTYTAG
  1
X
  9
$CUSTOMPROPERTY
  1
3/16
  9
$CUSTOMPROPERTYTAG
  1
Y
  9
$CUSTOMPROPERTY
  1
0.020
  9
$CUSTOMPROPERTYTAG
  1
Z
  9
$CUSTOMPROPERTY
  1
1-51/64
  9
$CUSTOMPROPERTYTAG
  1
COMPANY
  9
$CUSTOMPROPERTY
  1
baldor
  9
$INSBASE
 10
0.0
 20
0.0
 30
0.0
  9
$EXTMIN
 10
1.000000000000000E+20
 20
1.000000000000000E+20
 30
1.000000000000000E+20
  9
$EXTMAX
 10
-1.000000000000000E+20
 20
-1.000000000000000E+20
 30
-1.000000000000000E+20
  9
$LIMMIN
 10
0.0
 20
0.0
  9
$LIMMAX
 10
12.0
 20
9.0
  9
$ORTHOMODE
 70
     0
  9
$REGENMODE
 70
     1
  9
$FILLMODE
 70
     1
  9
$QTEXTMODE
 70
     0
  9
$MIRRTEXT
 70
     1
  9
$LTSCALE
 40
1.0
  9
$ATTMODE
 70
     1
  9
$TEXTSIZE
 40
0.2
  9
$TRACEWID
 40
0.05
  9
$TEXTSTYLE
  7
Standard
  9
$CLAYER
  8
0
  9
$CELTYPE
  6
ByLayer
  9
$CECOLOR
 62
   256
  9
$CELTSCALE
 40
1.0
  9
$DISPSILH
 70
     0
  9
$DIMSCALE
 40
1.0
  9
$DIMASZ
 40
0.18
  9
$DIMEXO
 40
0.0625
  9
$DIMDLI
 40
0.38
  9
$DIMRND
 40
0.0
  9
$DIMDLE
 40
0.0
  9
$DIMEXE
 40
0.18
  9
$DIMTP
 40
0.0
  9
$DIMTM
 40
0.0
  9
$DIMTXT
 40
0.18
  9
$DIMCEN
 40
0.09
  9
$DIMTSZ
 40
0.0
  9
$DIMTOL
 70
     0
  9
$DIMLIM
 70
     0
  9
$DIMTIH
 70
     1
  9
$DIMTOH
 70
     1
  9
$DIMSE1
 70
     0
  9
$DIMSE2
 70
     0
  9
$DIMTAD
 70
     0
  9
$DIMZIN
 70
     0
  9
$DIMBLK
  1

  9
$DIMASO
 70
     1
  9
$DIMSHO
 70
     1
  9
$DIMPOST
  1

  9
$DIMAPOST
  1

  9
$DIMALT
 70
     0
  9
$DIMALTD
 70
     2
  9
$DIMALTF
 40
25.4
  9
$DIMLFAC
 40
1.0
  9
$DIMTOFL
 70
     0
  9
$DIMTVP
 40
0.0
  9
$DIMTIX
 70
     0
  9
$DIMSOXD
 70
     0
  9
$DIMSAH
 70
     0
  9
$DIMBLK1
  1

  9
$DIMBLK2
  1

  9
$DIMSTYLE
  2
Standard
  9
$DIMCLRD
 70
     0
  9
$DIMCLRE
 70
     0
  9
$DIMCLRT
 70
     0
  9
$DIMTFAC
 40
1.0
  9
$DIMGAP
 40
0.09
  9
$DIMJUST
 70
     0
  9
$DIMSD1
 70
     0
  9
$DIMSD2
 70
     0
  9
$DIMTOLJ
 70
     1
  9
$DIMTZIN
 70
     0
  9
$DIMALTZ
 70
     0
  9
$DIMALTTZ
 70
     0
  9
$DIMUPT
 70
     0
  9
$DIMDEC
 70
     4
  9
$DIMTDEC
 70
     4
  9
$DIMALTU
 70
     2
  9
$DIMALTTD
 70
     2
  9
$DIMTXSTY
  7
Standard
  9
$DIMAUNIT
 70
     0
  9
$DIMADEC
 70
     0
  9
$DIMALTRND
 40
0.0
  9
$DIMAZIN
 70
     0
  9
$DIMDSEP
 70
    46
  9
$DIMATFIT
 70
     3
  9
$DIMFRAC
 70
     0
  9
$DIMLDRBLK
  1

  9
$DIMLUNIT
 70
     2
  9
$DIMLWD
 70
    -2
  9
$DIMLWE
 70
    -2
  9
$DIMTMOVE
 70
     0
  9
$DIMFXL
 40
1.0
  9
$DIMFXLON
 70
     0
  9
$DIMJOGANG
 40
0.7853981633974483
  9
$DIMTFILL
 70
     0
  9
$DIMTFILLCLR
 70
     0
  9
$DIMARCSYM
 70
     0
  9
$DIMLTYPE
  6

  9
$DIMLTEX1
  6

  9
$DIMLTEX2
  6

  9
$DIMTXTDIRECTION
 70
     0
  9
$LUNITS
 70
     2
  9
$LUPREC
 70
     4
  9
$SKETCHINC
 40
0.1
  9
$FILLETRAD
 40
0.5
  9
$AUNITS
 70
     0
  9
$AUPREC
 70
     0
  9
$MENU
  1
.
  9
$ELEVATION
 40
0.0
  9
$PELEVATION
 40
0.0
  9
$THICKNESS
 40
0.0
  9
$LIMCHECK
 70
     0
  9
$CHAMFERA
 40
0.0
  9
$CHAMFERB
 40
0.0
  9
$CHAMFERC
 40
0.0
  9
$CHAMFERD
 40
0.0
  9
$SKPOLY
 70
     0
  9
$TDCREATE
 40
2458168.984748299
  9
$TDUCREATE
 40
2458168.943081632
  9
$TDUPDATE
 40
2458168.984748472
  9
$TDUUPDATE
 40
2458168.943081805
  9
$TDINDWG
 40
0.0000000116
  9
$TDUSRTIMER
 40
0.0000000116
  9
$USRTIMER
 70
     1
  9
$ANGBASE
 50
0.0
  9
$ANGDIR
 70
     0
  9
$PDMODE
 70
     0
  9
$PDSIZE
 40
0.0
  9
$PLINEWID
 40
0.0
  9
$SPLFRAME
 70
     0
  9
$SPLINETYPE
 70
     6
  9
$SPLINESEGS
 70
     8
  9
$HANDSEED
  5
1DE
  9
$SURFTAB1
 70
     6
  9
$SURFTAB2
 70
     6
  9
$SURFTYPE
 70
     6
  9
$SURFU
 70
     6
  9
$SURFV
 70
     6
  9
$UCSBASE
  2

  9
$UCSNAME
  2

  9
$UCSORG
 10
0.0
 20
0.0
 30
0.0
  9
$UCSXDIR
 10
1.0
 20
0.0
 30
0.0
  9
$UCSYDIR
 10
0.0
 20
1.0
 30
0.0
  9
$UCSORTHOREF
  2

  9
$UCSORTHOVIEW
 70
     0
  9
$UCSORGTOP
 10
0.0
 20
0.0
 30
0.0
  9
$UCSORGBOTTOM
 10
0.0
 20
0.0
 30
0.0
  9
$UCSORGLEFT
 10
0.0
 20
0.0
 30
0.0
  9
$UCSORGRIGHT
 10
0.0
 20
0.0
 30
0.0
  9
$UCSORGFRONT
 10
0.0
 20
0.0
 30
0.0
  9
$UCSORGBACK
 10
0.0
 20
0.0
 30
0.0
  9
$PUCSBASE
  2

  9
$PUCSNAME
  2

  9
$PUCSORG
 10
0.0
 20
0.0
 30
0.0
  9
$PUCSXDIR
 10
1.0
 20
0.0
 30
0.0
  9
$PUCSYDIR
 10
0.0
 20
1.0
 30
0.0
  9
$PUCSORTHOREF
  2

  9
$PUCSORTHOVIEW
 70
     0
  9
$PUCSORGTOP
 10
0.0
 20
0.0
 30
0.0
  9
$PUCSORGBOTTOM
 10
0.0
 20
0.0
 30
0.0
  9
$PUCSORGLEFT
 10
0.0
 20
0.0
 30
0.0
  9
$PUCSORGRIGHT
 10
0.0
 20
0.0
 30
0.0
  9
$PUCSORGFRONT
 10
0.0
 20
0.0
 30
0.0
  9
$PUCSORGBACK
 10
0.0
 20
0.0
 30
0.0
  9
$USERI1
 70
     0
  9
$USERI2
 70
     0
  9
$USERI3
 70
     0
  9
$USERI4
 70
     0
  9
$USERI5
 70
     0
  9
$USERR1
 40
0.0
  9
$USERR2
 40
0.0
  9
$USERR3
 40
0.0
  9
$USERR4
 40
0.0
  9
$USERR5
 40
0.0
  9
$WORLDVIEW
 70
     1
  9
$SHADEDGE
 70
     3
  9
$SHADEDIF
 70
    70
  9
$TILEMODE
 70
     1
  9
$MAXACTVP
 70
    64
  9
$PINSBASE
 10
0.0
 20
0.0
 30
0.0
  9
$PLIMCHECK
 70
     0
  9
$PEXTMIN
 10
1.000000000000000E+20
 20
1.000000000000000E+20
 30
1.000000000000000E+20
  9
$PEXTMAX
 10
-1.000000000000000E+20
 20
-1.000000000000000E+20
 30
-1.000000000000000E+20
  9
$PLIMMIN
 10
0.0
 20
0.0
  9
$PLIMMAX
 10
12.0
 20
9.0
  9
$UNITMODE
 70
     0
  9
$VISRETAIN
 70
     1
  9
$PLINEGEN
 70
     0
  9
$PSLTSCALE
 70
     1
  9
$TREEDEPTH
 70
  3020
  9
$CMLSTYLE
  2
Standard
  9
$CMLJUST
 70
     0
  9
$CMLSCALE
 40
1.0
  9
$PROXYGRAPHICS
 70
     1
  9
$MEASUREMENT
 70
     0
  9
$CELWEIGHT
370
    -1
  9
$ENDCAPS
280
     0
  9
$JOINSTYLE
280
     0
  9
$LWDISPLAY
290
     0
  9
$INSUNITS
 70
     1
  9
$HYPERLINKBASE
  1

  9
$STYLESHEET
  1

  9
$XEDIT
290
     1
  9
$CEPSNTYPE
380
     0
  9
$PSTYLEMODE
290
     1
  9
$FINGERPRINTGUID
  2
{760A897B-278F-4C94-AA6C-E6DF80B5FDF4}
  9
$VERSIONGUID
  2
{FAEB1C32-E019-11D5-929B-00C0DF256EC4}
  9
$EXTNAMES
290
     1
  9
$PSVPSCALE
 40
0.0
  9
$OLESTARTUP
290
     0
  9
$SORTENTS
280
   127
  9
$INDEXCTL
280
     0
  9
$HIDETEXT
280
     1
  9
$XCLIPFRAME
280
     2
  9
$HALOGAP
280
     0
  9
$OBSCOLOR
 70
   257
  9
$OBSLTYPE
280
     0
  9
$INTERSECTIONDISPLAY
280
     0
  9
$INTERSECTIONCOLOR
 70
   257
  9
$DIMASSOC
280
     2
  9
$PROJECTNAME
  1

  9
$CAMERADISPLAY
290
     0
  9
$LENSLENGTH
 40
50.0
  9
$CAMERAHEIGHT
 40
0.0
  9
$STEPSPERSEC
 40
2.0
  9
$STEPSIZE
 40
6.0
  9
$3DDWFPREC
 40
2.0
  9
$PSOLWIDTH
 40
0.25
  9
$PSOLHEIGHT
 40
4.0
  9
$LOFTANG1
 40
1.570796326794897
  9
$LOFTANG2
 40
1.570796326794897
  9
$LOFTMAG1
 40
0.0
  9
$LOFTMAG2
 40
0.0
  9
$LOFTPARAM
 70
     7
  9
$LOFTNORMALS
280
     1
  9
$LATITUDE
 40
37.795
  9
$LONGITUDE
 40
-122.394
  9
$NORTHDIRECTION
 40
0.0
  9
$TIMEZONE
 70
 -8000
  9
$LIGHTGLYPHDISPLAY
280
     1
  9
$TILEMODELIGHTSYNCH
280
     1
  9
$CMATERIAL
347
44
  9
$SOLIDHIST
280
     0
  9
$SHOWHIST
280
     1
  9
$DWFFRAME
280
     2
  9
$DGNFRAME
280
     2
  9
$REALWORLDSCALE
290
     1
  9
$INTERFERECOLOR
 62
   256
  9
$CSHADOW
280
     0
  9
$SHADOWPLANELOCATION
 40
0.0
  0
ENDSEC
  0
SECTION
  2
CLASSES
  0
CLASS
  1
ACDBDICTIONARYWDFLT
  2
AcDbDictionaryWithDefault
  3
ObjectDBX Classes
 90
        0
 91
        4
280
     0
281
     0
  0
CLASS
  1
VISUALSTYLE
  2
AcDbVisualStyle
  3
ObjectDBX Classes
 90
     4095
 91
        4
280
     0
281
     0
  0
CLASS
  1
MATERIAL
  2
AcDbMaterial
  3
ObjectDBX Classes
 90
     1153
 91
        4
280
     0
281
     0
  0
CLASS
  1
SCALE
  2
AcDbScale
  3
ObjectDBX Classes
 90
     1153
 91
        4
280
     0
281
     0
  0
CLASS
  1
TABLESTYLE
  2
AcDbTableStyle
  3
ObjectDBX Classes
 90
     4095
 91
        4
280
     0
281
     0
  0
CLASS
  1
MLEADERSTYLE
  2
AcDbMLeaderStyle
  3
ACDB_MLEADERSTYLE_CLASS
 90
     4095
 91
        4
280
     0
281
     0
  0
CLASS
  1
SUN
  2
AcDbSun
  3
SCENEOE
 90
     1153
 91
        4
280
     0
281
     0
  0
CLASS
  1
DICTIONARYVAR
  2
AcDbDictionaryVar
  3
ObjectDBX Classes
 90
        0
 91
        4
280
     0
281
     0
  0
CLASS
  1
CELLSTYLEMAP
  2
AcDbCellStyleMap
  3
ObjectDBX Classes
 90
     1152
 91
        4
280
     0
281
     0
  0
ENDSEC
  0
SECTION
  2
TABLES
  0
TABLE
  2
VPORT
  5
8
330
0
100
AcDbSymbolTable
 70
     1
  0
VPORT
  5
29
330
8
100
AcDbSymbolTableRecord
100
AcDbViewportTableRecord
  2
*Active
 70
     0
 10
0.0
 20
0.0
 11
1.0
 21
1.0
 12
-1.26765625
 22
0.0191249999999998
 13
0.0
 23
0.0
 14
0.5
 24
0.5
 15
0.5
 25
0.5
 16
0.0
 26
0.0
 36
1.0
 17
0.0
 27
0.0
 37
0.0
 40
4.884015
 41
0.6785490523677755
 42
50.0
 43
0.0
 44
0.0
 50
0.0
 51
0.0
 71
     0
 72
   100
 73
     1
 74
     3
 75
     0
 76
     0
 77
     0
 78
     0
281
     0
 65
     1
110
0.0
120
0.0
130
0.0
111
1.0
121
0.0
131
0.0
112
0.0
122
1.0
132
0.0
 79
     0
146
0.0
348
2F
 60
     3
 61
     5
292
     1
282
     1
141
0.0
142
0.0
 63
   250
361
6D
  0
ENDTAB
  0
TABLE
  2
LTYPE
  5
5
330
0
100
AcDbSymbolTable
 70
     3
  0
LTYPE
  5
14
330
5
100
AcDbSymbolTableRecord
100
AcDbLinetypeTableRecord
  2
ByBlock
 70
     0
  3

 72
    65
 73
     0
 40
0.0
  0
LTYPE
  5
15
330
5
100
AcDbSymbolTableRecord
100
AcDbLinetypeTableRecord
  2
ByLayer
 70
     0
  3

 72
    65
 73
     0
 40
0.0
  0
LTYPE
  5
16
330
5
100
AcDbSymbolTableRecord
100
AcDbLinetypeTableRecord
  2
Continuous
 70
     0
  3
Solid line
 72
    65
 73
     0
 40
0.0
  0
LTYPE
  5
A6
330
5
100
AcDbSymbolTableRecord
100
AcDbLinetypeTableRecord
  2
Dashed
 70
     0
  3

 72
    65
 73
     2
 40
2.0
 49
1.0
 74
     0
 49
-1.0
 74
     0
  0
LTYPE
  5
127
330
5
100
AcDbSymbolTableRecord
100
AcDbLinetypeTableRecord
  2
Center
 70
     0
  3

 72
    65
 73
     4
 40
1.5
 49
0.45
 74
     0
 49
-0.5
 74
     0
 49
0.05
 74
     0
 49
-0.5
 74
     0
  0
ENDTAB
  0
TABLE
  2
LAYER
  5
2
330
0
100
AcDbSymbolTable
 70
     7
  0
LAYER
  5
10
330
2
100
AcDbSymbolTableRecord
100
AcDbLayerTableRecord
  2
0
 70
     0
 62
     7
  6
Continuous
370
    -3
390
F
347
46
348
0
  0
LAYER
  5
72
330
2
100
AcDbSymbolTableRecord
100
AcDbLayerTableRecord
  2
AM_6
 70
     0
 62
    -2
  6
Continuous
370
    35
390
F
347
46
348
0
  0
LAYER
  5
A7
330
2
100
AcDbSymbolTableRecord
100
AcDbLayerTableRecord
  2
AM_9
 70
     0
 62
     6
  6
Dashed
370
    25
390
F
347
46
348
0
  0
LAYER
  5
B8
330
2
100
AcDbSymbolTableRecord
100
AcDbLayerTableRecord
  2
AM_5
 70
     0
 62
     3
  6
Continuous
370
    25
390
F
347
46
348
0
  0
LAYER
  5
BD
330
2
100
AcDbSymbolTableRecord
100
AcDbLayerTableRecord
  2
AM_4
 70
     0
 62
     7
  6
Continuous
370
    50
390
F
347
46
348
0
  0
LAYER
  5
128
330
2
100
AcDbSymbolTableRecord
100
AcDbLayerTableRecord
  2
AM_7
 70
     0
 62
     7
  6
Center
370
    25
390
F
347
46
348
0
  0
LAYER
  5
1CD
330
2
100
AcDbSymbolTableRecord
100
AcDbLayerTableRecord
  2
ConnectionPoints
 70
     0
 62
     7
  6
Continuous
370
    50
390
F
347
46
348
0
  0
ENDTAB
  0
TABLE
  2
STYLE
  5
3
330
0
100
AcDbSymbolTable
 70
     1
  0
STYLE
  5
11
330
3
100
AcDbSymbolTableRecord
100
AcDbTextStyleTableRecord
  2
Standard
 70
     0
 40
0.0
 41
1.0
 50
0.0
 71
     0
 42
0.2
  3
txt
  4

  0
ENDTAB
  0
TABLE
  2
VIEW
  5
6
330
0
100
AcDbSymbolTable
 70
     0
  0
ENDTAB
  0
TABLE
  2
UCS
  5
7
330
0
100
AcDbSymbolTable
 70
     0
  0
ENDTAB
  0
TABLE
  2
APPID
  5
9
330
0
100
AcDbSymbolTable
 70
     1
  0
APPID
  5
12
330
9
100
AcDbSymbolTableRecord
100
AcDbRegAppTableRecord
  2
ACAD
 70
     0
  0
ENDTAB
  0
TABLE
  2
DIMSTYLE
  5
A
330
0
100
AcDbSymbolTable
 70
     1
100
AcDbDimStyleTable
  0
DIMSTYLE
105
27
330
A
100
AcDbSymbolTableRecord
100
AcDbDimStyleTableRecord
  2
Standard
 70
     0
178
     0
340
11
  0
ENDTAB
  0
TABLE
  2
BLOCK_RECORD
  5
1
330
0
100
AcDbSymbolTable
 70
     6
  0
BLOCK_RECORD
  5
1F
330
1
100
AcDbSymbolTableRecord
100
AcDbBlockTableRecord
  2
*Model_Space
340
22
 70
     0
280
     1
281
     0
  0
BLOCK_RECORD
  5
1B
330
1
100
AcDbSymbolTableRecord
100
AcDbBlockTableRecord
  2
*Paper_Space
340
1E
 70
     0
280
     1
281
     0
  0
BLOCK_RECORD
  5
23
330
1
100
AcDbSymbolTableRecord
100
AcDbBlockTableRecord
  2
*Paper_Space0
340
26
 70
     0
280
     1
281
     0
  0
BLOCK_RECORD
  5
6E
330
1
100
AcDbSymbolTableRecord
100
AcDbBlockTableRecord
  2
1_070602_2
340
0
102
{BLKREFS
331
6F
102
}
 70
     0
280
     1
281
     0
  0
BLOCK_RECORD
  5
8D
330
1
100
AcDbSymbolTableRecord
100
AcDbBlockTableRecord
  2
2_1_1_2CS2i_0_in_070602_2
340
0
102
{BLKREFS
331
8E
102
}
 70
     0
280
     1
281
     0
  0
BLOCK_RECORD
  5
D1
330
1
100
AcDbSymbolTableRecord
100
AcDbBlockTableRecord
  2
3_070018i_0_in_070602_2
340
0
102
{BLKREFS
331
D2
102
}
 70
     0
280
     1
281
     0
  0
BLOCK_RECORD
  5
133
330
1
100
AcDbSymbolTableRecord
100
AcDbBlockTableRecord
  2
4_405015E_Inch_0_in_070602_2
340
0
102
{BLKREFS
331
134
102
}
 70
     0
280
     1
281
     0
  0
BLOCK_RECORD
  5
171
330
1
100
AcDbSymbolTableRecord
100
AcDbBlockTableRecord
  2
5_070602H_0_in_070602_2
340
0
102
{BLKREFS
331
172
102
}
 70
     0
280
     1
281
     0
  0
ENDTAB
  0
ENDSEC
  0
SECTION
  2
BLOCKS
  0
BLOCK
  5
20
330
1F
100
AcDbEntity
  8
0
100
AcDbBlockBegin
  2
*Model_Space
 70
     0
 10
0.0
 20
0.0
 30
0.0
  3
*Model_Space
  1

  0
ENDBLK
  5
21
330
1F
100
AcDbEntity
  8
0
100
AcDbBlockEnd
  0
BLOCK
  5
1C
330
1B
100
AcDbEntity
 67
     1
  8
0
100
AcDbBlockBegin
  2
*Paper_Space
 70
     0
 10
0.0
 20
0.0
 30
0.0
  3
*Paper_Space
  1

  0
ENDBLK
  5
1D
330
1B
100
AcDbEntity
 67
     1
  8
0
100
AcDbBlockEnd
  0
BLOCK
  5
24
330
23
100
AcDbEntity
  8
0
100
AcDbBlockBegin
  2
*Paper_Space0
 70
     0
 10
0.0
 20
0.0
 30
0.0
  3
*Paper_Space0
  1

  0
ENDBLK
  5
25
330
23
100
AcDbEntity
  8
0
100
AcDbBlockEnd
  0
BLOCK
  5
70
330
6E
100
AcDbEntity
  8
0
100
AcDbBlockBegin
  2
1_070602_2
 70
     2
 10
0.0
 20
0.0
 30
0.0
  3
1_070602_2
  1

  0
ATTDEF
  5
73
330
6E
100
AcDbEntity
  8
AM_6
100
AcDbText
 10
5.0890625
 20
2.41325
 30
0.0
 40
0.5
  1
S-2000 Flange Bearing - Square Labyrinth Seal
100
AcDbAttributeDefinition
  3

  2
NN
 70
     8
280
     0
  0
ATTDEF
  5
74
330
6E
100
AcDbEntity
  8
AM_6
100
AcDbText
 10
5.0890625
 20
1.91325
 30
0.0
 40
0.5
  1
S-2000 4 Bolt Square Flange Bearing -Inch
100
AcDbAttributeDefinition
  3

  2
NT
 70
     8
280
     0
  0
ATTDEF
  5
75
330
6E
100
AcDbEntity
  8
AM_6
100
AcDbText
 10
5.0890625
 20
1.41325
 30
0.0
 40
0.5
  1
070602
100
AcDbAttributeDefinition
  3

  2
NB
 70
     8
280
     0
  0
ATTDEF
  5
76
330
6E
100
AcDbEntity
  8
AM_6
100
AcDbText
 10
5.0890625
 20
0.9132500000000001
 30
0.0
 40
0.5
  1
$PN.
100
AcDbAttributeDefinition
  3

  2
NBSYN
 70
     8
280
     0
  0
ATTDEF
  5
77
330
6E
100
AcDbEntity
  8
AM_6
100
AcDbText
 10
5.0890625
 20
0.4132500000000001
 30
0.0
 40
0.5
  1
070602
100
AcDbAttributeDefinition
  3

  2
LINA
 70
     8
280
     0
  0
ATTDEF
  5
78
330
6E
100
AcDbEntity
  8
AM_6
100
AcDbText
 10
5.0890625
 20
-0.0867499999999999
 30
0.0
 40
0.5
  1
1-1/2
100
AcDbAttributeDefinition
  3

  2
SS
 70
     8
280
     0
  0
ATTDEF
  5
79
330
6E
100
AcDbEntity
  8
AM_6
100
AcDbText
 10
5.0890625
 20
-0.5867499999999999
 30
0.0
 40
0.5
  1
070602
100
AcDbAttributeDefinition
  3

  2
PN
 70
     8
280
     0
  0
ATTDEF
  5
7A
330
6E
100
AcDbEntity
  8
AM_6
100
AcDbText
 10
5.0890625
 20
-1.08675
 30
0.0
 40
0.5
  1
F4S-S2-108L
100
AcDbAttributeDefinition
  3

  2
DESCRIPTION
 70
     8
280
     0
  0
ATTDEF
  5
7B
330
6E
100
AcDbEntity
  8
AM_6
100
AcDbText
 10
5.0890625
 20
-1.58675
 30
0.0
 40
0.5
  1
Non-Expansion Type
100
AcDbAttributeDefinition
  3

  2
EF
 70
     8
280
     0
  0
ATTDEF
  5
7C
330
6E
100
AcDbEntity
  8
AM_6
100
AcDbText
 10
5.0890625
 20
-2.08675
 30
0.0
 40
0.5
  1
Labyrinth Seal
100
AcDbAttributeDefinition
  3

  2
ST
 70
     8
280
     0
  0
ATTDEF
  5
7D
330
6E
100
AcDbEntity
  8
AM_6
100
AcDbText
 10
5.0890625
 20
-2.58675
 30
0.0
 40
0.5
  1
2-17/32
100
AcDbAttributeDefinition
  3

  2
A
 70
     8
280
     0
  0
ATTDEF
  5
7E
330
6E
100
AcDbEntity
  8
AM_6
100
AcDbText
 10
5.0890625
 20
-3.08675
 30
0.0
 40
0.5
  1
4-3/4
100
AcDbAttributeDefinition
  3

  2
B
 70
     8
280
     0
  0
ATTDEF
  5
7F
330
6E
100
AcDbEntity
  8
AM_6
100
AcDbText
 10
5.0890625
 20
-3.58675
 30
0.0
 40
0.5
  1
2-49/64
100
AcDbAttributeDefinition
  3

  2
C
 70
     8
280
     0
  0
ATTDEF
  5
80
330
6E
100
AcDbEntity
  8
AM_6
100
AcDbText
 10
5.0890625
 20
-4.08675
 30
0.0
 40
0.5
  1
3-17/32
100
AcDbAttributeDefinition
  3

  2
D
 70
     8
280
     0
  0
ATTDEF
  5
81
330
6E
100
AcDbEntity
  8
AM_6
100
AcDbText
 10
5.0890625
 20
-4.58675
 30
0.0
 40
0.5
  1
1/2
100
AcDbAttributeDefinition
  3

  2
F
 70
     8
280
     0
  0
ATTDEF
  5
82
330
6E
100
AcDbEntity
  8
AM_6
100
AcDbText
 10
5.0890625
 20
-5.08675
 30
0.0
 40
0.5
  1
63/64
100
AcDbAttributeDefinition
  3

  2
G
 70
     8
280
     0
  0
ATTDEF
  5
83
330
6E
100
AcDbEntity
  8
AM_6
100
AcDbText
 10
5.0890625
 20
-5.58675
 30
0.0
 40
0.5
  1
1/2
100
AcDbAttributeDefinition
  3

  2
H
 70
     8
280
     0
  0
ATTDEF
  5
84
330
6E
100
AcDbEntity
  8
AM_6
100
AcDbText
 10
5.0890625
 20
-6.08675
 30
0.0
 40
0.5
  1
3-13/16
100
AcDbAttributeDefinition
  3

  2
J
 70
     8
280
     0
  0
ATTDEF
  5
85
330
6E
100
AcDbEntity
  8
AM_6
100
AcDbText
 10
5.0890625
 20
-6.58675
 30
0.0
 40
0.5
  1
5
100
AcDbAttributeDefinition
  3

  2
K
 70
     8
280
     0
  0
ATTDEF
  5
86
330
6E
100
AcDbEntity
  8
AM_6
100
AcDbText
 10
5.0890625
 20
-7.08675
 30
0.0
 40
0.5
  1
2-3/4
100
AcDbAttributeDefinition
  3

  2
L
 70
     8
280
     0
  0
ATTDEF
  5
87
330
6E
100
AcDbEntity
  8
AM_6
100
AcDbText
 10
5.0890625
 20
-7.58675
 30
0.0
 40
0.5
  1
2-31/64
100
AcDbAttributeDefinition
  3

  2
N
 70
     8
280
     0
  0
ATTDEF
  5
88
330
6E
100
AcDbEntity
  8
AM_6
100
AcDbText
 10
5.0890625
 20
-8.08675
 30
0.0
 40
0.5
  1
15/64
100
AcDbAttributeDefinition
  3

  2
P
 70
     8
280
     0
  0
ATTDEF
  5
89
330
6E
100
AcDbEntity
  8
AM_6
100
AcDbText
 10
5.0890625
 20
-8.58675
 30
0.0
 40
0.5
  1
3/16
100
AcDbAttributeDefinition
  3

  2
X
 70
     8
280
     0
  0
ATTDEF
  5
8A
330
6E
100
AcDbEntity
  8
AM_6
100
AcDbText
 10
5.0890625
 20
-9.08675
 30
0.0
 40
0.5
  1
0.020
100
AcDbAttributeDefinition
  3

  2
Y
 70
     8
280
     0
  0
ATTDEF
  5
8B
330
6E
100
AcDbEntity
  8
AM_6
100
AcDbText
 10
5.0890625
 20
-9.58675
 30
0.0
 40
0.5
  1
1-51/64
100
AcDbAttributeDefinition
  3

  2
Z
 70
     8
280
     0
  0
ATTDEF
  5
8C
330
6E
100
AcDbEntity
  8
AM_6
100
AcDbText
 10
5.0890625
 20
-10.08675
 30
0.0
 40
0.5
  1
baldor
100
AcDbAttributeDefinition
  3

  2
COMPANY
 70
     8
280
     0
  0
INSERT
  5
8E
330
6E
100
AcDbEntity
  8
0
100
AcDbBlockReference
  2
2_1_1_2CS2i_0_in_070602_2
 10
0.0
 20
0.0
 30
0.0
  0
INSERT
  5
D2
330
6E
100
AcDbEntity
  8
0
100
AcDbBlockReference
  2
3_070018i_0_in_070602_2
 10
0.0
 20
0.0
 30
0.0
  0
INSERT
  5
134
330
6E
100
AcDbEntity
  8
0
100
AcDbBlockReference
  2
4_405015E_Inch_0_in_070602_2
 10
0.0
 20
0.0
 30
0.0
  0
INSERT
  5
172
330
6E
100
AcDbEntity
  8
0
100
AcDbBlockReference
  2
5_070602H_0_in_070602_2
 10
0.0
 20
0.0
 30
0.0
  0
ENDBLK
  5
71
330
6E
100
AcDbEntity
  8
0
100
AcDbBlockEnd
  0
BLOCK
  5
8F
330
8D
100
AcDbEntity
  8
0
100
AcDbBlockBegin
  2
2_1_1_2CS2i_0_in_070602_2
 70
     2
 10
0.0
 20
0.0
 30
0.0
  3
2_1_1_2CS2i_0_in_070602_2
  1

  0
ATTDEF
  5
91
330
8D
100
AcDbEntity
  8
AM_6
100
AcDbText
 10
2.806375
 20
1.375
 30
0.0
 40
0.5
  1
S-2000 Collar -Inch
100
AcDbAttributeDefinition
  3

  2
NN
 70
     8
280
     0
  0
ATTDEF
  5
92
330
8D
100
AcDbEntity
  8
AM_6
100
AcDbText
 10
2.806375
 20
0.875
 30
0.0
 40
0.5
  1
S-2000 Bearings
100
AcDbAttributeDefinition
  3

  2
NT
 70
     8
280
     0
  0
ATTDEF
  5
93
330
8D
100
AcDbEntity
  8
AM_6
100
AcDbText
 10
2.806375
 20
0.375
 30
0.0
 40
0.5
  1
1-1/2CS2i
100
AcDbAttributeDefinition
  3

  2
NB
 70
     8
280
     0
  0
ATTDEF
  5
94
330
8D
100
AcDbEntity
  8
AM_6
100
AcDbText
 10
2.806375
 20
-0.125
 30
0.0
 40
0.5
  1
$BORE.CS2i
100
AcDbAttributeDefinition
  3

  2
NBSYN
 70
     8
280
     0
  0
ATTDEF
  5
95
330
8D
100
AcDbEntity
  8
AM_6
100
AcDbText
 10
2.806375
 20
-0.625
 30
0.0
 40
0.5
  1
1-1/2CS2i
100
AcDbAttributeDefinition
  3

  2
LINA
 70
     8
280
     0
  0
ATTDEF
  5
96
330
8D
100
AcDbEntity
  8
AM_6
100
AcDbText
 10
2.806375
 20
-1.125
 30
0.0
 40
0.5
  1
1-1/2
100
AcDbAttributeDefinition
  3

  2
BORE
 70
     8
280
     0
  0
ATTDEF
  5
97
330
8D
100
AcDbEntity
  8
AM_6
100
AcDbText
 10
2.806375
 20
-1.625
 30
0.0
 40
0.5
  1
1.500000
100
AcDbAttributeDefinition
  3

  2
BORE1
 70
     8
280
     0
  0
ATTDEF
  5
98
330
8D
100
AcDbEntity
  8
AM_6
100
AcDbText
 10
2.806375
 20
-2.125
 30
0.0
 40
0.5
  1
2-3/4
100
AcDbAttributeDefinition
  3

  2
L1
 70
     8
280
     0
  0
ATTDEF
  5
99
330
8D
100
AcDbEntity
  8
AM_6
100
AcDbText
 10
2.806375
 20
-2.625
 30
0.0
 40
0.5
  1
2.75000
100
AcDbAttributeDefinition
  3

  2
L
 70
     8
280
     0
  0
ATTDEF
  5
9A
330
8D
100
AcDbEntity
  8
AM_6
100
AcDbText
 10
2.806375
 20
-3.125
 30
0.0
 40
0.5
  1
2.65625
100
AcDbAttributeDefinition
  3

  2
L2
 70
     8
280
     0
  0
ATTDEF
  5
9B
330
8D
100
AcDbEntity
  8
AM_6
100
AcDbText
 10
2.806375
 20
-3.625
 30
0.0
 40
0.5
  1
3.38
100
AcDbAttributeDefinition
  3

  2
A
 70
     8
280
     0
  0
ATTDEF
  5
9C
330
8D
100
AcDbEntity
  8
AM_6
100
AcDbText
 10
2.806375
 20
-4.125
 30
0.0
 40
0.5
  1
1.50
100
AcDbAttributeDefinition
  3

  2
B
 70
     8
280
     0
  0
ATTDEF
  5
9D
330
8D
100
AcDbEntity
  8
AM_6
100
AcDbText
 10
2.806375
 20
-4.625
 30
0.0
 40
0.5
  1
2.06
100
AcDbAttributeDefinition
  3

  2
C
 70
     8
280
     0
  0
ATTDEF
  5
9E
330
8D
100
AcDbEntity
  8
AM_6
100
AcDbText
 10
2.806375
 20
-5.125
 30
0.0
 40
0.5
  1
3.25
100
AcDbAttributeDefinition
  3

  2
D
 70
     8
280
     0
  0
ATTDEF
  5
9F
330
8D
100
AcDbEntity
  8
AM_6
100
AcDbText
 10
2.806375
 20
-5.625
 30
0.0
 40
0.5
  1
0.35
100
AcDbAttributeDefinition
  3

  2
E
 70
     8
280
     0
  0
ATTDEF
  5
A0
330
8D
100
AcDbEntity
  8
AM_6
100
AcDbText
 10
2.806375
 20
-6.125
 30
0.0
 40
0.5
  1
0.286
100
AcDbAttributeDefinition
  3

  2
F
 70
     8
280
     0
  0
ATTDEF
  5
A1
330
8D
100
AcDbEntity
  8
AM_6
100
AcDbText
 10
2.806375
 20
-6.625
 30
0.0
 40
0.5
  1
5/16-18
100
AcDbAttributeDefinition
  3

  2
CS
 70
     8
280
     0
  0
ATTDEF
  5
A2
330
8D
100
AcDbEntity
  8
AM_6
100
AcDbText
 10
2.806375
 20
-7.125
 30
0.0
 40
0.5
  1
0.3125
100
AcDbAttributeDefinition
  3

  2
NDM
 70
     8
280
     0
  0
ATTDEF
  5
A3
330
8D
100
AcDbEntity
  8
AM_6
100
AcDbText
 10
2.806375
 20
-7.625
 30
0.0
 40
0.5
  1
0.2520
100
AcDbAttributeDefinition
  3

  2
KDM
 70
     8
280
     0
  0
ATTDEF
  5
A4
330
8D
100
AcDbEntity
  8
AM_6
100
AcDbText
 10
2.806375
 20
-8.125
 30
0.0
 40
0.5
  1
1
100
AcDbAttributeDefinition
  3

  2
DD
 70
     8
280
     0
  0
ATTDEF
  5
A5
330
8D
100
AcDbEntity
  8
AM_6
100
AcDbText
 10
2.806375
 20
-8.625
 30
0.0
 40
0.5
  1
baldor
100
AcDbAttributeDefinition
  3

  2
COMPANY
 70
     8
280
     0
  0
LINE
  5
A8
330
8D
100
AcDbEntity
  8
AM_9
100
AcDbLine
 10
-2.353425
 20
1.039216666666661
 30
0.0
 11
-2.353425
 21
1.34495
 31
0.0
  0
LINE
  5
A9
330
8D
100
AcDbEntity
  8
AM_9
100
AcDbLine
 10
-2.605825
 20
1.328086163487361
 30
0.0
 11
-2.605825
 21
1.039216666666661
 31
0.0
  0
LINE
  5
AA
330
8D
100
AcDbEntity
  8
AM_9
100
AcDbLine
 10
-2.605825
 20
1.039216666666661
 30
0.0
 11
-2.353425
 21
1.039216666666661
 31
0.0
  0
LINE
  5
AB
330
8D
100
AcDbEntity
  8
AM_9
100
AcDbLine
 10
-2.605825
 20
1.039216666666661
 30
0.0
 11
-2.614879312460436
 21
1.030162354206226
 31
0.0
  0
LINE
  5
AC
330
8D
100
AcDbEntity
  8
AM_9
100
AcDbLine
 10
-2.344429100935125
 20
1.030220767601788
 30
0.0
 11
-2.353425
 21
1.039216666666661
 31
0.0
  0
LINE
  5
AD
330
8D
100
AcDbEntity
  8
AM_9
100
AcDbLine
 10
-2.479625
 20
1.34495
 30
0.0
 11
-2.353425
 21
1.34495
 31
0.0
  0
LINE
  5
AE
330
8D
100
AcDbEntity
  8
AM_9
100
AcDbLine
 10
-2.353425
 20
1.34495
 30
0.0
 11
-2.323375
 21
1.375
 31
0.0
  0
LWPOLYLINE
  5
AF
330
8D
100
AcDbEntity
  8
AM_9
100
AcDbPolyline
 90
       38
 70
     0
 43
0.0
 10
-2.381741833062571
 20
0.342072760010716
 10
-2.369127989187927
 20
0.3576428693506656
 10
-2.358948037174172
 20
0.3746144374717397
 10
-2.350230260310261
 20
0.3961116607543901
 10
-2.345316538561018
 20
0.4184119341135765
 10
-2.344384337983457
 20
0.4417378314205234
 10
-2.347658471004591
 20
0.4646207901325312
 10
-2.355225752480756
 20
0.4866404434838053
 10
-2.366865121137573
 20
0.5069596956867745
 10
-2.382101601168282
 20
0.5246885637191114
 10
-2.400694779287333
 20
0.5396547463403879
 10
-2.421026886865826
 20
0.5507655984540446
 10
-2.443385572410201
 20
0.558509003774946
 10
-2.465164899785715
 20
0.5623167344003608
 10
-2.487400263705619
 20
0.5628367738380113
 10
-2.508153298899273
 20
0.5602421549397771
 10
-2.528115383472096
 20
0.5547947228341827
 10
-2.546908698131489
 20
0.5465640775371869
 10
-2.563951636269268
 20
0.5358741898888099
 10
-2.579743201389448
 20
0.5221132796922197
 10
-2.592871269160129
 20
0.5062673685663553
 10
-2.603719504743312
 20
0.4873163369832592
 10
-2.611029346588575
 20
0.4668691695546934
 10
-2.6147113723685
 20
0.4442869216571758
 10
-2.614269252685196
 20
0.421201426421891
 10
-2.609529798856059
 20
0.3977991796571316
 10
-2.600610224404418
 20
0.3752258111704323
 10
-2.587741433877426
 20
0.3543550828782494
 10
-2.571207906120249
 20
0.3357525884283254
 10
-2.552187102812568
 20
0.3207549751852338
 10
-2.530636188780092
 20
0.3092069346310674
 10
-2.508964595658369
 20
0.3021742393179089
 10
-2.486329484274783
 20
0.2989613574359912
 10
-2.46508365374442
 20
0.2996231599950142
 10
-2.444257304702639
 20
0.3037049028914063
 10
-2.424729663110749
 20
0.310937049473274
 10
-2.406645782964527
 20
0.3210083704886006
 10
-2.381741833062571
 20
0.3420727600107161
  0
LINE
  5
B0
330
8D
100
AcDbEntity
  8
AM_9
100
AcDbLine
 10
-2.765625
 20
-1.03
 30
0.0
 11
-2.193625
 21
-1.03
 31
0.0
  0
LINE
  5
B1
330
8D
100
AcDbEntity
  8
AM_9
100
AcDbLine
 10
-2.193625
 20
1.03
 30
0.0
 11
-2.344728499208664
 21
1.03
 31
0.0
  0
LINE
  5
B2
330
8D
100
AcDbEntity
  8
AM_9
100
AcDbLine
 10
-2.614658840512475
 20
1.03
 30
0.0
 11
-2.765625
 21
1.03
 31
0.0
  0
LWPOLYLINE
  5
B3
330
8D
100
AcDbEntity
  8
AM_9
100
AcDbPolyline
 90
       21
 70
     0
 43
0.0
 10
-2.615041666666246
 20
1.029999999999937
 10
-2.614916658032935
 20
1.029981085276194
 10
-2.61170042734938
 20
1.029500183660362
 10
-2.604372146372803
 20
1.028445838517683
 10
-2.592658245786086
 20
1.026880884928272
 10
-2.577772654098443
 20
1.025108016048413
 10
-2.558953395851473
 20
1.023216557386044
 10
-2.53902833163606
 20
1.02164497587827
 10
-2.516313340667502
 20
1.020400023263993
 10
-2.49489254052213
 20
1.019763875754073
 10
-2.472281395295421
 20
1.019661377182347
 10
-2.451796739643923
 20
1.020073403156144
 10
-2.431523058575519
 20
1.02095243956671
 10
-2.412927805808241
 20
1.022168520518038
 10
-2.395630404729407
 20
1.02364885571841
 10
-2.379972453471455
 20
1.025276196241047
 10
-2.366624373010249
 20
1.02687673508421
 10
-2.355823321888074
 20
1.028314017784905
 10
-2.348335214943639
 20
1.029384392792493
 10
-2.344583311504054
 20
1.029943313047362
 10
-2.344208333333419
 20
1.029999999999988
  0
LINE
  5
B4
330
8D
100
AcDbEntity
  8
AM_9
100
AcDbLine
 10
-2.353425
 20
0.4391919412386283
 30
0.0
 11
-2.353425
 21
0.5684004311281539
 31
0.0
  0
LINE
  5
B5
330
8D
100
AcDbEntity
  8
AM_9
100
AcDbLine
 10
-2.605825
 20
0.5612734845163312
 30
0.0
 11
-2.605825
 21
0.4391919412386283
 31
0.0
  0
ELLIPSE
  5
B6
330
8D
100
AcDbEntity
  8
AM_9
100
AcDbEllipse
 10
-2.479624999999997
 20
0.4391919412386285
 30
0.0
 11
0.1261999999999972
 21
0.0
 31
0.0
210
0.0
220
0.0
230
1.0
 40
0.90630778703665
 41
2.584135291900205
 42
6.883425513518679
  0
LINE
  5
B7
330
8D
100
AcDbEntity
  8
AM_9
100
AcDbLine
 10
-2.479625
 20
0.4540243884041286
 30
0.0
 11
-2.479625
 21
0.673126225968746
 31
0.0
  0
LINE
  5
B9
330
8D
100
AcDbEntity
  8
AM_5
100
AcDbLine
 10
-2.635875
 20
1.328125
 30
0.0
 11
-2.635875
 21
1.03
 31
0.0
  0
LINE
  5
BA
330
8D
100
AcDbEntity
  8
AM_5
100
AcDbLine
 10
-2.55775
 20
1.009166666666667
 30
0.0
 11
-2.635875
 21
1.009166666666667
 31
0.0
  0
LINE
  5
BB
330
8D
100
AcDbEntity
  8
AM_5
100
AcDbLine
 10
-2.323375
 20
1.375
 30
0.0
 11
-2.323375
 21
1.03
 31
0.0
  0
LINE
  5
BC
330
8D
100
AcDbEntity
  8
AM_5
100
AcDbLine
 10
-2.4015
 20
1.009166666666667
 30
0.0
 11
-2.323375
 21
1.009166666666667
 31
0.0
  0
ELLIPSE
  5
BE
330
8D
100
AcDbEntity
  8
AM_4
100
AcDbEllipse
 10
-2.479625
 20
0.4391919412386277
 30
0.0
 11
0.1262000000000008
 21
0.0
 31
0.0
210
0.0
220
0.0
230
1.0
 40
0.906307787036649
 41
1.570796326794897
 42
2.584135291900188
  0
LWPOLYLINE
  5
BF
330
8D
100
AcDbEntity
  8
AM_4
100
AcDbPolyline
 90
       11
 70
     0
 43
0.0
 10
-2.605824999460588
 20
0.5612793038508381
 10
-2.605007769742056
 20
0.5742525279795131
 10
-2.600834791427672
 20
0.592897188304635
 10
-2.593277813031322
 20
0.6105297327198234
 10
-2.582487408113066
 20
0.626683744335741
 10
-2.568820427508808
 20
0.6409339142733167
 10
-2.552553871310503
 20
0.6529305996906021
 10
-2.534226169132425
 20
0.6623432374875075
 10
-2.514324843468661
 20
0.6688988803997016
 10
-2.49343680399684
 20
0.6724696563666862
 10
-2.479625
 20
0.673126225968746
  0
ELLIPSE
  5
C0
330
8D
100
AcDbEntity
  8
AM_4
100
AcDbEllipse
 10
-2.479625
 20
0.5684004311281532
 30
0.0
 11
0.1262000000000008
 21
0.0
 31
0.0
210
0.0
220
0.0
230
1.0
 40
0.90630778703665
 41
4.71238898038469
 42
7.853981633974483
  0
ELLIPSE
  5
C1
330
8D
100
AcDbEntity
  8
AM_4
100
AcDbEllipse
 10
-2.479625
 20
0.4391919412386279
 30
0.0
 11
0.1262000000000008
 21
0.0
 31
0.0
210
0.0
220
0.0
230
1.0
 40
0.9063077870366473
 41
0.6002402063390839
 42
1.570796326794897
  0
LINE
  5
C2
330
8D
100
AcDbEntity
  8
AM_4
100
AcDbLine
 10
-2.479625
 20
-1.375
 30
0.0
 11
-2.479625
 21
0.4540243884041286
 31
0.0
  0
LWPOLYLINE
  5
C3
330
8D
100
AcDbEntity
  8
AM_4
100
AcDbPolyline
 90
       11
 70
     0
 43
0.0
 10
-2.479625
 20
0.4443741405206955
 10
-2.500756447093476
 20
0.4460730147513535
 10
-2.521290954367899
 20
0.4510651019306764
 10
-2.540631331333701
 20
0.4592341589564921
 10
-2.5582579986566
 20
0.4702776107509175
 10
-2.573691159029479
 20
0.4839313497959742
 10
-2.586478249577083
 20
0.4997155039350314
 10
-2.596234047121186
 20
0.5172133555590326
 10
-2.602695619329845
 20
0.5358529389538452
 10
-2.605623711375933
 20
0.5550340090220672
 10
-2.605824999460588
 20
0.5612793038508381
  0
LWPOLYLINE
  5
C4
330
8D
100
AcDbEntity
  8
AM_4
100
AcDbPolyline
 90
       11
 70
     0
 43
0.0
 10
-2.479625
 20
1.322115568180407
 10
-2.500457977183949
 20
1.322279693772595
 10
-2.521290954367899
 20
1.322771948363885
 10
-2.540372761626058
 20
1.323510432965141
 10
-2.5582579986566
 20
1.32445185797851
 10
-2.573497863042507
 20
1.325443959600253
 10
-2.586478249577083
 20
1.326426474618998
 10
-2.59612804116989
 20
1.327238687737376
 10
-2.602695619329845
 20
1.327831296877443
 10
-2.605619440476503
 20
1.328105483256502
 10
-2.605824999999957
 20
1.328124999999996
  0
LINE
  5
C5
330
8D
100
AcDbEntity
  8
AM_4
100
AcDbLine
 10
-2.670291666666667
 20
-1.328125
 30
0.0
 11
-2.479625
 21
-1.328125
 31
0.0
  0
LINE
  5
C6
330
8D
100
AcDbEntity
  8
AM_4
100
AcDbLine
 10
-2.605414972551335
 20
1.328125
 30
0.0
 11
-2.670291666666667
 21
1.328125
 31
0.0
  0
LINE
  5
C7
330
8D
100
AcDbEntity
  8
AM_4
100
AcDbLine
 10
-2.765625
 20
1.232791666666667
 30
0.0
 11
-2.765625
 21
-1.232791666666667
 31
0.0
  0
ARC
  5
C8
330
8D
100
AcDbEntity
  8
AM_4
100
AcDbCircle
 10
-2.670291666666667
 20
-1.232791666666667
 30
0.0
 40
0.0953333333333326
100
AcDbArc
 50
180.0
 51
270.0
  0
ARC
  5
C9
330
8D
100
AcDbEntity
  8
AM_4
100
AcDbCircle
 10
-2.670291666666667
 20
1.232791666666667
 30
0.0
 40
0.095333333333333
100
AcDbArc
 50
90.0
 51
180.0
  0
LINE
  5
CA
330
8D
100
AcDbEntity
  8
AM_4
100
AcDbLine
 10
-2.670291666666667
 20
1.328125
 30
0.0
 11
-2.670291666666667
 21
-1.328125
 31
0.0
  0
LINE
  5
CB
330
8D
100
AcDbEntity
  8
AM_4
100
AcDbLine
 10
-2.479625
 20
1.366986120150041
 30
0.0
 11
-2.479625
 21
0.673126225968746
 31
0.0
  0
LWPOLYLINE
  5
CC
330
8D
100
AcDbEntity
  8
AM_4
100
AcDbPolyline
 90
       20
 70
     0
 43
0.0
 10
-2.479625
 20
0.712060847933556
 10
-2.459968768213998
 20
0.7110417279007345
 10
-2.440598362511572
 20
0.7080055127829641
 10
-2.414564859755089
 20
0.7004109047954151
 10
-2.390414837676337
 20
0.689076887904278
 10
-2.369283933915898
 20
0.6744515988275497
 10
-2.351413441730541
 20
0.6567261169850116
 10
-2.33802426300055
 20
0.6371991968443258
 10
-2.328734496559511
 20
0.6157201069407844
 10
-2.324137549692404
 20
0.5941502975657457
 10
-2.323732675737965
 20
0.5720101051467508
 10
-2.327399795793293
 20
0.5507228643549761
 10
-2.3348556885824
 20
0.5301269437706739
 10
-2.345974729300734
 20
0.510679296821011
 10
-2.360302875021348
 20
0.4930148281165235
 10
-2.378216163048292
 20
0.4770008883182446
 10
-2.398615490593438
 20
0.4637826156352803
 10
-2.422179246262341
 20
0.4532680229194453
 10
-2.44723050004842
 20
0.4464377804878872
 10
-2.479625
 20
0.4433657479093907
  0
LINE
  5
CD
330
8D
100
AcDbEntity
  8
AM_4
100
AcDbLine
 10
-2.479625
 20
-1.375
 30
0.0
 11
-2.193625
 21
-1.375
 31
0.0
  0
LINE
  5
CE
330
8D
100
AcDbEntity
  8
AM_4
100
AcDbLine
 10
-2.193625
 20
1.375
 30
0.0
 11
-2.323375
 21
1.375
 31
0.0
  0
LWPOLYLINE
  5
CF
330
8D
100
AcDbEntity
  8
AM_4
100
AcDbPolyline
 90
       11
 70
     0
 43
0.0
 10
-2.323375000000031
 20
1.374999999999997
 10
-2.323732675737965
 20
1.374963543381437
 10
-2.327306680200052
 20
1.374603753150546
 10
-2.3348556885824
 20
1.373870707077001
 10
-2.345796252007839
 20
1.372873314516525
 10
-2.360302875021348
 20
1.371669886595542
 10
-2.377960723954482
 20
1.370389074696999
 10
-2.398615490593438
 20
1.369148571323816
 10
-2.42185136308127
 20
1.368086741003399
 10
-2.44723050004842
 20
1.367332328078934
 10
-2.479625
 20
1.366986120150041
  0
LINE
  5
D0
330
8D
100
AcDbEntity
  8
AM_4
100
AcDbLine
 10
-2.193625
 20
1.375
 30
0.0
 11
-2.193625
 21
-1.375
 31
0.0
  0
ENDBLK
  5
90
330
8D
100
AcDbEntity
  8
0
100
AcDbBlockEnd
  0
BLOCK
  5
D3
330
D1
100
AcDbEntity
  8
0
100
AcDbBlockBegin
  2
3_070018i_0_in_070602_2
 70
     2
 10
0.0
 20
0.0
 30
0.0
  3
3_070018i_0_in_070602_2
  1

  0
ATTDEF
  5
D5
330
D1
100
AcDbEntity
  8
AM_6
100
AcDbText
 10
4.765625
 20
1.5748
 30
0.0
 40
0.5
  1
S-2000 Insert -Inch
100
AcDbAttributeDefinition
  3

  2
NN
 70
     8
280
     0
  0
ATTDEF
  5
D6
330
D1
100
AcDbEntity
  8
AM_6
100
AcDbText
 10
4.765625
 20
1.0748
 30
0.0
 40
0.5
  1
S-2000 Bearings
100
AcDbAttributeDefinition
  3

  2
NT
 70
     8
280
     0
  0
ATTDEF
  5
D7
330
D1
100
AcDbEntity
  8
AM_6
100
AcDbText
 10
4.765625
 20
0.5748000000000002
 30
0.0
 40
0.5
  1
070018i
100
AcDbAttributeDefinition
  3

  2
NB
 70
     8
280
     0
  0
ATTDEF
  5
D8
330
D1
100
AcDbEntity
  8
AM_6
100
AcDbText
 10
4.765625
 20
0.0748000000000002
 30
0.0
 40
0.5
  1
$PN.i
100
AcDbAttributeDefinition
  3

  2
NBSYN
 70
     8
280
     0
  0
ATTDEF
  5
D9
330
D1
100
AcDbEntity
  8
AM_6
100
AcDbText
 10
4.765625
 20
-0.4251999999999998
 30
0.0
 40
0.5
  1
070018i
100
AcDbAttributeDefinition
  3

  2
LINA
 70
     8
280
     0
  0
ATTDEF
  5
DA
330
D1
100
AcDbEntity
  8
AM_6
100
AcDbText
 10
4.765625
 20
-0.9251999999999998
 30
0.0
 40
0.5
  1
1-1/2
100
AcDbAttributeDefinition
  3

  2
SS
 70
     8
280
     0
  0
ATTDEF
  5
DB
330
D1
100
AcDbEntity
  8
AM_6
100
AcDbText
 10
4.765625
 20
-1.4252
 30
0.0
 40
0.5
  1
2.06
100
AcDbAttributeDefinition
  3

  2
CC
 70
     8
280
     0
  0
ATTDEF
  5
DC
330
D1
100
AcDbEntity
  8
AM_6
100
AcDbText
 10
4.765625
 20
-1.9252
 30
0.0
 40
0.5
  1
1.500000
100
AcDbAttributeDefinition
  3

  2
SS1
 70
     8
280
     0
  0
ATTDEF
  5
DD
330
D1
100
AcDbEntity
  8
AM_6
100
AcDbText
 10
4.765625
 20
-2.4252
 30
0.0
 40
0.5
  1
070018
100
AcDbAttributeDefinition
  3

  2
PN
 70
     8
280
     0
  0
ATTDEF
  5
DE
330
D1
100
AcDbEntity
  8
AM_6
100
AcDbText
 10
4.765625
 20
-2.9252
 30
0.0
 40
0.5
  1
INS-S2-108L
100
AcDbAttributeDefinition
  3

  2
DESCRIPTION
 70
     8
280
     0
  0
ATTDEF
  5
DF
330
D1
100
AcDbEntity
  8
AM_6
100
AcDbText
 10
4.765625
 20
-3.4252
 30
0.0
 40
0.5
  1
Labyrinth Seal
100
AcDbAttributeDefinition
  3

  2
ST
 70
     8
280
     0
  0
ATTDEF
  5
E0
330
D1
100
AcDbEntity
  8
AM_6
100
AcDbText
 10
4.765625
 20
-3.9252
 30
0.0
 40
0.5
  1
2
100
AcDbAttributeDefinition
  3

  2
ST1
 70
     8
280
     0
  0
ATTDEF
  5
E1
330
D1
100
AcDbEntity
  8
AM_6
100
AcDbText
 10
4.765625
 20
-4.4252
 30
0.0
 40
0.5
  1
3.1496
100
AcDbAttributeDefinition
  3

  2
A
 70
     8
280
     0
  0
ATTDEF
  5
E2
330
D1
100
AcDbEntity
  8
AM_6
100
AcDbText
 10
4.765625
 20
-4.9252
 30
0.0
 40
0.5
  1
61/64
100
AcDbAttributeDefinition
  3

  2
B
 70
     8
280
     0
  0
ATTDEF
  5
E3
330
D1
100
AcDbEntity
  8
AM_6
100
AcDbText
 10
4.765625
 20
-5.4252
 30
0.0
 40
0.5
  1
2-17/32
100
AcDbAttributeDefinition
  3

  2
C
 70
     8
280
     0
  0
ATTDEF
  5
E4
330
D1
100
AcDbEntity
  8
AM_6
100
AcDbText
 10
4.765625
 20
-5.9252
 30
0.0
 40
0.5
  1
0.970
100
AcDbAttributeDefinition
  3

  2
D
 70
     8
280
     0
  0
ATTDEF
  5
E5
330
D1
100
AcDbEntity
  8
AM_6
100
AcDbText
 10
4.765625
 20
-6.4252
 30
0.0
 40
0.5
  1
2-21/32
100
AcDbAttributeDefinition
  3

  2
E
 70
     8
280
     0
  0
ATTDEF
  5
E6
330
D1
100
AcDbEntity
  8
AM_6
100
AcDbText
 10
4.765625
 20
-6.9252
 30
0.0
 40
0.5
  1
0.28125
100
AcDbAttributeDefinition
  3

  2
F
 70
     8
280
     0
  0
ATTDEF
  5
E7
330
D1
100
AcDbEntity
  8
AM_6
100
AcDbText
 10
4.765625
 20
-7.4252
 30
0.0
 40
0.5
  1
1
100
AcDbAttributeDefinition
  3

  2
DD
 70
     8
280
     0
  0
ATTDEF
  5
E8
330
D1
100
AcDbEntity
  8
AM_6
100
AcDbText
 10
4.765625
 20
-7.9252
 30
0.0
 40
0.5
  1
baldor
100
AcDbAttributeDefinition
  3

  2
COMPANY
 70
     8
280
     0
  0
LINE
  5
E9
330
D1
100
AcDbEntity
  8
AM_9
100
AcDbLine
 10
-2.654624999999999
 20
1.029900488665567
 30
0.0
 11
-2.654624999999999
 21
0.7499999999999999
 31
0.0
  0
LINE
  5
EA
330
D1
100
AcDbEntity
  8
AM_9
100
AcDbLine
 10
-2.304625
 20
0.7500000000000001
 30
0.0
 11
-2.304625
 21
1.02997330419809
 31
0.0
  0
LWPOLYLINE
  5
EB
330
D1
100
AcDbEntity
  8
AM_9
100
AcDbPolyline
 90
       11
 70
     0
 43
0.0
 10
-2.479625
 20
0.729297607290741
 10
-2.451112141704142
 20
0.7298547684904165
 10
-2.422599283408285
 20
0.7315237059404148
 10
-2.39649980090404
 20
0.7340196173977525
 10
-2.372018114995577
 20
0.7371934900013393
 10
-2.350770314106991
 20
0.7405933635110336
 10
-2.332583636742891
 20
0.7439732270105617
 10
-2.318817235215275
 20
0.7468159995708844
 10
-2.309333934437304
 20
0.7489152468807656
 10
-2.305020894107825
 20
0.7499077235196381
 10
-2.304625000000993
 20
0.7499999999997684
  0
LINE
  5
EC
330
D1
100
AcDbEntity
  8
AM_9
100
AcDbLine
 10
-0.2343749999999999
 20
0.7499999999999999
 30
0.0
 11
-2.304625
 21
0.7499999999999999
 31
0.0
  0
LINE
  5
ED
330
D1
100
AcDbEntity
  8
AM_9
100
AcDbLine
 10
-2.654624999999999
 20
0.7499999999999999
 30
0.0
 11
-2.765625
 21
0.7499999999999999
 31
0.0
  0
LINE
  5
EE
330
D1
100
AcDbEntity
  8
AM_9
100
AcDbLine
 10
-2.765625
 20
-0.7499999999999999
 30
0.0
 11
-0.2343749999999999
 21
-0.7499999999999999
 31
0.0
  0
LINE
  5
EF
330
D1
100
AcDbEntity
  8
AM_9
100
AcDbLine
 10
-2.653213527927051
 20
0.7496719129245009
 30
0.0
 11
-2.654624999997232
 21
0.749999999999354
 31
0.0
  0
LINE
  5
F0
330
D1
100
AcDbEntity
  8
AM_9
100
AcDbLine
 10
-2.467977011012992
 20
0.7293906193854001
 30
0.0
 11
-2.482824106724627
 21
0.7293046237916193
 31
0.0
  0
LWPOLYLINE
  5
F1
330
D1
100
AcDbEntity
  8
AM_9
100
AcDbPolyline
 90
       11
 70
     0
 43
0.0
 10
-2.654624999997232
 20
0.749999999999354
 10
-2.653117340081001
 20
0.7496496462126702
 10
-2.646859347908089
 20
0.748226120314069
 10
-2.636354766129357
 20
0.7459485368247348
 10
-2.621319384384996
 20
0.7429349221609138
 10
-2.602540463653025
 20
0.739583133396806
 10
-2.579761508331987
 20
0.7361401499041619
 10
-2.554428203095162
 20
0.7331238089117662
 10
-2.526089876514523
 20
0.730776289126508
 10
-2.503301800932385
 20
0.7296818422452293
 10
-2.479625
 20
0.729297607290741
  0
LWPOLYLINE
  5
F2
330
D1
100
AcDbEntity
  8
AM_9
100
AcDbPolyline
 90
       11
 70
     0
 43
0.0
 10
-2.479625
 20
0.1496106243534505
 10
-2.451112141704142
 20
0.1519654303822474
 10
-2.422599283408285
 20
0.1592083924809343
 10
-2.39649980090404
 20
0.170641045898039
 10
-2.372018114995577
 20
0.1864751830626246
 10
-2.350770314106991
 20
0.2056703013479313
 10
-2.332583636742891
 20
0.2284184374912337
 10
-2.318817235215275
 20
0.2530509143378805
 10
-2.309333934437304
 20
0.2799601136035007
 10
-2.305020894107825
 20
0.3062623348724931
 10
-2.304625000338308
 20
0.3169538342538354
  0
LINE
  5
F3
330
D1
100
AcDbEntity
  8
AM_9
100
AcDbLine
 10
-2.654624999999999
 20
0.4352968095929204
 30
0.0
 11
-2.654624999999999
 21
0.3169279517635814
 31
0.0
  0
LINE
  5
F4
330
D1
100
AcDbEntity
  8
AM_9
100
AcDbLine
 10
-2.304625
 20
0.3169040410036654
 30
0.0
 11
-2.304625
 21
0.4352968095929205
 31
0.0
  0
LWPOLYLINE
  5
F5
330
D1
100
AcDbEntity
  8
AM_9
100
AcDbPolyline
 90
        5
 70
     0
 43
0.0
 10
-2.641885719311688
 20
0.3751569684350383
 10
-2.642763401120393
 20
0.3732293436159777
 10
-2.651007536552192
 20
0.3486920473863864
 10
-2.654537049262925
 20
0.3219827896718032
 10
-2.654624999056055
 20
0.3169801696015288
  0
LWPOLYLINE
  5
F6
330
D1
100
AcDbEntity
  8
AM_9
100
AcDbPolyline
 90
        7
 70
     0
 43
0.0
 10
-2.538631280214643
 20
0.4585377762073282
 10
-2.541779365922737
 20
0.4575950855948316
 10
-2.567924183884497
 20
0.4473995651784858
 10
-2.59137787898606
 20
0.4338654403037005
 10
-2.612347979725867
 20
0.416650031114628
 10
-2.629477698018725
 20
0.3965688806955769
 10
-2.641885719311688
 20
0.3751569684350383
  0
LWPOLYLINE
  5
F7
330
D1
100
AcDbEntity
  8
AM_9
100
AcDbPolyline
 90
        8
 70
     0
 43
0.0
 10
-2.317457746447801
 20
0.3753576573341572
 10
-2.320670623664661
 20
0.3817937266989248
 10
-2.334640435474406
 20
0.4030663919470979
 10
-2.352959157660527
 20
0.4222660819749846
 10
-2.374697149320568
 20
0.4383202852002809
 10
-2.400108609799755
 20
0.4513267137448416
 10
-2.427187963445853
 20
0.4603265269961303
 10
-2.436100304025728
 20
0.4623829966218186
  0
LWPOLYLINE
  5
F8
330
D1
100
AcDbEntity
  8
AM_9
100
AcDbPolyline
 90
        4
 70
     0
 43
0.0
 10
-2.304625000338308
 20
0.3169538342538354
 10
-2.305553313172379
 20
0.3331871287581777
 10
-2.31074048555302
 20
0.3579327258066261
 10
-2.317457746447801
 20
0.3753576573341572
  0
LWPOLYLINE
  5
F9
330
D1
100
AcDbEntity
  8
AM_9
100
AcDbPolyline
 90
       11
 70
     0
 43
0.0
 10
-2.654624999056055
 20
0.3169801696015288
 10
-2.653117340081001
 20
0.2960414439781757
 10
-2.646859347908089
 20
0.2694914792026076
 10
-2.636354766129357
 20
0.2446944935997906
 10
-2.621319384384996
 20
0.2208982402671817
 10
-2.602540463653025
 20
0.1996658370664184
 10
-2.579761508331986
 20
0.1810339579736503
 10
-2.554428203095162
 20
0.1664471993484122
 10
-2.526089876514523
 20
0.1559282917166569
 10
-2.503301800932384
 20
0.1512313361296733
 10
-2.479625
 20
0.1496106243534505
  0
LWPOLYLINE
  5
FA
330
D1
100
AcDbEntity
  8
AM_9
100
AcDbPolyline
 90
        7
 70
     0
 43
0.0
 10
-2.356329842554395
 20
0.5446759692353008
 10
-2.344473210716401
 20
0.5335090323920053
 10
-2.327693789970946
 20
0.512421810061792
 10
-2.315215922987896
 20
0.4888968108922436
 10
-2.307496945740267
 20
0.4636141066757644
 10
-2.304637332757163
 20
0.437178845397539
 10
-2.304625000390745
 20
0.4353074083635973
  0
LWPOLYLINE
  5
FB
330
D1
100
AcDbEntity
  8
AM_9
100
AcDbPolyline
 90
       11
 70
     0
 43
0.0
 10
-2.603955919941749
 20
0.5437891818755904
 10
-2.582274442412315
 20
0.5595911889126565
 10
-2.557002185835338
 20
0.572470476848086
 10
-2.529445207691443
 20
0.5815101857421298
 10
-2.500443694058289
 20
0.5865357137500833
 10
-2.471194276640261
 20
0.5873886237707692
 10
-2.442185157994551
 20
0.5841912704250315
 10
-2.414435598729266
 20
0.57702610533654
 10
-2.388496577916395
 20
0.5660964372909015
 10
-2.364889045698534
 20
0.5514393328079237
 10
-2.356329842554395
 20
0.5446759692353008
  0
LWPOLYLINE
  5
FC
330
D1
100
AcDbEntity
  8
AM_9
100
AcDbPolyline
 90
        7
 70
     0
 43
0.0
 10
-2.654624999433229
 20
0.4352840447670453
 10
-2.653584402438499
 20
0.4524927924891724
 10
-2.648010631169831
 20
0.4779654235699384
 10
-2.637832001435086
 20
0.5019422207252202
 10
-2.623204018102753
 20
0.5238887596824134
 10
-2.604632179214583
 20
0.5432018481912034
 10
-2.603955919941749
 20
0.5437891818755904
  0
LWPOLYLINE
  5
FD
330
D1
100
AcDbEntity
  8
AM_9
100
AcDbPolyline
 90
       11
 70
     0
 43
0.0
 10
-2.304625000390745
 20
0.4353074083635973
 10
-2.306739570914647
 20
0.4106668039121871
 10
-2.313602859537034
 20
0.3845202695121024
 10
-2.325070503433349
 20
0.3595496426350273
 10
-2.340757819781523
 20
0.3364478587765529
 10
-2.360539599966389
 20
0.3157129919539335
 10
-2.383658463828577
 20
0.2982517713985706
 10
-2.409715125710379
 20
0.284605511182931
 10
-2.43779191677462
 20
0.2753264581291697
 10
-2.458551628812851
 20
0.2716157931593581
 10
-2.479625
 20
0.2703640821258919
  0
LINE
  5
FE
330
D1
100
AcDbEntity
  8
AM_9
100
AcDbLine
 10
-0.2343749999999999
 20
-1.03
 30
0.0
 11
-0.2343749999999999
 21
1.03
 31
0.0
  0
LINE
  5
FF
330
D1
100
AcDbEntity
  8
AM_9
100
AcDbLine
 10
-0.2343749999999999
 20
1.03
 30
0.0
 11
-0.496375
 21
1.03
 31
0.0
  0
LINE
  5
100
330
D1
100
AcDbEntity
  8
AM_9
100
AcDbLine
 10
-0.496375
 20
-1.03
 30
0.0
 11
-0.2343749999999999
 21
-1.03
 31
0.0
  0
LWPOLYLINE
  5
101
330
D1
100
AcDbEntity
  8
AM_9
100
AcDbPolyline
 90
       11
 70
     0
 43
0.0
 10
-2.479625
 20
0.2703640821258919
 10
-2.508763799809128
 20
0.2727736967612864
 10
-2.537075445305747
 20
0.279840854884448
 10
-2.563730996380489
 20
0.2913712086018144
 10
-2.588041777649895
 20
0.3069075667576416
 10
-2.609493429806787
 20
0.3261783001517113
 10
-2.627308949005365
 20
0.3483957270702719
 10
-2.641008453474293
 20
0.3730602782780942
 10
-2.650126741688253
 20
0.3992486723995775
 10
-2.65430135621241
 20
0.4259085475678556
 10
-2.654624999433229
 20
0.4352840447670453
  0
LWPOLYLINE
  5
102
330
D1
100
AcDbEntity
  8
AM_9
100
AcDbPolyline
 90
       11
 70
     0
 43
0.0
 10
-2.479625
 20
1.01502463024303
 10
-2.508350222652874
 20
1.015431011155587
 10
-2.537075445305747
 20
1.016649179248097
 10
-2.563379103121385
 20
1.018474226374761
 10
-2.588041777649895
 20
1.0207983139073
 10
-2.609226308174267
 20
1.023265116712419
 10
-2.627308949005365
 20
1.025712215386859
 10
-2.640856910293475
 20
1.027750324201789
 10
-2.650126741688253
 20
1.029245278793509
 10
-2.654293716705419
 20
1.029943765744285
 10
-2.654624999999537
 20
1.029999999999922
  0
LINE
  5
103
330
D1
100
AcDbEntity
  8
AM_9
100
AcDbLine
 10
-2.193625
 20
1.03
 30
0.0
 11
-2.304783712798601
 21
1.03
 31
0.0
  0
LINE
  5
104
330
D1
100
AcDbEntity
  8
AM_9
100
AcDbLine
 10
-2.654037704117517
 20
1.03
 30
0.0
 11
-2.765625
 21
1.03
 31
0.0
  0
LINE
  5
105
330
D1
100
AcDbEntity
  8
AM_9
100
AcDbLine
 10
-2.765625
 20
-1.03
 30
0.0
 11
-2.193625
 21
-1.03
 31
0.0
  0
LINE
  5
106
330
D1
100
AcDbEntity
  8
AM_9
100
AcDbLine
 10
-2.306431730007948
 20
1.029694570623027
 30
0.0
 11
-2.304625000000292
 21
1.02999999999995
 31
0.0
  0
LINE
  5
107
330
D1
100
AcDbEntity
  8
AM_9
100
AcDbLine
 10
-2.490135680947195
 20
1.015079048357301
 30
0.0
 11
-2.474721844982886
 21
1.0150364727088
 31
0.0
  0
LWPOLYLINE
  5
108
330
D1
100
AcDbEntity
  8
AM_9
100
AcDbPolyline
 90
       11
 70
     0
 43
0.0
 10
-2.304625000000292
 20
1.02999999999995
 10
-2.306657991700236
 20
1.029656537861131
 10
-2.313602859537034
 20
1.028512688849246
 10
-2.324865829696006
 20
1.026754790976492
 10
-2.340757819781523
 20
1.02447991378154
 10
-2.360224136859124
 20
1.022023270830359
 10
-2.383658463828577
 20
1.019551164025004
 10
-2.409310739729602
 20
1.017457171185782
 10
-2.43779191677462
 20
1.015886315909483
 10
-2.458393586197907
 20
1.015246656203327
 10
-2.479625
 20
1.01502463024303
  0
LINE
  5
109
330
D1
100
AcDbEntity
  8
AM_9
100
AcDbLine
 10
-0.5916874999999999
 20
1.25984
 30
0.0
 11
-0.7278124999999998
 21
1.25984
 31
0.0
  0
LINE
  5
10A
330
D1
100
AcDbEntity
  8
AM_9
100
AcDbLine
 10
-0.7278124999999998
 20
-1.25984
 30
0.0
 11
-0.5916874999999999
 21
-1.25984
 31
0.0
  0
LINE
  5
10B
330
D1
100
AcDbEntity
  8
AM_9
100
AcDbLine
 10
-0.496375
 20
-1.1645275
 30
0.0
 11
-0.496375
 21
1.1645275
 31
0.0
  0
LINE
  5
10C
330
D1
100
AcDbEntity
  8
AM_9
100
AcDbLine
 10
-0.5916874999999999
 20
-1.25984
 30
0.0
 11
-0.5916874999999999
 21
1.25984
 31
0.0
  0
ARC
  5
10D
330
D1
100
AcDbEntity
  8
AM_9
100
AcDbCircle
 10
-0.5916874999999999
 20
1.1645275
 30
0.0
 40
0.0953125
100
AcDbArc
 50
0.0
 51
90.0
  0
ARC
  5
10E
330
D1
100
AcDbEntity
  8
AM_9
100
AcDbCircle
 10
-0.5916874999999999
 20
-1.1645275
 30
0.0
 40
0.0953124999999999
100
AcDbArc
 50
270.0
 51
0.0
  0
LINE
  5
10F
330
D1
100
AcDbEntity
  8
AM_9
100
AcDbLine
 10
-1.6809375
 20
1.25984
 30
0.0
 11
-1.78125
 21
1.25984
 31
0.0
  0
LINE
  5
110
330
D1
100
AcDbEntity
  8
AM_9
100
AcDbLine
 10
-1.78125
 20
-1.25984
 30
0.0
 11
-1.6809375
 21
-1.25984
 31
0.0
  0
LINE
  5
111
330
D1
100
AcDbEntity
  8
AM_9
100
AcDbLine
 10
-1.156718750000001
 20
1.511808
 30
0.0
 11
-1.252031249999999
 21
1.511808
 31
0.0
  0
LINE
  5
112
330
D1
100
AcDbEntity
  8
AM_9
100
AcDbLine
 10
-1.252031249999999
 20
-1.511808
 30
0.0
 11
-1.156718750000001
 21
-1.511808
 31
0.0
  0
LINE
  5
113
330
D1
100
AcDbEntity
  8
AM_9
100
AcDbLine
 10
-0.823125
 20
1.5748
 30
0.0
 11
-1.120350301843208
 21
1.5748
 31
0.0
  0
LINE
  5
114
330
D1
100
AcDbEntity
  8
AM_9
100
AcDbLine
 10
-1.120350301843208
 20
-1.5748
 30
0.0
 11
-0.823125
 21
-1.5748
 31
0.0
  0
LINE
  5
115
330
D1
100
AcDbEntity
  8
AM_9
100
AcDbLine
 10
-1.120350301843208
 20
-1.5748
 30
0.0
 11
-1.120350301843208
 21
1.5748
 31
0.0
  0
LINE
  5
116
330
D1
100
AcDbEntity
  8
AM_9
100
AcDbLine
 10
-1.156718750000001
 20
-1.511808
 30
0.0
 11
-1.156718750000001
 21
1.511808
 31
0.0
  0
LINE
  5
117
330
D1
100
AcDbEntity
  8
AM_9
100
AcDbLine
 10
-1.156718750000001
 20
-1.511808
 30
0.0
 11
-1.120350301843208
 21
-1.5748
 31
0.0
  0
LINE
  5
118
330
D1
100
AcDbEntity
  8
AM_9
100
AcDbLine
 10
-1.120350301843208
 20
1.5748
 30
0.0
 11
-1.156718750000001
 21
1.511808
 31
0.0
  0
LINE
  5
119
330
D1
100
AcDbEntity
  8
AM_9
100
AcDbLine
 10
-1.252031249999999
 20
-1.511808
 30
0.0
 11
-1.252031249999999
 21
1.511808
 31
0.0
  0
LINE
  5
11A
330
D1
100
AcDbEntity
  8
AM_9
100
AcDbLine
 10
-1.252031249999999
 20
1.511808
 30
0.0
 11
-1.288399698156792
 21
1.5748
 31
0.0
  0
LINE
  5
11B
330
D1
100
AcDbEntity
  8
AM_9
100
AcDbLine
 10
-1.288399698156792
 20
-1.5748
 30
0.0
 11
-1.252031249999999
 21
-1.511808
 31
0.0
  0
LINE
  5
11C
330
D1
100
AcDbEntity
  8
AM_9
100
AcDbLine
 10
-0.7278124999999998
 20
-1.4794875
 30
0.0
 11
-0.7278124999999998
 21
1.4794875
 31
0.0
  0
LINE
  5
11D
330
D1
100
AcDbEntity
  8
AM_9
100
AcDbLine
 10
-0.823125
 20
-1.5748
 30
0.0
 11
-0.823125
 21
1.5748
 31
0.0
  0
ARC
  5
11E
330
D1
100
AcDbEntity
  8
AM_9
100
AcDbCircle
 10
-0.8231249999999993
 20
1.4794875
 30
0.0
 40
0.0953124999999996
100
AcDbArc
 50
0.0
 51
90.0
  0
ARC
  5
11F
330
D1
100
AcDbEntity
  8
AM_9
100
AcDbCircle
 10
-0.8231249999999996
 20
-1.4794875
 30
0.0
 40
0.0953124999999999
100
AcDbArc
 50
270.0
 51
0.0
  0
LINE
  5
120
330
D1
100
AcDbEntity
  8
AM_9
100
AcDbLine
 10
-1.6809375
 20
-1.4794875
 30
0.0
 11
-1.6809375
 21
1.4794875
 31
0.0
  0
ARC
  5
121
330
D1
100
AcDbEntity
  8
AM_9
100
AcDbCircle
 10
-1.585625
 20
1.4794875
 30
0.0
 40
0.0953124999999999
100
AcDbArc
 50
90.0
 51
180.0
  0
ARC
  5
122
330
D1
100
AcDbEntity
  8
AM_9
100
AcDbCircle
 10
-1.585625
 20
-1.4794875
 30
0.0
 40
0.0953124999999999
100
AcDbArc
 50
180.0
 51
270.0
  0
LINE
  5
123
330
D1
100
AcDbEntity
  8
AM_9
100
AcDbLine
 10
-1.288399698156792
 20
-1.5748
 30
0.0
 11
-1.288399698156792
 21
1.5748
 31
0.0
  0
LINE
  5
124
330
D1
100
AcDbEntity
  8
AM_9
100
AcDbLine
 10
-1.585625
 20
-1.5748
 30
0.0
 11
-1.585625
 21
1.5748
 31
0.0
  0
LINE
  5
125
330
D1
100
AcDbEntity
  8
AM_9
100
AcDbLine
 10
-1.288399698156792
 20
1.5748
 30
0.0
 11
-1.585625
 21
1.5748
 31
0.0
  0
LINE
  5
126
330
D1
100
AcDbEntity
  8
AM_9
100
AcDbLine
 10
-1.585625
 20
-1.5748
 30
0.0
 11
-1.288399698156792
 21
-1.5748
 31
0.0
  0
LINE
  5
129
330
D1
100
AcDbEntity
  8
AM_7
100
AcDbLine
 10
-2.479625
 20
-0.0528205128205128
 30
0.0
 11
-2.479625
 21
1.393291666666667
 31
0.0
  0
LWPOLYLINE
  5
12A
330
D1
100
AcDbEntity
  8
AM_4
100
AcDbPolyline
 90
        5
 70
     0
 43
0.0
 10
-2.436100304025728
 20
0.4623829966218186
 10
-2.456681190915846
 20
0.465601795142949
 10
-2.485323977220676
 20
0.4667436366788423
 10
-2.514646532747267
 20
0.4639650840630232
 10
-2.538631280214643
 20
0.4585377762073282
  0
LINE
  5
12B
330
D1
100
AcDbEntity
  8
AM_4
100
AcDbLine
 10
-1.912375
 20
1.03
 30
0.0
 11
-2.193625
 21
1.03
 31
0.0
  0
LINE
  5
12C
330
D1
100
AcDbEntity
  8
AM_4
100
AcDbLine
 10
-2.193625
 20
-1.03
 30
0.0
 11
-1.912375
 21
-1.03
 31
0.0
  0
LINE
  5
12D
330
D1
100
AcDbEntity
  8
AM_4
100
AcDbLine
 10
-1.912375
 20
-1.1645275
 30
0.0
 11
-1.912375
 21
1.1645275
 31
0.0
  0
ARC
  5
12E
330
D1
100
AcDbEntity
  8
AM_4
100
AcDbCircle
 10
-1.8170625
 20
1.1645275
 30
0.0
 40
0.0953125000000001
100
AcDbArc
 50
90.0
 51
180.0
  0
ARC
  5
12F
330
D1
100
AcDbEntity
  8
AM_4
100
AcDbCircle
 10
-1.8170625
 20
-1.1645275
 30
0.0
 40
0.0953124999999999
100
AcDbArc
 50
180.0
 51
270.0
  0
LINE
  5
130
330
D1
100
AcDbEntity
  8
AM_4
100
AcDbLine
 10
-1.8170625
 20
-1.25984
 30
0.0
 11
-1.8170625
 21
1.25984
 31
0.0
  0
LINE
  5
131
330
D1
100
AcDbEntity
  8
AM_4
100
AcDbLine
 10
-1.78125
 20
1.25984
 30
0.0
 11
-1.8170625
 21
1.25984
 31
0.0
  0
LINE
  5
132
330
D1
100
AcDbEntity
  8
AM_4
100
AcDbLine
 10
-1.8170625
 20
-1.25984
 30
0.0
 11
-1.78125
 21
-1.25984
 31
0.0
  0
ENDBLK
  5
D4
330
D1
100
AcDbEntity
  8
0
100
AcDbBlockEnd
  0
BLOCK
  5
135
330
133
100
AcDbEntity
  8
0
100
AcDbBlockBegin
  2
4_405015E_Inch_0_in_070602_2
 70
     2
 10
0.0
 20
0.0
 30
0.0
  3
4_405015E_Inch_0_in_070602_2
  1

  0
ATTDEF
  5
137
330
133
100
AcDbEntity
  8
AM_6
100
AcDbText
 10
4.111965742770462
 20
2.38125
 30
0.0
 40
0.5
  1
405015E -Inch
100
AcDbAttributeDefinition
  3

  2
NN
 70
     8
280
     0
  0
ATTDEF
  5
138
330
133
100
AcDbEntity
  8
AM_6
100
AcDbText
 10
4.111965742770462
 20
1.88125
 30
0.0
 40
0.5
  1
Grease Fitting
100
AcDbAttributeDefinition
  3

  2
NT
 70
     8
280
     0
  0
ATTDEF
  5
139
330
133
100
AcDbEntity
  8
AM_6
100
AcDbText
 10
4.111965742770462
 20
1.38125
 30
0.0
 40
0.5
  1
405015E-Inch
100
AcDbAttributeDefinition
  3

  2
NB
 70
     8
280
     0
  0
ATTDEF
  5
13A
330
133
100
AcDbEntity
  8
AM_6
100
AcDbText
 10
4.111965742770462
 20
0.8812500000000001
 30
0.0
 40
0.5
  1
$MN.-Inch
100
AcDbAttributeDefinition
  3

  2
NBSYN
 70
     8
280
     0
  0
ATTDEF
  5
13B
330
133
100
AcDbEntity
  8
AM_6
100
AcDbText
 10
4.111965742770462
 20
0.3812500000000001
 30
0.0
 40
0.5
  1
405015E
100
AcDbAttributeDefinition
  3

  2
LINA
 70
     8
280
     0
  0
ATTDEF
  5
13C
330
133
100
AcDbEntity
  8
AM_6
100
AcDbText
 10
4.111965742770462
 20
-0.1187499999999999
 30
0.0
 40
0.5
  1
405015E
100
AcDbAttributeDefinition
  3

  2
MN
 70
     8
280
     0
  0
ATTDEF
  5
13D
330
133
100
AcDbEntity
  8
AM_6
100
AcDbText
 10
4.111965742770462
 20
-0.6187499999999999
 30
0.0
 40
0.5
  1
1/8 x 27PTF
100
AcDbAttributeDefinition
  3

  2
T
 70
     8
280
     0
  0
ATTDEF
  5
13E
330
133
100
AcDbEntity
  8
AM_6
100
AcDbText
 10
4.111965742770462
 20
-1.11875
 30
0.0
 40
0.5
  1
baldor
100
AcDbAttributeDefinition
  3

  2
COMPANY
 70
     8
280
     0
  0
LINE
  5
13F
330
133
100
AcDbEntity
  8
AM_9
100
AcDbLine
 10
-1.302527872472269
 20
1.74125
 30
0.0
 11
-0.978722127527731
 21
1.74125
 31
0.0
  0
LINE
  5
140
330
133
100
AcDbEntity
  8
AM_9
100
AcDbLine
 10
-0.978722127527731
 20
1.74125
 30
0.0
 11
-0.9420073732187846
 21
1.777964754308947
 31
0.0
  0
LINE
  5
141
330
133
100
AcDbEntity
  8
AM_9
100
AcDbLine
 10
-1.339242626781215
 20
1.777964754308947
 30
0.0
 11
-1.302527872472269
 21
1.74125
 31
0.0
  0
LINE
  5
142
330
133
100
AcDbEntity
  8
AM_9
100
AcDbLine
 10
-1.339242626781215
 20
1.777964754308947
 30
0.0
 11
-0.9420073732187846
 21
1.777964754308947
 31
0.0
  0
LINE
  5
143
330
133
100
AcDbEntity
  8
AM_9
100
AcDbLine
 10
-0.9420073732187846
 20
1.777964754308947
 30
0.0
 11
-0.9348731027769304
 21
2.00625
 31
0.0
  0
LINE
  5
144
330
133
100
AcDbEntity
  8
AM_9
100
AcDbLine
 10
-1.346376897223069
 20
2.00625
 30
0.0
 11
-1.339242626781215
 21
1.777964754308947
 31
0.0
  0
LINE
  5
145
330
133
100
AcDbEntity
  8
AM_5
100
AcDbLine
 10
-0.972475875147652
 20
1.941120087748463
 30
0.0
 11
-0.978722127527731
 21
1.74125
 31
0.0
  0
LINE
  5
146
330
133
100
AcDbEntity
  8
AM_5
100
AcDbLine
 10
-0.9348731027769304
 20
2.00625
 30
0.0
 11
-0.972475875147652
 21
1.941120087748463
 31
0.0
  0
LINE
  5
147
330
133
100
AcDbEntity
  8
AM_5
100
AcDbLine
 10
-1.344341485751557
 20
1.941120087748463
 30
0.0
 11
-0.9369085142484432
 21
1.941120087748463
 31
0.0
  0
LINE
  5
148
330
133
100
AcDbEntity
  8
AM_5
100
AcDbLine
 10
-1.308774124852348
 20
1.941120087748463
 30
0.0
 11
-1.302527872472269
 21
1.74125
 31
0.0
  0
LINE
  5
149
330
133
100
AcDbEntity
  8
AM_5
100
AcDbLine
 10
-1.346376897223069
 20
2.00625
 30
0.0
 11
-1.308774124852348
 21
1.941120087748463
 31
0.0
  0
LINE
  5
14A
330
133
100
AcDbEntity
  8
AM_4
100
AcDbLine
 10
-1.035625
 20
2.21125
 30
0.0
 11
-1.035625
 21
2.24125
 31
0.0
  0
LINE
  5
14B
330
133
100
AcDbEntity
  8
AM_4
100
AcDbLine
 10
-1.245625
 20
2.24125
 30
0.0
 11
-1.245625
 21
2.21125
 31
0.0
  0
LINE
  5
14C
330
133
100
AcDbEntity
  8
AM_4
100
AcDbLine
 10
-1.359375
 20
2.10625
 30
0.0
 11
-0.9218749999999999
 21
2.10625
 31
0.0
  0
LINE
  5
14D
330
133
100
AcDbEntity
  8
AM_4
100
AcDbLine
 10
-0.8880342572295388
 20
2.097182400303386
 30
0.0
 11
-0.9218749999999999
 21
2.10625
 31
0.0
  0
LINE
  5
14E
330
133
100
AcDbEntity
  8
AM_4
100
AcDbLine
 10
-1.359375
 20
2.10625
 30
0.0
 11
-1.393215742770461
 21
2.097182400303386
 31
0.0
  0
LINE
  5
14F
330
133
100
AcDbEntity
  8
AM_4
100
AcDbLine
 10
-0.921875
 20
2.00625
 30
0.0
 11
-0.8880342572295388
 21
2.015317599696615
 31
0.0
  0
LINE
  5
150
330
133
100
AcDbEntity
  8
AM_4
100
AcDbLine
 10
-1.393215742770461
 20
2.015317599696615
 30
0.0
 11
-1.359375
 21
2.00625
 31
0.0
  0
LINE
  5
151
330
133
100
AcDbEntity
  8
AM_4
100
AcDbLine
 10
-1.245625
 20
2.21125
 30
0.0
 11
-1.035625
 21
2.21125
 31
0.0
  0
LINE
  5
152
330
133
100
AcDbEntity
  8
AM_4
100
AcDbLine
 10
-1.245625
 20
2.21125
 30
0.0
 11
-1.259445090734898
 21
2.179003121618572
 31
0.0
  0
LINE
  5
153
330
133
100
AcDbEntity
  8
AM_4
100
AcDbLine
 10
-1.021804909265102
 20
2.179003121618572
 30
0.0
 11
-1.035625
 21
2.21125
 31
0.0
  0
LINE
  5
154
330
133
100
AcDbEntity
  8
AM_4
100
AcDbLine
 10
-1.245625
 20
2.24125
 30
0.0
 11
-1.035625
 21
2.24125
 31
0.0
  0
LINE
  5
155
330
133
100
AcDbEntity
  8
AM_4
100
AcDbLine
 10
-1.035625
 20
2.24125
 30
0.0
 11
-1.005625
 21
2.30125
 31
0.0
  0
LINE
  5
156
330
133
100
AcDbEntity
  8
AM_4
100
AcDbLine
 10
-1.275625
 20
2.30125
 30
0.0
 11
-1.245625
 21
2.24125
 31
0.0
  0
LINE
  5
157
330
133
100
AcDbEntity
  8
AM_4
100
AcDbLine
 10
-1.243302901933188
 20
2.38125
 30
0.0
 11
-1.037947098066812
 21
2.38125
 31
0.0
  0
LINE
  5
158
330
133
100
AcDbEntity
  8
AM_4
100
AcDbLine
 10
-1.275625
 20
2.30125
 30
0.0
 11
-1.005625
 21
2.30125
 31
0.0
  0
LINE
  5
159
330
133
100
AcDbEntity
  8
AM_4
100
AcDbLine
 10
-1.243302901933188
 20
2.38125
 30
0.0
 11
-1.275625
 21
2.30125
 31
0.0
  0
LINE
  5
15A
330
133
100
AcDbEntity
  8
AM_4
100
AcDbLine
 10
-1.005625
 20
2.30125
 30
0.0
 11
-1.037947098066812
 21
2.38125
 31
0.0
  0
LINE
  5
15B
330
133
100
AcDbEntity
  8
AM_4
100
AcDbLine
 10
-1.259445090734898
 20
2.179003121618572
 30
0.0
 11
-1.021804909265102
 21
2.179003121618572
 31
0.0
  0
LINE
  5
15C
330
133
100
AcDbEntity
  8
AM_4
100
AcDbLine
 10
-1.259445090734898
 20
2.179003121618572
 30
0.0
 11
-1.313159053283016
 21
2.124568198540882
 31
0.0
  0
LINE
  5
15D
330
133
100
AcDbEntity
  8
AM_4
100
AcDbLine
 10
-0.9680909467169845
 20
2.124568198540882
 30
0.0
 11
-1.021804909265102
 21
2.179003121618572
 31
0.0
  0
LINE
  5
15E
330
133
100
AcDbEntity
  8
AM_4
100
AcDbLine
 10
-1.313159053283016
 20
2.124568198540882
 30
0.0
 11
-0.9680909467169845
 21
2.124568198540882
 31
0.0
  0
LINE
  5
15F
330
133
100
AcDbEntity
  8
AM_4
100
AcDbLine
 10
-1.313159053283016
 20
2.124568198540882
 30
0.0
 11
-1.354375
 21
2.10625
 31
0.0
  0
LINE
  5
160
330
133
100
AcDbEntity
  8
AM_4
100
AcDbLine
 10
-0.9268749999999999
 20
2.10625
 30
0.0
 11
-0.9680909467169845
 21
2.124568198540882
 31
0.0
  0
LINE
  5
161
330
133
100
AcDbEntity
  8
AM_4
100
AcDbLine
 10
-1.266920371385231
 20
2.097182400303386
 30
0.0
 11
-1.266920371385231
 21
2.015317599696615
 31
0.0
  0
LWPOLYLINE
  5
162
330
133
100
AcDbEntity
  8
AM_4
100
AcDbPolyline
 90
        3
 70
     0
 43
0.0
 10
-1.393215742770461
 20
2.097182400303386
 10
-1.361783864423564
 20
2.10383547505038
 10
-1.330068057077846
 20
2.10625
  0
LINE
  5
163
330
133
100
AcDbEntity
  8
AM_4
100
AcDbLine
 10
-1.393215742770461
 20
2.097182400303386
 30
0.0
 11
-1.393215742770461
 21
2.015317599696615
 31
0.0
  0
LWPOLYLINE
  5
164
330
133
100
AcDbEntity
  8
AM_4
100
AcDbPolyline
 90
        3
 70
     0
 43
0.0
 10
-1.330068057077846
 20
2.00625
 10
-1.361641899924154
 20
2.008643380785034
 10
-1.393215742770461
 20
2.015317599696615
  0
LWPOLYLINE
  5
165
330
133
100
AcDbEntity
  8
AM_4
100
AcDbPolyline
 90
        3
 70
     0
 43
0.0
 10
-1.140625
 20
2.00625
 10
-1.203772685692615
 20
2.008643380785034
 10
-1.266920371385231
 20
2.015317599696615
  0
LWPOLYLINE
  5
166
330
133
100
AcDbEntity
  8
AM_4
100
AcDbPolyline
 90
        3
 70
     0
 43
0.0
 10
-1.266920371385231
 20
2.015317599696615
 10
-1.298352249732128
 20
2.00866452494962
 10
-1.330068057077846
 20
2.00625
  0
LINE
  5
167
330
133
100
AcDbEntity
  8
AM_4
100
AcDbLine
 10
-0.8880342572295388
 20
2.097182400303386
 30
0.0
 11
-0.8880342572295388
 21
2.015317599696615
 31
0.0
  0
LWPOLYLINE
  5
168
330
133
100
AcDbEntity
  8
AM_4
100
AcDbPolyline
 90
        3
 70
     0
 43
0.0
 10
-0.951181942922154
 20
2.10625
 10
-0.9196081000758464
 20
2.103856619214965
 10
-0.8880342572295388
 20
2.097182400303386
  0
LINE
  5
169
330
133
100
AcDbEntity
  8
AM_4
100
AcDbLine
 10
-1.014329628614769
 20
2.097182400303386
 30
0.0
 11
-1.014329628614769
 21
2.015317599696615
 31
0.0
  0
LWPOLYLINE
  5
16A
330
133
100
AcDbEntity
  8
AM_4
100
AcDbPolyline
 90
        3
 70
     0
 43
0.0
 10
-0.8880342572295388
 20
2.015317599696615
 10
-0.9194661355764358
 20
2.00866452494962
 10
-0.951181942922154
 20
2.00625
  0
LWPOLYLINE
  5
16B
330
133
100
AcDbEntity
  8
AM_4
100
AcDbPolyline
 90
        4
 70
     0
 43
0.0
 10
-1.140625
 20
2.10625
 10
-1.092225183944101
 20
2.104832439282863
 10
-1.043825367888202
 20
2.100767587482157
 10
-1.014329628614769
 20
2.097182400303386
  0
LWPOLYLINE
  5
16C
330
133
100
AcDbEntity
  8
AM_4
100
AcDbPolyline
 90
        3
 70
     0
 43
0.0
 10
-1.014329628614769
 20
2.097182400303386
 10
-0.9828977502678724
 20
2.10383547505038
 10
-0.951181942922154
 20
2.10625
  0
LWPOLYLINE
  5
16D
330
133
100
AcDbEntity
  8
AM_4
100
AcDbPolyline
 90
        3
 70
     0
 43
0.0
 10
-1.330068057077846
 20
2.10625
 10
-1.298494214231538
 20
2.103856619214965
 10
-1.266920371385231
 20
2.097182400303386
  0
LWPOLYLINE
  5
16E
330
133
100
AcDbEntity
  8
AM_4
100
AcDbPolyline
 90
        3
 70
     0
 43
0.0
 10
-1.266920371385231
 20
2.097182400303386
 10
-1.204056614691437
 20
2.10383547505038
 10
-1.140625
 20
2.10625
  0
LWPOLYLINE
  5
16F
330
133
100
AcDbEntity
  8
AM_4
100
AcDbPolyline
 90
        3
 70
     0
 43
0.0
 10
-0.951181942922154
 20
2.00625
 10
-0.9827557857684616
 20
2.008643380785034
 10
-1.014329628614769
 20
2.015317599696615
  0
LWPOLYLINE
  5
170
330
133
100
AcDbEntity
  8
AM_4
100
AcDbPolyline
 90
        4
 70
     0
 43
0.0
 10
-1.014329628614769
 20
2.015317599696615
 10
-1.043825367888202
 20
2.011732412517844
 10
-1.092082558752246
 20
2.007675828243072
 10
-1.140625
 20
2.00625
  0
ENDBLK
  5
136
330
133
100
AcDbEntity
  8
0
100
AcDbBlockEnd
  0
BLOCK
  5
173
330
171
100
AcDbEntity
  8
0
100
AcDbBlockBegin
  2
5_070602H_0_in_070602_2
 70
     2
 10
0.0
 20
0.0
 30
0.0
  3
5_070602H_0_in_070602_2
  1

  0
ATTDEF
  5
175
330
171
100
AcDbEntity
  8
AM_6
100
AcDbText
 10
5.0890625
 20
2.41325
 30
0.0
 40
0.5
  1
F4S-S2 -(Labyrinth Seal)-Housing
100
AcDbAttributeDefinition
  3

  2
NN
 70
     8
280
     0
  0
ATTDEF
  5
176
330
171
100
AcDbEntity
  8
AM_6
100
AcDbText
 10
5.0890625
 20
1.91325
 30
0.0
 40
0.5
  1
S-2000 4 Bolt Square Flange Bearing -Inch
100
AcDbAttributeDefinition
  3

  2
NT
 70
     8
280
     0
  0
ATTDEF
  5
177
330
171
100
AcDbEntity
  8
AM_6
100
AcDbText
 10
5.0890625
 20
1.41325
 30
0.0
 40
0.5
  1
070602H
100
AcDbAttributeDefinition
  3

  2
NB
 70
     8
280
     0
  0
ATTDEF
  5
178
330
171
100
AcDbEntity
  8
AM_6
100
AcDbText
 10
5.0890625
 20
0.9132500000000001
 30
0.0
 40
0.5
  1
$PN.H
100
AcDbAttributeDefinition
  3

  2
NBSYN
 70
     8
280
     0
  0
ATTDEF
  5
179
330
171
100
AcDbEntity
  8
AM_6
100
AcDbText
 10
5.0890625
 20
0.4132500000000001
 30
0.0
 40
0.5
  1
070602
100
AcDbAttributeDefinition
  3

  2
LINA
 70
     8
280
     0
  0
ATTDEF
  5
17A
330
171
100
AcDbEntity
  8
AM_6
100
AcDbText
 10
5.0890625
 20
-0.0867499999999999
 30
0.0
 40
0.5
  1
1-1/2
100
AcDbAttributeDefinition
  3

  2
SS
 70
     8
280
     0
  0
ATTDEF
  5
17B
330
171
100
AcDbEntity
  8
AM_6
100
AcDbText
 10
5.0890625
 20
-0.5867499999999999
 30
0.0
 40
0.5
  1
070602
100
AcDbAttributeDefinition
  3

  2
PN
 70
     8
280
     0
  0
ATTDEF
  5
17C
330
171
100
AcDbEntity
  8
AM_6
100
AcDbText
 10
5.0890625
 20
-1.08675
 30
0.0
 40
0.5
  1
F4S-S2-108L
100
AcDbAttributeDefinition
  3

  2
DESCRIPTION
 70
     8
280
     0
  0
ATTDEF
  5
17D
330
171
100
AcDbEntity
  8
AM_6
100
AcDbText
 10
5.0890625
 20
-1.58675
 30
0.0
 40
0.5
  1
Non-Expansion Type
100
AcDbAttributeDefinition
  3

  2
EF
 70
     8
280
     0
  0
ATTDEF
  5
17E
330
171
100
AcDbEntity
  8
AM_6
100
AcDbText
 10
5.0890625
 20
-2.08675
 30
0.0
 40
0.5
  1
2-17/32
100
AcDbAttributeDefinition
  3

  2
A
 70
     8
280
     0
  0
ATTDEF
  5
17F
330
171
100
AcDbEntity
  8
AM_6
100
AcDbText
 10
5.0890625
 20
-2.58675
 30
0.0
 40
0.5
  1
4-3/4
100
AcDbAttributeDefinition
  3

  2
B
 70
     8
280
     0
  0
ATTDEF
  5
180
330
171
100
AcDbEntity
  8
AM_6
100
AcDbText
 10
5.0890625
 20
-3.08675
 30
0.0
 40
0.5
  1
2-49/64
100
AcDbAttributeDefinition
  3

  2
C
 70
     8
280
     0
  0
ATTDEF
  5
181
330
171
100
AcDbEntity
  8
AM_6
100
AcDbText
 10
5.0890625
 20
-3.58675
 30
0.0
 40
0.5
  1
1/2
100
AcDbAttributeDefinition
  3

  2
F
 70
     8
280
     0
  0
ATTDEF
  5
182
330
171
100
AcDbEntity
  8
AM_6
100
AcDbText
 10
5.0890625
 20
-4.08675
 30
0.0
 40
0.5
  1
63/64
100
AcDbAttributeDefinition
  3

  2
G
 70
     8
280
     0
  0
ATTDEF
  5
183
330
171
100
AcDbEntity
  8
AM_6
100
AcDbText
 10
5.0890625
 20
-4.58675
 30
0.0
 40
0.5
  1
1/2
100
AcDbAttributeDefinition
  3

  2
H
 70
     8
280
     0
  0
ATTDEF
  5
184
330
171
100
AcDbEntity
  8
AM_6
100
AcDbText
 10
5.0890625
 20
-5.08675
 30
0.0
 40
0.5
  1
3-13/16
100
AcDbAttributeDefinition
  3

  2
J
 70
     8
280
     0
  0
ATTDEF
  5
185
330
171
100
AcDbEntity
  8
AM_6
100
AcDbText
 10
5.0890625
 20
-5.58675
 30
0.0
 40
0.5
  1
5
100
AcDbAttributeDefinition
  3

  2
K
 70
     8
280
     0
  0
ATTDEF
  5
186
330
171
100
AcDbEntity
  8
AM_6
100
AcDbText
 10
5.0890625
 20
-6.08675
 30
0.0
 40
0.5
  1
5.0000000
100
AcDbAttributeDefinition
  3

  2
K1
 70
     8
280
     0
  0
ATTDEF
  5
187
330
171
100
AcDbEntity
  8
AM_6
100
AcDbText
 10
5.0890625
 20
-6.58675
 30
0.0
 40
0.5
  1
2-3/4
100
AcDbAttributeDefinition
  3

  2
L
 70
     8
280
     0
  0
ATTDEF
  5
188
330
171
100
AcDbEntity
  8
AM_6
100
AcDbText
 10
5.0890625
 20
-7.08675
 30
0.0
 40
0.5
  1
2-31/64
100
AcDbAttributeDefinition
  3

  2
N
 70
     8
280
     0
  0
ATTDEF
  5
189
330
171
100
AcDbEntity
  8
AM_6
100
AcDbText
 10
5.0890625
 20
-7.58675
 30
0.0
 40
0.5
  1
2.484375
100
AcDbAttributeDefinition
  3

  2
N1
 70
     8
280
     0
  0
ATTDEF
  5
18A
330
171
100
AcDbEntity
  8
AM_6
100
AcDbText
 10
5.0890625
 20
-8.08675
 30
0.0
 40
0.5
  1
15/64
100
AcDbAttributeDefinition
  3

  2
P
 70
     8
280
     0
  0
ATTDEF
  5
18B
330
171
100
AcDbEntity
  8
AM_6
100
AcDbText
 10
5.0890625
 20
-8.58675
 30
0.0
 40
0.5
  1
3/16
100
AcDbAttributeDefinition
  3

  2
X
 70
     8
280
     0
  0
ATTDEF
  5
18C
330
171
100
AcDbEntity
  8
AM_6
100
AcDbText
 10
5.0890625
 20
-9.08675
 30
0.0
 40
0.5
  1
0.020
100
AcDbAttributeDefinition
  3

  2
Y
 70
     8
280
     0
  0
ATTDEF
  5
18D
330
171
100
AcDbEntity
  8
AM_6
100
AcDbText
 10
5.0890625
 20
-9.58675
 30
0.0
 40
0.5
  1
1-51/64
100
AcDbAttributeDefinition
  3

  2
Z
 70
     8
280
     0
  0
ATTDEF
  5
18E
330
171
100
AcDbEntity
  8
AM_6
100
AcDbText
 10
5.0890625
 20
-10.08675
 30
0.0
 40
0.5
  1
baldor
100
AcDbAttributeDefinition
  3

  2
COMPANY
 70
     8
280
     0
  0
LINE
  5
18F
330
171
100
AcDbEntity
  8
AM_9
100
AcDbLine
 10
-0.4666666666666666
 20
-2.375
 30
0.0
 11
-0.4666666666666667
 21
-1.832960083827409
 31
0.0
  0
LINE
  5
190
330
171
100
AcDbEntity
  8
AM_9
100
AcDbLine
 10
-0.4666666666666666
 20
-1.858080320617826
 30
0.0
 11
-0.4999999999999999
 21
-1.858080320617826
 31
0.0
  0
LINE
  5
191
330
171
100
AcDbEntity
  8
AM_9
100
AcDbLine
 10
-0.4666666666666667
 20
-1.832960083827409
 30
0.0
 11
-0.5
 21
-1.832960083827409
 31
0.0
  0
LINE
  5
192
330
171
100
AcDbEntity
  8
AM_9
100
AcDbLine
 10
-0.4666666666666666
 20
1.858080320617826
 30
0.0
 11
-0.4999999999999999
 21
1.858080320617826
 31
0.0
  0
LINE
  5
193
330
171
100
AcDbEntity
  8
AM_9
100
AcDbLine
 10
-0.5
 20
1.832960083827408
 30
0.0
 11
-0.4666666666666667
 21
1.832960083827408
 31
0.0
  0
LINE
  5
194
330
171
100
AcDbEntity
  8
AM_9
100
AcDbLine
 10
-0.4666666666666667
 20
1.832960083827408
 30
0.0
 11
-0.4666666666666666
 21
2.375
 31
0.0
  0
LINE
  5
195
330
171
100
AcDbEntity
  8
AM_9
100
AcDbLine
 10
-0.4666666666666667
 20
-1.839523359902566
 30
0.0
 11
-0.5
 21
-1.839523359902566
 31
0.0
  0
LINE
  5
196
330
171
100
AcDbEntity
  8
AM_9
100
AcDbLine
 10
-0.5000000000000001
 20
-1.90625
 30
0.0
 11
-0.4666666666666667
 21
-1.90625
 31
0.0
  0
LINE
  5
197
330
171
100
AcDbEntity
  8
AM_9
100
AcDbLine
 10
-0.4666666666666667
 20
1.839523359902566
 30
0.0
 11
-0.5
 21
1.839523359902566
 31
0.0
  0
LINE
  5
198
330
171
100
AcDbEntity
  8
AM_9
100
AcDbLine
 10
-1.635370636759524
 20
1.904878554552123
 30
0.0
 11
-1.640625
 21
1.90625
 31
0.0
  0
LINE
  5
199
330
171
100
AcDbEntity
  8
AM_9
100
AcDbLine
 10
-0.4666666666666667
 20
1.90625
 30
0.0
 11
-0.4999999999999998
 21
1.90625
 31
0.0
  0
LINE
  5
19A
330
171
100
AcDbEntity
  8
AM_9
100
AcDbLine
 10
-0.4666666666666666
 20
2.321134716243308
 30
0.0
 11
-0.4999999999999999
 21
2.321134716243308
 31
0.0
  0
LINE
  5
19B
330
171
100
AcDbEntity
  8
AM_9
100
AcDbLine
 10
-0.4666666666666666
 20
-2.321134716243308
 30
0.0
 11
-0.4999999999999999
 21
-2.321134716243308
 31
0.0
  0
LINE
  5
19C
330
171
100
AcDbEntity
  8
AM_9
100
AcDbLine
 10
-1.78125
 20
-1.5748
 30
0.0
 11
-0.0714285714285711
 21
-1.5748
 31
0.0
  0
LINE
  5
19D
330
171
100
AcDbEntity
  8
AM_9
100
AcDbLine
 10
-0.0714285714285711
 20
1.5748
 30
0.0
 11
-1.78125
 21
1.5748
 31
0.0
  0
LINE
  5
19E
330
171
100
AcDbEntity
  8
AM_9
100
AcDbLine
 10
-0.0214285714285714
 20
-1.740525
 30
0.0
 11
0.0
 21
-1.740525
 31
0.0
  0
LINE
  5
19F
330
171
100
AcDbEntity
  8
AM_9
100
AcDbLine
 10
0.0
 20
1.740525
 30
0.0
 11
-0.0214285714285714
 21
1.740525
 31
0.0
  0
LINE
  5
1A0
330
171
100
AcDbEntity
  8
AM_9
100
AcDbLine
 10
-0.0714285714285714
 20
1.690525
 30
0.0
 11
-0.0714285714285714
 21
-1.690525
 31
0.0
  0
ARC
  5
1A1
330
171
100
AcDbEntity
  8
AM_9
100
AcDbCircle
 10
-0.0214285714285718
 20
-1.690525
 30
0.0
 40
0.0499999999999996
100
AcDbArc
 50
179.9999991462263
 51
270.0
  0
ARC
  5
1A2
330
171
100
AcDbEntity
  8
AM_9
100
AcDbCircle
 10
-0.0214285714285718
 20
1.690525
 30
0.0
 40
0.0499999999999994
100
AcDbArc
 50
90.0
 51
180.0
  0
LINE
  5
1A3
330
171
100
AcDbEntity
  8
AM_9
100
AcDbLine
 10
-0.0214285714285714
 20
1.740525
 30
0.0
 11
-0.0214285714285714
 21
-1.740525
 31
0.0
  0
LINE
  5
1A4
330
171
100
AcDbEntity
  8
AM_9
100
AcDbLine
 10
-0.4999999999999998
 20
-2.015625
 30
0.0
 11
0.0000000000000001
 21
-2.015625
 31
0.0
  0
LINE
  5
1A5
330
171
100
AcDbEntity
  8
AM_9
100
AcDbLine
 10
0.0000000000000001
 20
-1.515625
 30
0.0
 11
-0.4999999999999998
 21
-1.515625
 31
0.0
  0
LINE
  5
1A6
330
171
100
AcDbEntity
  8
AM_9
100
AcDbLine
 10
-0.4999999999999998
 20
1.515625
 30
0.0
 11
0.0000000000000001
 21
1.515625
 31
0.0
  0
LINE
  5
1A7
330
171
100
AcDbEntity
  8
AM_9
100
AcDbLine
 10
0.0000000000000001
 20
2.015625
 30
0.0
 11
-0.4999999999999998
 21
2.015625
 31
0.0
  0
LINE
  5
1A8
330
171
100
AcDbEntity
  8
AM_7
100
AcDbLine
 10
0.0249999999999999
 20
1.765625
 30
0.0
 11
-0.5250000000000001
 21
1.765625
 31
0.0
  0
LINE
  5
1A9
330
171
100
AcDbEntity
  8
AM_7
100
AcDbLine
 10
0.0249999999999999
 20
-1.765625
 30
0.0
 11
-0.5250000000000001
 21
-1.765625
 31
0.0
  0
LINE
  5
1AA
330
171
100
AcDbEntity
  8
AM_7
100
AcDbLine
 10
-2.8921875
 20
0.0
 30
0.0
 11
0.0890625
 21
0.0
 31
0.0
  0
LINE
  5
1AB
330
171
100
AcDbEntity
  8
AM_7
100
AcDbLine
 10
-1.140625
 20
2.41325
 30
0.0
 11
-1.140625
 21
1.6582275
 31
0.0
  0
LINE
  5
1AC
330
171
100
AcDbEntity
  8
AM_4
100
AcDbLine
 10
-1.540625
 20
2.00625
 30
0.0
 11
-0.7406250000933532
 21
2.00625
 31
0.0
  0
ARC
  5
1AD
330
171
100
AcDbEntity
  8
AM_4
100
AcDbCircle
 10
-0.7406249999999995
 20
1.90625
 30
0.0
 40
0.0999999999999995
100
AcDbArc
 50
0.0
 51
90.0
  0
ARC
  5
1AE
330
171
100
AcDbEntity
  8
AM_4
100
AcDbCircle
 10
-1.540625
 20
1.90625
 30
0.0
 40
0.0999999999999999
100
AcDbArc
 50
90.0
 51
180.0
  0
LINE
  5
1AF
330
171
100
AcDbEntity
  8
AM_4
100
AcDbLine
 10
-1.640625
 20
1.90625
 30
0.0
 11
-0.640625
 21
1.90625
 31
0.0
  0
LINE
  5
1B0
330
171
100
AcDbEntity
  8
AM_4
100
AcDbLine
 10
-1.78125
 20
-1.90625
 30
0.0
 11
-0.5000000000000001
 21
-1.90625
 31
0.0
  0
LWPOLYLINE
  5
1B1
330
171
100
AcDbEntity
  8
AM_4
100
AcDbPolyline
 90
       39
 70
     0
 43
0.0
 10
-1.640625
 20
1.90625
 10
-1.638959854749145
 20
1.905813259561444
 10
-1.633990813586308
 20
1.904520645337214
 10
-1.625453262877304
 20
1.902326248879258
 10
-1.613530174493492
 20
1.899323133793384
 10
-1.598795418327206
 20
1.895707740361764
 10
-1.581071143912997
 20
1.891502542474587
 10
-1.559859290456215
 20
1.886675902822962
 10
-1.535774598803403
 20
1.881470772543249
 10
-1.50918496306563
 20
1.876066678273679
 10
-1.480101321081584
 20
1.870570296747782
 10
-1.447786760196793
 20
1.864977115518179
 10
-1.413245114174726
 20
1.859599631413343
 10
-1.377157450626764
 20
1.854653712242664
 10
-1.33935732034893
 20
1.85021177102819
 10
-1.298880984351207
 20
1.846304437329398
 10
-1.257156298069177
 20
1.843195216446073
 10
-1.216692066012779
 20
1.841081561771163
 10
-1.175676465734286
 20
1.839841750735677
 10
-1.133135471188756
 20
1.839525051560355
 10
-1.090652506667552
 20
1.840186488535839
 10
-1.050856826496262
 20
1.841698322069311
 10
-1.011677084837846
 20
1.844021861943254
 10
-0.9723030801176631
 20
1.84719411532364
 10
-0.9341256996911181
 20
1.851062133891798
 10
-0.8979923065992742
 20
1.855441398213666
 10
-0.863486354070283
 20
1.860267424745098
 10
-0.8299593550771935
 20
1.865557334242863
 10
-0.7985832411770691
 20
1.871037580402565
 10
-0.7694658935792351
 20
1.876579010319412
 10
-0.7429027859875376
 20
1.882012758197716
 10
-0.7184350312262465
 20
1.887334840052352
 10
-0.6970362620939707
 20
1.892236779818283
 10
-0.6792939155049351
 20
1.896474043648606
 10
-0.6647614554287262
 20
1.900061887295237
 10
-0.6532774629424902
 20
1.902969761062095
 10
-0.6454294098690073
 20
1.904995468494658
 10
-0.6418341244640537
 20
1.905933209747371
 10
-0.640625
 20
1.90625
  0
LINE
  5
1B2
330
171
100
AcDbEntity
  8
AM_4
100
AcDbLine
 10
-0.4999999999999998
 20
1.90625
 30
0.0
 11
-0.6406250000000002
 21
1.90625
 31
0.0
  0
LINE
  5
1B3
330
171
100
AcDbEntity
  8
AM_4
100
AcDbLine
 10
-1.640625
 20
1.90625
 30
0.0
 11
-1.78125
 21
1.90625
 31
0.0
  0
LINE
  5
1B4
330
171
100
AcDbEntity
  8
AM_4
100
AcDbLine
 10
-1.78125
 20
-1.642856395426531
 30
0.0
 11
-0.5000000000000001
 21
-1.642856395426531
 31
0.0
  0
LINE
  5
1B5
330
171
100
AcDbEntity
  8
AM_4
100
AcDbLine
 10
-1.78125
 20
1.642856395426531
 30
0.0
 11
-0.5000000000000001
 21
1.642856395426531
 31
0.0
  0
LINE
  5
1B6
330
171
100
AcDbEntity
  8
AM_4
100
AcDbLine
 10
-1.78125
 20
-1.543924742121355
 30
0.0
 11
-0.5000000000000001
 21
-1.543924742121355
 31
0.0
  0
LINE
  5
1B7
330
171
100
AcDbEntity
  8
AM_4
100
AcDbLine
 10
-1.78125
 20
1.543924742121355
 30
0.0
 11
-0.5000000000000001
 21
1.543924742121355
 31
0.0
  0
LINE
  5
1B8
330
171
100
AcDbEntity
  8
AM_4
100
AcDbLine
 10
-1.78125
 20
1.048475832489027
 30
0.0
 11
-0.5000000000000001
 21
1.048475832489027
 31
0.0
  0
LINE
  5
1B9
330
171
100
AcDbEntity
  8
AM_4
100
AcDbLine
 10
-1.78125
 20
-1.90625
 30
0.0
 11
-1.78125
 21
1.90625
 31
0.0
  0
LINE
  5
1BA
330
171
100
AcDbEntity
  8
AM_4
100
AcDbLine
 10
-1.78125
 20
-1.048475832489029
 30
0.0
 11
-0.5000000000000001
 21
-1.048475832489028
 31
0.0
  0
LINE
  5
1BB
330
171
100
AcDbEntity
  8
AM_4
100
AcDbLine
 10
-1.78125
 20
0.9668567249112688
 30
0.0
 11
-0.5000000000000001
 21
0.9668567249112688
 31
0.0
  0
LINE
  5
1BC
330
171
100
AcDbEntity
  8
AM_4
100
AcDbLine
 10
-1.78125
 20
-0.966856716118808
 30
0.0
 11
-0.5000000000000001
 21
-0.966856716118808
 31
0.0
  0
LINE
  5
1BD
330
171
100
AcDbEntity
  8
AM_4
100
AcDbLine
 10
-0.4666666666666666
 20
-0.4999428676086646
 30
0.0
 11
-0.4999999999999998
 21
-0.4999428676086646
 31
0.0
  0
LINE
  5
1BE
330
171
100
AcDbEntity
  8
AM_4
100
AcDbLine
 10
-0.4666666666666666
 20
0.4999428676086649
 30
0.0
 11
-0.4999999999999998
 21
0.4999428676086649
 31
0.0
  0
LINE
  5
1BF
330
171
100
AcDbEntity
  8
AM_4
100
AcDbLine
 10
-0.4666666666666666
 20
0.642867575898041
 30
0.0
 11
-0.4999999999999998
 21
0.642867575898041
 31
0.0
  0
LINE
  5
1C0
330
171
100
AcDbEntity
  8
AM_4
100
AcDbLine
 10
-0.4666666666666666
 20
-0.6428675758980411
 30
0.0
 11
-0.4999999999999998
 21
-0.6428675758980411
 31
0.0
  0
LINE
  5
1C1
330
171
100
AcDbEntity
  8
AM_4
100
AcDbLine
 10
-0.4666666666666666
 20
-1.444901315789474
 30
0.0
 11
-0.4999999999999998
 21
-1.444901315789474
 31
0.0
  0
LINE
  5
1C2
330
171
100
AcDbEntity
  8
AM_4
100
AcDbLine
 10
-0.4999999999999998
 20
2.375
 30
0.0
 11
0.0000000000000001
 21
2.375
 31
0.0
  0
LINE
  5
1C3
330
171
100
AcDbEntity
  8
AM_4
100
AcDbLine
 10
-0.4999999999999998
 20
0.4999428676086649
 30
0.0
 11
-0.4999999999999998
 21
2.375
 31
0.0
  0
LINE
  5
1C4
330
171
100
AcDbEntity
  8
AM_4
100
AcDbLine
 10
-0.4666666666666666
 20
1.444901315789474
 30
0.0
 11
-0.4999999999999998
 21
1.444901315789474
 31
0.0
  0
LINE
  5
1C5
330
171
100
AcDbEntity
  8
AM_4
100
AcDbLine
 10
-0.4666666666666666
 20
1.565333123406633
 30
0.0
 11
-0.4999999999999998
 21
1.565333123406633
 31
0.0
  0
LINE
  5
1C6
330
171
100
AcDbEntity
  8
AM_4
100
AcDbLine
 10
-0.4666666666666666
 20
-1.565333123406632
 30
0.0
 11
-0.4666666666666666
 21
1.565333123406633
 31
0.0
  0
LINE
  5
1C7
330
171
100
AcDbEntity
  8
AM_4
100
AcDbLine
 10
-0.4999999999999998
 20
-1.565333123406632
 30
0.0
 11
-0.4666666666666666
 21
-1.565333123406632
 31
0.0
  0
LINE
  5
1C8
330
171
100
AcDbEntity
  8
AM_4
100
AcDbLine
 10
-0.4999999999999998
 20
1.765625
 30
0.0
 11
0.0000000000000001
 21
1.765625
 31
0.0
  0
LINE
  5
1C9
330
171
100
AcDbEntity
  8
AM_4
100
AcDbLine
 10
0.0000000000000001
 20
-2.375
 30
0.0
 11
0.0000000000000001
 21
2.375
 31
0.0
  0
LINE
  5
1CA
330
171
100
AcDbEntity
  8
AM_4
100
AcDbLine
 10
-0.4999999999999998
 20
-1.765624999999999
 30
0.0
 11
0.0000000000000001
 21
-1.765624999999999
 31
0.0
  0
LINE
  5
1CB
330
171
100
AcDbEntity
  8
AM_4
100
AcDbLine
 10
-0.4999999999999998
 20
-2.375
 30
0.0
 11
-0.4999999999999998
 21
-0.4999428676086646
 31
0.0
  0
LINE
  5
1CC
330
171
100
AcDbEntity
  8
AM_4
100
AcDbLine
 10
-0.4999999999999998
 20
-2.375
 30
0.0
 11
0.0000000000000001
 21
-2.375
 31
0.0
  0
ENDBLK
  5
174
330
171
100
AcDbEntity
  8
0
100
AcDbBlockEnd
  0
ENDSEC
  0
SECTION
  2
ENTITIES
  0
INSERT
  5
6F
330
1F
100
AcDbEntity
  8
0
100
AcDbBlockReference
  2
1_070602_2
 10
0.0
 20
0.0
 30
0.0
  0
POINT
  5
1CE
330
1F
100
AcDbEntity
  8
ConnectionPoints
100
AcDbPoint
 10
-2.765625
 20
0.0
 30
0.0000000000000002
  0
POINT
  5
1CF
330
1F
100
AcDbEntity
  8
ConnectionPoints
100
AcDbPoint
 10
0.3568750000000001
 20
0.0
 30
0.0
  0
POINT
  5
1D0
330
1F
100
AcDbEntity
  8
ConnectionPoints
100
AcDbPoint
 10
-2.765625
 20
0.0
 30
0.0000000000000002
  0
POINT
  5
1D1
330
1F
100
AcDbEntity
  8
ConnectionPoints
100
AcDbPoint
 10
-1.140625
 20
2.00625
 30
0.0000000000000001
  0
POINT
  5
1D2
330
1F
100
AcDbEntity
  8
ConnectionPoints
100
AcDbPoint
 10
-1.140625
 20
2.00625
 30
0.0000000000000001
  0
POINT
  5
1D3
330
1F
100
AcDbEntity
  8
ConnectionPoints
100
AcDbPoint
 10
-2.578125
 20
0.0
 30
0.0000000000000002
  0
POINT
  5
1D4
330
1F
100
AcDbEntity
  8
ConnectionPoints
100
AcDbPoint
 10
-2.765625
 20
0.0
 30
0.0000000000000002
  0
ENDSEC
  0
SECTION
  2
OBJECTS
  0
DICTIONARY
  5
C
330
0
100
AcDbDictionary
281
     1
  3
ACAD_DETAILVIEWSTYLE
350
1DC
  3
ACAD_GROUP
350
D
  3
ACAD_LAYOUT
350
1A
  3
ACAD_MATERIAL
350
43
  3
ACAD_MLEADERSTYLE
350
6B
  3
ACAD_MLINESTYLE
350
17
  3
ACAD_PLOTSETTINGS
350
19
  3
ACAD_PLOTSTYLENAME
350
E
  3
ACAD_SCALELIST
350
47
  3
ACAD_SECTIONVIEWSTYLE
350
1DD
  3
ACAD_TABLESTYLE
350
69
  3
ACAD_VISUALSTYLE
350
2A
  3
ACDB_RECOMPOSE_DATA
350
1D9
  3
AcDbVariableDictionary
350
1D5
  0
SUN
  5
6D
330
29
100
AcDbSun
 90
        1
290
     0
 63
     7
421
 16777215
 40
1.0
291
     1
 91
  2455826
 92
 54000000
292
     0
 70
     2
 71
   256
280
     1
  0
DICTIONARY
  5
1DC
102
{ACAD_REACTORS
330
C
102
}
330
C
100
AcDbDictionary
281
     1
  0
DICTIONARY
  5
D
102
{ACAD_REACTORS
330
C
102
}
330
C
100
AcDbDictionary
281
     1
  0
DICTIONARY
  5
1A
102
{ACAD_REACTORS
330
C
102
}
330
C
100
AcDbDictionary
281
     1
  3
Layout1
350
1E
  3
Layout2
350
26
  3
Model
350
22
  0
DICTIONARY
  5
43
102
{ACAD_REACTORS
330
C
102
}
330
C
100
AcDbDictionary
281
     1
  3
ByBlock
350
45
  3
ByLayer
350
44
  3
Global
350
46
  0
DICTIONARY
  5
6B
102
{ACAD_REACTORS
330
C
102
}
330
C
100
AcDbDictionary
281
     1
  3
Standard
350
6C
  0
DICTIONARY
  5
17
102
{ACAD_REACTORS
330
C
102
}
330
C
100
AcDbDictionary
281
     1
  3
Standard
350
18
  0
DICTIONARY
  5
19
102
{ACAD_REACTORS
330
C
102
}
330
C
100
AcDbDictionary
281
     1
  0
ACDBDICTIONARYWDFLT
  5
E
102
{ACAD_REACTORS
330
C
102
}
330
C
100
AcDbDictionary
281
     1
  3
Normal
350
F
100
AcDbDictionaryWithDefault
340
F
  0
DICTIONARY
  5
47
102
{ACAD_REACTORS
330
C
102
}
330
C
100
AcDbDictionary
281
     1
  3
A0
350
48
  3
A1
350
49
  3
A2
350
4A
  3
A3
350
4B
  3
A4
350
4C
  3
A5
350
4D
  3
A6
350
4E
  3
A7
350
4F
  3
A8
350
50
  3
A9
350
51
  3
B0
350
52
  3
B1
350
53
  3
B2
350
54
  3
B3
350
55
  3
B4
350
56
  3
B5
350
57
  3
B6
350
58
  3
B7
350
59
  3
B8
350
5A
  3
B9
350
5B
  3
C0
350
5C
  3
C1
350
5D
  3
C2
350
5E
  3
C3
350
5F
  3
C4
350
60
  3
C5
350
61
  3
C6
350
62
  3
C7
350
63
  3
C8
350
64
  3
C9
350
65
  3
D0
350
66
  3
D1
350
67
  3
D2
350
68
  0
DICTIONARY
  5
1DD
102
{ACAD_REACTORS
330
C
102
}
330
C
100
AcDbDictionary
281
     1
  0
DICTIONARY
  5
69
102
{ACAD_REACTORS
330
C
102
}
330
C
100
AcDbDictionary
281
     1
  3
Standard
350
6A
  0
DICTIONARY
  5
2A
102
{ACAD_REACTORS
330
C
102
}
330
C
100
AcDbDictionary
281
     1
  3
2dWireframe
350
2F
  3
Basic
350
32
  3
Brighten
350
36
  3
ColorChange
350
3A
  3
Conceptual
350
34
  3
Dim
350
35
  3
EdgeColorOff
350
3D
  3
Facepattern
350
39
  3
Flat
350
2B
  3
FlatWithEdges
350
2C
  3
Gouraud
350
2D
  3
GouraudWithEdges
350
2E
  3
Hidden
350
31
  3
JitterOff
350
3B
  3
Linepattern
350
38
  3
OverhangOff
350
3C
  3
Realistic
350
33
  3
Shaded
350
42
  3
Shaded with edges
350
41
  3
Shades of Gray
350
3E
  3
Sketchy
350
3F
  3
Thicken
350
37
  3
Wireframe
350
30
  3
X-Ray
350
40
  0
XRECORD
  5
1D9
102
{ACAD_REACTORS
330
C
102
}
330
C
100
AcDbXrecord
280
     1
 90
        1
330
6A
  0
DICTIONARY
  5
1D5
102
{ACAD_REACTORS
330
C
102
}
330
C
100
AcDbDictionary
281
     1
  3
CANNOSCALE
350
1D6
  3
CMLEADERSTYLE
350
1DB
  3
CTABLESTYLE
350
1DA
  0
LAYOUT
  5
1E
102
{ACAD_REACTORS
330
1A
102
}
330
1A
100
AcDbPlotSettings
  1

  2
none_device
  4

  6

 40
0.0
 41
0.0
 42
0.0
 43
0.0
 44
0.0
 45
0.0
 46
0.0
 47
0.0
 48
0.0
 49
0.0
140
0.0
141
0.0
142
1.0
143
1.0
 70
   688
 72
     0
 73
     0
 74
     5
  7

 75
    16
 76
     0
 77
     2
 78
   300
147
1.0
148
0.0
149
0.0
100
AcDbLayout
  1
Layout1
 70
     1
 71
     1
 10
0.0
 20
0.0
 11
12.0
 21
9.0
 12
0.0
 22
0.0
 32
0.0
 14
1.000000000000000E+20
 24
1.000000000000000E+20
 34
1.000000000000000E+20
 15
-1.000000000000000E+20
 25
-1.000000000000000E+20
 35
-1.000000000000000E+20
146
0.0
 13
0.0
 23
0.0
 33
0.0
 16
1.0
 26
0.0
 36
0.0
 17
0.0
 27
1.0
 37
0.0
 76
     0
330
1B
  0
LAYOUT
  5
26
102
{ACAD_REACTORS
330
1A
102
}
330
1A
100
AcDbPlotSettings
  1

  2
none_device
  4

  6

 40
0.0
 41
0.0
 42
0.0
 43
0.0
 44
0.0
 45
0.0
 46
0.0
 47
0.0
 48
0.0
 49
0.0
140
0.0
141
0.0
142
1.0
143
1.0
 70
   688
 72
     0
 73
     0
 74
     5
  7

 75
    16
 76
     0
 77
     2
 78
   300
147
1.0
148
0.0
149
0.0
100
AcDbLayout
  1
Layout2
 70
     1
 71
     2
 10
0.0
 20
0.0
 11
0.0
 21
0.0
 12
0.0
 22
0.0
 32
0.0
 14
0.0
 24
0.0
 34
0.0
 15
0.0
 25
0.0
 35
0.0
146
0.0
 13
0.0
 23
0.0
 33
0.0
 16
1.0
 26
0.0
 36
0.0
 17
0.0
 27
1.0
 37
0.0
 76
     0
330
23
  0
LAYOUT
  5
22
102
{ACAD_REACTORS
330
1A
102
}
330
1A
100
AcDbPlotSettings
  1

  2
none_device
  4
Letter_(8.50_x_11.00_Inches)
  6

 40
6.35
 41
6.35
 42
6.35000508
 43
6.35000508
 44
215.9
 45
279.4
 46
0.0
 47
0.0
 48
0.0
 49
0.0
140
0.0
141
0.0
142
1.0
143
1.0
 70
  1712
 72
     0
 73
     0
 74
     0
  7

 75
     0
 76
     0
 77
     2
 78
   300
147
1.0
148
0.0
149
0.0
100
AcDbLayout
  1
Model
 70
     1
 71
     0
 10
0.0
 20
0.0
 11
12.0
 21
9.0
 12
0.0
 22
0.0
 32
0.0
 14
1.000000000000000E+20
 24
1.000000000000000E+20
 34
1.000000000000000E+20
 15
-1.000000000000000E+20
 25
-1.000000000000000E+20
 35
-1.000000000000000E+20
146
0.0
 13
0.0
 23
0.0
 33
0.0
 16
1.0
 26
0.0
 36
0.0
 17
0.0
 27
1.0
 37
0.0
 76
     0
330
1F
331
29
  0
MATERIAL
  5
45
102
{ACAD_REACTORS
330
43
102
}
330
43
100
AcDbMaterial
  1
ByBlock
 72
     1
 94
      127
  0
MATERIAL
  5
44
102
{ACAD_REACTORS
330
43
102
}
330
43
100
AcDbMaterial
  1
ByLayer
 72
     1
 94
      127
  0
MATERIAL
  5
46
102
{ACAD_REACTORS
330
43
102
}
330
43
100
AcDbMaterial
  1
Global
 72
     1
 94
      127
  0
MLEADERSTYLE
  5
6C
102
{ACAD_REACTORS
330
6B
102
}
330
6B
100
AcDbMLeaderStyle
179
     2
170
     2
171
     1
172
     0
 90
        2
 40
0.0
 41
0.0
173
     1
 91
-1056964608
340
14
 92
       -2
290
     1
 42
0.09
291
     1
 43
0.36
  3
Standard
341
0
 44
0.18
300

342
11
174
     1
178
     6
175
     1
176
     0
 93
-1056964608
 45
0.18
292
     0
297
     0
 46
0.18
343
0
 94
-1056964608
 47
1.0
 49
1.0
140
1.0
293
     1
141
0.0
294
     1
177
     0
142
1.0
295
     0
296
     0
143
0.125
271
     0
272
     9
273
     9
298
     0
  0
MLINESTYLE
  5
18
102
{ACAD_REACTORS
330
17
102
}
330
17
100
AcDbMlineStyle
  2
Standard
 70
     0
  3

 62
   256
 51
90.0
 52
90.0
 71
     2
 49
0.5
 62
   256
  6
BYLAYER
 49
-0.5
 62
   256
  6
BYLAYER
  0
ACDBPLACEHOLDER
  5
F
102
{ACAD_REACTORS
330
E
102
}
330
E
  0
SCALE
  5
48
102
{ACAD_REACTORS
330
47
102
}
330
47
100
AcDbScale
 70
     0
300
1:1
140
1.0
141
1.0
290
     1
  0
SCALE
  5
49
102
{ACAD_REACTORS
330
47
102
}
330
47
100
AcDbScale
 70
     0
300
1:2
140
1.0
141
2.0
290
     0
  0
SCALE
  5
4A
102
{ACAD_REACTORS
330
47
102
}
330
47
100
AcDbScale
 70
     0
300
1:4
140
1.0
141
4.0
290
     0
  0
SCALE
  5
4B
102
{ACAD_REACTORS
330
47
102
}
330
47
100
AcDbScale
 70
     0
300
1:5
140
1.0
141
5.0
290
     0
  0
SCALE
  5
4C
102
{ACAD_REACTORS
330
47
102
}
330
47
100
AcDbScale
 70
     0
300
1:8
140
1.0
141
8.0
290
     0
  0
SCALE
  5
4D
102
{ACAD_REACTORS
330
47
102
}
330
47
100
AcDbScale
 70
     0
300
1:10
140
1.0
141
10.0
290
     0
  0
SCALE
  5
4E
102
{ACAD_REACTORS
330
47
102
}
330
47
100
AcDbScale
 70
     0
300
1:16
140
1.0
141
16.0
290
     0
  0
SCALE
  5
4F
102
{ACAD_REACTORS
330
47
102
}
330
47
100
AcDbScale
 70
     0
300
1:20
140
1.0
141
20.0
290
     0
  0
SCALE
  5
50
102
{ACAD_REACTORS
330
47
102
}
330
47
100
AcDbScale
 70
     0
300
1:30
140
1.0
141
30.0
290
     0
  0
SCALE
  5
51
102
{ACAD_REACTORS
330
47
102
}
330
47
100
AcDbScale
 70
     0
300
1:40
140
1.0
141
40.0
290
     0
  0
SCALE
  5
52
102
{ACAD_REACTORS
330
47
102
}
330
47
100
AcDbScale
 70
     0
300
1:50
140
1.0
141
50.0
290
     0
  0
SCALE
  5
53
102
{ACAD_REACTORS
330
47
102
}
330
47
100
AcDbScale
 70
     0
300
1:100
140
1.0
141
100.0
290
     0
  0
SCALE
  5
54
102
{ACAD_REACTORS
330
47
102
}
330
47
100
AcDbScale
 70
     0
300
2:1
140
2.0
141
1.0
290
     0
  0
SCALE
  5
55
102
{ACAD_REACTORS
330
47
102
}
330
47
100
AcDbScale
 70
     0
300
4:1
140
4.0
141
1.0
290
     0
  0
SCALE
  5
56
102
{ACAD_REACTORS
330
47
102
}
330
47
100
AcDbScale
 70
     0
300
8:1
140
8.0
141
1.0
290
     0
  0
SCALE
  5
57
102
{ACAD_REACTORS
330
47
102
}
330
47
100
AcDbScale
 70
     0
300
10:1
140
10.0
141
1.0
290
     0
  0
SCALE
  5
58
102
{ACAD_REACTORS
330
47
102
}
330
47
100
AcDbScale
 70
     0
300
100:1
140
100.0
141
1.0
290
     0
  0
SCALE
  5
59
102
{ACAD_REACTORS
330
47
102
}
330
47
100
AcDbScale
 70
     0
300
1/128" = 1'-0"
140
0.0078125
141
12.0
290
     0
  0
SCALE
  5
5A
102
{ACAD_REACTORS
330
47
102
}
330
47
100
AcDbScale
 70
     0
300
1/64" = 1'-0"
140
0.015625
141
12.0
290
     0
  0
SCALE
  5
5B
102
{ACAD_REACTORS
330
47
102
}
330
47
100
AcDbScale
 70
     0
300
1/32" = 1'-0"
140
0.03125
141
12.0
290
     0
  0
SCALE
  5
5C
102
{ACAD_REACTORS
330
47
102
}
330
47
100
AcDbScale
 70
     0
300
1/16" = 1'-0"
140
0.0625
141
12.0
290
     0
  0
SCALE
  5
5D
102
{ACAD_REACTORS
330
47
102
}
330
47
100
AcDbScale
 70
     0
300
3/32" = 1'-0"
140
0.09375
141
12.0
290
     0
  0
SCALE
  5
5E
102
{ACAD_REACTORS
330
47
102
}
330
47
100
AcDbScale
 70
     0
300
1/8" = 1'-0"
140
0.125
141
12.0
290
     0
  0
SCALE
  5
5F
102
{ACAD_REACTORS
330
47
102
}
330
47
100
AcDbScale
 70
     0
300
3/16" = 1'-0"
140
0.1875
141
12.0
290
     0
  0
SCALE
  5
60
102
{ACAD_REACTORS
330
47
102
}
330
47
100
AcDbScale
 70
     0
300
1/4" = 1'-0"
140
0.25
141
12.0
290
     0
  0
SCALE
  5
61
102
{ACAD_REACTORS
330
47
102
}
330
47
100
AcDbScale
 70
     0
300
3/8" = 1'-0"
140
0.375
141
12.0
290
     0
  0
SCALE
  5
62
102
{ACAD_REACTORS
330
47
102
}
330
47
100
AcDbScale
 70
     0
300
1/2" = 1'-0"
140
0.5
141
12.0
290
     0
  0
SCALE
  5
63
102
{ACAD_REACTORS
330
47
102
}
330
47
100
AcDbScale
 70
     0
300
3/4" = 1'-0"
140
0.75
141
12.0
290
     0
  0
SCALE
  5
64
102
{ACAD_REACTORS
330
47
102
}
330
47
100
AcDbScale
 70
     0
300
1" = 1'-0"
140
1.0
141
12.0
290
     0
  0
SCALE
  5
65
102
{ACAD_REACTORS
330
47
102
}
330
47
100
AcDbScale
 70
     0
300
1-1/2" = 1'-0"
140
1.5
141
12.0
290
     0
  0
SCALE
  5
66
102
{ACAD_REACTORS
330
47
102
}
330
47
100
AcDbScale
 70
     0
300
3" = 1'-0"
140
3.0
141
12.0
290
     0
  0
SCALE
  5
67
102
{ACAD_REACTORS
330
47
102
}
330
47
100
AcDbScale
 70
     0
300
6" = 1'-0"
140
6.0
141
12.0
290
     0
  0
SCALE
  5
68
102
{ACAD_REACTORS
330
47
102
}
330
47
100
AcDbScale
 70
     0
300
1'-0" = 1'-0"
140
12.0
141
12.0
290
     0
  0
TABLESTYLE
  5
6A
102
{ACAD_REACTORS
330
69
102
}
102
{ACAD_XDICTIONARY
360
1D7
102
}
330
69
100
AcDbTableStyle
  3
Standard
 70
     0
 71
     0
 40
0.06
 41
0.06
280
     0
281
     0
  7
Standard
140
0.18
170
     2
 62
     0
 63
   257
283
     0
 90
        4
 91
        0
  1

274
    -2
284
     1
 64
     0
275
    -2
285
     1
 65
     0
276
    -2
286
     1
 66
     0
277
    -2
287
     1
 67
     0
278
    -2
288
     1
 68
     0
279
    -2
289
     1
 69
     0
  7
Standard
140
0.25
170
     5
 62
     0
 63
   257
283
     0
 90
        4
 91
        0
  1

274
    -2
284
     1
 64
     0
275
    -2
285
     1
 65
     0
276
    -2
286
     1
 66
     0
277
    -2
287
     1
 67
     0
278
    -2
288
     1
 68
     0
279
    -2
289
     1
 69
     0
  7
Standard
140
0.18
170
     5
 62
     0
 63
   257
283
     0
 90
        4
 91
        0
  1

274
    -2
284
     1
 64
     0
275
    -2
285
     1
 65
     0
276
    -2
286
     1
 66
     0
277
    -2
287
     1
 67
     0
278
    -2
288
     1
 68
     0
279
    -2
289
     1
 69
     0
  0
VISUALSTYLE
  5
2F
102
{ACAD_REACTORS
330
2A
102
}
330
2A
100
AcDbVisualStyle
  2
2dWireframe
 70
     4
177
     3
291
     0
 70
    58
 90
        0
176
     1
 90
        2
176
     1
 90
        0
176
     1
 90
        0
176
     1
 40
0.6
176
     1
 40
30.0
176
     1
 62
     7
420
 16777215
176
     1
 90
        1
176
     1
 90
        4
176
     1
 62
     7
176
     1
 62
   257
176
     1
 90
        1
176
     1
 90
        1
176
     1
 40
1.0
176
     1
 90
        0
176
     1
 62
   257
176
     1
 40
1.0
176
     1
 90
        1
176
     1
 90
        6
176
     1
 90
        2
176
     1
 62
     7
176
     1
 90
        5
176
     1
 90
        0
176
     1
 90
        0
176
     1
290
     0
176
     1
 90
        1
176
     1
 40
0.0
176
     1
 90
        0
176
     1
290
     1
176
     1
290
     1
176
     1
290
     0
176
     1
290
     0
176
     1
290
     0
176
     1
290
     0
176
     1
290
     0
176
     1
290
     0
176
     1
290
     0
176
     1
 90
       50
176
     1
 40
0.0
176
     1
 40
1.0
176
     1
 90
        0
176
     1
 62
    18
420
        0
176
     1
 90
       50
176
     1
 90
        3
176
     1
 62
     5
420
      255
176
     1
290
     0
176
     1
 90
       50
176
     1
 90
       50
176
     1
 90
       50
176
     1
290
     0
176
     1
 90
       50
176
     1
 62
   256
176
     0
 40
1.0
176
     0
 90
        2
176
     1
  1
strokes_ogs.tif
176
     1
290
     0
176
     1
 40
1.0
176
     1
 40
1.0
176
     1
  0
VISUALSTYLE
  5
32
102
{ACAD_REACTORS
330
2A
102
}
330
2A
100
AcDbVisualStyle
  2
Basic
 70
     7
177
     3
291
     1
 70
    58
 90
        1
176
     1
 90
        0
176
     1
 90
        1
176
     1
 90
        0
176
     1
 40
0.6
176
     1
 40
30.0
176
     1
 62
     7
420
 16777215
176
     1
 90
        0
176
     1
 90
        4
176
     1
 62
     7
176
     1
 62
   257
176
     1
 90
        1
176
     1
 90
        1
176
     1
 40
1.0
176
     1
 90
        8
176
     1
 62
     7
176
     1
 40
1.0
176
     1
 90
        1
176
     1
 90
        6
176
     1
 90
        2
176
     1
 62
     7
176
     1
 90
        5
176
     1
 90
        0
176
     1
 90
        0
176
     1
290
     0
176
     1
 90
        1
176
     1
 40
0.0
176
     1
 90
        0
176
     1
290
     0
176
     1
290
     1
176
     1
290
     1
176
     1
290
     0
176
     1
290
     0
176
     1
290
     0
176
     1
290
     0
176
     1
290
     0
176
     1
290
     0
176
     1
 90
       50
176
     1
 40
0.0
176
     1
 40
1.0
176
     1
 90
        0
176
     1
 62
    18
420
        0
176
     1
 90
       50
176
     1
 90
        3
176
     1
 62
     5
420
      255
176
     1
290
     0
176
     1
 90
       50
176
     1
 90
       50
176
     1
 90
       50
176
     1
290
     0
176
     1
 90
       50
176
     1
 62
   256
176
     0
 40
1.0
176
     0
 90
        2
176
     1
  1
strokes_ogs.tif
176
     1
290
     0
176
     1
 40
1.0
176
     1
 40
1.0
176
     1
  0
VISUALSTYLE
  5
36
102
{ACAD_REACTORS
330
2A
102
}
330
2A
100
AcDbVisualStyle
  2
Brighten
 70
    12
177
     3
291
     1
 70
    58
 90
        2
176
     1
 90
        2
176
     1
 90
        0
176
     1
 90
        0
176
     1
 40
0.6
176
     1
 40
30.0
176
     1
 62
     7
420
 16777215
176
     1
 90
        1
176
     1
 90
        4
176
     1
 62
     7
176
     1
 62
   257
176
     1
 90
        1
176
     1
 90
        1
176
     1
 40
1.0
176
     1
 90
        8
176
     1
 62
     7
176
     1
 40
1.0
176
     1
 90
        1
176
     1
 90
        6
176
     1
 90
        2
176
     1
 62
     7
176
     1
 90
        5
176
     1
 90
        0
176
     1
 90
        0
176
     1
290
     0
176
     1
 90
        1
176
     1
 40
50.0
176
     1
 90
        0
176
     1
290
     0
176
     1
290
     1
176
     1
290
     1
176
     1
290
     0
176
     1
290
     0
176
     1
290
     0
176
     1
290
     0
176
     1
290
     0
176
     1
290
     0
176
     1
 90
       50
176
     1
 40
0.0
176
     1
 40
1.0
176
     1
 90
        0
176
     1
 62
    18
420
        0
176
     1
 90
       50
176
     1
 90
        3
176
     1
 62
     5
420
      255
176
     1
290
     0
176
     1
 90
       50
176
     1
 90
       50
176
     1
 90
       50
176
     1
290
     0
176
     1
 90
       50
176
     1
 62
   256
176
     0
 40
1.0
176
     0
 90
        2
176
     1
  1
strokes_ogs.tif
176
     1
290
     0
176
     1
 40
1.0
176
     1
 40
1.0
176
     1
  0
VISUALSTYLE
  5
3A
102
{ACAD_REACTORS
330
2A
102
}
330
2A
100
AcDbVisualStyle
  2
ColorChange
 70
    16
177
     3
291
     1
 70
    58
 90
        2
176
     1
 90
        2
176
     1
 90
        3
176
     1
 90
        0
176
     1
 40
0.6
176
     1
 40
30.0
176
     1
 62
     8
420
  8421504
176
     1
 90
        1
176
     1
 90
        4
176
     1
 62
     7
176
     1
 62
   257
176
     1
 90
        1
176
     1
 90
        1
176
     1
 40
1.0
176
     1
 90
        8
176
     1
 62
     8
420
  8421504
176
     1
 40
1.0
176
     1
 90
        1
176
     1
 90
        6
176
     1
 90
        2
176
     1
 62
     7
176
     1
 90
        5
176
     1
 90
        0
176
     1
 90
        0
176
     1
290
     0
176
     1
 90
        1
176
     1
 40
0.0
176
     1
 90
        0
176
     1
290
     0
176
     1
290
     1
176
     1
290
     1
176
     1
290
     0
176
     1
290
     0
176
     1
290
     0
176
     1
290
     0
176
     1
290
     0
176
     1
290
     0
176
     1
 90
       50
176
     1
 40
0.0
176
     1
 40
1.0
176
     1
 90
        0
176
     1
 62
    18
420
        0
176
     1
 90
       50
176
     1
 90
        3
176
     1
 62
     5
420
      255
176
     1
290
     0
176
     1
 90
       50
176
     1
 90
       50
176
     1
 90
       50
176
     1
290
     0
176
     1
 90
       50
176
     1
 62
   256
176
     0
 40
1.0
176
     0
 90
        2
176
     1
  1
strokes_ogs.tif
176
     1
290
     0
176
     1
 40
1.0
176
     1
 40
1.0
176
     1
  0
VISUALSTYLE
  5
34
102
{ACAD_REACTORS
330
2A
102
}
330
2A
100
AcDbVisualStyle
  2
Conceptual
 70
     9
177
     3
291
     0
 70
    58
 90
        3
176
     1
 90
        2
176
     1
 90
        0
176
     1
 90
        0
176
     1
 40
0.6
176
     1
 40
30.0
176
     1
 62
     7
420
 16777215
176
     1
 90
        2
176
     1
 90
        2
176
     1
 62
     7
176
     1
 62
   257
176
     1
 90
        1
176
     1
 90
        1
176
     1
 40
179.0
176
     1
 90
        8
176
     1
 62
     7
176
     1
 40
1.0
176
     1
 90
        1
176
     1
 90
        6
176
     1
 90
        2
176
     1
 62
     7
176
     1
 90
        3
176
     1
 90
        0
176
     1
 90
        0
176
     1
290
     0
176
     1
 90
        1
176
     1
 40
0.0
176
     1
 90
        0
176
     1
290
     0
176
     1
290
     1
176
     1
290
     1
176
     1
290
     0
176
     1
290
     0
176
     1
290
     0
176
     1
290
     0
176
     1
290
     0
176
     1
290
     0
176
     1
 90
       50
176
     1
 40
0.0
176
     1
 40
1.0
176
     1
 90
        0
176
     1
 62
    18
420
        0
176
     1
 90
       50
176
     1
 90
        3
176
     1
 62
     5
420
      255
176
     1
290
     0
176
     1
 90
       50
176
     1
 90
       50
176
     1
 90
       50
176
     1
290
     0
176
     1
 90
       50
176
     1
 62
   256
176
     0
 40
1.0
176
     0
 90
        2
176
     1
  1
strokes_ogs.tif
176
     1
290
     0
176
     1
 40
1.0
176
     1
 40
1.0
176
     1
  0
VISUALSTYLE
  5
35
102
{ACAD_REACTORS
330
2A
102
}
330
2A
100
AcDbVisualStyle
  2
Dim
 70
    11
177
     3
291
     1
 70
    58
 90
        2
176
     1
 90
        2
176
     1
 90
        0
176
     1
 90
        0
176
     1
 40
0.6
176
     1
 40
30.0
176
     1
 62
     7
420
 16777215
176
     1
 90
        1
176
     1
 90
        4
176
     1
 62
     7
176
     1
 62
   257
176
     1
 90
        1
176
     1
 90
        1
176
     1
 40
1.0
176
     1
 90
        8
176
     1
 62
     7
176
     1
 40
1.0
176
     1
 90
        1
176
     1
 90
        6
176
     1
 90
        2
176
     1
 62
     7
176
     1
 90
        5
176
     1
 90
        0
176
     1
 90
        0
176
     1
290
     0
176
     1
 90
        1
176
     1
 40
-50.0
176
     1
 90
        0
176
     1
290
     0
176
     1
290
     1
176
     1
290
     1
176
     1
290
     0
176
     1
290
     0
176
     1
290
     0
176
     1
290
     0
176
     1
290
     0
176
     1
290
     0
176
     1
 90
       50
176
     1
 40
0.0
176
     1
 40
1.0
176
     1
 90
        0
176
     1
 62
    18
420
        0
176
     1
 90
       50
176
     1
 90
        3
176
     1
 62
     5
420
      255
176
     1
290
     0
176
     1
 90
       50
176
     1
 90
       50
176
     1
 90
       50
176
     1
290
     0
176
     1
 90
       50
176
     1
 62
   256
176
     0
 40
1.0
176
     0
 90
        2
176
     1
  1
strokes_ogs.tif
176
     1
290
     0
176
     1
 40
1.0
176
     1
 40
1.0
176
     1
  0
VISUALSTYLE
  5
3D
102
{ACAD_REACTORS
330
2A
102
}
330
2A
100
AcDbVisualStyle
  2
EdgeColorOff
 70
    22
177
     3
291
     1
 70
    58
 90
        2
176
     0
 90
        2
176
     0
 90
        0
176
     0
 90
        0
176
     0
 40
0.6
176
     0
 40
30.0
176
     0
 62
     7
420
 16777215
176
     0
 90
        1
176
     0
 90
        4
176
     0
 62
     7
176
     0
 62
   257
176
     0
 90
        1
176
     0
 90
        1
176
     0
 40
1.0
176
     0
 90
        8
176
     2
 62
     7
176
     0
 40
1.0
176
     0
 90
        1
176
     0
 90
        6
176
     0
 90
        2
176
     0
 62
     7
176
     0
 90
        5
176
     0
 90
        0
176
     0
 90
        0
176
     0
290
     0
176
     0
 90
        1
176
     0
 40
0.0
176
     0
 90
        0
176
     0
290
     0
176
     0
290
     1
176
     0
290
     1
176
     0
290
     0
176
     0
290
     0
176
     0
290
     0
176
     0
290
     0
176
     0
290
     0
176
     0
290
     0
176
     0
 90
       50
176
     0
 40
0.0
176
     0
 40
1.0
176
     0
 90
        0
176
     0
 62
    18
420
        0
176
     0
 90
       50
176
     0
 90
        3
176
     0
 62
     5
420
      255
176
     0
290
     0
176
     0
 90
       50
176
     0
 90
       50
176
     0
 90
       50
176
     0
290
     0
176
     0
 90
       50
176
     0
 62
   256
176
     0
 40
1.0
176
     0
 90
        2
176
     0
  1
strokes_ogs.tif
176
     0
290
     0
176
     0
 40
1.0
176
     0
 40
1.0
176
     0
  0
VISUALSTYLE
  5
39
102
{ACAD_REACTORS
330
2A
102
}
330
2A
100
AcDbVisualStyle
  2
Facepattern
 70
    15
177
     3
291
     1
 70
    58
 90
        2
176
     1
 90
        2
176
     1
 90
        0
176
     1
 90
        0
176
     1
 40
0.6
176
     1
 40
30.0
176
     1
 62
     7
420
 16777215
176
     1
 90
        1
176
     1
 90
        4
176
     1
 62
     7
176
     1
 62
   257
176
     1
 90
        1
176
     1
 90
        1
176
     1
 40
1.0
176
     1
 90
        8
176
     1
 62
     7
176
     1
 40
1.0
176
     1
 90
        1
176
     1
 90
        6
176
     1
 90
        2
176
     1
 62
     7
176
     1
 90
        5
176
     1
 90
        0
176
     1
 90
        0
176
     1
290
     0
176
     1
 90
        1
176
     1
 40
0.0
176
     1
 90
        0
176
     1
290
     0
176
     1
290
     1
176
     1
290
     1
176
     1
290
     0
176
     1
290
     0
176
     1
290
     0
176
     1
290
     0
176
     1
290
     0
176
     1
290
     0
176
     1
 90
       50
176
     1
 40
0.0
176
     1
 40
1.0
176
     1
 90
        0
176
     1
 62
    18
420
        0
176
     1
 90
       50
176
     1
 90
        3
176
     1
 62
     5
420
      255
176
     1
290
     0
176
     1
 90
       50
176
     1
 90
       50
176
     1
 90
       50
176
     1
290
     0
176
     1
 90
       50
176
     1
 62
   256
176
     0
 40
1.0
176
     0
 90
        2
176
     1
  1
strokes_ogs.tif
176
     1
290
     0
176
     1
 40
1.0
176
     1
 40
1.0
176
     1
  0
VISUALSTYLE
  5
2B
102
{ACAD_REACTORS
330
2A
102
}
330
2A
100
AcDbVisualStyle
  2
Flat
 70
     0
177
     3
291
     1
 70
    58
 90
        2
176
     1
 90
        1
176
     1
 90
        1
176
     1
 90
        2
176
     1
 40
0.6
176
     1
 40
30.0
176
     1
 62
     7
420
 16777215
176
     1
 90
        0
176
     1
 90
        0
176
     1
 62
     7
176
     1
 62
   257
176
     1
 90
        1
176
     1
 90
        1
176
     1
 40
1.0
176
     1
 90
        8
176
     1
 62
     7
176
     1
 40
1.0
176
     1
 90
        1
176
     1
 90
        6
176
     1
 90
        2
176
     1
 62
     7
176
     1
 90
        5
176
     1
 90
        0
176
     1
 90
        0
176
     1
290
     0
176
     1
 90
       13
176
     1
 40
0.0
176
     1
 90
        0
176
     1
290
     0
176
     1
290
     1
176
     1
290
     1
176
     1
290
     0
176
     1
290
     0
176
     1
290
     0
176
     1
290
     0
176
     1
290
     0
176
     1
290
     0
176
     1
 90
       50
176
     1
 40
0.0
176
     1
 40
1.0
176
     1
 90
        0
176
     1
 62
    18
420
        0
176
     1
 90
       50
176
     1
 90
        3
176
     1
 62
     5
420
      255
176
     1
290
     0
176
     1
 90
       50
176
     1
 90
       50
176
     1
 90
       50
176
     1
290
     0
176
     1
 90
       50
176
     1
 62
   256
176
     0
 40
1.0
176
     0
 90
        2
176
     1
  1
strokes_ogs.tif
176
     1
290
     0
176
     1
 40
1.0
176
     1
 40
1.0
176
     1
  0
VISUALSTYLE
  5
2C
102
{ACAD_REACTORS
330
2A
102
}
330
2A
100
AcDbVisualStyle
  2
FlatWithEdges
 70
     1
177
     3
291
     1
 70
    58
 90
        2
176
     1
 90
        1
176
     1
 90
        1
176
     1
 90
        2
176
     1
 40
0.6
176
     1
 40
30.0
176
     1
 62
     7
420
 16777215
176
     1
 90
        1
176
     1
 90
        0
176
     1
 62
     7
176
     1
 62
   257
176
     1
 90
        1
176
     1
 90
        1
176
     1
 40
1.0
176
     1
 90
        0
176
     1
 62
   257
176
     1
 40
1.0
176
     1
 90
        1
176
     1
 90
        6
176
     1
 90
        2
176
     1
 62
     7
176
     1
 90
        5
176
     1
 90
        0
176
     1
 90
        0
176
     1
290
     0
176
     1
 90
       13
176
     1
 40
0.0
176
     1
 90
        0
176
     1
290
     0
176
     1
290
     1
176
     1
290
     1
176
     1
290
     0
176
     1
290
     0
176
     1
290
     0
176
     1
290
     0
176
     1
290
     0
176
     1
290
     0
176
     1
 90
       50
176
     1
 40
0.0
176
     1
 40
1.0
176
     1
 90
        0
176
     1
 62
    18
420
        0
176
     1
 90
       50
176
     1
 90
        3
176
     1
 62
     5
420
      255
176
     1
290
     0
176
     1
 90
       50
176
     1
 90
       50
176
     1
 90
       50
176
     1
290
     0
176
     1
 90
       50
176
     1
 62
   256
176
     0
 40
1.0
176
     0
 90
        2
176
     1
  1
strokes_ogs.tif
176
     1
290
     0
176
     1
 40
1.0
176
     1
 40
1.0
176
     1
  0
VISUALSTYLE
  5
2D
102
{ACAD_REACTORS
330
2A
102
}
330
2A
100
AcDbVisualStyle
  2
Gouraud
 70
     2
177
     3
291
     1
 70
    58
 90
        2
176
     1
 90
        2
176
     1
 90
        1
176
     1
 90
        2
176
     1
 40
0.6
176
     1
 40
30.0
176
     1
 62
     7
420
 16777215
176
     1
 90
        0
176
     1
 90
        0
176
     1
 62
     7
176
     1
 62
   257
176
     1
 90
        1
176
     1
 90
        1
176
     1
 40
1.0
176
     1
 90
        0
176
     1
 62
     7
176
     1
 40
1.0
176
     1
 90
        1
176
     1
 90
        6
176
     1
 90
        2
176
     1
 62
     7
176
     1
 90
        5
176
     1
 90
        0
176
     1
 90
        0
176
     1
290
     0
176
     1
 90
       13
176
     1
 40
0.0
176
     1
 90
        0
176
     1
290
     0
176
     1
290
     1
176
     1
290
     1
176
     1
290
     0
176
     1
290
     0
176
     1
290
     0
176
     1
290
     0
176
     1
290
     0
176
     1
290
     0
176
     1
 90
       50
176
     1
 40
0.0
176
     1
 40
1.0
176
     1
 90
        0
176
     1
 62
    18
420
        0
176
     1
 90
       50
176
     1
 90
        3
176
     1
 62
     5
420
      255
176
     1
290
     0
176
     1
 90
       50
176
     1
 90
       50
176
     1
 90
       50
176
     1
290
     0
176
     1
 90
       50
176
     1
 62
   256
176
     0
 40
1.0
176
     0
 90
        2
176
     1
  1
strokes_ogs.tif
176
     1
290
     0
176
     1
 40
1.0
176
     1
 40
1.0
176
     1
  0
VISUALSTYLE
  5
2E
102
{ACAD_REACTORS
330
2A
102
}
330
2A
100
AcDbVisualStyle
  2
GouraudWithEdges
 70
     3
177
     3
291
     1
 70
    58
 90
        2
176
     1
 90
        2
176
     1
 90
        1
176
     1
 90
        2
176
     1
 40
0.6
176
     1
 40
30.0
176
     1
 62
     7
420
 16777215
176
     1
 90
        1
176
     1
 90
        0
176
     1
 62
     7
176
     1
 62
   257
176
     1
 90
        1
176
     1
 90
        1
176
     1
 40
1.0
176
     1
 90
        0
176
     1
 62
   257
176
     1
 40
1.0
176
     1
 90
        1
176
     1
 90
        6
176
     1
 90
        2
176
     1
 62
     7
176
     1
 90
        5
176
     1
 90
        0
176
     1
 90
        0
176
     1
290
     0
176
     1
 90
       13
176
     1
 40
0.0
176
     1
 90
        0
176
     1
290
     0
176
     1
290
     1
176
     1
290
     1
176
     1
290
     0
176
     1
290
     0
176
     1
290
     0
176
     1
290
     0
176
     1
290
     0
176
     1
290
     0
176
     1
 90
       50
176
     1
 40
0.0
176
     1
 40
1.0
176
     1
 90
        0
176
     1
 62
    18
420
        0
176
     1
 90
       50
176
     1
 90
        3
176
     1
 62
     5
420
      255
176
     1
290
     0
176
     1
 90
       50
176
     1
 90
       50
176
     1
 90
       50
176
     1
290
     0
176
     1
 90
       50
176
     1
 62
   256
176
     0
 40
1.0
176
     0
 90
        2
176
     1
  1
strokes_ogs.tif
176
     1
290
     0
176
     1
 40
1.0
176
     1
 40
1.0
176
     1
  0
VISUALSTYLE
  5
31
102
{ACAD_REACTORS
330
2A
102
}
330
2A
100
AcDbVisualStyle
  2
Hidden
 70
     6
177
     3
291
     0
 70
    58
 90
        1
176
     1
 90
        2
176
     1
 90
        2
176
     1
 90
        0
176
     1
 40
0.6
176
     1
 40
30.0
176
     1
 62
     7
420
 16777215
176
     1
 90
        2
176
     1
 90
        2
176
     1
 62
     7
176
     1
 62
   257
176
     1
 90
        2
176
     1
 90
        1
176
     1
 40
40.0
176
     1
 90
        0
176
     1
 62
   257
176
     1
 40
1.0
176
     1
 90
        1
176
     1
 90
        6
176
     1
 90
        2
176
     1
 62
     7
176
     1
 90
        3
176
     1
 90
        0
176
     1
 90
        0
176
     1
290
     0
176
     1
 90
        1
176
     1
 40
0.0
176
     1
 90
        0
176
     1
290
     0
176
     1
290
     1
176
     1
290
     1
176
     1
290
     0
176
     1
290
     0
176
     1
290
     0
176
     1
290
     0
176
     1
290
     0
176
     1
290
     0
176
     1
 90
       50
176
     1
 40
0.0
176
     1
 40
1.0
176
     1
 90
        0
176
     1
 62
    18
420
        0
176
     1
 90
       50
176
     1
 90
        3
176
     1
 62
     5
420
      255
176
     1
290
     0
176
     1
 90
       50
176
     1
 90
       50
176
     1
 90
       50
176
     1
290
     0
176
     1
 90
       50
176
     1
 62
   256
176
     0
 40
1.0
176
     0
 90
        2
176
     1
  1
strokes_ogs.tif
176
     1
290
     0
176
     1
 40
1.0
176
     1
 40
1.0
176
     1
  0
VISUALSTYLE
  5
3B
102
{ACAD_REACTORS
330
2A
102
}
330
2A
100
AcDbVisualStyle
  2
JitterOff
 70
    20
177
     3
291
     1
 70
    58
 90
        2
176
     0
 90
        2
176
     0
 90
        0
176
     0
 90
        0
176
     0
 40
0.6
176
     0
 40
30.0
176
     0
 62
     7
420
 16777215
176
     0
 90
        1
176
     0
 90
        4
176
     0
 62
     7
176
     0
 62
   257
176
     0
 90
        1
176
     0
 90
        1
176
     0
 40
1.0
176
     0
 90
       10
176
     2
 62
     7
176
     0
 40
1.0
176
     0
 90
        1
176
     0
 90
        6
176
     0
 90
        2
176
     0
 62
     7
176
     0
 90
        5
176
     0
 90
        0
176
     0
 90
        0
176
     0
290
     0
176
     0
 90
        1
176
     0
 40
0.0
176
     0
 90
        0
176
     0
290
     0
176
     0
290
     1
176
     0
290
     1
176
     0
290
     0
176
     0
290
     0
176
     0
290
     0
176
     0
290
     0
176
     0
290
     0
176
     0
290
     0
176
     0
 90
       50
176
     0
 40
0.0
176
     0
 40
1.0
176
     0
 90
        0
176
     0
 62
    18
420
        0
176
     0
 90
       50
176
     0
 90
        3
176
     0
 62
     5
420
      255
176
     0
290
     0
176
     0
 90
       50
176
     0
 90
       50
176
     0
 90
       50
176
     0
290
     0
176
     0
 90
       50
176
     0
 62
   256
176
     0
 40
1.0
176
     0
 90
        2
176
     0
  1
strokes_ogs.tif
176
     0
290
     0
176
     0
 40
1.0
176
     0
 40
1.0
176
     0
  0
VISUALSTYLE
  5
38
102
{ACAD_REACTORS
330
2A
102
}
330
2A
100
AcDbVisualStyle
  2
Linepattern
 70
    14
177
     3
291
     1
 70
    58
 90
        2
176
     1
 90
        2
176
     1
 90
        0
176
     1
 90
        0
176
     1
 40
0.6
176
     1
 40
30.0
176
     1
 62
     7
420
 16777215
176
     1
 90
        1
176
     1
 90
        4
176
     1
 62
     7
176
     1
 62
   257
176
     1
 90
        7
176
     1
 90
        7
176
     1
 40
1.0
176
     1
 90
        8
176
     1
 62
     7
176
     1
 40
1.0
176
     1
 90
        1
176
     1
 90
        6
176
     1
 90
        2
176
     1
 62
     7
176
     1
 90
        5
176
     1
 90
        0
176
     1
 90
        0
176
     1
290
     0
176
     1
 90
        1
176
     1
 40
0.0
176
     1
 90
        0
176
     1
290
     0
176
     1
290
     1
176
     1
290
     1
176
     1
290
     0
176
     1
290
     0
176
     1
290
     0
176
     1
290
     0
176
     1
290
     0
176
     1
290
     0
176
     1
 90
       50
176
     1
 40
0.0
176
     1
 40
1.0
176
     1
 90
        0
176
     1
 62
    18
420
        0
176
     1
 90
       50
176
     1
 90
        3
176
     1
 62
     5
420
      255
176
     1
290
     0
176
     1
 90
       50
176
     1
 90
       50
176
     1
 90
       50
176
     1
290
     0
176
     1
 90
       50
176
     1
 62
   256
176
     0
 40
1.0
176
     0
 90
        2
176
     1
  1
strokes_ogs.tif
176
     1
290
     0
176
     1
 40
1.0
176
     1
 40
1.0
176
     1
  0
VISUALSTYLE
  5
3C
102
{ACAD_REACTORS
330
2A
102
}
330
2A
100
AcDbVisualStyle
  2
OverhangOff
 70
    21
177
     3
291
     1
 70
    58
 90
        2
176
     0
 90
        2
176
     0
 90
        0
176
     0
 90
        0
176
     0
 40
0.6
176
     0
 40
30.0
176
     0
 62
     7
420
 16777215
176
     0
 90
        1
176
     0
 90
        4
176
     0
 62
     7
176
     0
 62
   257
176
     0
 90
        1
176
     0
 90
        1
176
     0
 40
1.0
176
     0
 90
        9
176
     2
 62
     7
176
     0
 40
1.0
176
     0
 90
        1
176
     0
 90
        6
176
     0
 90
        2
176
     0
 62
     7
176
     0
 90
        5
176
     0
 90
        0
176
     0
 90
        0
176
     0
290
     0
176
     0
 90
        1
176
     0
 40
0.0
176
     0
 90
        0
176
     0
290
     0
176
     0
290
     1
176
     0
290
     1
176
     0
290
     0
176
     0
290
     0
176
     0
290
     0
176
     0
290
     0
176
     0
290
     0
176
     0
290
     0
176
     0
 90
       50
176
     0
 40
0.0
176
     0
 40
1.0
176
     0
 90
        0
176
     0
 62
    18
420
        0
176
     0
 90
       50
176
     0
 90
        3
176
     0
 62
     5
420
      255
176
     0
290
     0
176
     0
 90
       50
176
     0
 90
       50
176
     0
 90
       50
176
     0
290
     0
176
     0
 90
       50
176
     0
 62
   256
176
     0
 40
1.0
176
     0
 90
        2
176
     0
  1
strokes_ogs.tif
176
     0
290
     0
176
     0
 40
1.0
176
     0
 40
1.0
176
     0
  0
VISUALSTYLE
  5
33
102
{ACAD_REACTORS
330
2A
102
}
330
2A
100
AcDbVisualStyle
  2
Realistic
 70
     8
177
     3
291
     0
 70
    58
 90
        2
176
     1
 90
        3
176
     1
 90
        0
176
     1
 90
        2
176
     1
 40
0.6
176
     1
 40
30.0
176
     1
 62
     7
420
 16777215
176
     1
 90
        0
176
     1
 90
        0
176
     1
 62
     7
176
     1
 62
   257
176
     1
 90
        1
176
     1
 90
        1
176
     1
 40
1.0
176
     1
 90
        8
176
     1
 62
   257
176
     1
 40
1.0
176
     1
 90
        1
176
     1
 90
        6
176
     1
 90
        2
176
     1
 62
     7
176
     1
 90
        3
176
     1
 90
        0
176
     1
 90
        0
176
     1
290
     0
176
     1
 90
       13
176
     1
 40
0.0
176
     1
 90
        0
176
     1
290
     0
176
     1
290
     1
176
     1
290
     1
176
     1
290
     0
176
     1
290
     0
176
     1
290
     0
176
     1
290
     0
176
     1
290
     0
176
     1
290
     0
176
     1
 90
       50
176
     1
 40
0.0
176
     1
 40
1.0
176
     1
 90
        0
176
     1
 62
    18
420
        0
176
     1
 90
       50
176
     1
 90
        3
176
     1
 62
     5
420
      255
176
     1
290
     0
176
     1
 90
       50
176
     1
 90
       50
176
     1
 90
       50
176
     1
290
     0
176
     1
 90
       50
176
     1
 62
   256
176
     0
 40
1.0
176
     0
 90
        2
176
     1
  1
strokes_ogs.tif
176
     1
290
     0
176
     1
 40
1.0
176
     1
 40
1.0
176
     1
  0
VISUALSTYLE
  5
42
102
{ACAD_REACTORS
330
2A
102
}
330
2A
100
AcDbVisualStyle
  2
Shaded
 70
    27
177
     3
291
     0
 70
    58
 90
        2
176
     1
 90
        2
176
     1
 90
        1
176
     1
 90
        2
176
     1
 40
0.6
176
     1
 40
30.0
176
     1
 62
     7
420
 16777215
176
     1
 90
        0
176
     1
 90
        4
176
     1
 62
     7
176
     1
 62
   257
176
     1
 90
        1
176
     1
 90
        1
176
     1
 40
1.0
176
     1
 90
        8
176
     1
 62
   257
176
     1
 40
1.0
176
     1
 90
        1
176
     1
 90
        6
176
     1
 90
        2
176
     1
 62
     8
420
  7895160
176
     1
 90
        3
176
     1
 90
        0
176
     1
 90
        0
176
     1
290
     0
176
     1
 90
        5
176
     1
 40
0.0
176
     1
 90
        0
176
     1
290
     0
176
     1
290
     1
176
     1
290
     1
176
     1
290
     0
176
     1
290
     0
176
     1
290
     0
176
     1
290
     0
176
     1
290
     0
176
     1
290
     0
176
     1
 90
       50
176
     1
 40
0.0
176
     1
 40
1.0
176
     1
 90
        0
176
     1
 62
    18
420
        0
176
     1
 90
       50
176
     1
 90
        3
176
     1
 62
     5
420
      255
176
     1
290
     0
176
     1
 90
       50
176
     1
 90
       50
176
     1
 90
       50
176
     1
290
     0
176
     1
 90
       50
176
     1
 62
   256
176
     0
 40
1.0
176
     0
 90
        2
176
     1
  1
strokes_ogs.tif
176
     1
290
     0
176
     1
 40
1.0
176
     1
 40
1.0
176
     1
  0
VISUALSTYLE
  5
41
102
{ACAD_REACTORS
330
2A
102
}
330
2A
100
AcDbVisualStyle
  2
Shaded with edges
 70
    26
177
     3
291
     0
 70
    58
 90
        2
176
     1
 90
        2
176
     1
 90
        1
176
     1
 90
        2
176
     1
 40
0.6
176
     1
 40
30.0
176
     1
 62
     7
420
 16777215
176
     1
 90
        1
176
     1
 90
       10
176
     1
 62
     7
176
     1
 62
   257
176
     1
 90
        2
176
     1
 90
        1
176
     1
 40
1.0
176
     1
 90
        8
176
     1
 62
   257
176
     1
 40
1.0
176
     1
 90
        1
176
     1
 90
        6
176
     1
 90
        2
176
     1
 62
     7
176
     1
 90
        3
176
     1
 90
        0
176
     1
 90
        0
176
     1
290
     0
176
     1
 90
        5
176
     1
 40
0.0
176
     1
 90
        0
176
     1
290
     0
176
     1
290
     1
176
     1
290
     1
176
     1
290
     0
176
     1
290
     0
176
     1
290
     0
176
     1
290
     0
176
     1
290
     0
176
     1
290
     0
176
     1
 90
       50
176
     1
 40
0.0
176
     1
 40
1.0
176
     1
 90
        0
176
     1
 62
    18
420
        0
176
     1
 90
       50
176
     1
 90
        3
176
     1
 62
     5
420
      255
176
     1
290
     0
176
     1
 90
       50
176
     1
 90
       50
176
     1
 90
       50
176
     1
290
     0
176
     1
 90
       50
176
     1
 62
   256
176
     0
 40
1.0
176
     0
 90
        2
176
     1
  1
strokes_ogs.tif
176
     1
290
     0
176
     1
 40
1.0
176
     1
 40
1.0
176
     1
  0
VISUALSTYLE
  5
3E
102
{ACAD_REACTORS
330
2A
102
}
330
2A
100
AcDbVisualStyle
  2
Shades of Gray
 70
    23
177
     3
291
     0
 70
    58
 90
        2
176
     1
 90
        2
176
     1
 90
        3
176
     1
 90
        0
176
     1
 40
0.6
176
     1
 40
30.0
176
     1
 62
     7
420
 16777215
176
     1
 90
        2
176
     1
 90
        2
176
     1
 62
     7
176
     1
 62
     7
176
     1
 90
        1
176
     1
 90
        1
176
     1
 40
40.0
176
     1
 90
        8
176
     1
 62
     7
176
     1
 40
1.0
176
     1
 90
        1
176
     1
 90
        6
176
     1
 90
        2
176
     1
 62
     7
176
     1
 90
        3
176
     1
 90
        0
176
     1
 90
        0
176
     1
290
     0
176
     1
 90
        1
176
     1
 40
0.0
176
     1
 90
        0
176
     1
290
     0
176
     1
290
     1
176
     1
290
     1
176
     1
290
     0
176
     1
290
     0
176
     1
290
     0
176
     1
290
     0
176
     1
290
     0
176
     1
290
     0
176
     1
 90
       50
176
     1
 40
0.0
176
     1
 40
1.0
176
     1
 90
        0
176
     1
 62
    18
420
        0
176
     1
 90
       50
176
     1
 90
        3
176
     1
 62
     5
420
      255
176
     1
290
     0
176
     1
 90
       50
176
     1
 90
       50
176
     1
 90
       50
176
     1
290
     0
176
     1
 90
       50
176
     1
 62
   256
176
     0
 40
1.0
176
     0
 90
        2
176
     1
  1
strokes_ogs.tif
176
     1
290
     0
176
     1
 40
1.0
176
     1
 40
1.0
176
     1
  0
VISUALSTYLE
  5
3F
102
{ACAD_REACTORS
330
2A
102
}
330
2A
100
AcDbVisualStyle
  2
Sketchy
 70
    24
177
     3
291
     0
 70
    58
 90
        1
176
     1
 90
        2
176
     1
 90
        2
176
     1
 90
        0
176
     1
 40
0.6
176
     1
 40
30.0
176
     1
 62
     7
420
 16777215
176
     1
 90
        2
176
     1
 90
        2
176
     1
 62
     7
176
     1
 62
     7
176
     1
 90
        1
176
     1
 90
        1
176
     1
 40
40.0
176
     1
 90
       11
176
     1
 62
     7
176
     1
 40
1.0
176
     1
 90
        1
176
     1
 90
        6
176
     1
 90
        2
176
     1
 62
     7
176
     1
 90
        6
176
     1
 90
        0
176
     1
 90
        0
176
     1
290
     0
176
     1
 90
        1
176
     1
 40
0.0
176
     1
 90
        0
176
     1
290
     0
176
     1
290
     1
176
     1
290
     1
176
     1
290
     0
176
     1
290
     0
176
     1
290
     0
176
     1
290
     0
176
     1
290
     0
176
     1
290
     0
176
     1
 90
       50
176
     1
 40
0.0
176
     1
 40
1.0
176
     1
 90
        0
176
     1
 62
    18
420
        0
176
     1
 90
       50
176
     1
 90
        3
176
     1
 62
     5
420
      255
176
     1
290
     0
176
     1
 90
       50
176
     1
 90
       50
176
     1
 90
       50
176
     1
290
     0
176
     1
 90
       50
176
     1
 62
   256
176
     0
 40
1.0
176
     0
 90
        2
176
     1
  1
strokes_ogs.tif
176
     1
290
     0
176
     1
 40
1.0
176
     1
 40
1.0
176
     1
  0
VISUALSTYLE
  5
37
102
{ACAD_REACTORS
330
2A
102
}
330
2A
100
AcDbVisualStyle
  2
Thicken
 70
    13
177
     3
291
     1
 70
    58
 90
        2
176
     1
 90
        2
176
     1
 90
        0
176
     1
 90
        0
176
     1
 40
0.6
176
     1
 40
30.0
176
     1
 62
     7
420
 16777215
176
     1
 90
        1
176
     1
 90
        4
176
     1
 62
     7
176
     1
 62
   257
176
     1
 90
        1
176
     1
 90
        1
176
     1
 40
1.0
176
     1
 90
       12
176
     1
 62
     7
176
     1
 40
1.0
176
     1
 90
        1
176
     1
 90
        6
176
     1
 90
        2
176
     1
 62
     7
176
     1
 90
        5
176
     1
 90
        0
176
     1
 90
        0
176
     1
290
     0
176
     1
 90
        1
176
     1
 40
0.0
176
     1
 90
        0
176
     1
290
     0
176
     1
290
     1
176
     1
290
     1
176
     1
290
     0
176
     1
290
     0
176
     1
290
     0
176
     1
290
     0
176
     1
290
     0
176
     1
290
     0
176
     1
 90
       50
176
     1
 40
0.0
176
     1
 40
1.0
176
     1
 90
        0
176
     1
 62
    18
420
        0
176
     1
 90
       50
176
     1
 90
        3
176
     1
 62
     5
420
      255
176
     1
290
     0
176
     1
 90
       50
176
     1
 90
       50
176
     1
 90
       50
176
     1
290
     0
176
     1
 90
       50
176
     1
 62
   256
176
     0
 40
1.0
176
     0
 90
        2
176
     1
  1
strokes_ogs.tif
176
     1
290
     0
176
     1
 40
1.0
176
     1
 40
1.0
176
     1
  0
VISUALSTYLE
  5
30
102
{ACAD_REACTORS
330
2A
102
}
330
2A
100
AcDbVisualStyle
  2
Wireframe
 70
     5
177
     3
291
     0
 70
    58
 90
        0
176
     1
 90
        2
176
     1
 90
        0
176
     1
 90
        0
176
     1
 40
0.6
176
     1
 40
30.0
176
     1
 62
     7
420
 16777215
176
     1
 90
        1
176
     1
 90
        4
176
     1
 62
     7
176
     1
 62
   257
176
     1
 90
        1
176
     1
 90
        1
176
     1
 40
1.0
176
     1
 90
        0
176
     1
 62
   257
176
     1
 40
1.0
176
     1
 90
        1
176
     1
 90
        6
176
     1
 90
        2
176
     1
 62
     7
176
     1
 90
        3
176
     1
 90
        0
176
     1
 90
        0
176
     1
290
     0
176
     1
 90
        1
176
     1
 40
0.0
176
     1
 90
        0
176
     1
290
     0
176
     1
290
     1
176
     1
290
     1
176
     1
290
     0
176
     1
290
     0
176
     1
290
     0
176
     1
290
     0
176
     1
290
     0
176
     1
290
     0
176
     1
 90
       50
176
     1
 40
0.0
176
     1
 40
1.0
176
     1
 90
        0
176
     1
 62
    18
420
        0
176
     1
 90
       50
176
     1
 90
        3
176
     1
 62
     5
420
      255
176
     1
290
     0
176
     1
 90
       50
176
     1
 90
       50
176
     1
 90
       50
176
     1
290
     0
176
     1
 90
       50
176
     1
 62
   256
176
     0
 40
1.0
176
     0
 90
        2
176
     1
  1
strokes_ogs.tif
176
     1
290
     0
176
     1
 40
1.0
176
     1
 40
1.0
176
     1
  0
VISUALSTYLE
  5
40
102
{ACAD_REACTORS
330
2A
102
}
330
2A
100
AcDbVisualStyle
  2
X-Ray
 70
    25
177
     3
291
     0
 70
    58
 90
        2
176
     1
 90
        2
176
     1
 90
        1
176
     1
 90
        1
176
     1
 40
0.5
176
     1
 40
30.0
176
     1
 62
     7
420
 16777215
176
     1
 90
        1
176
     1
 90
        0
176
     1
 62
     7
176
     1
 62
   257
176
     1
 90
        1
176
     1
 90
        1
176
     1
 40
1.0
176
     1
 90
        8
176
     1
 62
     7
176
     1
 40
1.0
176
     1
 90
        1
176
     1
 90
        6
176
     1
 90
        2
176
     1
 62
     7
176
     1
 90
        3
176
     1
 90
        0
176
     1
 90
        0
176
     1
290
     0
176
     1
 90
       13
176
     1
 40
0.0
176
     1
 90
        0
176
     1
290
     0
176
     1
290
     1
176
     1
290
     1
176
     1
290
     0
176
     1
290
     0
176
     1
290
     0
176
     1
290
     0
176
     1
290
     0
176
     1
290
     0
176
     1
 90
       50
176
     1
 40
0.0
176
     1
 40
1.0
176
     1
 90
        0
176
     1
 62
    18
420
        0
176
     1
 90
       50
176
     1
 90
        3
176
     1
 62
     5
420
      255
176
     1
290
     0
176
     1
 90
       50
176
     1
 90
       50
176
     1
 90
       50
176
     1
290
     0
176
     1
 90
       50
176
     1
 62
   256
176
     0
 40
1.0
176
     0
 90
        2
176
     1
  1
strokes_ogs.tif
176
     1
290
     0
176
     1
 40
1.0
176
     1
 40
1.0
176
     1
  0
DICTIONARYVAR
  5
1D6
102
{ACAD_REACTORS
330
1D5
102
}
330
1D5
100
DictionaryVariables
280
     0
  1
1:1
  0
DICTIONARYVAR
  5
1DB
102
{ACAD_REACTORS
330
1D5
102
}
330
1D5
100
DictionaryVariables
280
     0
  1
Standard
  0
DICTIONARYVAR
  5
1DA
102
{ACAD_REACTORS
330
1D5
102
}
330
1D5
100
DictionaryVariables
280
     0
  1
Standard
  0
DICTIONARY
  5
1D7
330
6A
100
AcDbDictionary
280
     1
281
     1
  3
ACAD_ROUNDTRIP_2008_TABLESTYLE_CELLSTYLEMAP
360
1D8
  0
CELLSTYLEMAP
  5
1D8
102
{ACAD_REACTORS
330
1D7
102
}
330
1D7
100
AcDbCellStyleMap
 90
        3
300
CELLSTYLE
  1
TABLEFORMAT_BEGIN
 90
        5
170
     1
 91
        0
 92
    32768
 62
   257
 93
        1
300
CONTENTFORMAT
  1
CONTENTFORMAT_BEGIN
 90
        0
 91
        0
 92
        4
 93
        0
300

 40
0.0
140
1.0
 94
        5
 62
     0
340
11
144
0.25
309
CONTENTFORMAT_END
171
     1
301
MARGIN
  1
CELLMARGIN_BEGIN
 40
0.06
 40
0.06
 40
0.06
 40
0.06
 40
0.06
 40
0.06
309
CELLMARGIN_END
 94
        6
 95
        1
302
GRIDFORMAT
  1
GRIDFORMAT_BEGIN
 90
        0
 91
        1
 62
     0
 92
       -2
340
14
 93
        0
 40
0.045
309
GRIDFORMAT_END
 95
        2
302
GRIDFORMAT
  1
GRIDFORMAT_BEGIN
 90
        0
 91
        1
 62
     0
 92
       -2
340
14
 93
        0
 40
0.045
309
GRIDFORMAT_END
 95
        4
302
GRIDFORMAT
  1
GRIDFORMAT_BEGIN
 90
        0
 91
        1
 62
     0
 92
       -2
340
14
 93
        0
 40
0.045
309
GRIDFORMAT_END
 95
        8
302
GRIDFORMAT
  1
GRIDFORMAT_BEGIN
 90
        0
 91
        1
 62
     0
 92
       -2
340
14
 93
        0
 40
0.045
309
GRIDFORMAT_END
 95
       16
302
GRIDFORMAT
  1
GRIDFORMAT_BEGIN
 90
        0
 91
        1
 62
     0
 92
       -2
340
14
 93
        0
 40
0.045
309
GRIDFORMAT_END
 95
       32
302
GRIDFORMAT
  1
GRIDFORMAT_BEGIN
 90
        0
 91
        1
 62
     0
 92
       -2
340
14
 93
        0
 40
0.045
309
GRIDFORMAT_END
309
TABLEFORMAT_END
  1
CELLSTYLE_BEGIN
 90
        1
 91
        1
300
_TITLE
309
CELLSTYLE_END
300
CELLSTYLE
  1
TABLEFORMAT_BEGIN
 90
        5
170
     1
 91
        0
 92
        0
 62
   257
 93
        1
300
CONTENTFORMAT
  1
CONTENTFORMAT_BEGIN
 90
        0
 91
        0
 92
        4
 93
        0
300

 40
0.0
140
1.0
 94
        5
 62
     0
340
11
144
0.18
309
CONTENTFORMAT_END
171
     1
301
MARGIN
  1
CELLMARGIN_BEGIN
 40
0.06
 40
0.06
 40
0.06
 40
0.06
 40
0.06
 40
0.06
309
CELLMARGIN_END
 94
        6
 95
        1
302
GRIDFORMAT
  1
GRIDFORMAT_BEGIN
 90
        0
 91
        1
 62
     0
 92
       -2
340
14
 93
        0
 40
0.045
309
GRIDFORMAT_END
 95
        2
302
GRIDFORMAT
  1
GRIDFORMAT_BEGIN
 90
        0
 91
        1
 62
     0
 92
       -2
340
14
 93
        0
 40
0.045
309
GRIDFORMAT_END
 95
        4
302
GRIDFORMAT
  1
GRIDFORMAT_BEGIN
 90
        0
 91
        1
 62
     0
 92
       -2
340
14
 93
        0
 40
0.045
309
GRIDFORMAT_END
 95
        8
302
GRIDFORMAT
  1
GRIDFORMAT_BEGIN
 90
        0
 91
        1
 62
     0
 92
       -2
340
14
 93
        0
 40
0.045
309
GRIDFORMAT_END
 95
       16
302
GRIDFORMAT
  1
GRIDFORMAT_BEGIN
 90
        0
 91
        1
 62
     0
 92
       -2
340
14
 93
        0
 40
0.045
309
GRIDFORMAT_END
 95
       32
302
GRIDFORMAT
  1
GRIDFORMAT_BEGIN
 90
        0
 91
        1
 62
     0
 92
       -2
340
14
 93
        0
 40
0.045
309
GRIDFORMAT_END
309
TABLEFORMAT_END
  1
CELLSTYLE_BEGIN
 90
        2
 91
        1
300
_HEADER
309
CELLSTYLE_END
300
CELLSTYLE
  1
TABLEFORMAT_BEGIN
 90
        5
170
     1
 91
        0
 92
        0
 62
   257
 93
        1
300
CONTENTFORMAT
  1
CONTENTFORMAT_BEGIN
 90
        0
 91
        0
 92
        4
 93
        0
300

 40
0.0
140
1.0
 94
        2
 62
     0
340
11
144
0.18
309
CONTENTFORMAT_END
171
     1
301
MARGIN
  1
CELLMARGIN_BEGIN
 40
0.06
 40
0.06
 40
0.06
 40
0.06
 40
0.06
 40
0.06
309
CELLMARGIN_END
 94
        6
 95
        1
302
GRIDFORMAT
  1
GRIDFORMAT_BEGIN
 90
        0
 91
        1
 62
     0
 92
       -2
340
14
 93
        0
 40
0.045
309
GRIDFORMAT_END
 95
        2
302
GRIDFORMAT
  1
GRIDFORMAT_BEGIN
 90
        0
 91
        1
 62
     0
 92
       -2
340
14
 93
        0
 40
0.045
309
GRIDFORMAT_END
 95
        4
302
GRIDFORMAT
  1
GRIDFORMAT_BEGIN
 90
        0
 91
        1
 62
     0
 92
       -2
340
14
 93
        0
 40
0.045
309
GRIDFORMAT_END
 95
        8
302
GRIDFORMAT
  1
GRIDFORMAT_BEGIN
 90
        0
 91
        1
 62
     0
 92
       -2
340
14
 93
        0
 40
0.045
309
GRIDFORMAT_END
 95
       16
302
GRIDFORMAT
  1
GRIDFORMAT_BEGIN
 90
        0
 91
        1
 62
     0
 92
       -2
340
14
 93
        0
 40
0.045
309
GRIDFORMAT_END
 95
       32
302
GRIDFORMAT
  1
GRIDFORMAT_BEGIN
 90
        0
 91
        1
 62
     0
 92
       -2
340
14
 93
        0
 40
0.045
309
GRIDFORMAT_END
309
TABLEFORMAT_END
  1
CELLSTYLE_BEGIN
 90
        3
 91
        2
300
_DATA
309
CELLSTYLE_END
  0
ENDSEC
  0
EOF