0
SECTION
  2
HEADER
  9
$ACADVER
  1
AC1027
  9
$ACADMAINTVER
 70
     8
  9
$DWGCODEPAGE
  3
ANSI_1252
  9
$REQUIREDVERSIONS
160
                 0
  9
$COMMENTS
  1
File was created by Cadenas
  9
$CUSTOMPROPERTYTAG
  1
NN
  9
$CUSTOMPROPERTY
  1
S-2000 Flange Bearing - Square Trident Seal
  9
$CUSTOMPROPERTYTAG
  1
NT
  9
$CUSTOMPROPERTY
  1
S-2000 4 Bolt Square Flange Bearing -Inch
  9
$CUSTOMPROPERTYTAG
  1
NB
  9
$CUSTOMPROPERTY
  1
070582
  9
$CUSTOMPROPERTYTAG
  1
NBSYN
  9
$CUSTOMPROPERTY
  1
$PN.
  9
$CUSTOMPROPERTYTAG
  1
LINA
  9
$CUSTOMPROPERTY
  1
070582
  9
$CUSTOMPROPERTYTAG
  1
SS
  9
$CUSTOMPROPERTY
  1
3-15/16
  9
$CUSTOMPROPERTYTAG
  1
PN
  9
$CUSTOMPROPERTY
  1
070582
  9
$CUSTOMPROPERTYTAG
  1
DESCRIPTION
  9
$CUSTOMPROPERTY
  1
F4S-S2-315RE
  9
$CUSTOMPROPERTYTAG
  1
EF
  9
$CUSTOMPROPERTY
  1
Expansion Type
  9
$CUSTOMPROPERTYTAG
  1
ST
  9
$CUSTOMPROPERTY
  1
Contact Seal
  9
$CUSTOMPROPERTYTAG
  1
A
  9
$CUSTOMPROPERTY
  1
4-15/32
  9
$CUSTOMPROPERTYTAG
  1
B
  9
$CUSTOMPROPERTY
  1
9-1/4
  9
$CUSTOMPROPERTYTAG
  1
C
  9
$CUSTOMPROPERTY
  1
4-27/32
  9
$CUSTOMPROPERTYTAG
  1
D
  9
$CUSTOMPROPERTY
  1
7-39/64
  9
$CUSTOMPROPERTYTAG
  1
F
  9
$CUSTOMPROPERTY
  1
7/8
  9
$CUSTOMPROPERTYTAG
  1
G
  9
$CUSTOMPROPERTY
  1
1-35/64
  9
$CUSTOMPROPERTYTAG
  1
H
  9
$CUSTOMPROPERTY
  1
1-1/16
  9
$CUSTOMPROPERTYTAG
  1
J
  9
$CUSTOMPROPERTY
  1
8-7/32
  9
$CUSTOMPROPERTYTAG
  1
K
  9
$CUSTOMPROPERTY
  1
10-3/4
  9
$CUSTOMPROPERTYTAG
  1
L
  9
$CUSTOMPROPERTY
  1
6
  9
$CUSTOMPROPERTYTAG
  1
N
  9
$CUSTOMPROPERTY
  1
4-45/64
  9
$CUSTOMPROPERTYTAG
  1
P
  9
$CUSTOMPROPERTY
  1
3/8
  9
$CUSTOMPROPERTYTAG
  1
X
  9
$CUSTOMPROPERTY
  1
5/16
  9
$CUSTOMPROPERTYTAG
  1
Y
  9
$CUSTOMPROPERTY
  1
0.025
  9
$CUSTOMPROPERTYTAG
  1
Z
  9
$CUSTOMPROPERTY
  1
4-1/2
  9
$CUSTOMPROPERTYTAG
  1
COMPANY
  9
$CUSTOMPROPERTY
  1
baldor
  9
$INSBASE
 10
0.0
 20
0.0
 30
0.0
  9
$EXTMIN
 10
1.000000000000000E+20
 20
1.000000000000000E+20
 30
1.000000000000000E+20
  9
$EXTMAX
 10
-1.000000000000000E+20
 20
-1.000000000000000E+20
 30
-1.000000000000000E+20
  9
$LIMMIN
 10
0.0
 20
0.0
  9
$LIMMAX
 10
12.0
 20
9.0
  9
$ORTHOMODE
 70
     0
  9
$REGENMODE
 70
     1
  9
$FILLMODE
 70
     1
  9
$QTEXTMODE
 70
     0
  9
$MIRRTEXT
 70
     1
  9
$LTSCALE
 40
1.0
  9
$ATTMODE
 70
     1
  9
$TEXTSIZE
 40
0.2
  9
$TRACEWID
 40
0.05
  9
$TEXTSTYLE
  7
Standard
  9
$CLAYER
  8
0
  9
$CELTYPE
  6
ByLayer
  9
$CECOLOR
 62
   256
  9
$CELTSCALE
 40
1.0
  9
$DISPSILH
 70
     0
  9
$DIMSCALE
 40
1.0
  9
$DIMASZ
 40
0.18
  9
$DIMEXO
 40
0.0625
  9
$DIMDLI
 40
0.38
  9
$DIMRND
 40
0.0
  9
$DIMDLE
 40
0.0
  9
$DIMEXE
 40
0.18
  9
$DIMTP
 40
0.0
  9
$DIMTM
 40
0.0
  9
$DIMTXT
 40
0.18
  9
$DIMCEN
 40
0.09
  9
$DIMTSZ
 40
0.0
  9
$DIMTOL
 70
     0
  9
$DIMLIM
 70
     0
  9
$DIMTIH
 70
     1
  9
$DIMTOH
 70
     1
  9
$DIMSE1
 70
     0
  9
$DIMSE2
 70
     0
  9
$DIMTAD
 70
     0
  9
$DIMZIN
 70
     0
  9
$DIMBLK
  1

  9
$DIMASO
 70
     1
  9
$DIMSHO
 70
     1
  9
$DIMPOST
  1

  9
$DIMAPOST
  1

  9
$DIMALT
 70
     0
  9
$DIMALTD
 70
     2
  9
$DIMALTF
 40
25.4
  9
$DIMLFAC
 40
1.0
  9
$DIMTOFL
 70
     0
  9
$DIMTVP
 40
0.0
  9
$DIMTIX
 70
     0
  9
$DIMSOXD
 70
     0
  9
$DIMSAH
 70
     0
  9
$DIMBLK1
  1

  9
$DIMBLK2
  1

  9
$DIMSTYLE
  2
Standard
  9
$DIMCLRD
 70
     0
  9
$DIMCLRE
 70
     0
  9
$DIMCLRT
 70
     0
  9
$DIMTFAC
 40
1.0
  9
$DIMGAP
 40
0.09
  9
$DIMJUST
 70
     0
  9
$DIMSD1
 70
     0
  9
$DIMSD2
 70
     0
  9
$DIMTOLJ
 70
     1
  9
$DIMTZIN
 70
     0
  9
$DIMALTZ
 70
     0
  9
$DIMALTTZ
 70
     0
  9
$DIMUPT
 70
     0
  9
$DIMDEC
 70
     4
  9
$DIMTDEC
 70
     4
  9
$DIMALTU
 70
     2
  9
$DIMALTTD
 70
     2
  9
$DIMTXSTY
  7
Standard
  9
$DIMAUNIT
 70
     0
  9
$DIMADEC
 70
     0
  9
$DIMALTRND
 40
0.0
  9
$DIMAZIN
 70
     0
  9
$DIMDSEP
 70
    46
  9
$DIMATFIT
 70
     3
  9
$DIMFRAC
 70
     0
  9
$DIMLDRBLK
  1

  9
$DIMLUNIT
 70
     2
  9
$DIMLWD
 70
    -2
  9
$DIMLWE
 70
    -2
  9
$DIMTMOVE
 70
     0
  9
$DIMFXL
 40
1.0
  9
$DIMFXLON
 70
     0
  9
$DIMJOGANG
 40
0.7853981633974483
  9
$DIMTFILL
 70
     0
  9
$DIMTFILLCLR
 70
     0
  9
$DIMARCSYM
 70
     0
  9
$DIMLTYPE
  6

  9
$DIMLTEX1
  6

  9
$DIMLTEX2
  6

  9
$DIMTXTDIRECTION
 70
     0
  9
$LUNITS
 70
     2
  9
$LUPREC
 70
     4
  9
$SKETCHINC
 40
0.1
  9
$FILLETRAD
 40
0.5
  9
$AUNITS
 70
     0
  9
$AUPREC
 70
     0
  9
$MENU
  1
.
  9
$ELEVATION
 40
0.0
  9
$PELEVATION
 40
0.0
  9
$THICKNESS
 40
0.0
  9
$LIMCHECK
 70
     0
  9
$CHAMFERA
 40
0.0
  9
$CHAMFERB
 40
0.0
  9
$CHAMFERC
 40
0.0
  9
$CHAMFERD
 40
0.0
  9
$SKPOLY
 70
     0
  9
$TDCREATE
 40
2458168.984246261
  9
$TDUCREATE
 40
2458168.942579595
  9
$TDUPDATE
 40
2458168.984246447
  9
$TDUUPDATE
 40
2458168.94257978
  9
$TDINDWG
 40
0.0000000116
  9
$TDUSRTIMER
 40
0.0000000116
  9
$USRTIMER
 70
     1
  9
$ANGBASE
 50
0.0
  9
$ANGDIR
 70
     0
  9
$PDMODE
 70
     0
  9
$PDSIZE
 40
0.0
  9
$PLINEWID
 40
0.0
  9
$SPLFRAME
 70
     0
  9
$SPLINETYPE
 70
     6
  9
$SPLINESEGS
 70
     8
  9
$HANDSEED
  5
1A0
  9
$SURFTAB1
 70
     6
  9
$SURFTAB2
 70
     6
  9
$SURFTYPE
 70
     6
  9
$SURFU
 70
     6
  9
$SURFV
 70
     6
  9
$UCSBASE
  2

  9
$UCSNAME
  2

  9
$UCSORG
 10
0.0
 20
0.0
 30
0.0
  9
$UCSXDIR
 10
1.0
 20
0.0
 30
0.0
  9
$UCSYDIR
 10
0.0
 20
1.0
 30
0.0
  9
$UCSORTHOREF
  2

  9
$UCSORTHOVIEW
 70
     0
  9
$UCSORGTOP
 10
0.0
 20
0.0
 30
0.0
  9
$UCSORGBOTTOM
 10
0.0
 20
0.0
 30
0.0
  9
$UCSORGLEFT
 10
0.0
 20
0.0
 30
0.0
  9
$UCSORGRIGHT
 10
0.0
 20
0.0
 30
0.0
  9
$UCSORGFRONT
 10
0.0
 20
0.0
 30
0.0
  9
$UCSORGBACK
 10
0.0
 20
0.0
 30
0.0
  9
$PUCSBASE
  2

  9
$PUCSNAME
  2

  9
$PUCSORG
 10
0.0
 20
0.0
 30
0.0
  9
$PUCSXDIR
 10
1.0
 20
0.0
 30
0.0
  9
$PUCSYDIR
 10
0.0
 20
1.0
 30
0.0
  9
$PUCSORTHOREF
  2

  9
$PUCSORTHOVIEW
 70
     0
  9
$PUCSORGTOP
 10
0.0
 20
0.0
 30
0.0
  9
$PUCSORGBOTTOM
 10
0.0
 20
0.0
 30
0.0
  9
$PUCSORGLEFT
 10
0.0
 20
0.0
 30
0.0
  9
$PUCSORGRIGHT
 10
0.0
 20
0.0
 30
0.0
  9
$PUCSORGFRONT
 10
0.0
 20
0.0
 30
0.0
  9
$PUCSORGBACK
 10
0.0
 20
0.0
 30
0.0
  9
$USERI1
 70
     0
  9
$USERI2
 70
     0
  9
$USERI3
 70
     0
  9
$USERI4
 70
     0
  9
$USERI5
 70
     0
  9
$USERR1
 40
0.0
  9
$USERR2
 40
0.0
  9
$USERR3
 40
0.0
  9
$USERR4
 40
0.0
  9
$USERR5
 40
0.0
  9
$WORLDVIEW
 70
     1
  9
$SHADEDGE
 70
     3
  9
$SHADEDIF
 70
    70
  9
$TILEMODE
 70
     1
  9
$MAXACTVP
 70
    64
  9
$PINSBASE
 10
0.0
 20
0.0
 30
0.0
  9
$PLIMCHECK
 70
     0
  9
$PEXTMIN
 10
1.000000000000000E+20
 20
1.000000000000000E+20
 30
1.000000000000000E+20
  9
$PEXTMAX
 10
-1.000000000000000E+20
 20
-1.000000000000000E+20
 30
-1.000000000000000E+20
  9
$PLIMMIN
 10
0.0
 20
0.0
  9
$PLIMMAX
 10
12.0
 20
9.0
  9
$UNITMODE
 70
     0
  9
$VISRETAIN
 70
     1
  9
$PLINEGEN
 70
     0
  9
$PSLTSCALE
 70
     1
  9
$TREEDEPTH
 70
  3020
  9
$CMLSTYLE
  2
Standard
  9
$CMLJUST
 70
     0
  9
$CMLSCALE
 40
1.0
  9
$PROXYGRAPHICS
 70
     1
  9
$MEASUREMENT
 70
     0
  9
$CELWEIGHT
370
    -1
  9
$ENDCAPS
280
     0
  9
$JOINSTYLE
280
     0
  9
$LWDISPLAY
290
     0
  9
$INSUNITS
 70
     1
  9
$HYPERLINKBASE
  1

  9
$STYLESHEET
  1

  9
$XEDIT
290
     1
  9
$CEPSNTYPE
380
     0
  9
$PSTYLEMODE
290
     1
  9
$FINGERPRINTGUID
  2
{9B5AA84E-181B-4BFF-B113-696F66B875F5}
  9
$VERSIONGUID
  2
{FAEB1C32-E019-11D5-929B-00C0DF256EC4}
  9
$EXTNAMES
290
     1
  9
$PSVPSCALE
 40
0.0
  9
$OLESTARTUP
290
     0
  9
$SORTENTS
280
   127
  9
$INDEXCTL
280
     0
  9
$HIDETEXT
280
     1
  9
$XCLIPFRAME
280
     2
  9
$HALOGAP
280
     0
  9
$OBSCOLOR
 70
   257
  9
$OBSLTYPE
280
     0
  9
$INTERSECTIONDISPLAY
280
     0
  9
$INTERSECTIONCOLOR
 70
   257
  9
$DIMASSOC
280
     2
  9
$PROJECTNAME
  1

  9
$CAMERADISPLAY
290
     0
  9
$LENSLENGTH
 40
50.0
  9
$CAMERAHEIGHT
 40
0.0
  9
$STEPSPERSEC
 40
2.0
  9
$STEPSIZE
 40
6.0
  9
$3DDWFPREC
 40
2.0
  9
$PSOLWIDTH
 40
0.25
  9
$PSOLHEIGHT
 40
4.0
  9
$LOFTANG1
 40
1.570796326794897
  9
$LOFTANG2
 40
1.570796326794897
  9
$LOFTMAG1
 40
0.0
  9
$LOFTMAG2
 40
0.0
  9
$LOFTPARAM
 70
     7
  9
$LOFTNORMALS
280
     1
  9
$LATITUDE
 40
37.795
  9
$LONGITUDE
 40
-122.394
  9
$NORTHDIRECTION
 40
0.0
  9
$TIMEZONE
 70
 -8000
  9
$LIGHTGLYPHDISPLAY
280
     1
  9
$TILEMODELIGHTSYNCH
280
     1
  9
$CMATERIAL
347
44
  9
$SOLIDHIST
280
     0
  9
$SHOWHIST
280
     1
  9
$DWFFRAME
280
     2
  9
$DGNFRAME
280
     2
  9
$REALWORLDSCALE
290
     1
  9
$INTERFERECOLOR
 62
   256
  9
$CSHADOW
280
     0
  9
$SHADOWPLANELOCATION
 40
0.0
  0
ENDSEC
  0
SECTION
  2
CLASSES
  0
CLASS
  1
ACDBDICTIONARYWDFLT
  2
AcDbDictionaryWithDefault
  3
ObjectDBX Classes
 90
        0
 91
        4
280
     0
281
     0
  0
CLASS
  1
VISUALSTYLE
  2
AcDbVisualStyle
  3
ObjectDBX Classes
 90
     4095
 91
        4
280
     0
281
     0
  0
CLASS
  1
MATERIAL
  2
AcDbMaterial
  3
ObjectDBX Classes
 90
     1153
 91
        4
280
     0
281
     0
  0
CLASS
  1
SCALE
  2
AcDbScale
  3
ObjectDBX Classes
 90
     1153
 91
        4
280
     0
281
     0
  0
CLASS
  1
TABLESTYLE
  2
AcDbTableStyle
  3
ObjectDBX Classes
 90
     4095
 91
        4
280
     0
281
     0
  0
CLASS
  1
MLEADERSTYLE
  2
AcDbMLeaderStyle
  3
ACDB_MLEADERSTYLE_CLASS
 90
     4095
 91
        4
280
     0
281
     0
  0
CLASS
  1
SUN
  2
AcDbSun
  3
SCENEOE
 90
     1153
 91
        4
280
     0
281
     0
  0
CLASS
  1
DICTIONARYVAR
  2
AcDbDictionaryVar
  3
ObjectDBX Classes
 90
        0
 91
        4
280
     0
281
     0
  0
CLASS
  1
CELLSTYLEMAP
  2
AcDbCellStyleMap
  3
ObjectDBX Classes
 90
     1152
 91
        4
280
     0
281
     0
  0
ENDSEC
  0
SECTION
  2
TABLES
  0
TABLE
  2
VPORT
  5
8
330
0
100
AcDbSymbolTable
 70
     1
  0
VPORT
  5
29
330
8
100
AcDbSymbolTableRecord
100
AcDbViewportTableRecord
  2
*Active
 70
     0
 10
0.0
 20
0.0
 11
1.0
 21
1.0
 12
0.0
 22
0.0
 13
0.0
 23
0.0
 14
0.5
 24
0.5
 15
0.5
 25
0.5
 16
0.0
 26
0.0
 36
1.0
 17
0.0
 27
0.0
 37
0.0
 40
9.435
 41
1.0
 42
50.0
 43
0.0
 44
0.0
 50
0.0
 51
0.0
 71
     0
 72
   100
 73
     1
 74
     3
 75
     0
 76
     0
 77
     0
 78
     0
281
     0
 65
     1
110
0.0
120
0.0
130
0.0
111
1.0
121
0.0
131
0.0
112
0.0
122
1.0
132
0.0
 79
     0
146
0.0
348
2F
 60
     3
 61
     5
292
     1
282
     1
141
0.0
142
0.0
 63
   250
361
6D
  0
ENDTAB
  0
TABLE
  2
LTYPE
  5
5
330
0
100
AcDbSymbolTable
 70
     3
  0
LTYPE
  5
14
330
5
100
AcDbSymbolTableRecord
100
AcDbLinetypeTableRecord
  2
ByBlock
 70
     0
  3

 72
    65
 73
     0
 40
0.0
  0
LTYPE
  5
15
330
5
100
AcDbSymbolTableRecord
100
AcDbLinetypeTableRecord
  2
ByLayer
 70
     0
  3

 72
    65
 73
     0
 40
0.0
  0
LTYPE
  5
16
330
5
100
AcDbSymbolTableRecord
100
AcDbLinetypeTableRecord
  2
Continuous
 70
     0
  3
Solid line
 72
    65
 73
     0
 40
0.0
  0
LTYPE
  5
A6
330
5
100
AcDbSymbolTableRecord
100
AcDbLinetypeTableRecord
  2
Dashed
 70
     0
  3

 72
    65
 73
     2
 40
2.0
 49
1.0
 74
     0
 49
-1.0
 74
     0
  0
LTYPE
  5
EF
330
5
100
AcDbSymbolTableRecord
100
AcDbLinetypeTableRecord
  2
Center
 70
     0
  3

 72
    65
 73
     4
 40
1.5
 49
0.45
 74
     0
 49
-0.5
 74
     0
 49
0.05
 74
     0
 49
-0.5
 74
     0
  0
ENDTAB
  0
TABLE
  2
LAYER
  5
2
330
0
100
AcDbSymbolTable
 70
     7
  0
LAYER
  5
10
330
2
100
AcDbSymbolTableRecord
100
AcDbLayerTableRecord
  2
0
 70
     0
 62
     7
  6
Continuous
370
    -3
390
F
347
46
348
0
  0
LAYER
  5
72
330
2
100
AcDbSymbolTableRecord
100
AcDbLayerTableRecord
  2
AM_6
 70
     0
 62
    -2
  6
Continuous
370
    35
390
F
347
46
348
0
  0
LAYER
  5
A7
330
2
100
AcDbSymbolTableRecord
100
AcDbLayerTableRecord
  2
AM_9
 70
     0
 62
     6
  6
Dashed
370
    25
390
F
347
46
348
0
  0
LAYER
  5
BF
330
2
100
AcDbSymbolTableRecord
100
AcDbLayerTableRecord
  2
AM_5
 70
     0
 62
     3
  6
Continuous
370
    25
390
F
347
46
348
0
  0
LAYER
  5
C8
330
2
100
AcDbSymbolTableRecord
100
AcDbLayerTableRecord
  2
AM_4
 70
     0
 62
     7
  6
Continuous
370
    50
390
F
347
46
348
0
  0
LAYER
  5
F0
330
2
100
AcDbSymbolTableRecord
100
AcDbLayerTableRecord
  2
AM_7
 70
     0
 62
     7
  6
Center
370
    25
390
F
347
46
348
0
  0
LAYER
  5
18F
330
2
100
AcDbSymbolTableRecord
100
AcDbLayerTableRecord
  2
ConnectionPoints
 70
     0
 62
     7
  6
Continuous
370
    50
390
F
347
46
348
0
  0
ENDTAB
  0
TABLE
  2
STYLE
  5
3
330
0
100
AcDbSymbolTable
 70
     1
  0
STYLE
  5
11
330
3
100
AcDbSymbolTableRecord
100
AcDbTextStyleTableRecord
  2
Standard
 70
     0
 40
0.0
 41
1.0
 50
0.0
 71
     0
 42
0.2
  3
txt
  4

  0
ENDTAB
  0
TABLE
  2
VIEW
  5
6
330
0
100
AcDbSymbolTable
 70
     0
  0
ENDTAB
  0
TABLE
  2
UCS
  5
7
330
0
100
AcDbSymbolTable
 70
     0
  0
ENDTAB
  0
TABLE
  2
APPID
  5
9
330
0
100
AcDbSymbolTable
 70
     1
  0
APPID
  5
12
330
9
100
AcDbSymbolTableRecord
100
AcDbRegAppTableRecord
  2
ACAD
 70
     0
  0
ENDTAB
  0
TABLE
  2
DIMSTYLE
  5
A
330
0
100
AcDbSymbolTable
 70
     1
100
AcDbDimStyleTable
  0
DIMSTYLE
105
27
330
A
100
AcDbSymbolTableRecord
100
AcDbDimStyleTableRecord
  2
Standard
 70
     0
178
     0
340
11
  0
ENDTAB
  0
TABLE
  2
BLOCK_RECORD
  5
1
330
0
100
AcDbSymbolTable
 70
     6
  0
BLOCK_RECORD
  5
1F
330
1
100
AcDbSymbolTableRecord
100
AcDbBlockTableRecord
  2
*Model_Space
340
22
 70
     0
280
     1
281
     0
  0
BLOCK_RECORD
  5
1B
330
1
100
AcDbSymbolTableRecord
100
AcDbBlockTableRecord
  2
*Paper_Space
340
1E
 70
     0
280
     1
281
     0
  0
BLOCK_RECORD
  5
23
330
1
100
AcDbSymbolTableRecord
100
AcDbBlockTableRecord
  2
*Paper_Space0
340
26
 70
     0
280
     1
281
     0
  0
BLOCK_RECORD
  5
6E
330
1
100
AcDbSymbolTableRecord
100
AcDbBlockTableRecord
  2
1_070582_0
340
0
102
{BLKREFS
331
6F
102
}
 70
     0
280
     1
281
     0
  0
BLOCK_RECORD
  5
8D
330
1
100
AcDbSymbolTableRecord
100
AcDbBlockTableRecord
  2
2_3_15_16CS2i_0_in_070582_0
340
0
102
{BLKREFS
331
8E
102
}
 70
     0
280
     1
281
     0
  0
BLOCK_RECORD
  5
D0
330
1
100
AcDbSymbolTableRecord
100
AcDbBlockTableRecord
  2
3_070013i_0_in_070582_0
340
0
102
{BLKREFS
331
D1
102
}
 70
     0
280
     1
281
     0
  0
BLOCK_RECORD
  5
F5
330
1
100
AcDbSymbolTableRecord
100
AcDbBlockTableRecord
  2
4_405015E_Inch_0_in_070582_0
340
0
102
{BLKREFS
331
F6
102
}
 70
     0
280
     1
281
     0
  0
BLOCK_RECORD
  5
12B
330
1
100
AcDbSymbolTableRecord
100
AcDbBlockTableRecord
  2
5_070582H_0_in_070582_0
340
0
102
{BLKREFS
331
12C
102
}
 70
     0
280
     1
281
     0
  0
ENDTAB
  0
ENDSEC
  0
SECTION
  2
BLOCKS
  0
BLOCK
  5
20
330
1F
100
AcDbEntity
  8
0
100
AcDbBlockBegin
  2
*Model_Space
 70
     0
 10
0.0
 20
0.0
 30
0.0
  3
*Model_Space
  1

  0
ENDBLK
  5
21
330
1F
100
AcDbEntity
  8
0
100
AcDbBlockEnd
  0
BLOCK
  5
1C
330
1B
100
AcDbEntity
 67
     1
  8
0
100
AcDbBlockBegin
  2
*Paper_Space
 70
     0
 10
0.0
 20
0.0
 30
0.0
  3
*Paper_Space
  1

  0
ENDBLK
  5
1D
330
1B
100
AcDbEntity
 67
     1
  8
0
100
AcDbBlockEnd
  0
BLOCK
  5
24
330
23
100
AcDbEntity
  8
0
100
AcDbBlockBegin
  2
*Paper_Space0
 70
     0
 10
0.0
 20
0.0
 30
0.0
  3
*Paper_Space0
  1

  0
ENDBLK
  5
25
330
23
100
AcDbEntity
  8
0
100
AcDbBlockEnd
  0
BLOCK
  5
70
330
6E
100
AcDbEntity
  8
0
100
AcDbBlockBegin
  2
1_070582_0
 70
     2
 10
0.0
 20
0.0
 30
0.0
  3
1_070582_0
  1

  0
ATTDEF
  5
73
330
6E
100
AcDbEntity
  8
AM_6
100
AcDbText
 10
9.625
 20
4.625
 30
0.0
 40
0.5
  1
S-2000 Flange Bearing - Square Trident Seal
100
AcDbAttributeDefinition
  3

  2
NN
 70
     8
280
     0
  0
ATTDEF
  5
74
330
6E
100
AcDbEntity
  8
AM_6
100
AcDbText
 10
9.625
 20
4.125
 30
0.0
 40
0.5
  1
S-2000 4 Bolt Square Flange Bearing -Inch
100
AcDbAttributeDefinition
  3

  2
NT
 70
     8
280
     0
  0
ATTDEF
  5
75
330
6E
100
AcDbEntity
  8
AM_6
100
AcDbText
 10
9.625
 20
3.625
 30
0.0
 40
0.5
  1
070582
100
AcDbAttributeDefinition
  3

  2
NB
 70
     8
280
     0
  0
ATTDEF
  5
76
330
6E
100
AcDbEntity
  8
AM_6
100
AcDbText
 10
9.625
 20
3.125
 30
0.0
 40
0.5
  1
$PN.
100
AcDbAttributeDefinition
  3

  2
NBSYN
 70
     8
280
     0
  0
ATTDEF
  5
77
330
6E
100
AcDbEntity
  8
AM_6
100
AcDbText
 10
9.625
 20
2.625
 30
0.0
 40
0.5
  1
070582
100
AcDbAttributeDefinition
  3

  2
LINA
 70
     8
280
     0
  0
ATTDEF
  5
78
330
6E
100
AcDbEntity
  8
AM_6
100
AcDbText
 10
9.625
 20
2.125
 30
0.0
 40
0.5
  1
3-15/16
100
AcDbAttributeDefinition
  3

  2
SS
 70
     8
280
     0
  0
ATTDEF
  5
79
330
6E
100
AcDbEntity
  8
AM_6
100
AcDbText
 10
9.625
 20
1.625
 30
0.0
 40
0.5
  1
070582
100
AcDbAttributeDefinition
  3

  2
PN
 70
     8
280
     0
  0
ATTDEF
  5
7A
330
6E
100
AcDbEntity
  8
AM_6
100
AcDbText
 10
9.625
 20
1.125
 30
0.0
 40
0.5
  1
F4S-S2-315RE
100
AcDbAttributeDefinition
  3

  2
DESCRIPTION
 70
     8
280
     0
  0
ATTDEF
  5
7B
330
6E
100
AcDbEntity
  8
AM_6
100
AcDbText
 10
9.625
 20
0.625
 30
0.0
 40
0.5
  1
Expansion Type
100
AcDbAttributeDefinition
  3

  2
EF
 70
     8
280
     0
  0
ATTDEF
  5
7C
330
6E
100
AcDbEntity
  8
AM_6
100
AcDbText
 10
9.625
 20
0.125
 30
0.0
 40
0.5
  1
Contact Seal
100
AcDbAttributeDefinition
  3

  2
ST
 70
     8
280
     0
  0
ATTDEF
  5
7D
330
6E
100
AcDbEntity
  8
AM_6
100
AcDbText
 10
9.625
 20
-0.375
 30
0.0
 40
0.5
  1
4-15/32
100
AcDbAttributeDefinition
  3

  2
A
 70
     8
280
     0
  0
ATTDEF
  5
7E
330
6E
100
AcDbEntity
  8
AM_6
100
AcDbText
 10
9.625
 20
-0.875
 30
0.0
 40
0.5
  1
9-1/4
100
AcDbAttributeDefinition
  3

  2
B
 70
     8
280
     0
  0
ATTDEF
  5
7F
330
6E
100
AcDbEntity
  8
AM_6
100
AcDbText
 10
9.625
 20
-1.375
 30
0.0
 40
0.5
  1
4-27/32
100
AcDbAttributeDefinition
  3

  2
C
 70
     8
280
     0
  0
ATTDEF
  5
80
330
6E
100
AcDbEntity
  8
AM_6
100
AcDbText
 10
9.625
 20
-1.875
 30
0.0
 40
0.5
  1
7-39/64
100
AcDbAttributeDefinition
  3

  2
D
 70
     8
280
     0
  0
ATTDEF
  5
81
330
6E
100
AcDbEntity
  8
AM_6
100
AcDbText
 10
9.625
 20
-2.375
 30
0.0
 40
0.5
  1
7/8
100
AcDbAttributeDefinition
  3

  2
F
 70
     8
280
     0
  0
ATTDEF
  5
82
330
6E
100
AcDbEntity
  8
AM_6
100
AcDbText
 10
9.625
 20
-2.875
 30
0.0
 40
0.5
  1
1-35/64
100
AcDbAttributeDefinition
  3

  2
G
 70
     8
280
     0
  0
ATTDEF
  5
83
330
6E
100
AcDbEntity
  8
AM_6
100
AcDbText
 10
9.625
 20
-3.375
 30
0.0
 40
0.5
  1
1-1/16
100
AcDbAttributeDefinition
  3

  2
H
 70
     8
280
     0
  0
ATTDEF
  5
84
330
6E
100
AcDbEntity
  8
AM_6
100
AcDbText
 10
9.625
 20
-3.875
 30
0.0
 40
0.5
  1
8-7/32
100
AcDbAttributeDefinition
  3

  2
J
 70
     8
280
     0
  0
ATTDEF
  5
85
330
6E
100
AcDbEntity
  8
AM_6
100
AcDbText
 10
9.625
 20
-4.375
 30
0.0
 40
0.5
  1
10-3/4
100
AcDbAttributeDefinition
  3

  2
K
 70
     8
280
     0
  0
ATTDEF
  5
86
330
6E
100
AcDbEntity
  8
AM_6
100
AcDbText
 10
9.625
 20
-4.875
 30
0.0
 40
0.5
  1
6
100
AcDbAttributeDefinition
  3

  2
L
 70
     8
280
     0
  0
ATTDEF
  5
87
330
6E
100
AcDbEntity
  8
AM_6
100
AcDbText
 10
9.625
 20
-5.375
 30
0.0
 40
0.5
  1
4-45/64
100
AcDbAttributeDefinition
  3

  2
N
 70
     8
280
     0
  0
ATTDEF
  5
88
330
6E
100
AcDbEntity
  8
AM_6
100
AcDbText
 10
9.625
 20
-5.875
 30
0.0
 40
0.5
  1
3/8
100
AcDbAttributeDefinition
  3

  2
P
 70
     8
280
     0
  0
ATTDEF
  5
89
330
6E
100
AcDbEntity
  8
AM_6
100
AcDbText
 10
9.625
 20
-6.375
 30
0.0
 40
0.5
  1
5/16
100
AcDbAttributeDefinition
  3

  2
X
 70
     8
280
     0
  0
ATTDEF
  5
8A
330
6E
100
AcDbEntity
  8
AM_6
100
AcDbText
 10
9.625
 20
-6.875
 30
0.0
 40
0.5
  1
0.025
100
AcDbAttributeDefinition
  3

  2
Y
 70
     8
280
     0
  0
ATTDEF
  5
8B
330
6E
100
AcDbEntity
  8
AM_6
100
AcDbText
 10
9.625
 20
-7.375
 30
0.0
 40
0.5
  1
4-1/2
100
AcDbAttributeDefinition
  3

  2
Z
 70
     8
280
     0
  0
ATTDEF
  5
8C
330
6E
100
AcDbEntity
  8
AM_6
100
AcDbText
 10
9.625
 20
-7.875
 30
0.0
 40
0.5
  1
baldor
100
AcDbAttributeDefinition
  3

  2
COMPANY
 70
     8
280
     0
  0
INSERT
  5
8E
330
6E
100
AcDbEntity
  8
0
100
AcDbBlockReference
  2
2_3_15_16CS2i_0_in_070582_0
 10
0.0
 20
0.0
 30
0.0
  0
INSERT
  5
D1
330
6E
100
AcDbEntity
  8
0
100
AcDbBlockReference
  2
3_070013i_0_in_070582_0
 10
0.0
 20
0.0
 30
0.0
  0
INSERT
  5
F6
330
6E
100
AcDbEntity
  8
0
100
AcDbBlockReference
  2
4_405015E_Inch_0_in_070582_0
 10
0.0
 20
0.0
 30
0.0
  0
INSERT
  5
12C
330
6E
100
AcDbEntity
  8
0
100
AcDbBlockReference
  2
5_070582H_0_in_070582_0
 10
0.0
 20
0.0
 30
0.0
  0
ENDBLK
  5
71
330
6E
100
AcDbEntity
  8
0
100
AcDbBlockEnd
  0
BLOCK
  5
8F
330
8D
100
AcDbEntity
  8
0
100
AcDbBlockBegin
  2
2_3_15_16CS2i_0_in_070582_0
 70
     2
 10
0.0
 20
0.0
 30
0.0
  3
2_3_15_16CS2i_0_in_070582_0
  1

  0
ATTDEF
  5
91
330
8D
100
AcDbEntity
  8
AM_6
100
AcDbText
 10
8.0
 20
3.0
 30
0.0
 40
0.5
  1
S-2000 Collar -Inch
100
AcDbAttributeDefinition
  3

  2
NN
 70
     8
280
     0
  0
ATTDEF
  5
92
330
8D
100
AcDbEntity
  8
AM_6
100
AcDbText
 10
8.0
 20
2.5
 30
0.0
 40
0.5
  1
S-2000 Bearings
100
AcDbAttributeDefinition
  3

  2
NT
 70
     8
280
     0
  0
ATTDEF
  5
93
330
8D
100
AcDbEntity
  8
AM_6
100
AcDbText
 10
8.0
 20
2.0
 30
0.0
 40
0.5
  1
3-15/16CS2i
100
AcDbAttributeDefinition
  3

  2
NB
 70
     8
280
     0
  0
ATTDEF
  5
94
330
8D
100
AcDbEntity
  8
AM_6
100
AcDbText
 10
8.0
 20
1.5
 30
0.0
 40
0.5
  1
$BORE.CS2i
100
AcDbAttributeDefinition
  3

  2
NBSYN
 70
     8
280
     0
  0
ATTDEF
  5
95
330
8D
100
AcDbEntity
  8
AM_6
100
AcDbText
 10
8.0
 20
1.0
 30
0.0
 40
0.5
  1
3-15/16CS2i
100
AcDbAttributeDefinition
  3

  2
LINA
 70
     8
280
     0
  0
ATTDEF
  5
96
330
8D
100
AcDbEntity
  8
AM_6
100
AcDbText
 10
8.0
 20
0.5
 30
0.0
 40
0.5
  1
3-15/16
100
AcDbAttributeDefinition
  3

  2
BORE
 70
     8
280
     0
  0
ATTDEF
  5
97
330
8D
100
AcDbEntity
  8
AM_6
100
AcDbText
 10
8.0
 20
0.0
 30
0.0
 40
0.5
  1
3.937500
100
AcDbAttributeDefinition
  3

  2
BORE1
 70
     8
280
     0
  0
ATTDEF
  5
98
330
8D
100
AcDbEntity
  8
AM_6
100
AcDbText
 10
8.0
 20
-0.5
 30
0.0
 40
0.5
  1
6
100
AcDbAttributeDefinition
  3

  2
L1
 70
     8
280
     0
  0
ATTDEF
  5
99
330
8D
100
AcDbEntity
  8
AM_6
100
AcDbText
 10
8.0
 20
-1.0
 30
0.0
 40
0.5
  1
6.00000
100
AcDbAttributeDefinition
  3

  2
L
 70
     8
280
     0
  0
ATTDEF
  5
9A
330
8D
100
AcDbEntity
  8
AM_6
100
AcDbText
 10
8.0
 20
-1.5
 30
0.0
 40
0.5
  1
6.00000
100
AcDbAttributeDefinition
  3

  2
L2
 70
     8
280
     0
  0
ATTDEF
  5
9B
330
8D
100
AcDbEntity
  8
AM_6
100
AcDbText
 10
8.0
 20
-2.0
 30
0.0
 40
0.5
  1
6.25
100
AcDbAttributeDefinition
  3

  2
A
 70
     8
280
     0
  0
ATTDEF
  5
9C
330
8D
100
AcDbEntity
  8
AM_6
100
AcDbText
 10
8.0
 20
-2.5
 30
0.0
 40
0.5
  1
3.12
100
AcDbAttributeDefinition
  3

  2
B
 70
     8
280
     0
  0
ATTDEF
  5
9D
330
8D
100
AcDbEntity
  8
AM_6
100
AcDbText
 10
8.0
 20
-3.0
 30
0.0
 40
0.5
  1
4.50
100
AcDbAttributeDefinition
  3

  2
C
 70
     8
280
     0
  0
ATTDEF
  5
9E
330
8D
100
AcDbEntity
  8
AM_6
100
AcDbText
 10
8.0
 20
-3.5
 30
0.0
 40
0.5
  1
6.38
100
AcDbAttributeDefinition
  3

  2
D
 70
     8
280
     0
  0
ATTDEF
  5
9F
330
8D
100
AcDbEntity
  8
AM_6
100
AcDbText
 10
8.0
 20
-4.0
 30
0.0
 40
0.5
  1
0.66
100
AcDbAttributeDefinition
  3

  2
E
 70
     8
280
     0
  0
ATTDEF
  5
A0
330
8D
100
AcDbEntity
  8
AM_6
100
AcDbText
 10
8.0
 20
-4.5
 30
0.0
 40
0.5
  1
0.505
100
AcDbAttributeDefinition
  3

  2
F
 70
     8
280
     0
  0
ATTDEF
  5
A1
330
8D
100
AcDbEntity
  8
AM_6
100
AcDbText
 10
8.0
 20
-5.0
 30
0.0
 40
0.5
  1
5/8-11
100
AcDbAttributeDefinition
  3

  2
CS
 70
     8
280
     0
  0
ATTDEF
  5
A2
330
8D
100
AcDbEntity
  8
AM_6
100
AcDbText
 10
8.0
 20
-5.5
 30
0.0
 40
0.5
  1
0.6250
100
AcDbAttributeDefinition
  3

  2
NDM
 70
     8
280
     0
  0
ATTDEF
  5
A3
330
8D
100
AcDbEntity
  8
AM_6
100
AcDbText
 10
8.0
 20
-6.0
 30
0.0
 40
0.5
  1
0.5270
100
AcDbAttributeDefinition
  3

  2
KDM
 70
     8
280
     0
  0
ATTDEF
  5
A4
330
8D
100
AcDbEntity
  8
AM_6
100
AcDbText
 10
8.0
 20
-6.5
 30
0.0
 40
0.5
  1
2
100
AcDbAttributeDefinition
  3

  2
DD
 70
     8
280
     0
  0
ATTDEF
  5
A5
330
8D
100
AcDbEntity
  8
AM_6
100
AcDbText
 10
8.0
 20
-7.0
 30
0.0
 40
0.5
  1
baldor
100
AcDbAttributeDefinition
  3

  2
COMPANY
 70
     8
280
     0
  0
CIRCLE
  5
A8
330
8D
100
AcDbEntity
  8
AM_9
100
AcDbCircle
 10
0.0
 20
0.0
 30
0.0
 40
2.857142857142857
  0
CIRCLE
  5
A9
330
8D
100
AcDbEntity
  8
AM_9
100
AcDbCircle
 10
0.0
 20
0.0
 30
0.0
 40
2.926829268292683
  0
LINE
  5
AA
330
8D
100
AcDbEntity
  8
AM_9
100
AcDbLine
 10
0.2633
 20
2.257533333333336
 30
0.0
 11
0.2633
 21
2.9508
 31
0.0
  0
LINE
  5
AB
330
8D
100
AcDbEntity
  8
AM_9
100
AcDbLine
 10
-0.2633
 20
2.9508
 30
0.0
 11
-0.2633
 21
2.257533333333336
 31
0.0
  0
LINE
  5
AC
330
8D
100
AcDbEntity
  8
AM_9
100
AcDbLine
 10
2.157295427811134
 20
0.7154439728282713
 30
0.0
 11
2.785608406304073
 21
1.008431126417706
 31
0.0
  0
LINE
  5
AD
330
8D
100
AcDbEntity
  8
AM_9
100
AcDbLine
 10
2.56305762967142
 20
1.485692807071206
 30
0.0
 11
1.934744651178481
 21
1.192705653481771
 31
0.0
  0
LINE
  5
AE
330
8D
100
AcDbEntity
  8
AM_9
100
AcDbLine
 10
1.934744651178481
 20
1.192705653481771
 30
0.0
 11
2.157295427811133
 21
0.7154439728282714
 31
0.0
  0
LINE
  5
AF
330
8D
100
AcDbEntity
  8
AM_9
100
AcDbLine
 10
1.934744651178481
 20
1.192705653481771
 30
0.0
 11
1.900617583903766
 21
1.205126890152567
 31
0.0
  0
LINE
  5
B0
330
8D
100
AcDbEntity
  8
AM_9
100
AcDbLine
 10
2.144930853128264
 20
0.6814725830859294
 30
0.0
 11
2.157295427811133
 21
0.7154439728282714
 31
0.0
  0
LINE
  5
B1
330
8D
100
AcDbEntity
  8
AM_9
100
AcDbLine
 10
-0.2633
 20
2.257533333333336
 30
0.0
 11
0.2633
 21
2.257533333333336
 31
0.0
  0
LINE
  5
B2
330
8D
100
AcDbEntity
  8
AM_9
100
AcDbLine
 10
-0.2633
 20
2.257533333333336
 30
0.0
 11
-0.2895108094738749
 21
2.23132252385946
 31
0.0
  0
LINE
  5
B3
330
8D
100
AcDbEntity
  8
AM_9
100
AcDbLine
 10
0.2890267402142446
 20
2.23180659311909
 30
0.0
 11
0.2633
 21
2.257533333333336
 31
0.0
  0
LWPOLYLINE
  5
B4
330
8D
100
AcDbEntity
  8
AM_9
100
AcDbPolyline
 90
        5
 70
     0
 43
0.0
 10
-0.1408824445414393
 20
2.993767144574242
 10
-0.0760697940912033
 20
2.979259846322956
 10
0.0020698409902697
 20
2.973222142778288
 10
0.0757478832551036
 20
2.979208995034275
 10
0.1493562326912613
 20
2.996279812660406
  0
LINE
  5
B5
330
8D
100
AcDbEntity
  8
AM_9
100
AcDbLine
 10
-0.1493562326913244
 20
2.996279812660402
 30
0.0
 11
-0.1408824445414393
 21
2.993767144574242
 31
0.0
  0
LINE
  5
B6
330
8D
100
AcDbEntity
  8
AM_9
100
AcDbLine
 10
-0.2633
 20
2.9508
 30
0.0
 11
0.2633
 21
2.9508
 31
0.0
  0
LINE
  5
B7
330
8D
100
AcDbEntity
  8
AM_9
100
AcDbLine
 10
0.2633
 20
2.9508
 30
0.0
 11
0.2976701215672962
 21
2.985170121567296
 31
0.0
  0
LINE
  5
B8
330
8D
100
AcDbEntity
  8
AM_9
100
AcDbLine
 10
-0.2972226107948208
 20
2.984722610794821
 30
0.0
 11
-0.2633
 21
2.9508
 31
0.0
  0
LINE
  5
B9
330
8D
100
AcDbEntity
  8
AM_9
100
AcDbLine
 10
2.769725525975755
 20
1.141109979117538
 30
0.0
 11
2.778672397794976
 21
1.130919849384691
 31
0.0
  0
LWPOLYLINE
  5
BA
330
8D
100
AcDbEntity
  8
AM_9
100
AcDbPolyline
 90
        5
 70
     0
 43
0.0
 10
2.654503070443933
 20
1.388139583222861
 10
2.667977914178306
 20
1.328032264270016
 10
2.695529133191132
 20
1.254662060742536
 10
2.73209275016101
 20
1.190417230397991
 10
2.769725525975755
 20
1.141109979117538
  0
LINE
  5
BB
330
8D
100
AcDbEntity
  8
AM_9
100
AcDbLine
 10
2.65243105491469
 20
1.401645282845894
 30
0.0
 11
2.654503070443933
 21
1.388139583222861
 31
0.0
  0
LINE
  5
BC
330
8D
100
AcDbEntity
  8
AM_9
100
AcDbLine
 10
2.56305762967142
 20
1.485692807071206
 30
0.0
 11
2.785608406304073
 21
1.008431126417706
 31
0.0
  0
LINE
  5
BD
330
8D
100
AcDbEntity
  8
AM_9
100
AcDbLine
 10
2.785608406304073
 20
1.008431126417706
 30
0.0
 11
2.830722784099959
 21
0.9920108357625631
 31
0.0
  0
LINE
  5
BE
330
8D
100
AcDbEntity
  8
AM_9
100
AcDbLine
 10
2.579478730260383
 20
1.530809410141975
 30
0.0
 11
2.56305762967142
 21
1.485692807071206
 31
0.0
  0
LINE
  5
C0
330
8D
100
AcDbEntity
  8
AM_5
100
AcDbLine
 10
-0.3125
 20
2.983679565570002
 30
0.0
 11
-0.3125
 21
2.228192933746986
 31
0.0
  0
LINE
  5
C1
330
8D
100
AcDbEntity
  8
AM_5
100
AcDbLine
 10
-0.15625
 20
2.208333333333333
 30
0.0
 11
-0.3125
 21
2.208333333333333
 31
0.0
  0
LINE
  5
C2
330
8D
100
AcDbEntity
  8
AM_5
100
AcDbLine
 10
0.3125
 20
2.983679565570002
 30
0.0
 11
0.3125
 21
2.228192933746986
 31
0.0
  0
LINE
  5
C3
330
8D
100
AcDbEntity
  8
AM_5
100
AcDbLine
 10
0.15625
 20
2.208333333333333
 30
0.0
 11
0.3125
 21
2.208333333333333
 31
0.0
  0
LINE
  5
C4
330
8D
100
AcDbEntity
  8
AM_5
100
AcDbLine
 10
2.836200231092191
 20
0.9777362881434867
 30
0.0
 11
2.151496813668901
 21
0.6584538410341078
 31
0.0
  0
LINE
  5
C5
330
8D
100
AcDbEntity
  8
AM_5
100
AcDbLine
 10
2.067463799769586
 20
0.7916714029529014
 30
0.0
 11
2.133497903166571
 21
0.6500608112284247
 31
0.0
  0
LINE
  5
C6
330
8D
100
AcDbEntity
  8
AM_5
100
AcDbLine
 10
2.572063817504254
 20
1.544178655041393
 30
0.0
 11
1.887360400080963
 21
1.224896207932014
 31
0.0
  0
LINE
  5
C7
330
8D
100
AcDbEntity
  8
AM_5
100
AcDbLine
 10
1.935395592975618
 20
1.074892586401855
 30
0.0
 11
1.869361489578633
 21
1.216503178126331
 31
0.0
  0
LINE
  5
C9
330
8D
100
AcDbEntity
  8
AM_4
100
AcDbLine
 10
0.2921449990133578
 20
2.98574133165475
 30
0.0
 11
0.2976932483235814
 21
2.985193248334613
 31
0.0
  0
LWPOLYLINE
  5
CA
330
8D
100
AcDbEntity
  8
AM_4
100
AcDbPolyline
 90
        7
 70
     0
 43
0.0
 10
0.1493562326912611
 20
2.996279812660405
 10
0.1613860015179049
 20
2.995655947954315
 10
0.1994218076729505
 20
2.993363215044449
 10
0.2320972207226811
 20
2.991008338358957
 10
0.2597341203872373
 20
2.98873629359053
 10
0.280149419091754
 20
2.986890741721657
 10
0.2921449990133578
 20
2.98574133165475
  0
LWPOLYLINE
  5
CB
330
8D
100
AcDbEntity
  8
AM_4
100
AcDbPolyline
 90
        7
 70
     0
 43
0.0
 10
2.778672397794977
 20
1.130919849384714
 10
2.790217998437151
 20
1.10212686343143
 10
2.812342156992842
 20
1.044380961144376
 10
2.821151126861398
 20
1.020350469449033
 10
2.827238826686251
 20
1.003354681494908
 10
2.830656794345898
 20
0.9936804710042252
 10
2.831314489774063
 20
0.9917954728649631
  0
LWPOLYLINE
  5
CC
330
8D
100
AcDbEntity
  8
AM_4
100
AcDbPolyline
 90
        8
 70
     0
 43
0.0
 10
2.579693283918861
 20
1.53139889019939
 10
2.580816728522081
 20
1.529511337525659
 10
2.586295154514985
 20
1.520222803977203
 10
2.596272572353213
 20
1.503123058201872
 10
2.61028461463495
 20
1.478652843165043
 10
2.627480641534377
 20
1.447872617966136
 10
2.647383349836009
 20
1.41115605055255
 10
2.652431054914689
 20
1.401645282845895
  0
CIRCLE
  5
CD
330
8D
100
AcDbEntity
  8
AM_4
100
AcDbCircle
 10
0.0
 20
0.0
 30
0.0
 40
2.25
  0
CIRCLE
  5
CE
330
8D
100
AcDbEntity
  8
AM_4
100
AcDbCircle
 10
0.0
 20
0.0
 30
0.0
 40
2.831666666666667
  0
CIRCLE
  5
CF
330
8D
100
AcDbEntity
  8
AM_4
100
AcDbCircle
 10
-0.0000000000000002
 20
-0.0000000000000002
 30
0.0
 40
3.0
  0
ENDBLK
  5
90
330
8D
100
AcDbEntity
  8
0
100
AcDbBlockEnd
  0
BLOCK
  5
D2
330
D0
100
AcDbEntity
  8
0
100
AcDbBlockBegin
  2
3_070013i_0_in_070582_0
 70
     2
 10
0.0
 20
0.0
 30
0.0
  3
3_070013i_0_in_070582_0
  1

  0
ATTDEF
  5
D4
330
D0
100
AcDbEntity
  8
AM_6
100
AcDbText
 10
8.401568
 20
3.401568
 30
0.0
 40
0.5
  1
S-2000 Insert -Inch
100
AcDbAttributeDefinition
  3

  2
NN
 70
     8
280
     0
  0
ATTDEF
  5
D5
330
D0
100
AcDbEntity
  8
AM_6
100
AcDbText
 10
8.401568
 20
2.901568
 30
0.0
 40
0.5
  1
S-2000 Bearings
100
AcDbAttributeDefinition
  3

  2
NT
 70
     8
280
     0
  0
ATTDEF
  5
D6
330
D0
100
AcDbEntity
  8
AM_6
100
AcDbText
 10
8.401568
 20
2.401568
 30
0.0
 40
0.5
  1
070013i
100
AcDbAttributeDefinition
  3

  2
NB
 70
     8
280
     0
  0
ATTDEF
  5
D7
330
D0
100
AcDbEntity
  8
AM_6
100
AcDbText
 10
8.401568
 20
1.901568
 30
0.0
 40
0.5
  1
$PN.i
100
AcDbAttributeDefinition
  3

  2
NBSYN
 70
     8
280
     0
  0
ATTDEF
  5
D8
330
D0
100
AcDbEntity
  8
AM_6
100
AcDbText
 10
8.401568
 20
1.401568
 30
0.0
 40
0.5
  1
070013i
100
AcDbAttributeDefinition
  3

  2
LINA
 70
     8
280
     0
  0
ATTDEF
  5
D9
330
D0
100
AcDbEntity
  8
AM_6
100
AcDbText
 10
8.401568
 20
0.9015679999999997
 30
0.0
 40
0.5
  1
3-15/16
100
AcDbAttributeDefinition
  3

  2
SS
 70
     8
280
     0
  0
ATTDEF
  5
DA
330
D0
100
AcDbEntity
  8
AM_6
100
AcDbText
 10
8.401568
 20
0.4015679999999997
 30
0.0
 40
0.5
  1
4.50
100
AcDbAttributeDefinition
  3

  2
CC
 70
     8
280
     0
  0
ATTDEF
  5
DB
330
D0
100
AcDbEntity
  8
AM_6
100
AcDbText
 10
8.401568
 20
-0.0984320000000003
 30
0.0
 40
0.5
  1
3.937500
100
AcDbAttributeDefinition
  3

  2
SS1
 70
     8
280
     0
  0
ATTDEF
  5
DC
330
D0
100
AcDbEntity
  8
AM_6
100
AcDbText
 10
8.401568
 20
-0.5984320000000003
 30
0.0
 40
0.5
  1
070013
100
AcDbAttributeDefinition
  3

  2
PN
 70
     8
280
     0
  0
ATTDEF
  5
DD
330
D0
100
AcDbEntity
  8
AM_6
100
AcDbText
 10
8.401568
 20
-1.098432
 30
0.0
 40
0.5
  1
INS-S2-315R
100
AcDbAttributeDefinition
  3

  2
DESCRIPTION
 70
     8
280
     0
  0
ATTDEF
  5
DE
330
D0
100
AcDbEntity
  8
AM_6
100
AcDbText
 10
8.401568
 20
-1.598432
 30
0.0
 40
0.5
  1
Contact Seal
100
AcDbAttributeDefinition
  3

  2
ST
 70
     8
280
     0
  0
ATTDEF
  5
DF
330
D0
100
AcDbEntity
  8
AM_6
100
AcDbText
 10
8.401568
 20
-2.098432
 30
0.0
 40
0.5
  1
1
100
AcDbAttributeDefinition
  3

  2
ST1
 70
     8
280
     0
  0
ATTDEF
  5
E0
330
D0
100
AcDbEntity
  8
AM_6
100
AcDbText
 10
8.401568
 20
-2.598432
 30
0.0
 40
0.5
  1
7.0866
100
AcDbAttributeDefinition
  3

  2
A
 70
     8
280
     0
  0
ATTDEF
  5
E1
330
D0
100
AcDbEntity
  8
AM_6
100
AcDbText
 10
8.401568
 20
-3.098432
 30
0.0
 40
0.5
  1
1-7/8
100
AcDbAttributeDefinition
  3

  2
B
 70
     8
280
     0
  0
ATTDEF
  5
E2
330
D0
100
AcDbEntity
  8
AM_6
100
AcDbText
 10
8.401568
 20
-3.598432
 30
0.0
 40
0.5
  1
4-31/64
100
AcDbAttributeDefinition
  3

  2
C
 70
     8
280
     0
  0
ATTDEF
  5
E3
330
D0
100
AcDbEntity
  8
AM_6
100
AcDbText
 10
8.401568
 20
-4.098432000000001
 30
0.0
 40
0.5
  1
1.646
100
AcDbAttributeDefinition
  3

  2
D
 70
     8
280
     0
  0
ATTDEF
  5
E4
330
D0
100
AcDbEntity
  8
AM_6
100
AcDbText
 10
8.401568
 20
-4.598432000000001
 30
0.0
 40
0.5
  1
6
100
AcDbAttributeDefinition
  3

  2
E
 70
     8
280
     0
  0
ATTDEF
  5
E5
330
D0
100
AcDbEntity
  8
AM_6
100
AcDbText
 10
8.401568
 20
-5.098432000000001
 30
0.0
 40
0.5
  1
0.34375
100
AcDbAttributeDefinition
  3

  2
F
 70
     8
280
     0
  0
ATTDEF
  5
E6
330
D0
100
AcDbEntity
  8
AM_6
100
AcDbText
 10
8.401568
 20
-5.598432000000001
 30
0.0
 40
0.5
  1
2
100
AcDbAttributeDefinition
  3

  2
DD
 70
     8
280
     0
  0
ATTDEF
  5
E7
330
D0
100
AcDbEntity
  8
AM_6
100
AcDbText
 10
8.401568
 20
-6.098432000000001
 30
0.0
 40
0.5
  1
baldor
100
AcDbAttributeDefinition
  3

  2
COMPANY
 70
     8
280
     0
  0
CIRCLE
  5
E8
330
D0
100
AcDbEntity
  8
AM_9
100
AcDbCircle
 10
0.0
 20
0.0
 30
0.0
 40
3.401568
  0
CIRCLE
  5
E9
330
D0
100
AcDbEntity
  8
AM_9
100
AcDbCircle
 10
0.0
 20
0.0
 30
0.0
 40
2.834639999999999
  0
CIRCLE
  5
EA
330
D0
100
AcDbEntity
  8
AM_9
100
AcDbCircle
 10
0.0
 20
0.0
 30
0.0
 40
2.64714
  0
LINE
  5
EB
330
D0
100
AcDbEntity
  8
AM_9
100
AcDbLine
 10
-0.3300000000000001
 20
2.225821955046833
 30
0.0
 11
-0.33
 21
1.941065245416463
 31
0.0
  0
LINE
  5
EC
330
D0
100
AcDbEntity
  8
AM_9
100
AcDbLine
 10
0.33
 20
1.940895814437241
 30
0.0
 11
0.3300000000000002
 21
2.225668438918969
 31
0.0
  0
LINE
  5
ED
330
D0
100
AcDbEntity
  8
AM_9
100
AcDbLine
 10
1.877815744041654
 20
1.239754575308272
 30
0.0
 11
1.619738520692716
 21
1.119411189665284
 31
0.0
  0
LINE
  5
EE
330
D0
100
AcDbEntity
  8
AM_9
100
AcDbLine
 10
1.898513016825742
 20
0.5211764455951713
 30
0.0
 11
2.156604663928397
 21
0.6415265571449764
 31
0.0
  0
LINE
  5
F1
330
D0
100
AcDbEntity
  8
AM_7
100
AcDbLine
 10
-0.1045739754273058
 20
-0.0487636455854653
 30
0.0
 11
2.754798044346817
 21
1.284583424749334
 31
0.0
  0
CIRCLE
  5
F2
330
D0
100
AcDbEntity
  8
AM_4
100
AcDbCircle
 10
0.0
 20
0.0
 30
0.0
 40
3.3558
  0
CIRCLE
  5
F3
330
D0
100
AcDbEntity
  8
AM_4
100
AcDbCircle
 10
0.0
 20
0.0
 30
0.0
 40
2.25
  0
CIRCLE
  5
F4
330
D0
100
AcDbEntity
  8
AM_4
100
AcDbCircle
 10
0.0
 20
0.0
 30
0.0
 40
1.96875
  0
ENDBLK
  5
D3
330
D0
100
AcDbEntity
  8
0
100
AcDbBlockEnd
  0
BLOCK
  5
F7
330
F5
100
AcDbEntity
  8
0
100
AcDbBlockBegin
  2
4_405015E_Inch_0_in_070582_0
 70
     2
 10
0.0
 20
0.0
 30
0.0
  3
4_405015E_Inch_0_in_070582_0
  1

  0
ATTDEF
  5
F9
330
F5
100
AcDbEntity
  8
AM_6
100
AcDbText
 10
5.21875
 20
4.616375
 30
0.0
 40
0.5
  1
405015E -Inch
100
AcDbAttributeDefinition
  3

  2
NN
 70
     8
280
     0
  0
ATTDEF
  5
FA
330
F5
100
AcDbEntity
  8
AM_6
100
AcDbText
 10
5.21875
 20
4.116375
 30
0.0
 40
0.5
  1
Grease Fitting
100
AcDbAttributeDefinition
  3

  2
NT
 70
     8
280
     0
  0
ATTDEF
  5
FB
330
F5
100
AcDbEntity
  8
AM_6
100
AcDbText
 10
5.21875
 20
3.616375
 30
0.0
 40
0.5
  1
405015E-Inch
100
AcDbAttributeDefinition
  3

  2
NB
 70
     8
280
     0
  0
ATTDEF
  5
FC
330
F5
100
AcDbEntity
  8
AM_6
100
AcDbText
 10
5.21875
 20
3.116375
 30
0.0
 40
0.5
  1
$MN.-Inch
100
AcDbAttributeDefinition
  3

  2
NBSYN
 70
     8
280
     0
  0
ATTDEF
  5
FD
330
F5
100
AcDbEntity
  8
AM_6
100
AcDbText
 10
5.21875
 20
2.616375
 30
0.0
 40
0.5
  1
405015E
100
AcDbAttributeDefinition
  3

  2
LINA
 70
     8
280
     0
  0
ATTDEF
  5
FE
330
F5
100
AcDbEntity
  8
AM_6
100
AcDbText
 10
5.21875
 20
2.116375
 30
0.0
 40
0.5
  1
405015E
100
AcDbAttributeDefinition
  3

  2
MN
 70
     8
280
     0
  0
ATTDEF
  5
FF
330
F5
100
AcDbEntity
  8
AM_6
100
AcDbText
 10
5.21875
 20
1.616375
 30
0.0
 40
0.5
  1
1/8 x 27PTF
100
AcDbAttributeDefinition
  3

  2
T
 70
     8
280
     0
  0
ATTDEF
  5
100
330
F5
100
AcDbEntity
  8
AM_6
100
AcDbText
 10
5.21875
 20
1.116375
 30
0.0
 40
0.5
  1
baldor
100
AcDbAttributeDefinition
  3

  2
COMPANY
 70
     8
280
     0
  0
LINE
  5
101
330
F5
100
AcDbEntity
  8
AM_9
100
AcDbLine
 10
-0.161902872472269
 20
3.944375
 30
0.0
 11
0.161902872472269
 21
3.944375
 31
0.0
  0
LINE
  5
102
330
F5
100
AcDbEntity
  8
AM_9
100
AcDbLine
 10
0.161902872472269
 20
3.944375
 30
0.0
 11
0.1986176267812154
 21
3.981089754308946
 31
0.0
  0
LINE
  5
103
330
F5
100
AcDbEntity
  8
AM_9
100
AcDbLine
 10
-0.1986176267812154
 20
3.981089754308946
 30
0.0
 11
-0.161902872472269
 21
3.944375
 31
0.0
  0
LINE
  5
104
330
F5
100
AcDbEntity
  8
AM_9
100
AcDbLine
 10
-0.1986176267812154
 20
3.981089754308946
 30
0.0
 11
0.1986176267812154
 21
3.981089754308946
 31
0.0
  0
LINE
  5
105
330
F5
100
AcDbEntity
  8
AM_9
100
AcDbLine
 10
0.1986176267812154
 20
3.981089754308946
 30
0.0
 11
0.2057518972230696
 21
4.209375
 31
0.0
  0
LINE
  5
106
330
F5
100
AcDbEntity
  8
AM_9
100
AcDbLine
 10
-0.2057518972230696
 20
4.209375
 30
0.0
 11
-0.1986176267812154
 21
3.981089754308946
 31
0.0
  0
LINE
  5
107
330
F5
100
AcDbEntity
  8
AM_5
100
AcDbLine
 10
-0.1681491248523479
 20
4.144245087748462
 30
0.0
 11
-0.161902872472269
 21
3.944374999999999
 31
0.0
  0
LINE
  5
108
330
F5
100
AcDbEntity
  8
AM_5
100
AcDbLine
 10
-0.2057518972230693
 20
4.209374999999999
 30
0.0
 11
-0.1681491248523479
 21
4.144245087748462
 31
0.0
  0
LINE
  5
109
330
F5
100
AcDbEntity
  8
AM_5
100
AcDbLine
 10
0.2037164857515568
 20
4.144245087748462
 30
0.0
 11
-0.2037164857515572
 21
4.144245087748462
 31
0.0
  0
LINE
  5
10A
330
F5
100
AcDbEntity
  8
AM_5
100
AcDbLine
 10
0.1681491248523479
 20
4.144245087748462
 30
0.0
 11
0.161902872472269
 21
3.944374999999999
 31
0.0
  0
LINE
  5
10B
330
F5
100
AcDbEntity
  8
AM_5
100
AcDbLine
 10
0.2057518972230693
 20
4.209374999999999
 30
0.0
 11
0.1681491248523479
 21
4.144245087748462
 31
0.0
  0
LINE
  5
10C
330
F5
100
AcDbEntity
  8
AM_7
100
AcDbLine
 10
0.0
 20
4.616375
 30
0.0
 11
-0.0000000000000002
 21
-4.017654375
 31
0.0
  0
LINE
  5
10D
330
F5
100
AcDbEntity
  8
AM_4
100
AcDbLine
 10
0.105
 20
4.414375
 30
0.0
 11
0.105
 21
4.444375
 31
0.0
  0
LINE
  5
10E
330
F5
100
AcDbEntity
  8
AM_4
100
AcDbLine
 10
-0.105
 20
4.444375
 30
0.0
 11
-0.105
 21
4.414375
 31
0.0
  0
LINE
  5
10F
330
F5
100
AcDbEntity
  8
AM_4
100
AcDbLine
 10
-0.105
 20
4.414375
 30
0.0
 11
0.105
 21
4.414375
 31
0.0
  0
LINE
  5
110
330
F5
100
AcDbEntity
  8
AM_4
100
AcDbLine
 10
-0.105
 20
4.414375
 30
0.0
 11
-0.1188200907348975
 21
4.382128121618572
 31
0.0
  0
LINE
  5
111
330
F5
100
AcDbEntity
  8
AM_4
100
AcDbLine
 10
0.1188200907348975
 20
4.382128121618572
 30
0.0
 11
0.105
 21
4.414375
 31
0.0
  0
LINE
  5
112
330
F5
100
AcDbEntity
  8
AM_4
100
AcDbLine
 10
-0.105
 20
4.444375
 30
0.0
 11
0.105
 21
4.444375
 31
0.0
  0
LINE
  5
113
330
F5
100
AcDbEntity
  8
AM_4
100
AcDbLine
 10
0.105
 20
4.444375
 30
0.0
 11
0.135
 21
4.504375
 31
0.0
  0
LINE
  5
114
330
F5
100
AcDbEntity
  8
AM_4
100
AcDbLine
 10
-0.135
 20
4.504375
 30
0.0
 11
-0.105
 21
4.444375
 31
0.0
  0
LINE
  5
115
330
F5
100
AcDbEntity
  8
AM_4
100
AcDbLine
 10
-0.1026779019331875
 20
4.584375
 30
0.0
 11
0.1026779019331875
 21
4.584375
 31
0.0
  0
LINE
  5
116
330
F5
100
AcDbEntity
  8
AM_4
100
AcDbLine
 10
-0.135
 20
4.504375
 30
0.0
 11
0.135
 21
4.504375
 31
0.0
  0
LINE
  5
117
330
F5
100
AcDbEntity
  8
AM_4
100
AcDbLine
 10
-0.1026779019331875
 20
4.584375
 30
0.0
 11
-0.135
 21
4.504375
 31
0.0
  0
LINE
  5
118
330
F5
100
AcDbEntity
  8
AM_4
100
AcDbLine
 10
0.135
 20
4.504375
 30
0.0
 11
0.1026779019331875
 21
4.584375
 31
0.0
  0
LINE
  5
119
330
F5
100
AcDbEntity
  8
AM_4
100
AcDbLine
 10
-0.1188200907348975
 20
4.382128121618572
 30
0.0
 11
0.1188200907348975
 21
4.382128121618572
 31
0.0
  0
LINE
  5
11A
330
F5
100
AcDbEntity
  8
AM_4
100
AcDbLine
 10
-0.1188200907348975
 20
4.382128121618572
 30
0.0
 11
-0.1725340532830154
 21
4.327693198540882
 31
0.0
  0
LINE
  5
11B
330
F5
100
AcDbEntity
  8
AM_4
100
AcDbLine
 10
0.1725340532830154
 20
4.327693198540882
 30
0.0
 11
0.1188200907348975
 21
4.382128121618572
 31
0.0
  0
LINE
  5
11C
330
F5
100
AcDbEntity
  8
AM_4
100
AcDbLine
 10
-0.21875
 20
4.309374999999999
 30
0.0
 11
0.21875
 21
4.309374999999999
 31
0.0
  0
LINE
  5
11D
330
F5
100
AcDbEntity
  8
AM_4
100
AcDbLine
 10
0.21875
 20
4.209375
 30
0.0
 11
0.21875
 21
4.309374999999999
 31
0.0
  0
LINE
  5
11E
330
F5
100
AcDbEntity
  8
AM_4
100
AcDbLine
 10
-0.21875
 20
4.309374999999999
 30
0.0
 11
-0.21875
 21
4.209375
 31
0.0
  0
LINE
  5
11F
330
F5
100
AcDbEntity
  8
AM_4
100
AcDbLine
 10
-0.1725340532830154
 20
4.327693198540882
 30
0.0
 11
0.1725340532830154
 21
4.327693198540882
 31
0.0
  0
LINE
  5
120
330
F5
100
AcDbEntity
  8
AM_4
100
AcDbLine
 10
-0.1725340532830154
 20
4.327693198540882
 30
0.0
 11
-0.21375
 21
4.309374999999999
 31
0.0
  0
LINE
  5
121
330
F5
100
AcDbEntity
  8
AM_4
100
AcDbLine
 10
0.21375
 20
4.309374999999999
 30
0.0
 11
0.1725340532830154
 21
4.327693198540882
 31
0.0
  0
LWPOLYLINE
  5
122
330
F5
100
AcDbEntity
  8
AM_4
100
AcDbPolyline
 90
        3
 70
     0
 43
0.0
 10
-0.21875
 20
4.300307400303385
 10
-0.1643083897258504
 20
4.30696047505038
 10
-0.109375
 20
4.309374999999999
  0
LWPOLYLINE
  5
123
330
F5
100
AcDbEntity
  8
AM_4
100
AcDbPolyline
 90
        3
 70
     0
 43
0.0
 10
-0.109375
 20
4.209375
 10
-0.1640625
 20
4.211768380785035
 10
-0.21875
 20
4.218442599696615
  0
LWPOLYLINE
  5
124
330
F5
100
AcDbEntity
  8
AM_4
100
AcDbPolyline
 90
        3
 70
     0
 43
0.0
 10
0.0
 20
4.218442599696615
 10
-0.0544416102741496
 20
4.211789524949619
 10
-0.109375
 20
4.209375
  0
LWPOLYLINE
  5
125
330
F5
100
AcDbEntity
  8
AM_4
100
AcDbPolyline
 90
        3
 70
     0
 43
0.0
 10
-0.109375
 20
4.309374999999999
 10
-0.0546875
 20
4.306981619214965
 10
0.0
 20
4.300307400303385
  0
LWPOLYLINE
  5
126
330
F5
100
AcDbEntity
  8
AM_4
100
AcDbPolyline
 90
        3
 70
     0
 43
0.0
 10
0.1093749999999999
 20
4.309374999999999
 10
0.1640625
 20
4.306981619214965
 10
0.21875
 20
4.300307400303385
  0
LWPOLYLINE
  5
127
330
F5
100
AcDbEntity
  8
AM_4
100
AcDbPolyline
 90
        3
 70
     0
 43
0.0
 10
0.0
 20
4.300307400303385
 10
0.0544416102741496
 20
4.30696047505038
 10
0.1093749999999999
 20
4.309374999999999
  0
LINE
  5
128
330
F5
100
AcDbEntity
  8
AM_4
100
AcDbLine
 10
0.0
 20
4.300307400303385
 30
0.0
 11
0.0
 21
4.218442599696615
 31
0.0
  0
LWPOLYLINE
  5
129
330
F5
100
AcDbEntity
  8
AM_4
100
AcDbPolyline
 90
        3
 70
     0
 43
0.0
 10
0.109375
 20
4.209375
 10
0.0546875
 20
4.211768380785035
 10
0.0
 20
4.218442599696615
  0
LWPOLYLINE
  5
12A
330
F5
100
AcDbEntity
  8
AM_4
100
AcDbPolyline
 90
        3
 70
     0
 43
0.0
 10
0.21875
 20
4.218442599696615
 10
0.1643083897258504
 20
4.211789524949619
 10
0.109375
 20
4.209375
  0
ENDBLK
  5
F8
330
F5
100
AcDbEntity
  8
0
100
AcDbBlockEnd
  0
BLOCK
  5
12D
330
12B
100
AcDbEntity
  8
0
100
AcDbBlockBegin
  2
5_070582H_0_in_070582_0
 70
     2
 10
0.0
 20
0.0
 30
0.0
  3
5_070582H_0_in_070582_0
  1

  0
ATTDEF
  5
12F
330
12B
100
AcDbEntity
  8
AM_6
100
AcDbText
 10
9.625
 20
4.625
 30
0.0
 40
0.5
  1
F4S-S2 -(Contact Seal)-Housing
100
AcDbAttributeDefinition
  3

  2
NN
 70
     8
280
     0
  0
ATTDEF
  5
130
330
12B
100
AcDbEntity
  8
AM_6
100
AcDbText
 10
9.625
 20
4.125
 30
0.0
 40
0.5
  1
S-2000 4 Bolt Square Flange Bearing -Inch
100
AcDbAttributeDefinition
  3

  2
NT
 70
     8
280
     0
  0
ATTDEF
  5
131
330
12B
100
AcDbEntity
  8
AM_6
100
AcDbText
 10
9.625
 20
3.625
 30
0.0
 40
0.5
  1
070582H
100
AcDbAttributeDefinition
  3

  2
NB
 70
     8
280
     0
  0
ATTDEF
  5
132
330
12B
100
AcDbEntity
  8
AM_6
100
AcDbText
 10
9.625
 20
3.125
 30
0.0
 40
0.5
  1
$PN.H
100
AcDbAttributeDefinition
  3

  2
NBSYN
 70
     8
280
     0
  0
ATTDEF
  5
133
330
12B
100
AcDbEntity
  8
AM_6
100
AcDbText
 10
9.625
 20
2.625
 30
0.0
 40
0.5
  1
070582
100
AcDbAttributeDefinition
  3

  2
LINA
 70
     8
280
     0
  0
ATTDEF
  5
134
330
12B
100
AcDbEntity
  8
AM_6
100
AcDbText
 10
9.625
 20
2.125
 30
0.0
 40
0.5
  1
3-15/16
100
AcDbAttributeDefinition
  3

  2
SS
 70
     8
280
     0
  0
ATTDEF
  5
135
330
12B
100
AcDbEntity
  8
AM_6
100
AcDbText
 10
9.625
 20
1.625
 30
0.0
 40
0.5
  1
070582
100
AcDbAttributeDefinition
  3

  2
PN
 70
     8
280
     0
  0
ATTDEF
  5
136
330
12B
100
AcDbEntity
  8
AM_6
100
AcDbText
 10
9.625
 20
1.125
 30
0.0
 40
0.5
  1
F4S-S2-315RE
100
AcDbAttributeDefinition
  3

  2
DESCRIPTION
 70
     8
280
     0
  0
ATTDEF
  5
137
330
12B
100
AcDbEntity
  8
AM_6
100
AcDbText
 10
9.625
 20
0.625
 30
0.0
 40
0.5
  1
Expansion Type
100
AcDbAttributeDefinition
  3

  2
EF
 70
     8
280
     0
  0
ATTDEF
  5
138
330
12B
100
AcDbEntity
  8
AM_6
100
AcDbText
 10
9.625
 20
0.125
 30
0.0
 40
0.5
  1
4-15/32
100
AcDbAttributeDefinition
  3

  2
A
 70
     8
280
     0
  0
ATTDEF
  5
139
330
12B
100
AcDbEntity
  8
AM_6
100
AcDbText
 10
9.625
 20
-0.375
 30
0.0
 40
0.5
  1
9-1/4
100
AcDbAttributeDefinition
  3

  2
B
 70
     8
280
     0
  0
ATTDEF
  5
13A
330
12B
100
AcDbEntity
  8
AM_6
100
AcDbText
 10
9.625
 20
-0.875
 30
0.0
 40
0.5
  1
4-27/32
100
AcDbAttributeDefinition
  3

  2
C
 70
     8
280
     0
  0
ATTDEF
  5
13B
330
12B
100
AcDbEntity
  8
AM_6
100
AcDbText
 10
9.625
 20
-1.375
 30
0.0
 40
0.5
  1
7/8
100
AcDbAttributeDefinition
  3

  2
F
 70
     8
280
     0
  0
ATTDEF
  5
13C
330
12B
100
AcDbEntity
  8
AM_6
100
AcDbText
 10
9.625
 20
-1.875
 30
0.0
 40
0.5
  1
1-35/64
100
AcDbAttributeDefinition
  3

  2
G
 70
     8
280
     0
  0
ATTDEF
  5
13D
330
12B
100
AcDbEntity
  8
AM_6
100
AcDbText
 10
9.625
 20
-2.375
 30
0.0
 40
0.5
  1
1-1/16
100
AcDbAttributeDefinition
  3

  2
H
 70
     8
280
     0
  0
ATTDEF
  5
13E
330
12B
100
AcDbEntity
  8
AM_6
100
AcDbText
 10
9.625
 20
-2.875
 30
0.0
 40
0.5
  1
8-7/32
100
AcDbAttributeDefinition
  3

  2
J
 70
     8
280
     0
  0
ATTDEF
  5
13F
330
12B
100
AcDbEntity
  8
AM_6
100
AcDbText
 10
9.625
 20
-3.375
 30
0.0
 40
0.5
  1
10-3/4
100
AcDbAttributeDefinition
  3

  2
K
 70
     8
280
     0
  0
ATTDEF
  5
140
330
12B
100
AcDbEntity
  8
AM_6
100
AcDbText
 10
9.625
 20
-3.875
 30
0.0
 40
0.5
  1
10.7500000
100
AcDbAttributeDefinition
  3

  2
K1
 70
     8
280
     0
  0
ATTDEF
  5
141
330
12B
100
AcDbEntity
  8
AM_6
100
AcDbText
 10
9.625
 20
-4.375
 30
0.0
 40
0.5
  1
6
100
AcDbAttributeDefinition
  3

  2
L
 70
     8
280
     0
  0
ATTDEF
  5
142
330
12B
100
AcDbEntity
  8
AM_6
100
AcDbText
 10
9.625
 20
-4.875
 30
0.0
 40
0.5
  1
4-45/64
100
AcDbAttributeDefinition
  3

  2
N
 70
     8
280
     0
  0
ATTDEF
  5
143
330
12B
100
AcDbEntity
  8
AM_6
100
AcDbText
 10
9.625
 20
-5.375
 30
0.0
 40
0.5
  1
4.703125
100
AcDbAttributeDefinition
  3

  2
N1
 70
     8
280
     0
  0
ATTDEF
  5
144
330
12B
100
AcDbEntity
  8
AM_6
100
AcDbText
 10
9.625
 20
-5.875
 30
0.0
 40
0.5
  1
3/8
100
AcDbAttributeDefinition
  3

  2
P
 70
     8
280
     0
  0
ATTDEF
  5
145
330
12B
100
AcDbEntity
  8
AM_6
100
AcDbText
 10
9.625
 20
-6.375
 30
0.0
 40
0.5
  1
5/16
100
AcDbAttributeDefinition
  3

  2
X
 70
     8
280
     0
  0
ATTDEF
  5
146
330
12B
100
AcDbEntity
  8
AM_6
100
AcDbText
 10
9.625
 20
-6.875
 30
0.0
 40
0.5
  1
0.025
100
AcDbAttributeDefinition
  3

  2
Y
 70
     8
280
     0
  0
ATTDEF
  5
147
330
12B
100
AcDbEntity
  8
AM_6
100
AcDbText
 10
9.625
 20
-7.375
 30
0.0
 40
0.5
  1
4-1/2
100
AcDbAttributeDefinition
  3

  2
Z
 70
     8
280
     0
  0
ATTDEF
  5
148
330
12B
100
AcDbEntity
  8
AM_6
100
AcDbText
 10
9.625
 20
-7.875
 30
0.0
 40
0.5
  1
baldor
100
AcDbAttributeDefinition
  3

  2
COMPANY
 70
     8
280
     0
  0
CIRCLE
  5
149
330
12B
100
AcDbEntity
  8
AM_9
100
AcDbCircle
 10
0.0
 20
0.0
 30
0.0
 40
3.7200875
  0
CIRCLE
  5
14A
330
12B
100
AcDbEntity
  8
AM_9
100
AcDbCircle
 10
-0.0000000000000002
 20
-0.0000000000000002
 30
0.0
 40
3.8263375
  0
LINE
  5
14B
330
12B
100
AcDbEntity
  8
AM_7
100
AcDbLine
 10
-4.264062500000001
 20
-3.804687499999999
 30
0.0
 11
-3.345312500000001
 21
-3.804687499999999
 31
0.0
  0
LINE
  5
14C
330
12B
100
AcDbEntity
  8
AM_7
100
AcDbLine
 10
-3.804687500000001
 20
-4.264062499999999
 30
0.0
 11
-3.804687500000001
 21
-3.345312499999999
 31
0.0
  0
LINE
  5
14D
330
12B
100
AcDbEntity
  8
AM_7
100
AcDbLine
 10
3.3453125
 20
3.8046875
 30
0.0
 11
4.2640625
 21
3.8046875
 31
0.0
  0
LINE
  5
14E
330
12B
100
AcDbEntity
  8
AM_7
100
AcDbLine
 10
3.8046875
 20
3.3453125
 30
0.0
 11
3.8046875
 21
4.2640625
 31
0.0
  0
LINE
  5
14F
330
12B
100
AcDbEntity
  8
AM_7
100
AcDbLine
 10
-4.2640625
 20
3.8046875
 30
0.0
 11
-3.345312499999999
 21
3.8046875
 31
0.0
  0
LINE
  5
150
330
12B
100
AcDbEntity
  8
AM_7
100
AcDbLine
 10
-3.8046875
 20
3.3453125
 30
0.0
 11
-3.8046875
 21
4.264062500000001
 31
0.0
  0
LINE
  5
151
330
12B
100
AcDbEntity
  8
AM_7
100
AcDbLine
 10
3.345312499999998
 20
-3.804687500000001
 30
0.0
 11
4.264062499999998
 21
-3.804687500000001
 31
0.0
  0
LINE
  5
152
330
12B
100
AcDbEntity
  8
AM_7
100
AcDbLine
 10
3.804687499999998
 20
-4.264062500000001
 30
0.0
 11
3.804687499999998
 21
-3.345312500000001
 31
0.0
  0
LINE
  5
153
330
12B
100
AcDbEntity
  8
AM_7
100
AcDbLine
 10
-4.017654375
 20
-0.0000000000000002
 30
0.0
 11
4.017654375
 21
-0.0000000000000002
 31
0.0
  0
LINE
  5
154
330
12B
100
AcDbEntity
  8
AM_4
100
AcDbLine
 10
-3.372944078947369
 20
-4.55248904109676
 30
0.0
 11
-1.989073761802101
 21
-3.753511140969407
 31
0.0
  0
CIRCLE
  5
155
330
12B
100
AcDbEntity
  8
AM_4
100
AcDbCircle
 10
-3.804687500000001
 20
-3.804687499999999
 30
0.0
 40
0.4375
  0
LINE
  5
156
330
12B
100
AcDbEntity
  8
AM_4
100
AcDbLine
 10
-4.625
 20
3.804687500000001
 30
0.0
 11
-4.625
 21
-3.804687500000001
 31
0.0
  0
ARC
  5
157
330
12B
100
AcDbEntity
  8
AM_4
100
AcDbCircle
 10
-3.804687500000002
 20
-3.804687500000002
 30
0.0
 40
0.8203124999999982
100
AcDbArc
 50
179.9999991462263
 51
270.0
  0
ARC
  5
158
330
12B
100
AcDbEntity
  8
AM_4
100
AcDbCircle
 10
-3.804687499999989
 20
-3.804687500000036
 30
0.0
 40
0.8634868421052259
100
AcDbArc
 50
288.1948723387669
 51
300.0000000000005
  0
ARC
  5
159
330
12B
100
AcDbEntity
  8
AM_4
100
AcDbCircle
 10
-1.832823761802101
 20
-4.024144079652049
 30
0.0
 40
0.3125000000000044
100
AcDbArc
 50
65.51278524645423
 51
119.9999999999997
  0
LINE
  5
15A
330
12B
100
AcDbEntity
  8
AM_4
100
AcDbLine
 10
-3.753511140969407
 20
-1.989073761802099
 30
0.0
 11
-4.552489041096761
 21
-3.372944078947367
 31
0.0
  0
ARC
  5
15B
330
12B
100
AcDbEntity
  8
AM_4
100
AcDbCircle
 10
-4.024144079652047
 20
-1.832823761802099
 30
0.0
 40
0.3125000000000026
100
AcDbArc
 50
330.0000000000002
 51
24.48721475354638
  0
ARC
  5
15C
330
12B
100
AcDbEntity
  8
AM_4
100
AcDbCircle
 10
-3.804687499999986
 20
-3.804687500000008
 30
0.0
 40
0.8634868421052809
100
AcDbArc
 50
150.0
 51
161.8051276612327
  0
ARC
  5
15D
330
12B
100
AcDbEntity
  8
AM_4
100
AcDbCircle
 10
4.024144079652047
 20
1.8328237618021
 30
0.0
 40
0.3125000000000026
100
AcDbArc
 50
150.0000000000003
 51
204.4872147535462
  0
ARC
  5
15E
330
12B
100
AcDbEntity
  8
AM_4
100
AcDbCircle
 10
1.8328237618021
 20
4.024144079652049
 30
0.0
 40
0.3125000000000044
100
AcDbArc
 50
245.5127852464543
 51
299.9999999999997
  0
LINE
  5
15F
330
12B
100
AcDbEntity
  8
AM_4
100
AcDbLine
 10
3.753511140969407
 20
1.9890737618021
 30
0.0
 11
4.552489041096761
 21
3.372944078947368
 31
0.0
  0
ARC
  5
160
330
12B
100
AcDbEntity
  8
AM_4
100
AcDbCircle
 10
3.804687499999958
 20
3.804687500000023
 30
0.0
 40
0.8634868421053117
100
AcDbArc
 50
330.0000000000002
 51
341.8051276612323
  0
LINE
  5
161
330
12B
100
AcDbEntity
  8
AM_4
100
AcDbLine
 10
4.625
 20
-3.804687500000001
 30
0.0
 11
4.625
 21
3.804687499999999
 31
0.0
  0
ARC
  5
162
330
12B
100
AcDbEntity
  8
AM_4
100
AcDbCircle
 10
3.8046875
 20
3.804687500000001
 30
0.0
 40
0.8203124999999996
100
AcDbArc
 50
0.0000008537736463
 51
90.0
  0
ARC
  5
163
330
12B
100
AcDbEntity
  8
AM_4
100
AcDbCircle
 10
3.804687500000026
 20
3.804687499999947
 30
0.0
 40
0.8634868421053228
100
AcDbArc
 50
108.1948723387675
 51
119.9999999999997
  0
LINE
  5
164
330
12B
100
AcDbEntity
  8
AM_4
100
AcDbLine
 10
3.372944078947369
 20
4.552489041096761
 30
0.0
 11
1.989073761802101
 21
3.753511140969407
 31
0.0
  0
CIRCLE
  5
165
330
12B
100
AcDbEntity
  8
AM_4
100
AcDbCircle
 10
3.8046875
 20
3.8046875
 30
0.0
 40
0.4375
  0
LINE
  5
166
330
12B
100
AcDbEntity
  8
AM_4
100
AcDbLine
 10
3.804687500000001
 20
4.625
 30
0.0
 11
-3.804687499999999
 21
4.625
 31
0.0
  0
ARC
  5
167
330
12B
100
AcDbEntity
  8
AM_4
100
AcDbCircle
 10
-4.024144079652049
 20
1.832823761802101
 30
0.0
 40
0.3125000000000046
100
AcDbArc
 50
335.5127852464542
 51
29.9999999999997
  0
ARC
  5
168
330
12B
100
AcDbEntity
  8
AM_4
100
AcDbCircle
 10
-1.832823761802099
 20
4.024144079652049
 30
0.0
 40
0.3125000000000043
100
AcDbArc
 50
240.0000000000003
 51
294.4872147535462
  0
LINE
  5
169
330
12B
100
AcDbEntity
  8
AM_4
100
AcDbLine
 10
-1.9890737618021
 20
3.753511140969407
 30
0.0
 11
-3.372944078947367
 21
4.552489041096761
 31
0.0
  0
ARC
  5
16A
330
12B
100
AcDbEntity
  8
AM_4
100
AcDbCircle
 10
-3.804687500000008
 20
3.804687499999986
 30
0.0
 40
0.8634868421052809
100
AcDbArc
 50
59.99999999999994
 51
71.80512766123263
  0
ARC
  5
16B
330
12B
100
AcDbEntity
  8
AM_4
100
AcDbCircle
 10
-3.804687500000001
 20
3.804687500000001
 30
0.0
 40
0.8203124999999991
100
AcDbArc
 50
90.0
 51
179.9999991462263
  0
ARC
  5
16C
330
12B
100
AcDbEntity
  8
AM_4
100
AcDbCircle
 10
-3.804687499999957
 20
3.804687500000021
 30
0.0
 40
0.8634868421053101
100
AcDbArc
 50
198.1948723387672
 51
209.9999999999998
  0
LINE
  5
16D
330
12B
100
AcDbEntity
  8
AM_4
100
AcDbLine
 10
-4.55248904109676
 20
3.372944078947369
 30
0.0
 11
-3.753511140969407
 21
1.989073761802101
 31
0.0
  0
CIRCLE
  5
16E
330
12B
100
AcDbEntity
  8
AM_4
100
AcDbCircle
 10
-3.8046875
 20
3.8046875
 30
0.0
 40
0.4375
  0
ARC
  5
16F
330
12B
100
AcDbEntity
  8
AM_4
100
AcDbCircle
 10
4.02414407965205
 20
-1.832823761802101
 30
0.0
 40
0.3125000000000054
100
AcDbArc
 50
155.5127852464542
 51
209.9999999999996
  0
ARC
  5
170
330
12B
100
AcDbEntity
  8
AM_4
100
AcDbCircle
 10
1.8328237618021
 20
-4.024144079652045
 30
0.0
 40
0.3124999999999998
100
AcDbArc
 50
60.00000000000018
 51
114.4872147535463
  0
LINE
  5
171
330
12B
100
AcDbEntity
  8
AM_4
100
AcDbLine
 10
1.989073761802099
 20
-3.753511140969407
 30
0.0
 11
3.372944078947367
 21
-4.552489041096761
 31
0.0
  0
ARC
  5
172
330
12B
100
AcDbEntity
  8
AM_4
100
AcDbCircle
 10
3.804687500000021
 20
-3.804687499999962
 30
0.0
 40
0.8634868421053079
100
AcDbArc
 50
240.0
 51
251.8051276612323
  0
LINE
  5
173
330
12B
100
AcDbEntity
  8
AM_4
100
AcDbLine
 10
-3.804687500000001
 20
-4.625
 30
0.0
 11
3.804687499999999
 21
-4.625
 31
0.0
  0
ARC
  5
174
330
12B
100
AcDbEntity
  8
AM_4
100
AcDbCircle
 10
3.8046875
 20
-3.804687500000001
 30
0.0
 40
0.8203124999999991
100
AcDbArc
 50
270.0
 51
0.0000008537736463
  0
ARC
  5
175
330
12B
100
AcDbEntity
  8
AM_4
100
AcDbCircle
 10
3.804687499999907
 20
-3.804687500000043
 30
0.0
 40
0.8634868421053651
100
AcDbArc
 50
18.19487233876764
 51
29.99999999999924
  0
LINE
  5
176
330
12B
100
AcDbEntity
  8
AM_4
100
AcDbLine
 10
4.552489041096761
 20
-3.37294407894737
 30
0.0
 11
3.753511140969407
 21
-1.989073761802102
 31
0.0
  0
CIRCLE
  5
177
330
12B
100
AcDbEntity
  8
AM_4
100
AcDbCircle
 10
3.804687499999998
 20
-3.804687500000001
 30
0.0
 40
0.4375
  0
LINE
  5
178
330
12B
100
AcDbEntity
  8
AM_4
100
AcDbLine
 10
-0.4999999999999998
 20
4.109375
 30
0.0
 11
-0.4999999999999998
 21
4.0790437170312
 31
0.0
  0
LINE
  5
179
330
12B
100
AcDbEntity
  8
AM_4
100
AcDbLine
 10
-0.4000000000000004
 20
4.209374999999999
 30
0.0
 11
0.4000000000000004
 21
4.209374999999999
 31
0.0
  0
ARC
  5
17A
330
12B
100
AcDbEntity
  8
AM_4
100
AcDbCircle
 10
0.3999999999999996
 20
4.109374999999998
 30
0.0
 40
0.1000000000000003
100
AcDbArc
 50
0.0
 51
90.0
  0
ARC
  5
17B
330
12B
100
AcDbEntity
  8
AM_4
100
AcDbCircle
 10
-0.3999999999999996
 20
4.109374999999998
 30
0.0
 40
0.1000000000000005
100
AcDbArc
 50
90.0
 51
180.0
  0
LINE
  5
17C
330
12B
100
AcDbEntity
  8
AM_4
100
AcDbLine
 10
-0.4999999999999998
 20
4.109375
 30
0.0
 11
0.4999999999999998
 21
4.109375
 31
0.0
  0
LINE
  5
17D
330
12B
100
AcDbEntity
  8
AM_4
100
AcDbLine
 10
0.4999999999999998
 20
4.0790437170312
 30
0.0
 11
0.4999999999999998
 21
4.109375
 31
0.0
  0
ARC
  5
17E
330
12B
100
AcDbEntity
  8
AM_4
100
AcDbCircle
 10
3.447764381462511
 20
3.44776438146251
 30
0.0
 40
0.9715782731311666
100
AcDbArc
 50
196.5210885422651
 51
253.4789127940405
  0
ARC
  5
17F
330
12B
100
AcDbEntity
  8
AM_4
100
AcDbCircle
 10
-3.447764381462513
 20
3.447764381462514
 30
0.0
 40
0.9715782731311708
100
AcDbArc
 50
286.5210885422654
 51
343.4789127940402
  0
ARC
  5
180
330
12B
100
AcDbEntity
  8
AM_4
100
AcDbCircle
 10
-3.08261331194812
 20
2.216699107823461
 30
0.0
 40
0.3124999999999893
100
AcDbArc
 50
106.5210885422647
 51
144.280184459147
  0
CIRCLE
  5
181
330
12B
100
AcDbEntity
  8
AM_4
100
AcDbCircle
 10
0.0
 20
0.0
 30
0.0
 40
3.5433
  0
ARC
  5
182
330
12B
100
AcDbEntity
  8
AM_4
100
AcDbCircle
 10
0.0000000000000004
 20
-0.0000000000000007
 30
0.0
 40
4.109375
100
AcDbArc
 50
144.2801874191659
 51
215.719812337211
  0
ARC
  5
183
330
12B
100
AcDbEntity
  8
AM_4
100
AcDbCircle
 10
-3.082613311948113
 20
-2.216699107823452
 30
0.0
 40
0.3125000000000001
100
AcDbArc
 50
215.7198123372106
 51
253.4789073030926
  0
ARC
  5
184
330
12B
100
AcDbEntity
  8
AM_4
100
AcDbCircle
 10
-3.447764381462514
 20
-3.447764381462513
 30
0.0
 40
0.9715782731311708
100
AcDbArc
 50
16.52108854226532
 51
73.47891279404031
  0
ARC
  5
185
330
12B
100
AcDbEntity
  8
AM_4
100
AcDbCircle
 10
-2.216699107823461
 20
-3.08261331194812
 30
0.0
 40
0.3124999999999897
100
AcDbArc
 50
196.5210885422646
 51
234.2801844591468
  0
ARC
  5
186
330
12B
100
AcDbEntity
  8
AM_4
100
AcDbCircle
 10
-0.0000000000000002
 20
-0.0000000000000009
 30
0.0
 40
4.109374999999999
100
AcDbArc
 50
234.2801874191659
 51
305.719812337211
  0
ARC
  5
187
330
12B
100
AcDbEntity
  8
AM_4
100
AcDbCircle
 10
2.216699107823449
 20
-3.08261331194811
 30
0.0
 40
0.3125000000000038
100
AcDbArc
 50
305.7198123372105
 51
343.4789073030922
  0
ARC
  5
188
330
12B
100
AcDbEntity
  8
AM_4
100
AcDbCircle
 10
3.447764381462512
 20
-3.447764381462513
 30
0.0
 40
0.9715782731311688
100
AcDbArc
 50
106.5210885422653
 51
163.4789127940404
  0
ARC
  5
189
330
12B
100
AcDbEntity
  8
AM_4
100
AcDbCircle
 10
3.08261331194812
 20
-2.216699107823461
 30
0.0
 40
0.3124999999999897
100
AcDbArc
 50
286.5210885422646
 51
324.2801844591468
  0
ARC
  5
18A
330
12B
100
AcDbEntity
  8
AM_4
100
AcDbCircle
 10
0.0000000000000009
 20
-0.0000000000000002
 30
0.0
 40
4.109374999999999
100
AcDbArc
 50
324.2801874191659
 51
35.71981233721108
  0
ARC
  5
18B
330
12B
100
AcDbEntity
  8
AM_4
100
AcDbCircle
 10
3.082613311948114
 20
2.216699107823456
 30
0.0
 40
0.3124999999999967
100
AcDbArc
 50
35.71981233721063
 51
73.4789073030926
  0
ARC
  5
18C
330
12B
100
AcDbEntity
  8
AM_4
100
AcDbCircle
 10
2.216699107823464
 20
3.082613311948122
 30
0.0
 40
0.3124999999999855
100
AcDbArc
 50
16.52108854226461
 51
54.28018445914707
  0
ARC
  5
18D
330
12B
100
AcDbEntity
  8
AM_4
100
AcDbCircle
 10
-0.0000000000000002
 20
-0.0000000000000004
 30
0.0
 40
4.109375
100
AcDbArc
 50
54.28018741916593
 51
125.7198123372111
  0
ARC
  5
18E
330
12B
100
AcDbEntity
  8
AM_4
100
AcDbCircle
 10
-2.216699107823444
 20
3.082613311948106
 30
0.0
 40
0.3125000000000104
100
AcDbArc
 50
125.7198123372113
 51
163.4789073030919
  0
ENDBLK
  5
12E
330
12B
100
AcDbEntity
  8
0
100
AcDbBlockEnd
  0
ENDSEC
  0
SECTION
  2
ENTITIES
  0
INSERT
  5
6F
330
1F
100
AcDbEntity
  8
0
100
AcDbBlockReference
  2
1_070582_0
 10
0.0
 20
0.0
 30
0.0
  0
POINT
  5
190
330
1F
100
AcDbEntity
  8
ConnectionPoints
100
AcDbPoint
 10
0.0
 20
0.0
 30
4.53125
  0
POINT
  5
191
330
1F
100
AcDbEntity
  8
ConnectionPoints
100
AcDbPoint
 10
0.0
 20
0.0
 30
-1.1455
  0
POINT
  5
192
330
1F
100
AcDbEntity
  8
ConnectionPoints
100
AcDbPoint
 10
0.0
 20
0.0
 30
4.53125
  0
POINT
  5
193
330
1F
100
AcDbEntity
  8
ConnectionPoints
100
AcDbPoint
 10
0.0
 20
4.209375
 30
2.1796875
  0
POINT
  5
194
330
1F
100
AcDbEntity
  8
ConnectionPoints
100
AcDbPoint
 10
0.0
 20
4.209375
 30
2.1796875
  0
POINT
  5
195
330
1F
100
AcDbEntity
  8
ConnectionPoints
100
AcDbPoint
 10
0.0
 20
0.0
 30
4.53125
  0
POINT
  5
196
330
1F
100
AcDbEntity
  8
ConnectionPoints
100
AcDbPoint
 10
0.0
 20
0.0
 30
4.84375
  0
ENDSEC
  0
SECTION
  2
OBJECTS
  0
DICTIONARY
  5
C
330
0
100
AcDbDictionary
281
     1
  3
ACAD_DETAILVIEWSTYLE
350
19E
  3
ACAD_GROUP
350
D
  3
ACAD_LAYOUT
350
1A
  3
ACAD_MATERIAL
350
43
  3
ACAD_MLEADERSTYLE
350
6B
  3
ACAD_MLINESTYLE
350
17
  3
ACAD_PLOTSETTINGS
350
19
  3
ACAD_PLOTSTYLENAME
350
E
  3
ACAD_SCALELIST
350
47
  3
ACAD_SECTIONVIEWSTYLE
350
19F
  3
ACAD_TABLESTYLE
350
69
  3
ACAD_VISUALSTYLE
350
2A
  3
ACDB_RECOMPOSE_DATA
350
19B
  3
AcDbVariableDictionary
350
197
  0
SUN
  5
6D
330
29
100
AcDbSun
 90
        1
290
     0
 63
     7
421
 16777215
 40
1.0
291
     1
 91
  2455826
 92
 54000000
292
     0
 70
     2
 71
   256
280
     1
  0
DICTIONARY
  5
19E
102
{ACAD_REACTORS
330
C
102
}
330
C
100
AcDbDictionary
281
     1
  0
DICTIONARY
  5
D
102
{ACAD_REACTORS
330
C
102
}
330
C
100
AcDbDictionary
281
     1
  0
DICTIONARY
  5
1A
102
{ACAD_REACTORS
330
C
102
}
330
C
100
AcDbDictionary
281
     1
  3
Layout1
350
1E
  3
Layout2
350
26
  3
Model
350
22
  0
DICTIONARY
  5
43
102
{ACAD_REACTORS
330
C
102
}
330
C
100
AcDbDictionary
281
     1
  3
ByBlock
350
45
  3
ByLayer
350
44
  3
Global
350
46
  0
DICTIONARY
  5
6B
102
{ACAD_REACTORS
330
C
102
}
330
C
100
AcDbDictionary
281
     1
  3
Standard
350
6C
  0
DICTIONARY
  5
17
102
{ACAD_REACTORS
330
C
102
}
330
C
100
AcDbDictionary
281
     1
  3
Standard
350
18
  0
DICTIONARY
  5
19
102
{ACAD_REACTORS
330
C
102
}
330
C
100
AcDbDictionary
281
     1
  0
ACDBDICTIONARYWDFLT
  5
E
102
{ACAD_REACTORS
330
C
102
}
330
C
100
AcDbDictionary
281
     1
  3
Normal
350
F
100
AcDbDictionaryWithDefault
340
F
  0
DICTIONARY
  5
47
102
{ACAD_REACTORS
330
C
102
}
330
C
100
AcDbDictionary
281
     1
  3
A0
350
48
  3
A1
350
49
  3
A2
350
4A
  3
A3
350
4B
  3
A4
350
4C
  3
A5
350
4D
  3
A6
350
4E
  3
A7
350
4F
  3
A8
350
50
  3
A9
350
51
  3
B0
350
52
  3
B1
350
53
  3
B2
350
54
  3
B3
350
55
  3
B4
350
56
  3
B5
350
57
  3
B6
350
58
  3
B7
350
59
  3
B8
350
5A
  3
B9
350
5B
  3
C0
350
5C
  3
C1
350
5D
  3
C2
350
5E
  3
C3
350
5F
  3
C4
350
60
  3
C5
350
61
  3
C6
350
62
  3
C7
350
63
  3
C8
350
64
  3
C9
350
65
  3
D0
350
66
  3
D1
350
67
  3
D2
350
68
  0
DICTIONARY
  5
19F
102
{ACAD_REACTORS
330
C
102
}
330
C
100
AcDbDictionary
281
     1
  0
DICTIONARY
  5
69
102
{ACAD_REACTORS
330
C
102
}
330
C
100
AcDbDictionary
281
     1
  3
Standard
350
6A
  0
DICTIONARY
  5
2A
102
{ACAD_REACTORS
330
C
102
}
330
C
100
AcDbDictionary
281
     1
  3
2dWireframe
350
2F
  3
Basic
350
32
  3
Brighten
350
36
  3
ColorChange
350
3A
  3
Conceptual
350
34
  3
Dim
350
35
  3
EdgeColorOff
350
3D
  3
Facepattern
350
39
  3
Flat
350
2B
  3
FlatWithEdges
350
2C
  3
Gouraud
350
2D
  3
GouraudWithEdges
350
2E
  3
Hidden
350
31
  3
JitterOff
350
3B
  3
Linepattern
350
38
  3
OverhangOff
350
3C
  3
Realistic
350
33
  3
Shaded
350
42
  3
Shaded with edges
350
41
  3
Shades of Gray
350
3E
  3
Sketchy
350
3F
  3
Thicken
350
37
  3
Wireframe
350
30
  3
X-Ray
350
40
  0
XRECORD
  5
19B
102
{ACAD_REACTORS
330
C
102
}
330
C
100
AcDbXrecord
280
     1
 90
        1
330
6A
  0
DICTIONARY
  5
197
102
{ACAD_REACTORS
330
C
102
}
330
C
100
AcDbDictionary
281
     1
  3
CANNOSCALE
350
198
  3
CMLEADERSTYLE
350
19D
  3
CTABLESTYLE
350
19C
  0
LAYOUT
  5
1E
102
{ACAD_REACTORS
330
1A
102
}
330
1A
100
AcDbPlotSettings
  1

  2
none_device
  4

  6

 40
0.0
 41
0.0
 42
0.0
 43
0.0
 44
0.0
 45
0.0
 46
0.0
 47
0.0
 48
0.0
 49
0.0
140
0.0
141
0.0
142
1.0
143
1.0
 70
   688
 72
     0
 73
     0
 74
     5
  7

 75
    16
 76
     0
 77
     2
 78
   300
147
1.0
148
0.0
149
0.0
100
AcDbLayout
  1
Layout1
 70
     1
 71
     1
 10
0.0
 20
0.0
 11
12.0
 21
9.0
 12
0.0
 22
0.0
 32
0.0
 14
1.000000000000000E+20
 24
1.000000000000000E+20
 34
1.000000000000000E+20
 15
-1.000000000000000E+20
 25
-1.000000000000000E+20
 35
-1.000000000000000E+20
146
0.0
 13
0.0
 23
0.0
 33
0.0
 16
1.0
 26
0.0
 36
0.0
 17
0.0
 27
1.0
 37
0.0
 76
     0
330
1B
  0
LAYOUT
  5
26
102
{ACAD_REACTORS
330
1A
102
}
330
1A
100
AcDbPlotSettings
  1

  2
none_device
  4

  6

 40
0.0
 41
0.0
 42
0.0
 43
0.0
 44
0.0
 45
0.0
 46
0.0
 47
0.0
 48
0.0
 49
0.0
140
0.0
141
0.0
142
1.0
143
1.0
 70
   688
 72
     0
 73
     0
 74
     5
  7

 75
    16
 76
     0
 77
     2
 78
   300
147
1.0
148
0.0
149
0.0
100
AcDbLayout
  1
Layout2
 70
     1
 71
     2
 10
0.0
 20
0.0
 11
0.0
 21
0.0
 12
0.0
 22
0.0
 32
0.0
 14
0.0
 24
0.0
 34
0.0
 15
0.0
 25
0.0
 35
0.0
146
0.0
 13
0.0
 23
0.0
 33
0.0
 16
1.0
 26
0.0
 36
0.0
 17
0.0
 27
1.0
 37
0.0
 76
     0
330
23
  0
LAYOUT
  5
22
102
{ACAD_REACTORS
330
1A
102
}
330
1A
100
AcDbPlotSettings
  1

  2
none_device
  4
Letter_(8.50_x_11.00_Inches)
  6

 40
6.35
 41
6.35
 42
6.35000508
 43
6.35000508
 44
215.9
 45
279.4
 46
0.0
 47
0.0
 48
0.0
 49
0.0
140
0.0
141
0.0
142
1.0
143
1.0
 70
  1712
 72
     0
 73
     0
 74
     0
  7

 75
     0
 76
     0
 77
     2
 78
   300
147
1.0
148
0.0
149
0.0
100
AcDbLayout
  1
Model
 70
     1
 71
     0
 10
0.0
 20
0.0
 11
12.0
 21
9.0
 12
0.0
 22
0.0
 32
0.0
 14
1.000000000000000E+20
 24
1.000000000000000E+20
 34
1.000000000000000E+20
 15
-1.000000000000000E+20
 25
-1.000000000000000E+20
 35
-1.000000000000000E+20
146
0.0
 13
0.0
 23
0.0
 33
0.0
 16
1.0
 26
0.0
 36
0.0
 17
0.0
 27
1.0
 37
0.0
 76
     0
330
1F
331
29
  0
MATERIAL
  5
45
102
{ACAD_REACTORS
330
43
102
}
330
43
100
AcDbMaterial
  1
ByBlock
 72
     1
 94
      127
  0
MATERIAL
  5
44
102
{ACAD_REACTORS
330
43
102
}
330
43
100
AcDbMaterial
  1
ByLayer
 72
     1
 94
      127
  0
MATERIAL
  5
46
102
{ACAD_REACTORS
330
43
102
}
330
43
100
AcDbMaterial
  1
Global
 72
     1
 94
      127
  0
MLEADERSTYLE
  5
6C
102
{ACAD_REACTORS
330
6B
102
}
330
6B
100
AcDbMLeaderStyle
179
     2
170
     2
171
     1
172
     0
 90
        2
 40
0.0
 41
0.0
173
     1
 91
-1056964608
340
14
 92
       -2
290
     1
 42
0.09
291
     1
 43
0.36
  3
Standard
341
0
 44
0.18
300

342
11
174
     1
178
     6
175
     1
176
     0
 93
-1056964608
 45
0.18
292
     0
297
     0
 46
0.18
343
0
 94
-1056964608
 47
1.0
 49
1.0
140
1.0
293
     1
141
0.0
294
     1
177
     0
142
1.0
295
     0
296
     0
143
0.125
271
     0
272
     9
273
     9
298
     0
  0
MLINESTYLE
  5
18
102
{ACAD_REACTORS
330
17
102
}
330
17
100
AcDbMlineStyle
  2
Standard
 70
     0
  3

 62
   256
 51
90.0
 52
90.0
 71
     2
 49
0.5
 62
   256
  6
BYLAYER
 49
-0.5
 62
   256
  6
BYLAYER
  0
ACDBPLACEHOLDER
  5
F
102
{ACAD_REACTORS
330
E
102
}
330
E
  0
SCALE
  5
48
102
{ACAD_REACTORS
330
47
102
}
330
47
100
AcDbScale
 70
     0
300
1:1
140
1.0
141
1.0
290
     1
  0
SCALE
  5
49
102
{ACAD_REACTORS
330
47
102
}
330
47
100
AcDbScale
 70
     0
300
1:2
140
1.0
141
2.0
290
     0
  0
SCALE
  5
4A
102
{ACAD_REACTORS
330
47
102
}
330
47
100
AcDbScale
 70
     0
300
1:4
140
1.0
141
4.0
290
     0
  0
SCALE
  5
4B
102
{ACAD_REACTORS
330
47
102
}
330
47
100
AcDbScale
 70
     0
300
1:5
140
1.0
141
5.0
290
     0
  0
SCALE
  5
4C
102
{ACAD_REACTORS
330
47
102
}
330
47
100
AcDbScale
 70
     0
300
1:8
140
1.0
141
8.0
290
     0
  0
SCALE
  5
4D
102
{ACAD_REACTORS
330
47
102
}
330
47
100
AcDbScale
 70
     0
300
1:10
140
1.0
141
10.0
290
     0
  0
SCALE
  5
4E
102
{ACAD_REACTORS
330
47
102
}
330
47
100
AcDbScale
 70
     0
300
1:16
140
1.0
141
16.0
290
     0
  0
SCALE
  5
4F
102
{ACAD_REACTORS
330
47
102
}
330
47
100
AcDbScale
 70
     0
300
1:20
140
1.0
141
20.0
290
     0
  0
SCALE
  5
50
102
{ACAD_REACTORS
330
47
102
}
330
47
100
AcDbScale
 70
     0
300
1:30
140
1.0
141
30.0
290
     0
  0
SCALE
  5
51
102
{ACAD_REACTORS
330
47
102
}
330
47
100
AcDbScale
 70
     0
300
1:40
140
1.0
141
40.0
290
     0
  0
SCALE
  5
52
102
{ACAD_REACTORS
330
47
102
}
330
47
100
AcDbScale
 70
     0
300
1:50
140
1.0
141
50.0
290
     0
  0
SCALE
  5
53
102
{ACAD_REACTORS
330
47
102
}
330
47
100
AcDbScale
 70
     0
300
1:100
140
1.0
141
100.0
290
     0
  0
SCALE
  5
54
102
{ACAD_REACTORS
330
47
102
}
330
47
100
AcDbScale
 70
     0
300
2:1
140
2.0
141
1.0
290
     0
  0
SCALE
  5
55
102
{ACAD_REACTORS
330
47
102
}
330
47
100
AcDbScale
 70
     0
300
4:1
140
4.0
141
1.0
290
     0
  0
SCALE
  5
56
102
{ACAD_REACTORS
330
47
102
}
330
47
100
AcDbScale
 70
     0
300
8:1
140
8.0
141
1.0
290
     0
  0
SCALE
  5
57
102
{ACAD_REACTORS
330
47
102
}
330
47
100
AcDbScale
 70
     0
300
10:1
140
10.0
141
1.0
290
     0
  0
SCALE
  5
58
102
{ACAD_REACTORS
330
47
102
}
330
47
100
AcDbScale
 70
     0
300
100:1
140
100.0
141
1.0
290
     0
  0
SCALE
  5
59
102
{ACAD_REACTORS
330
47
102
}
330
47
100
AcDbScale
 70
     0
300
1/128" = 1'-0"
140
0.0078125
141
12.0
290
     0
  0
SCALE
  5
5A
102
{ACAD_REACTORS
330
47
102
}
330
47
100
AcDbScale
 70
     0
300
1/64" = 1'-0"
140
0.015625
141
12.0
290
     0
  0
SCALE
  5
5B
102
{ACAD_REACTORS
330
47
102
}
330
47
100
AcDbScale
 70
     0
300
1/32" = 1'-0"
140
0.03125
141
12.0
290
     0
  0
SCALE
  5
5C
102
{ACAD_REACTORS
330
47
102
}
330
47
100
AcDbScale
 70
     0
300
1/16" = 1'-0"
140
0.0625
141
12.0
290
     0
  0
SCALE
  5
5D
102
{ACAD_REACTORS
330
47
102
}
330
47
100
AcDbScale
 70
     0
300
3/32" = 1'-0"
140
0.09375
141
12.0
290
     0
  0
SCALE
  5
5E
102
{ACAD_REACTORS
330
47
102
}
330
47
100
AcDbScale
 70
     0
300
1/8" = 1'-0"
140
0.125
141
12.0
290
     0
  0
SCALE
  5
5F
102
{ACAD_REACTORS
330
47
102
}
330
47
100
AcDbScale
 70
     0
300
3/16" = 1'-0"
140
0.1875
141
12.0
290
     0
  0
SCALE
  5
60
102
{ACAD_REACTORS
330
47
102
}
330
47
100
AcDbScale
 70
     0
300
1/4" = 1'-0"
140
0.25
141
12.0
290
     0
  0
SCALE
  5
61
102
{ACAD_REACTORS
330
47
102
}
330
47
100
AcDbScale
 70
     0
300
3/8" = 1'-0"
140
0.375
141
12.0
290
     0
  0
SCALE
  5
62
102
{ACAD_REACTORS
330
47
102
}
330
47
100
AcDbScale
 70
     0
300
1/2" = 1'-0"
140
0.5
141
12.0
290
     0
  0
SCALE
  5
63
102
{ACAD_REACTORS
330
47
102
}
330
47
100
AcDbScale
 70
     0
300
3/4" = 1'-0"
140
0.75
141
12.0
290
     0
  0
SCALE
  5
64
102
{ACAD_REACTORS
330
47
102
}
330
47
100
AcDbScale
 70
     0
300
1" = 1'-0"
140
1.0
141
12.0
290
     0
  0
SCALE
  5
65
102
{ACAD_REACTORS
330
47
102
}
330
47
100
AcDbScale
 70
     0
300
1-1/2" = 1'-0"
140
1.5
141
12.0
290
     0
  0
SCALE
  5
66
102
{ACAD_REACTORS
330
47
102
}
330
47
100
AcDbScale
 70
     0
300
3" = 1'-0"
140
3.0
141
12.0
290
     0
  0
SCALE
  5
67
102
{ACAD_REACTORS
330
47
102
}
330
47
100
AcDbScale
 70
     0
300
6" = 1'-0"
140
6.0
141
12.0
290
     0
  0
SCALE
  5
68
102
{ACAD_REACTORS
330
47
102
}
330
47
100
AcDbScale
 70
     0
300
1'-0" = 1'-0"
140
12.0
141
12.0
290
     0
  0
TABLESTYLE
  5
6A
102
{ACAD_REACTORS
330
69
102
}
102
{ACAD_XDICTIONARY
360
199
102
}
330
69
100
AcDbTableStyle
  3
Standard
 70
     0
 71
     0
 40
0.06
 41
0.06
280
     0
281
     0
  7
Standard
140
0.18
170
     2
 62
     0
 63
   257
283
     0
 90
        4
 91
        0
  1

274
    -2
284
     1
 64
     0
275
    -2
285
     1
 65
     0
276
    -2
286
     1
 66
     0
277
    -2
287
     1
 67
     0
278
    -2
288
     1
 68
     0
279
    -2
289
     1
 69
     0
  7
Standard
140
0.25
170
     5
 62
     0
 63
   257
283
     0
 90
        4
 91
        0
  1

274
    -2
284
     1
 64
     0
275
    -2
285
     1
 65
     0
276
    -2
286
     1
 66
     0
277
    -2
287
     1
 67
     0
278
    -2
288
     1
 68
     0
279
    -2
289
     1
 69
     0
  7
Standard
140
0.18
170
     5
 62
     0
 63
   257
283
     0
 90
        4
 91
        0
  1

274
    -2
284
     1
 64
     0
275
    -2
285
     1
 65
     0
276
    -2
286
     1
 66
     0
277
    -2
287
     1
 67
     0
278
    -2
288
     1
 68
     0
279
    -2
289
     1
 69
     0
  0
VISUALSTYLE
  5
2F
102
{ACAD_REACTORS
330
2A
102
}
330
2A
100
AcDbVisualStyle
  2
2dWireframe
 70
     4
177
     3
291
     0
 70
    58
 90
        0
176
     1
 90
        2
176
     1
 90
        0
176
     1
 90
        0
176
     1
 40
0.6
176
     1
 40
30.0
176
     1
 62
     7
420
 16777215
176
     1
 90
        1
176
     1
 90
        4
176
     1
 62
     7
176
     1
 62
   257
176
     1
 90
        1
176
     1
 90
        1
176
     1
 40
1.0
176
     1
 90
        0
176
     1
 62
   257
176
     1
 40
1.0
176
     1
 90
        1
176
     1
 90
        6
176
     1
 90
        2
176
     1
 62
     7
176
     1
 90
        5
176
     1
 90
        0
176
     1
 90
        0
176
     1
290
     0
176
     1
 90
        1
176
     1
 40
0.0
176
     1
 90
        0
176
     1
290
     1
176
     1
290
     1
176
     1
290
     0
176
     1
290
     0
176
     1
290
     0
176
     1
290
     0
176
     1
290
     0
176
     1
290
     0
176
     1
290
     0
176
     1
 90
       50
176
     1
 40
0.0
176
     1
 40
1.0
176
     1
 90
        0
176
     1
 62
    18
420
        0
176
     1
 90
       50
176
     1
 90
        3
176
     1
 62
     5
420
      255
176
     1
290
     0
176
     1
 90
       50
176
     1
 90
       50
176
     1
 90
       50
176
     1
290
     0
176
     1
 90
       50
176
     1
 62
   256
176
     0
 40
1.0
176
     0
 90
        2
176
     1
  1
strokes_ogs.tif
176
     1
290
     0
176
     1
 40
1.0
176
     1
 40
1.0
176
     1
  0
VISUALSTYLE
  5
32
102
{ACAD_REACTORS
330
2A
102
}
330
2A
100
AcDbVisualStyle
  2
Basic
 70
     7
177
     3
291
     1
 70
    58
 90
        1
176
     1
 90
        0
176
     1
 90
        1
176
     1
 90
        0
176
     1
 40
0.6
176
     1
 40
30.0
176
     1
 62
     7
420
 16777215
176
     1
 90
        0
176
     1
 90
        4
176
     1
 62
     7
176
     1
 62
   257
176
     1
 90
        1
176
     1
 90
        1
176
     1
 40
1.0
176
     1
 90
        8
176
     1
 62
     7
176
     1
 40
1.0
176
     1
 90
        1
176
     1
 90
        6
176
     1
 90
        2
176
     1
 62
     7
176
     1
 90
        5
176
     1
 90
        0
176
     1
 90
        0
176
     1
290
     0
176
     1
 90
        1
176
     1
 40
0.0
176
     1
 90
        0
176
     1
290
     0
176
     1
290
     1
176
     1
290
     1
176
     1
290
     0
176
     1
290
     0
176
     1
290
     0
176
     1
290
     0
176
     1
290
     0
176
     1
290
     0
176
     1
 90
       50
176
     1
 40
0.0
176
     1
 40
1.0
176
     1
 90
        0
176
     1
 62
    18
420
        0
176
     1
 90
       50
176
     1
 90
        3
176
     1
 62
     5
420
      255
176
     1
290
     0
176
     1
 90
       50
176
     1
 90
       50
176
     1
 90
       50
176
     1
290
     0
176
     1
 90
       50
176
     1
 62
   256
176
     0
 40
1.0
176
     0
 90
        2
176
     1
  1
strokes_ogs.tif
176
     1
290
     0
176
     1
 40
1.0
176
     1
 40
1.0
176
     1
  0
VISUALSTYLE
  5
36
102
{ACAD_REACTORS
330
2A
102
}
330
2A
100
AcDbVisualStyle
  2
Brighten
 70
    12
177
     3
291
     1
 70
    58
 90
        2
176
     1
 90
        2
176
     1
 90
        0
176
     1
 90
        0
176
     1
 40
0.6
176
     1
 40
30.0
176
     1
 62
     7
420
 16777215
176
     1
 90
        1
176
     1
 90
        4
176
     1
 62
     7
176
     1
 62
   257
176
     1
 90
        1
176
     1
 90
        1
176
     1
 40
1.0
176
     1
 90
        8
176
     1
 62
     7
176
     1
 40
1.0
176
     1
 90
        1
176
     1
 90
        6
176
     1
 90
        2
176
     1
 62
     7
176
     1
 90
        5
176
     1
 90
        0
176
     1
 90
        0
176
     1
290
     0
176
     1
 90
        1
176
     1
 40
50.0
176
     1
 90
        0
176
     1
290
     0
176
     1
290
     1
176
     1
290
     1
176
     1
290
     0
176
     1
290
     0
176
     1
290
     0
176
     1
290
     0
176
     1
290
     0
176
     1
290
     0
176
     1
 90
       50
176
     1
 40
0.0
176
     1
 40
1.0
176
     1
 90
        0
176
     1
 62
    18
420
        0
176
     1
 90
       50
176
     1
 90
        3
176
     1
 62
     5
420
      255
176
     1
290
     0
176
     1
 90
       50
176
     1
 90
       50
176
     1
 90
       50
176
     1
290
     0
176
     1
 90
       50
176
     1
 62
   256
176
     0
 40
1.0
176
     0
 90
        2
176
     1
  1
strokes_ogs.tif
176
     1
290
     0
176
     1
 40
1.0
176
     1
 40
1.0
176
     1
  0
VISUALSTYLE
  5
3A
102
{ACAD_REACTORS
330
2A
102
}
330
2A
100
AcDbVisualStyle
  2
ColorChange
 70
    16
177
     3
291
     1
 70
    58
 90
        2
176
     1
 90
        2
176
     1
 90
        3
176
     1
 90
        0
176
     1
 40
0.6
176
     1
 40
30.0
176
     1
 62
     8
420
  8421504
176
     1
 90
        1
176
     1
 90
        4
176
     1
 62
     7
176
     1
 62
   257
176
     1
 90
        1
176
     1
 90
        1
176
     1
 40
1.0
176
     1
 90
        8
176
     1
 62
     8
420
  8421504
176
     1
 40
1.0
176
     1
 90
        1
176
     1
 90
        6
176
     1
 90
        2
176
     1
 62
     7
176
     1
 90
        5
176
     1
 90
        0
176
     1
 90
        0
176
     1
290
     0
176
     1
 90
        1
176
     1
 40
0.0
176
     1
 90
        0
176
     1
290
     0
176
     1
290
     1
176
     1
290
     1
176
     1
290
     0
176
     1
290
     0
176
     1
290
     0
176
     1
290
     0
176
     1
290
     0
176
     1
290
     0
176
     1
 90
       50
176
     1
 40
0.0
176
     1
 40
1.0
176
     1
 90
        0
176
     1
 62
    18
420
        0
176
     1
 90
       50
176
     1
 90
        3
176
     1
 62
     5
420
      255
176
     1
290
     0
176
     1
 90
       50
176
     1
 90
       50
176
     1
 90
       50
176
     1
290
     0
176
     1
 90
       50
176
     1
 62
   256
176
     0
 40
1.0
176
     0
 90
        2
176
     1
  1
strokes_ogs.tif
176
     1
290
     0
176
     1
 40
1.0
176
     1
 40
1.0
176
     1
  0
VISUALSTYLE
  5
34
102
{ACAD_REACTORS
330
2A
102
}
330
2A
100
AcDbVisualStyle
  2
Conceptual
 70
     9
177
     3
291
     0
 70
    58
 90
        3
176
     1
 90
        2
176
     1
 90
        0
176
     1
 90
        0
176
     1
 40
0.6
176
     1
 40
30.0
176
     1
 62
     7
420
 16777215
176
     1
 90
        2
176
     1
 90
        2
176
     1
 62
     7
176
     1
 62
   257
176
     1
 90
        1
176
     1
 90
        1
176
     1
 40
179.0
176
     1
 90
        8
176
     1
 62
     7
176
     1
 40
1.0
176
     1
 90
        1
176
     1
 90
        6
176
     1
 90
        2
176
     1
 62
     7
176
     1
 90
        3
176
     1
 90
        0
176
     1
 90
        0
176
     1
290
     0
176
     1
 90
        1
176
     1
 40
0.0
176
     1
 90
        0
176
     1
290
     0
176
     1
290
     1
176
     1
290
     1
176
     1
290
     0
176
     1
290
     0
176
     1
290
     0
176
     1
290
     0
176
     1
290
     0
176
     1
290
     0
176
     1
 90
       50
176
     1
 40
0.0
176
     1
 40
1.0
176
     1
 90
        0
176
     1
 62
    18
420
        0
176
     1
 90
       50
176
     1
 90
        3
176
     1
 62
     5
420
      255
176
     1
290
     0
176
     1
 90
       50
176
     1
 90
       50
176
     1
 90
       50
176
     1
290
     0
176
     1
 90
       50
176
     1
 62
   256
176
     0
 40
1.0
176
     0
 90
        2
176
     1
  1
strokes_ogs.tif
176
     1
290
     0
176
     1
 40
1.0
176
     1
 40
1.0
176
     1
  0
VISUALSTYLE
  5
35
102
{ACAD_REACTORS
330
2A
102
}
330
2A
100
AcDbVisualStyle
  2
Dim
 70
    11
177
     3
291
     1
 70
    58
 90
        2
176
     1
 90
        2
176
     1
 90
        0
176
     1
 90
        0
176
     1
 40
0.6
176
     1
 40
30.0
176
     1
 62
     7
420
 16777215
176
     1
 90
        1
176
     1
 90
        4
176
     1
 62
     7
176
     1
 62
   257
176
     1
 90
        1
176
     1
 90
        1
176
     1
 40
1.0
176
     1
 90
        8
176
     1
 62
     7
176
     1
 40
1.0
176
     1
 90
        1
176
     1
 90
        6
176
     1
 90
        2
176
     1
 62
     7
176
     1
 90
        5
176
     1
 90
        0
176
     1
 90
        0
176
     1
290
     0
176
     1
 90
        1
176
     1
 40
-50.0
176
     1
 90
        0
176
     1
290
     0
176
     1
290
     1
176
     1
290
     1
176
     1
290
     0
176
     1
290
     0
176
     1
290
     0
176
     1
290
     0
176
     1
290
     0
176
     1
290
     0
176
     1
 90
       50
176
     1
 40
0.0
176
     1
 40
1.0
176
     1
 90
        0
176
     1
 62
    18
420
        0
176
     1
 90
       50
176
     1
 90
        3
176
     1
 62
     5
420
      255
176
     1
290
     0
176
     1
 90
       50
176
     1
 90
       50
176
     1
 90
       50
176
     1
290
     0
176
     1
 90
       50
176
     1
 62
   256
176
     0
 40
1.0
176
     0
 90
        2
176
     1
  1
strokes_ogs.tif
176
     1
290
     0
176
     1
 40
1.0
176
     1
 40
1.0
176
     1
  0
VISUALSTYLE
  5
3D
102
{ACAD_REACTORS
330
2A
102
}
330
2A
100
AcDbVisualStyle
  2
EdgeColorOff
 70
    22
177
     3
291
     1
 70
    58
 90
        2
176
     0
 90
        2
176
     0
 90
        0
176
     0
 90
        0
176
     0
 40
0.6
176
     0
 40
30.0
176
     0
 62
     7
420
 16777215
176
     0
 90
        1
176
     0
 90
        4
176
     0
 62
     7
176
     0
 62
   257
176
     0
 90
        1
176
     0
 90
        1
176
     0
 40
1.0
176
     0
 90
        8
176
     2
 62
     7
176
     0
 40
1.0
176
     0
 90
        1
176
     0
 90
        6
176
     0
 90
        2
176
     0
 62
     7
176
     0
 90
        5
176
     0
 90
        0
176
     0
 90
        0
176
     0
290
     0
176
     0
 90
        1
176
     0
 40
0.0
176
     0
 90
        0
176
     0
290
     0
176
     0
290
     1
176
     0
290
     1
176
     0
290
     0
176
     0
290
     0
176
     0
290
     0
176
     0
290
     0
176
     0
290
     0
176
     0
290
     0
176
     0
 90
       50
176
     0
 40
0.0
176
     0
 40
1.0
176
     0
 90
        0
176
     0
 62
    18
420
        0
176
     0
 90
       50
176
     0
 90
        3
176
     0
 62
     5
420
      255
176
     0
290
     0
176
     0
 90
       50
176
     0
 90
       50
176
     0
 90
       50
176
     0
290
     0
176
     0
 90
       50
176
     0
 62
   256
176
     0
 40
1.0
176
     0
 90
        2
176
     0
  1
strokes_ogs.tif
176
     0
290
     0
176
     0
 40
1.0
176
     0
 40
1.0
176
     0
  0
VISUALSTYLE
  5
39
102
{ACAD_REACTORS
330
2A
102
}
330
2A
100
AcDbVisualStyle
  2
Facepattern
 70
    15
177
     3
291
     1
 70
    58
 90
        2
176
     1
 90
        2
176
     1
 90
        0
176
     1
 90
        0
176
     1
 40
0.6
176
     1
 40
30.0
176
     1
 62
     7
420
 16777215
176
     1
 90
        1
176
     1
 90
        4
176
     1
 62
     7
176
     1
 62
   257
176
     1
 90
        1
176
     1
 90
        1
176
     1
 40
1.0
176
     1
 90
        8
176
     1
 62
     7
176
     1
 40
1.0
176
     1
 90
        1
176
     1
 90
        6
176
     1
 90
        2
176
     1
 62
     7
176
     1
 90
        5
176
     1
 90
        0
176
     1
 90
        0
176
     1
290
     0
176
     1
 90
        1
176
     1
 40
0.0
176
     1
 90
        0
176
     1
290
     0
176
     1
290
     1
176
     1
290
     1
176
     1
290
     0
176
     1
290
     0
176
     1
290
     0
176
     1
290
     0
176
     1
290
     0
176
     1
290
     0
176
     1
 90
       50
176
     1
 40
0.0
176
     1
 40
1.0
176
     1
 90
        0
176
     1
 62
    18
420
        0
176
     1
 90
       50
176
     1
 90
        3
176
     1
 62
     5
420
      255
176
     1
290
     0
176
     1
 90
       50
176
     1
 90
       50
176
     1
 90
       50
176
     1
290
     0
176
     1
 90
       50
176
     1
 62
   256
176
     0
 40
1.0
176
     0
 90
        2
176
     1
  1
strokes_ogs.tif
176
     1
290
     0
176
     1
 40
1.0
176
     1
 40
1.0
176
     1
  0
VISUALSTYLE
  5
2B
102
{ACAD_REACTORS
330
2A
102
}
330
2A
100
AcDbVisualStyle
  2
Flat
 70
     0
177
     3
291
     1
 70
    58
 90
        2
176
     1
 90
        1
176
     1
 90
        1
176
     1
 90
        2
176
     1
 40
0.6
176
     1
 40
30.0
176
     1
 62
     7
420
 16777215
176
     1
 90
        0
176
     1
 90
        0
176
     1
 62
     7
176
     1
 62
   257
176
     1
 90
        1
176
     1
 90
        1
176
     1
 40
1.0
176
     1
 90
        8
176
     1
 62
     7
176
     1
 40
1.0
176
     1
 90
        1
176
     1
 90
        6
176
     1
 90
        2
176
     1
 62
     7
176
     1
 90
        5
176
     1
 90
        0
176
     1
 90
        0
176
     1
290
     0
176
     1
 90
       13
176
     1
 40
0.0
176
     1
 90
        0
176
     1
290
     0
176
     1
290
     1
176
     1
290
     1
176
     1
290
     0
176
     1
290
     0
176
     1
290
     0
176
     1
290
     0
176
     1
290
     0
176
     1
290
     0
176
     1
 90
       50
176
     1
 40
0.0
176
     1
 40
1.0
176
     1
 90
        0
176
     1
 62
    18
420
        0
176
     1
 90
       50
176
     1
 90
        3
176
     1
 62
     5
420
      255
176
     1
290
     0
176
     1
 90
       50
176
     1
 90
       50
176
     1
 90
       50
176
     1
290
     0
176
     1
 90
       50
176
     1
 62
   256
176
     0
 40
1.0
176
     0
 90
        2
176
     1
  1
strokes_ogs.tif
176
     1
290
     0
176
     1
 40
1.0
176
     1
 40
1.0
176
     1
  0
VISUALSTYLE
  5
2C
102
{ACAD_REACTORS
330
2A
102
}
330
2A
100
AcDbVisualStyle
  2
FlatWithEdges
 70
     1
177
     3
291
     1
 70
    58
 90
        2
176
     1
 90
        1
176
     1
 90
        1
176
     1
 90
        2
176
     1
 40
0.6
176
     1
 40
30.0
176
     1
 62
     7
420
 16777215
176
     1
 90
        1
176
     1
 90
        0
176
     1
 62
     7
176
     1
 62
   257
176
     1
 90
        1
176
     1
 90
        1
176
     1
 40
1.0
176
     1
 90
        0
176
     1
 62
   257
176
     1
 40
1.0
176
     1
 90
        1
176
     1
 90
        6
176
     1
 90
        2
176
     1
 62
     7
176
     1
 90
        5
176
     1
 90
        0
176
     1
 90
        0
176
     1
290
     0
176
     1
 90
       13
176
     1
 40
0.0
176
     1
 90
        0
176
     1
290
     0
176
     1
290
     1
176
     1
290
     1
176
     1
290
     0
176
     1
290
     0
176
     1
290
     0
176
     1
290
     0
176
     1
290
     0
176
     1
290
     0
176
     1
 90
       50
176
     1
 40
0.0
176
     1
 40
1.0
176
     1
 90
        0
176
     1
 62
    18
420
        0
176
     1
 90
       50
176
     1
 90
        3
176
     1
 62
     5
420
      255
176
     1
290
     0
176
     1
 90
       50
176
     1
 90
       50
176
     1
 90
       50
176
     1
290
     0
176
     1
 90
       50
176
     1
 62
   256
176
     0
 40
1.0
176
     0
 90
        2
176
     1
  1
strokes_ogs.tif
176
     1
290
     0
176
     1
 40
1.0
176
     1
 40
1.0
176
     1
  0
VISUALSTYLE
  5
2D
102
{ACAD_REACTORS
330
2A
102
}
330
2A
100
AcDbVisualStyle
  2
Gouraud
 70
     2
177
     3
291
     1
 70
    58
 90
        2
176
     1
 90
        2
176
     1
 90
        1
176
     1
 90
        2
176
     1
 40
0.6
176
     1
 40
30.0
176
     1
 62
     7
420
 16777215
176
     1
 90
        0
176
     1
 90
        0
176
     1
 62
     7
176
     1
 62
   257
176
     1
 90
        1
176
     1
 90
        1
176
     1
 40
1.0
176
     1
 90
        0
176
     1
 62
     7
176
     1
 40
1.0
176
     1
 90
        1
176
     1
 90
        6
176
     1
 90
        2
176
     1
 62
     7
176
     1
 90
        5
176
     1
 90
        0
176
     1
 90
        0
176
     1
290
     0
176
     1
 90
       13
176
     1
 40
0.0
176
     1
 90
        0
176
     1
290
     0
176
     1
290
     1
176
     1
290
     1
176
     1
290
     0
176
     1
290
     0
176
     1
290
     0
176
     1
290
     0
176
     1
290
     0
176
     1
290
     0
176
     1
 90
       50
176
     1
 40
0.0
176
     1
 40
1.0
176
     1
 90
        0
176
     1
 62
    18
420
        0
176
     1
 90
       50
176
     1
 90
        3
176
     1
 62
     5
420
      255
176
     1
290
     0
176
     1
 90
       50
176
     1
 90
       50
176
     1
 90
       50
176
     1
290
     0
176
     1
 90
       50
176
     1
 62
   256
176
     0
 40
1.0
176
     0
 90
        2
176
     1
  1
strokes_ogs.tif
176
     1
290
     0
176
     1
 40
1.0
176
     1
 40
1.0
176
     1
  0
VISUALSTYLE
  5
2E
102
{ACAD_REACTORS
330
2A
102
}
330
2A
100
AcDbVisualStyle
  2
GouraudWithEdges
 70
     3
177
     3
291
     1
 70
    58
 90
        2
176
     1
 90
        2
176
     1
 90
        1
176
     1
 90
        2
176
     1
 40
0.6
176
     1
 40
30.0
176
     1
 62
     7
420
 16777215
176
     1
 90
        1
176
     1
 90
        0
176
     1
 62
     7
176
     1
 62
   257
176
     1
 90
        1
176
     1
 90
        1
176
     1
 40
1.0
176
     1
 90
        0
176
     1
 62
   257
176
     1
 40
1.0
176
     1
 90
        1
176
     1
 90
        6
176
     1
 90
        2
176
     1
 62
     7
176
     1
 90
        5
176
     1
 90
        0
176
     1
 90
        0
176
     1
290
     0
176
     1
 90
       13
176
     1
 40
0.0
176
     1
 90
        0
176
     1
290
     0
176
     1
290
     1
176
     1
290
     1
176
     1
290
     0
176
     1
290
     0
176
     1
290
     0
176
     1
290
     0
176
     1
290
     0
176
     1
290
     0
176
     1
 90
       50
176
     1
 40
0.0
176
     1
 40
1.0
176
     1
 90
        0
176
     1
 62
    18
420
        0
176
     1
 90
       50
176
     1
 90
        3
176
     1
 62
     5
420
      255
176
     1
290
     0
176
     1
 90
       50
176
     1
 90
       50
176
     1
 90
       50
176
     1
290
     0
176
     1
 90
       50
176
     1
 62
   256
176
     0
 40
1.0
176
     0
 90
        2
176
     1
  1
strokes_ogs.tif
176
     1
290
     0
176
     1
 40
1.0
176
     1
 40
1.0
176
     1
  0
VISUALSTYLE
  5
31
102
{ACAD_REACTORS
330
2A
102
}
330
2A
100
AcDbVisualStyle
  2
Hidden
 70
     6
177
     3
291
     0
 70
    58
 90
        1
176
     1
 90
        2
176
     1
 90
        2
176
     1
 90
        0
176
     1
 40
0.6
176
     1
 40
30.0
176
     1
 62
     7
420
 16777215
176
     1
 90
        2
176
     1
 90
        2
176
     1
 62
     7
176
     1
 62
   257
176
     1
 90
        2
176
     1
 90
        1
176
     1
 40
40.0
176
     1
 90
        0
176
     1
 62
   257
176
     1
 40
1.0
176
     1
 90
        1
176
     1
 90
        6
176
     1
 90
        2
176
     1
 62
     7
176
     1
 90
        3
176
     1
 90
        0
176
     1
 90
        0
176
     1
290
     0
176
     1
 90
        1
176
     1
 40
0.0
176
     1
 90
        0
176
     1
290
     0
176
     1
290
     1
176
     1
290
     1
176
     1
290
     0
176
     1
290
     0
176
     1
290
     0
176
     1
290
     0
176
     1
290
     0
176
     1
290
     0
176
     1
 90
       50
176
     1
 40
0.0
176
     1
 40
1.0
176
     1
 90
        0
176
     1
 62
    18
420
        0
176
     1
 90
       50
176
     1
 90
        3
176
     1
 62
     5
420
      255
176
     1
290
     0
176
     1
 90
       50
176
     1
 90
       50
176
     1
 90
       50
176
     1
290
     0
176
     1
 90
       50
176
     1
 62
   256
176
     0
 40
1.0
176
     0
 90
        2
176
     1
  1
strokes_ogs.tif
176
     1
290
     0
176
     1
 40
1.0
176
     1
 40
1.0
176
     1
  0
VISUALSTYLE
  5
3B
102
{ACAD_REACTORS
330
2A
102
}
330
2A
100
AcDbVisualStyle
  2
JitterOff
 70
    20
177
     3
291
     1
 70
    58
 90
        2
176
     0
 90
        2
176
     0
 90
        0
176
     0
 90
        0
176
     0
 40
0.6
176
     0
 40
30.0
176
     0
 62
     7
420
 16777215
176
     0
 90
        1
176
     0
 90
        4
176
     0
 62
     7
176
     0
 62
   257
176
     0
 90
        1
176
     0
 90
        1
176
     0
 40
1.0
176
     0
 90
       10
176
     2
 62
     7
176
     0
 40
1.0
176
     0
 90
        1
176
     0
 90
        6
176
     0
 90
        2
176
     0
 62
     7
176
     0
 90
        5
176
     0
 90
        0
176
     0
 90
        0
176
     0
290
     0
176
     0
 90
        1
176
     0
 40
0.0
176
     0
 90
        0
176
     0
290
     0
176
     0
290
     1
176
     0
290
     1
176
     0
290
     0
176
     0
290
     0
176
     0
290
     0
176
     0
290
     0
176
     0
290
     0
176
     0
290
     0
176
     0
 90
       50
176
     0
 40
0.0
176
     0
 40
1.0
176
     0
 90
        0
176
     0
 62
    18
420
        0
176
     0
 90
       50
176
     0
 90
        3
176
     0
 62
     5
420
      255
176
     0
290
     0
176
     0
 90
       50
176
     0
 90
       50
176
     0
 90
       50
176
     0
290
     0
176
     0
 90
       50
176
     0
 62
   256
176
     0
 40
1.0
176
     0
 90
        2
176
     0
  1
strokes_ogs.tif
176
     0
290
     0
176
     0
 40
1.0
176
     0
 40
1.0
176
     0
  0
VISUALSTYLE
  5
38
102
{ACAD_REACTORS
330
2A
102
}
330
2A
100
AcDbVisualStyle
  2
Linepattern
 70
    14
177
     3
291
     1
 70
    58
 90
        2
176
     1
 90
        2
176
     1
 90
        0
176
     1
 90
        0
176
     1
 40
0.6
176
     1
 40
30.0
176
     1
 62
     7
420
 16777215
176
     1
 90
        1
176
     1
 90
        4
176
     1
 62
     7
176
     1
 62
   257
176
     1
 90
        7
176
     1
 90
        7
176
     1
 40
1.0
176
     1
 90
        8
176
     1
 62
     7
176
     1
 40
1.0
176
     1
 90
        1
176
     1
 90
        6
176
     1
 90
        2
176
     1
 62
     7
176
     1
 90
        5
176
     1
 90
        0
176
     1
 90
        0
176
     1
290
     0
176
     1
 90
        1
176
     1
 40
0.0
176
     1
 90
        0
176
     1
290
     0
176
     1
290
     1
176
     1
290
     1
176
     1
290
     0
176
     1
290
     0
176
     1
290
     0
176
     1
290
     0
176
     1
290
     0
176
     1
290
     0
176
     1
 90
       50
176
     1
 40
0.0
176
     1
 40
1.0
176
     1
 90
        0
176
     1
 62
    18
420
        0
176
     1
 90
       50
176
     1
 90
        3
176
     1
 62
     5
420
      255
176
     1
290
     0
176
     1
 90
       50
176
     1
 90
       50
176
     1
 90
       50
176
     1
290
     0
176
     1
 90
       50
176
     1
 62
   256
176
     0
 40
1.0
176
     0
 90
        2
176
     1
  1
strokes_ogs.tif
176
     1
290
     0
176
     1
 40
1.0
176
     1
 40
1.0
176
     1
  0
VISUALSTYLE
  5
3C
102
{ACAD_REACTORS
330
2A
102
}
330
2A
100
AcDbVisualStyle
  2
OverhangOff
 70
    21
177
     3
291
     1
 70
    58
 90
        2
176
     0
 90
        2
176
     0
 90
        0
176
     0
 90
        0
176
     0
 40
0.6
176
     0
 40
30.0
176
     0
 62
     7
420
 16777215
176
     0
 90
        1
176
     0
 90
        4
176
     0
 62
     7
176
     0
 62
   257
176
     0
 90
        1
176
     0
 90
        1
176
     0
 40
1.0
176
     0
 90
        9
176
     2
 62
     7
176
     0
 40
1.0
176
     0
 90
        1
176
     0
 90
        6
176
     0
 90
        2
176
     0
 62
     7
176
     0
 90
        5
176
     0
 90
        0
176
     0
 90
        0
176
     0
290
     0
176
     0
 90
        1
176
     0
 40
0.0
176
     0
 90
        0
176
     0
290
     0
176
     0
290
     1
176
     0
290
     1
176
     0
290
     0
176
     0
290
     0
176
     0
290
     0
176
     0
290
     0
176
     0
290
     0
176
     0
290
     0
176
     0
 90
       50
176
     0
 40
0.0
176
     0
 40
1.0
176
     0
 90
        0
176
     0
 62
    18
420
        0
176
     0
 90
       50
176
     0
 90
        3
176
     0
 62
     5
420
      255
176
     0
290
     0
176
     0
 90
       50
176
     0
 90
       50
176
     0
 90
       50
176
     0
290
     0
176
     0
 90
       50
176
     0
 62
   256
176
     0
 40
1.0
176
     0
 90
        2
176
     0
  1
strokes_ogs.tif
176
     0
290
     0
176
     0
 40
1.0
176
     0
 40
1.0
176
     0
  0
VISUALSTYLE
  5
33
102
{ACAD_REACTORS
330
2A
102
}
330
2A
100
AcDbVisualStyle
  2
Realistic
 70
     8
177
     3
291
     0
 70
    58
 90
        2
176
     1
 90
        3
176
     1
 90
        0
176
     1
 90
        2
176
     1
 40
0.6
176
     1
 40
30.0
176
     1
 62
     7
420
 16777215
176
     1
 90
        0
176
     1
 90
        0
176
     1
 62
     7
176
     1
 62
   257
176
     1
 90
        1
176
     1
 90
        1
176
     1
 40
1.0
176
     1
 90
        8
176
     1
 62
   257
176
     1
 40
1.0
176
     1
 90
        1
176
     1
 90
        6
176
     1
 90
        2
176
     1
 62
     7
176
     1
 90
        3
176
     1
 90
        0
176
     1
 90
        0
176
     1
290
     0
176
     1
 90
       13
176
     1
 40
0.0
176
     1
 90
        0
176
     1
290
     0
176
     1
290
     1
176
     1
290
     1
176
     1
290
     0
176
     1
290
     0
176
     1
290
     0
176
     1
290
     0
176
     1
290
     0
176
     1
290
     0
176
     1
 90
       50
176
     1
 40
0.0
176
     1
 40
1.0
176
     1
 90
        0
176
     1
 62
    18
420
        0
176
     1
 90
       50
176
     1
 90
        3
176
     1
 62
     5
420
      255
176
     1
290
     0
176
     1
 90
       50
176
     1
 90
       50
176
     1
 90
       50
176
     1
290
     0
176
     1
 90
       50
176
     1
 62
   256
176
     0
 40
1.0
176
     0
 90
        2
176
     1
  1
strokes_ogs.tif
176
     1
290
     0
176
     1
 40
1.0
176
     1
 40
1.0
176
     1
  0
VISUALSTYLE
  5
42
102
{ACAD_REACTORS
330
2A
102
}
330
2A
100
AcDbVisualStyle
  2
Shaded
 70
    27
177
     3
291
     0
 70
    58
 90
        2
176
     1
 90
        2
176
     1
 90
        1
176
     1
 90
        2
176
     1
 40
0.6
176
     1
 40
30.0
176
     1
 62
     7
420
 16777215
176
     1
 90
        0
176
     1
 90
        4
176
     1
 62
     7
176
     1
 62
   257
176
     1
 90
        1
176
     1
 90
        1
176
     1
 40
1.0
176
     1
 90
        8
176
     1
 62
   257
176
     1
 40
1.0
176
     1
 90
        1
176
     1
 90
        6
176
     1
 90
        2
176
     1
 62
     8
420
  7895160
176
     1
 90
        3
176
     1
 90
        0
176
     1
 90
        0
176
     1
290
     0
176
     1
 90
        5
176
     1
 40
0.0
176
     1
 90
        0
176
     1
290
     0
176
     1
290
     1
176
     1
290
     1
176
     1
290
     0
176
     1
290
     0
176
     1
290
     0
176
     1
290
     0
176
     1
290
     0
176
     1
290
     0
176
     1
 90
       50
176
     1
 40
0.0
176
     1
 40
1.0
176
     1
 90
        0
176
     1
 62
    18
420
        0
176
     1
 90
       50
176
     1
 90
        3
176
     1
 62
     5
420
      255
176
     1
290
     0
176
     1
 90
       50
176
     1
 90
       50
176
     1
 90
       50
176
     1
290
     0
176
     1
 90
       50
176
     1
 62
   256
176
     0
 40
1.0
176
     0
 90
        2
176
     1
  1
strokes_ogs.tif
176
     1
290
     0
176
     1
 40
1.0
176
     1
 40
1.0
176
     1
  0
VISUALSTYLE
  5
41
102
{ACAD_REACTORS
330
2A
102
}
330
2A
100
AcDbVisualStyle
  2
Shaded with edges
 70
    26
177
     3
291
     0
 70
    58
 90
        2
176
     1
 90
        2
176
     1
 90
        1
176
     1
 90
        2
176
     1
 40
0.6
176
     1
 40
30.0
176
     1
 62
     7
420
 16777215
176
     1
 90
        1
176
     1
 90
       10
176
     1
 62
     7
176
     1
 62
   257
176
     1
 90
        2
176
     1
 90
        1
176
     1
 40
1.0
176
     1
 90
        8
176
     1
 62
   257
176
     1
 40
1.0
176
     1
 90
        1
176
     1
 90
        6
176
     1
 90
        2
176
     1
 62
     7
176
     1
 90
        3
176
     1
 90
        0
176
     1
 90
        0
176
     1
290
     0
176
     1
 90
        5
176
     1
 40
0.0
176
     1
 90
        0
176
     1
290
     0
176
     1
290
     1
176
     1
290
     1
176
     1
290
     0
176
     1
290
     0
176
     1
290
     0
176
     1
290
     0
176
     1
290
     0
176
     1
290
     0
176
     1
 90
       50
176
     1
 40
0.0
176
     1
 40
1.0
176
     1
 90
        0
176
     1
 62
    18
420
        0
176
     1
 90
       50
176
     1
 90
        3
176
     1
 62
     5
420
      255
176
     1
290
     0
176
     1
 90
       50
176
     1
 90
       50
176
     1
 90
       50
176
     1
290
     0
176
     1
 90
       50
176
     1
 62
   256
176
     0
 40
1.0
176
     0
 90
        2
176
     1
  1
strokes_ogs.tif
176
     1
290
     0
176
     1
 40
1.0
176
     1
 40
1.0
176
     1
  0
VISUALSTYLE
  5
3E
102
{ACAD_REACTORS
330
2A
102
}
330
2A
100
AcDbVisualStyle
  2
Shades of Gray
 70
    23
177
     3
291
     0
 70
    58
 90
        2
176
     1
 90
        2
176
     1
 90
        3
176
     1
 90
        0
176
     1
 40
0.6
176
     1
 40
30.0
176
     1
 62
     7
420
 16777215
176
     1
 90
        2
176
     1
 90
        2
176
     1
 62
     7
176
     1
 62
     7
176
     1
 90
        1
176
     1
 90
        1
176
     1
 40
40.0
176
     1
 90
        8
176
     1
 62
     7
176
     1
 40
1.0
176
     1
 90
        1
176
     1
 90
        6
176
     1
 90
        2
176
     1
 62
     7
176
     1
 90
        3
176
     1
 90
        0
176
     1
 90
        0
176
     1
290
     0
176
     1
 90
        1
176
     1
 40
0.0
176
     1
 90
        0
176
     1
290
     0
176
     1
290
     1
176
     1
290
     1
176
     1
290
     0
176
     1
290
     0
176
     1
290
     0
176
     1
290
     0
176
     1
290
     0
176
     1
290
     0
176
     1
 90
       50
176
     1
 40
0.0
176
     1
 40
1.0
176
     1
 90
        0
176
     1
 62
    18
420
        0
176
     1
 90
       50
176
     1
 90
        3
176
     1
 62
     5
420
      255
176
     1
290
     0
176
     1
 90
       50
176
     1
 90
       50
176
     1
 90
       50
176
     1
290
     0
176
     1
 90
       50
176
     1
 62
   256
176
     0
 40
1.0
176
     0
 90
        2
176
     1
  1
strokes_ogs.tif
176
     1
290
     0
176
     1
 40
1.0
176
     1
 40
1.0
176
     1
  0
VISUALSTYLE
  5
3F
102
{ACAD_REACTORS
330
2A
102
}
330
2A
100
AcDbVisualStyle
  2
Sketchy
 70
    24
177
     3
291
     0
 70
    58
 90
        1
176
     1
 90
        2
176
     1
 90
        2
176
     1
 90
        0
176
     1
 40
0.6
176
     1
 40
30.0
176
     1
 62
     7
420
 16777215
176
     1
 90
        2
176
     1
 90
        2
176
     1
 62
     7
176
     1
 62
     7
176
     1
 90
        1
176
     1
 90
        1
176
     1
 40
40.0
176
     1
 90
       11
176
     1
 62
     7
176
     1
 40
1.0
176
     1
 90
        1
176
     1
 90
        6
176
     1
 90
        2
176
     1
 62
     7
176
     1
 90
        6
176
     1
 90
        0
176
     1
 90
        0
176
     1
290
     0
176
     1
 90
        1
176
     1
 40
0.0
176
     1
 90
        0
176
     1
290
     0
176
     1
290
     1
176
     1
290
     1
176
     1
290
     0
176
     1
290
     0
176
     1
290
     0
176
     1
290
     0
176
     1
290
     0
176
     1
290
     0
176
     1
 90
       50
176
     1
 40
0.0
176
     1
 40
1.0
176
     1
 90
        0
176
     1
 62
    18
420
        0
176
     1
 90
       50
176
     1
 90
        3
176
     1
 62
     5
420
      255
176
     1
290
     0
176
     1
 90
       50
176
     1
 90
       50
176
     1
 90
       50
176
     1
290
     0
176
     1
 90
       50
176
     1
 62
   256
176
     0
 40
1.0
176
     0
 90
        2
176
     1
  1
strokes_ogs.tif
176
     1
290
     0
176
     1
 40
1.0
176
     1
 40
1.0
176
     1
  0
VISUALSTYLE
  5
37
102
{ACAD_REACTORS
330
2A
102
}
330
2A
100
AcDbVisualStyle
  2
Thicken
 70
    13
177
     3
291
     1
 70
    58
 90
        2
176
     1
 90
        2
176
     1
 90
        0
176
     1
 90
        0
176
     1
 40
0.6
176
     1
 40
30.0
176
     1
 62
     7
420
 16777215
176
     1
 90
        1
176
     1
 90
        4
176
     1
 62
     7
176
     1
 62
   257
176
     1
 90
        1
176
     1
 90
        1
176
     1
 40
1.0
176
     1
 90
       12
176
     1
 62
     7
176
     1
 40
1.0
176
     1
 90
        1
176
     1
 90
        6
176
     1
 90
        2
176
     1
 62
     7
176
     1
 90
        5
176
     1
 90
        0
176
     1
 90
        0
176
     1
290
     0
176
     1
 90
        1
176
     1
 40
0.0
176
     1
 90
        0
176
     1
290
     0
176
     1
290
     1
176
     1
290
     1
176
     1
290
     0
176
     1
290
     0
176
     1
290
     0
176
     1
290
     0
176
     1
290
     0
176
     1
290
     0
176
     1
 90
       50
176
     1
 40
0.0
176
     1
 40
1.0
176
     1
 90
        0
176
     1
 62
    18
420
        0
176
     1
 90
       50
176
     1
 90
        3
176
     1
 62
     5
420
      255
176
     1
290
     0
176
     1
 90
       50
176
     1
 90
       50
176
     1
 90
       50
176
     1
290
     0
176
     1
 90
       50
176
     1
 62
   256
176
     0
 40
1.0
176
     0
 90
        2
176
     1
  1
strokes_ogs.tif
176
     1
290
     0
176
     1
 40
1.0
176
     1
 40
1.0
176
     1
  0
VISUALSTYLE
  5
30
102
{ACAD_REACTORS
330
2A
102
}
330
2A
100
AcDbVisualStyle
  2
Wireframe
 70
     5
177
     3
291
     0
 70
    58
 90
        0
176
     1
 90
        2
176
     1
 90
        0
176
     1
 90
        0
176
     1
 40
0.6
176
     1
 40
30.0
176
     1
 62
     7
420
 16777215
176
     1
 90
        1
176
     1
 90
        4
176
     1
 62
     7
176
     1
 62
   257
176
     1
 90
        1
176
     1
 90
        1
176
     1
 40
1.0
176
     1
 90
        0
176
     1
 62
   257
176
     1
 40
1.0
176
     1
 90
        1
176
     1
 90
        6
176
     1
 90
        2
176
     1
 62
     7
176
     1
 90
        3
176
     1
 90
        0
176
     1
 90
        0
176
     1
290
     0
176
     1
 90
        1
176
     1
 40
0.0
176
     1
 90
        0
176
     1
290
     0
176
     1
290
     1
176
     1
290
     1
176
     1
290
     0
176
     1
290
     0
176
     1
290
     0
176
     1
290
     0
176
     1
290
     0
176
     1
290
     0
176
     1
 90
       50
176
     1
 40
0.0
176
     1
 40
1.0
176
     1
 90
        0
176
     1
 62
    18
420
        0
176
     1
 90
       50
176
     1
 90
        3
176
     1
 62
     5
420
      255
176
     1
290
     0
176
     1
 90
       50
176
     1
 90
       50
176
     1
 90
       50
176
     1
290
     0
176
     1
 90
       50
176
     1
 62
   256
176
     0
 40
1.0
176
     0
 90
        2
176
     1
  1
strokes_ogs.tif
176
     1
290
     0
176
     1
 40
1.0
176
     1
 40
1.0
176
     1
  0
VISUALSTYLE
  5
40
102
{ACAD_REACTORS
330
2A
102
}
330
2A
100
AcDbVisualStyle
  2
X-Ray
 70
    25
177
     3
291
     0
 70
    58
 90
        2
176
     1
 90
        2
176
     1
 90
        1
176
     1
 90
        1
176
     1
 40
0.5
176
     1
 40
30.0
176
     1
 62
     7
420
 16777215
176
     1
 90
        1
176
     1
 90
        0
176
     1
 62
     7
176
     1
 62
   257
176
     1
 90
        1
176
     1
 90
        1
176
     1
 40
1.0
176
     1
 90
        8
176
     1
 62
     7
176
     1
 40
1.0
176
     1
 90
        1
176
     1
 90
        6
176
     1
 90
        2
176
     1
 62
     7
176
     1
 90
        3
176
     1
 90
        0
176
     1
 90
        0
176
     1
290
     0
176
     1
 90
       13
176
     1
 40
0.0
176
     1
 90
        0
176
     1
290
     0
176
     1
290
     1
176
     1
290
     1
176
     1
290
     0
176
     1
290
     0
176
     1
290
     0
176
     1
290
     0
176
     1
290
     0
176
     1
290
     0
176
     1
 90
       50
176
     1
 40
0.0
176
     1
 40
1.0
176
     1
 90
        0
176
     1
 62
    18
420
        0
176
     1
 90
       50
176
     1
 90
        3
176
     1
 62
     5
420
      255
176
     1
290
     0
176
     1
 90
       50
176
     1
 90
       50
176
     1
 90
       50
176
     1
290
     0
176
     1
 90
       50
176
     1
 62
   256
176
     0
 40
1.0
176
     0
 90
        2
176
     1
  1
strokes_ogs.tif
176
     1
290
     0
176
     1
 40
1.0
176
     1
 40
1.0
176
     1
  0
DICTIONARYVAR
  5
198
102
{ACAD_REACTORS
330
197
102
}
330
197
100
DictionaryVariables
280
     0
  1
1:1
  0
DICTIONARYVAR
  5
19D
102
{ACAD_REACTORS
330
197
102
}
330
197
100
DictionaryVariables
280
     0
  1
Standard
  0
DICTIONARYVAR
  5
19C
102
{ACAD_REACTORS
330
197
102
}
330
197
100
DictionaryVariables
280
     0
  1
Standard
  0
DICTIONARY
  5
199
330
6A
100
AcDbDictionary
280
     1
281
     1
  3
ACAD_ROUNDTRIP_2008_TABLESTYLE_CELLSTYLEMAP
360
19A
  0
CELLSTYLEMAP
  5
19A
102
{ACAD_REACTORS
330
199
102
}
330
199
100
AcDbCellStyleMap
 90
        3
300
CELLSTYLE
  1
TABLEFORMAT_BEGIN
 90
        5
170
     1
 91
        0
 92
    32768
 62
   257
 93
        1
300
CONTENTFORMAT
  1
CONTENTFORMAT_BEGIN
 90
        0
 91
        0
 92
        4
 93
        0
300

 40
0.0
140
1.0
 94
        5
 62
     0
340
11
144
0.25
309
CONTENTFORMAT_END
171
     1
301
MARGIN
  1
CELLMARGIN_BEGIN
 40
0.06
 40
0.06
 40
0.06
 40
0.06
 40
0.06
 40
0.06
309
CELLMARGIN_END
 94
        6
 95
        1
302
GRIDFORMAT
  1
GRIDFORMAT_BEGIN
 90
        0
 91
        1
 62
     0
 92
       -2
340
14
 93
        0
 40
0.045
309
GRIDFORMAT_END
 95
        2
302
GRIDFORMAT
  1
GRIDFORMAT_BEGIN
 90
        0
 91
        1
 62
     0
 92
       -2
340
14
 93
        0
 40
0.045
309
GRIDFORMAT_END
 95
        4
302
GRIDFORMAT
  1
GRIDFORMAT_BEGIN
 90
        0
 91
        1
 62
     0
 92
       -2
340
14
 93
        0
 40
0.045
309
GRIDFORMAT_END
 95
        8
302
GRIDFORMAT
  1
GRIDFORMAT_BEGIN
 90
        0
 91
        1
 62
     0
 92
       -2
340
14
 93
        0
 40
0.045
309
GRIDFORMAT_END
 95
       16
302
GRIDFORMAT
  1
GRIDFORMAT_BEGIN
 90
        0
 91
        1
 62
     0
 92
       -2
340
14
 93
        0
 40
0.045
309
GRIDFORMAT_END
 95
       32
302
GRIDFORMAT
  1
GRIDFORMAT_BEGIN
 90
        0
 91
        1
 62
     0
 92
       -2
340
14
 93
        0
 40
0.045
309
GRIDFORMAT_END
309
TABLEFORMAT_END
  1
CELLSTYLE_BEGIN
 90
        1
 91
        1
300
_TITLE
309
CELLSTYLE_END
300
CELLSTYLE
  1
TABLEFORMAT_BEGIN
 90
        5
170
     1
 91
        0
 92
        0
 62
   257
 93
        1
300
CONTENTFORMAT
  1
CONTENTFORMAT_BEGIN
 90
        0
 91
        0
 92
        4
 93
        0
300

 40
0.0
140
1.0
 94
        5
 62
     0
340
11
144
0.18
309
CONTENTFORMAT_END
171
     1
301
MARGIN
  1
CELLMARGIN_BEGIN
 40
0.06
 40
0.06
 40
0.06
 40
0.06
 40
0.06
 40
0.06
309
CELLMARGIN_END
 94
        6
 95
        1
302
GRIDFORMAT
  1
GRIDFORMAT_BEGIN
 90
        0
 91
        1
 62
     0
 92
       -2
340
14
 93
        0
 40
0.045
309
GRIDFORMAT_END
 95
        2
302
GRIDFORMAT
  1
GRIDFORMAT_BEGIN
 90
        0
 91
        1
 62
     0
 92
       -2
340
14
 93
        0
 40
0.045
309
GRIDFORMAT_END
 95
        4
302
GRIDFORMAT
  1
GRIDFORMAT_BEGIN
 90
        0
 91
        1
 62
     0
 92
       -2
340
14
 93
        0
 40
0.045
309
GRIDFORMAT_END
 95
        8
302
GRIDFORMAT
  1
GRIDFORMAT_BEGIN
 90
        0
 91
        1
 62
     0
 92
       -2
340
14
 93
        0
 40
0.045
309
GRIDFORMAT_END
 95
       16
302
GRIDFORMAT
  1
GRIDFORMAT_BEGIN
 90
        0
 91
        1
 62
     0
 92
       -2
340
14
 93
        0
 40
0.045
309
GRIDFORMAT_END
 95
       32
302
GRIDFORMAT
  1
GRIDFORMAT_BEGIN
 90
        0
 91
        1
 62
     0
 92
       -2
340
14
 93
        0
 40
0.045
309
GRIDFORMAT_END
309
TABLEFORMAT_END
  1
CELLSTYLE_BEGIN
 90
        2
 91
        1
300
_HEADER
309
CELLSTYLE_END
300
CELLSTYLE
  1
TABLEFORMAT_BEGIN
 90
        5
170
     1
 91
        0
 92
        0
 62
   257
 93
        1
300
CONTENTFORMAT
  1
CONTENTFORMAT_BEGIN
 90
        0
 91
        0
 92
        4
 93
        0
300

 40
0.0
140
1.0
 94
        2
 62
     0
340
11
144
0.18
309
CONTENTFORMAT_END
171
     1
301
MARGIN
  1
CELLMARGIN_BEGIN
 40
0.06
 40
0.06
 40
0.06
 40
0.06
 40
0.06
 40
0.06
309
CELLMARGIN_END
 94
        6
 95
        1
302
GRIDFORMAT
  1
GRIDFORMAT_BEGIN
 90
        0
 91
        1
 62
     0
 92
       -2
340
14
 93
        0
 40
0.045
309
GRIDFORMAT_END
 95
        2
302
GRIDFORMAT
  1
GRIDFORMAT_BEGIN
 90
        0
 91
        1
 62
     0
 92
       -2
340
14
 93
        0
 40
0.045
309
GRIDFORMAT_END
 95
        4
302
GRIDFORMAT
  1
GRIDFORMAT_BEGIN
 90
        0
 91
        1
 62
     0
 92
       -2
340
14
 93
        0
 40
0.045
309
GRIDFORMAT_END
 95
        8
302
GRIDFORMAT
  1
GRIDFORMAT_BEGIN
 90
        0
 91
        1
 62
     0
 92
       -2
340
14
 93
        0
 40
0.045
309
GRIDFORMAT_END
 95
       16
302
GRIDFORMAT
  1
GRIDFORMAT_BEGIN
 90
        0
 91
        1
 62
     0
 92
       -2
340
14
 93
        0
 40
0.045
309
GRIDFORMAT_END
 95
       32
302
GRIDFORMAT
  1
GRIDFORMAT_BEGIN
 90
        0
 91
        1
 62
     0
 92
       -2
340
14
 93
        0
 40
0.045
309
GRIDFORMAT_END
309
TABLEFORMAT_END
  1
CELLSTYLE_BEGIN
 90
        3
 91
        2
300
_DATA
309
CELLSTYLE_END
  0
ENDSEC
  0
EOF