0
SECTION
  2
HEADER
  9
$ACADVER
  1
AC1027
  9
$ACADMAINTVER
 70
     8
  9
$DWGCODEPAGE
  3
ANSI_1252
  9
$REQUIREDVERSIONS
160
                 0
  9
$COMMENTS
  1
File was created by Cadenas
  9
$CUSTOMPROPERTYTAG
  1
NN
  9
$CUSTOMPROPERTY
  1
S-2000 Flange Bearing - Square Trident Seal
  9
$CUSTOMPROPERTYTAG
  1
NT
  9
$CUSTOMPROPERTY
  1
S-2000 4 Bolt Square Flange Bearing -Inch
  9
$CUSTOMPROPERTYTAG
  1
NB
  9
$CUSTOMPROPERTY
  1
070549
  9
$CUSTOMPROPERTYTAG
  1
NBSYN
  9
$CUSTOMPROPERTY
  1
$PN.
  9
$CUSTOMPROPERTYTAG
  1
LINA
  9
$CUSTOMPROPERTY
  1
070549
  9
$CUSTOMPROPERTYTAG
  1
SS
  9
$CUSTOMPROPERTY
  1
2-3/16
  9
$CUSTOMPROPERTYTAG
  1
PN
  9
$CUSTOMPROPERTY
  1
070549
  9
$CUSTOMPROPERTYTAG
  1
DESCRIPTION
  9
$CUSTOMPROPERTY
  1
F4S-S2-203R
  9
$CUSTOMPROPERTYTAG
  1
EF
  9
$CUSTOMPROPERTY
  1
Non-Expansion Type
  9
$CUSTOMPROPERTYTAG
  1
ST
  9
$CUSTOMPROPERTY
  1
Contact Seal
  9
$CUSTOMPROPERTYTAG
  1
A
  9
$CUSTOMPROPERTY
  1
2-15/16
  9
$CUSTOMPROPERTYTAG
  1
B
  9
$CUSTOMPROPERTY
  1
5-7/8
  9
$CUSTOMPROPERTYTAG
  1
C
  9
$CUSTOMPROPERTY
  1
3-1/4
  9
$CUSTOMPROPERTYTAG
  1
D
  9
$CUSTOMPROPERTY
  1
4-33/64
  9
$CUSTOMPROPERTYTAG
  1
F
  9
$CUSTOMPROPERTY
  1
5/8
  9
$CUSTOMPROPERTYTAG
  1
G
  9
$CUSTOMPROPERTY
  1
1-13/64
  9
$CUSTOMPROPERTYTAG
  1
H
  9
$CUSTOMPROPERTY
  1
9/16
  9
$CUSTOMPROPERTYTAG
  1
J
  9
$CUSTOMPROPERTY
  1
5-1/64
  9
$CUSTOMPROPERTYTAG
  1
K
  9
$CUSTOMPROPERTY
  1
6-3/8
  9
$CUSTOMPROPERTYTAG
  1
L
  9
$CUSTOMPROPERTY
  1
3-3/4
  9
$CUSTOMPROPERTYTAG
  1
N
  9
$CUSTOMPROPERTY
  1
3-3/32
  9
$CUSTOMPROPERTYTAG
  1
P
  9
$CUSTOMPROPERTY
  1
5/16
  9
$CUSTOMPROPERTYTAG
  1
X
  9
$CUSTOMPROPERTY
  1
1/4
  9
$CUSTOMPROPERTYTAG
  1
Y
  9
$CUSTOMPROPERTY
  1
0.025
  9
$CUSTOMPROPERTYTAG
  1
Z
  9
$CUSTOMPROPERTY
  1
2-19/32
  9
$CUSTOMPROPERTYTAG
  1
COMPANY
  9
$CUSTOMPROPERTY
  1
baldor
  9
$INSBASE
 10
0.0
 20
0.0
 30
0.0
  9
$EXTMIN
 10
1.000000000000000E+20
 20
1.000000000000000E+20
 30
1.000000000000000E+20
  9
$EXTMAX
 10
-1.000000000000000E+20
 20
-1.000000000000000E+20
 30
-1.000000000000000E+20
  9
$LIMMIN
 10
0.0
 20
0.0
  9
$LIMMAX
 10
12.0
 20
9.0
  9
$ORTHOMODE
 70
     0
  9
$REGENMODE
 70
     1
  9
$FILLMODE
 70
     1
  9
$QTEXTMODE
 70
     0
  9
$MIRRTEXT
 70
     1
  9
$LTSCALE
 40
1.0
  9
$ATTMODE
 70
     1
  9
$TEXTSIZE
 40
0.2
  9
$TRACEWID
 40
0.05
  9
$TEXTSTYLE
  7
Standard
  9
$CLAYER
  8
0
  9
$CELTYPE
  6
ByLayer
  9
$CECOLOR
 62
   256
  9
$CELTSCALE
 40
1.0
  9
$DISPSILH
 70
     0
  9
$DIMSCALE
 40
1.0
  9
$DIMASZ
 40
0.18
  9
$DIMEXO
 40
0.0625
  9
$DIMDLI
 40
0.38
  9
$DIMRND
 40
0.0
  9
$DIMDLE
 40
0.0
  9
$DIMEXE
 40
0.18
  9
$DIMTP
 40
0.0
  9
$DIMTM
 40
0.0
  9
$DIMTXT
 40
0.18
  9
$DIMCEN
 40
0.09
  9
$DIMTSZ
 40
0.0
  9
$DIMTOL
 70
     0
  9
$DIMLIM
 70
     0
  9
$DIMTIH
 70
     1
  9
$DIMTOH
 70
     1
  9
$DIMSE1
 70
     0
  9
$DIMSE2
 70
     0
  9
$DIMTAD
 70
     0
  9
$DIMZIN
 70
     0
  9
$DIMBLK
  1

  9
$DIMASO
 70
     1
  9
$DIMSHO
 70
     1
  9
$DIMPOST
  1

  9
$DIMAPOST
  1

  9
$DIMALT
 70
     0
  9
$DIMALTD
 70
     2
  9
$DIMALTF
 40
25.4
  9
$DIMLFAC
 40
1.0
  9
$DIMTOFL
 70
     0
  9
$DIMTVP
 40
0.0
  9
$DIMTIX
 70
     0
  9
$DIMSOXD
 70
     0
  9
$DIMSAH
 70
     0
  9
$DIMBLK1
  1

  9
$DIMBLK2
  1

  9
$DIMSTYLE
  2
Standard
  9
$DIMCLRD
 70
     0
  9
$DIMCLRE
 70
     0
  9
$DIMCLRT
 70
     0
  9
$DIMTFAC
 40
1.0
  9
$DIMGAP
 40
0.09
  9
$DIMJUST
 70
     0
  9
$DIMSD1
 70
     0
  9
$DIMSD2
 70
     0
  9
$DIMTOLJ
 70
     1
  9
$DIMTZIN
 70
     0
  9
$DIMALTZ
 70
     0
  9
$DIMALTTZ
 70
     0
  9
$DIMUPT
 70
     0
  9
$DIMDEC
 70
     4
  9
$DIMTDEC
 70
     4
  9
$DIMALTU
 70
     2
  9
$DIMALTTD
 70
     2
  9
$DIMTXSTY
  7
Standard
  9
$DIMAUNIT
 70
     0
  9
$DIMADEC
 70
     0
  9
$DIMALTRND
 40
0.0
  9
$DIMAZIN
 70
     0
  9
$DIMDSEP
 70
    46
  9
$DIMATFIT
 70
     3
  9
$DIMFRAC
 70
     0
  9
$DIMLDRBLK
  1

  9
$DIMLUNIT
 70
     2
  9
$DIMLWD
 70
    -2
  9
$DIMLWE
 70
    -2
  9
$DIMTMOVE
 70
     0
  9
$DIMFXL
 40
1.0
  9
$DIMFXLON
 70
     0
  9
$DIMJOGANG
 40
0.7853981633974483
  9
$DIMTFILL
 70
     0
  9
$DIMTFILLCLR
 70
     0
  9
$DIMARCSYM
 70
     0
  9
$DIMLTYPE
  6

  9
$DIMLTEX1
  6

  9
$DIMLTEX2
  6

  9
$DIMTXTDIRECTION
 70
     0
  9
$LUNITS
 70
     2
  9
$LUPREC
 70
     4
  9
$SKETCHINC
 40
0.1
  9
$FILLETRAD
 40
0.5
  9
$AUNITS
 70
     0
  9
$AUPREC
 70
     0
  9
$MENU
  1
.
  9
$ELEVATION
 40
0.0
  9
$PELEVATION
 40
0.0
  9
$THICKNESS
 40
0.0
  9
$LIMCHECK
 70
     0
  9
$CHAMFERA
 40
0.0
  9
$CHAMFERB
 40
0.0
  9
$CHAMFERC
 40
0.0
  9
$CHAMFERD
 40
0.0
  9
$SKPOLY
 70
     0
  9
$TDCREATE
 40
2458168.984406169
  9
$TDUCREATE
 40
2458168.942739503
  9
$TDUPDATE
 40
2458168.984406169
  9
$TDUUPDATE
 40
2458168.942739503
  9
$TDINDWG
 40
0.0000000116
  9
$TDUSRTIMER
 40
0.0000000116
  9
$USRTIMER
 70
     1
  9
$ANGBASE
 50
0.0
  9
$ANGDIR
 70
     0
  9
$PDMODE
 70
     0
  9
$PDSIZE
 40
0.0
  9
$PLINEWID
 40
0.0
  9
$SPLFRAME
 70
     0
  9
$SPLINETYPE
 70
     6
  9
$SPLINESEGS
 70
     8
  9
$HANDSEED
  5
1AB
  9
$SURFTAB1
 70
     6
  9
$SURFTAB2
 70
     6
  9
$SURFTYPE
 70
     6
  9
$SURFU
 70
     6
  9
$SURFV
 70
     6
  9
$UCSBASE
  2

  9
$UCSNAME
  2

  9
$UCSORG
 10
0.0
 20
0.0
 30
0.0
  9
$UCSXDIR
 10
1.0
 20
0.0
 30
0.0
  9
$UCSYDIR
 10
0.0
 20
1.0
 30
0.0
  9
$UCSORTHOREF
  2

  9
$UCSORTHOVIEW
 70
     0
  9
$UCSORGTOP
 10
0.0
 20
0.0
 30
0.0
  9
$UCSORGBOTTOM
 10
0.0
 20
0.0
 30
0.0
  9
$UCSORGLEFT
 10
0.0
 20
0.0
 30
0.0
  9
$UCSORGRIGHT
 10
0.0
 20
0.0
 30
0.0
  9
$UCSORGFRONT
 10
0.0
 20
0.0
 30
0.0
  9
$UCSORGBACK
 10
0.0
 20
0.0
 30
0.0
  9
$PUCSBASE
  2

  9
$PUCSNAME
  2

  9
$PUCSORG
 10
0.0
 20
0.0
 30
0.0
  9
$PUCSXDIR
 10
1.0
 20
0.0
 30
0.0
  9
$PUCSYDIR
 10
0.0
 20
1.0
 30
0.0
  9
$PUCSORTHOREF
  2

  9
$PUCSORTHOVIEW
 70
     0
  9
$PUCSORGTOP
 10
0.0
 20
0.0
 30
0.0
  9
$PUCSORGBOTTOM
 10
0.0
 20
0.0
 30
0.0
  9
$PUCSORGLEFT
 10
0.0
 20
0.0
 30
0.0
  9
$PUCSORGRIGHT
 10
0.0
 20
0.0
 30
0.0
  9
$PUCSORGFRONT
 10
0.0
 20
0.0
 30
0.0
  9
$PUCSORGBACK
 10
0.0
 20
0.0
 30
0.0
  9
$USERI1
 70
     0
  9
$USERI2
 70
     0
  9
$USERI3
 70
     0
  9
$USERI4
 70
     0
  9
$USERI5
 70
     0
  9
$USERR1
 40
0.0
  9
$USERR2
 40
0.0
  9
$USERR3
 40
0.0
  9
$USERR4
 40
0.0
  9
$USERR5
 40
0.0
  9
$WORLDVIEW
 70
     1
  9
$SHADEDGE
 70
     3
  9
$SHADEDIF
 70
    70
  9
$TILEMODE
 70
     1
  9
$MAXACTVP
 70
    64
  9
$PINSBASE
 10
0.0
 20
0.0
 30
0.0
  9
$PLIMCHECK
 70
     0
  9
$PEXTMIN
 10
1.000000000000000E+20
 20
1.000000000000000E+20
 30
1.000000000000000E+20
  9
$PEXTMAX
 10
-1.000000000000000E+20
 20
-1.000000000000000E+20
 30
-1.000000000000000E+20
  9
$PLIMMIN
 10
0.0
 20
0.0
  9
$PLIMMAX
 10
12.0
 20
9.0
  9
$UNITMODE
 70
     0
  9
$VISRETAIN
 70
     1
  9
$PLINEGEN
 70
     0
  9
$PSLTSCALE
 70
     1
  9
$TREEDEPTH
 70
  3020
  9
$CMLSTYLE
  2
Standard
  9
$CMLJUST
 70
     0
  9
$CMLSCALE
 40
1.0
  9
$PROXYGRAPHICS
 70
     1
  9
$MEASUREMENT
 70
     0
  9
$CELWEIGHT
370
    -1
  9
$ENDCAPS
280
     0
  9
$JOINSTYLE
280
     0
  9
$LWDISPLAY
290
     0
  9
$INSUNITS
 70
     1
  9
$HYPERLINKBASE
  1

  9
$STYLESHEET
  1

  9
$XEDIT
290
     1
  9
$CEPSNTYPE
380
     0
  9
$PSTYLEMODE
290
     1
  9
$FINGERPRINTGUID
  2
{182F76C5-B61A-4A05-9AF1-8EEC0E0CD867}
  9
$VERSIONGUID
  2
{FAEB1C32-E019-11D5-929B-00C0DF256EC4}
  9
$EXTNAMES
290
     1
  9
$PSVPSCALE
 40
0.0
  9
$OLESTARTUP
290
     0
  9
$SORTENTS
280
   127
  9
$INDEXCTL
280
     0
  9
$HIDETEXT
280
     1
  9
$XCLIPFRAME
280
     2
  9
$HALOGAP
280
     0
  9
$OBSCOLOR
 70
   257
  9
$OBSLTYPE
280
     0
  9
$INTERSECTIONDISPLAY
280
     0
  9
$INTERSECTIONCOLOR
 70
   257
  9
$DIMASSOC
280
     2
  9
$PROJECTNAME
  1

  9
$CAMERADISPLAY
290
     0
  9
$LENSLENGTH
 40
50.0
  9
$CAMERAHEIGHT
 40
0.0
  9
$STEPSPERSEC
 40
2.0
  9
$STEPSIZE
 40
6.0
  9
$3DDWFPREC
 40
2.0
  9
$PSOLWIDTH
 40
0.25
  9
$PSOLHEIGHT
 40
4.0
  9
$LOFTANG1
 40
1.570796326794897
  9
$LOFTANG2
 40
1.570796326794897
  9
$LOFTMAG1
 40
0.0
  9
$LOFTMAG2
 40
0.0
  9
$LOFTPARAM
 70
     7
  9
$LOFTNORMALS
280
     1
  9
$LATITUDE
 40
37.795
  9
$LONGITUDE
 40
-122.394
  9
$NORTHDIRECTION
 40
0.0
  9
$TIMEZONE
 70
 -8000
  9
$LIGHTGLYPHDISPLAY
280
     1
  9
$TILEMODELIGHTSYNCH
280
     1
  9
$CMATERIAL
347
44
  9
$SOLIDHIST
280
     0
  9
$SHOWHIST
280
     1
  9
$DWFFRAME
280
     2
  9
$DGNFRAME
280
     2
  9
$REALWORLDSCALE
290
     1
  9
$INTERFERECOLOR
 62
   256
  9
$CSHADOW
280
     0
  9
$SHADOWPLANELOCATION
 40
0.0
  0
ENDSEC
  0
SECTION
  2
CLASSES
  0
CLASS
  1
ACDBDICTIONARYWDFLT
  2
AcDbDictionaryWithDefault
  3
ObjectDBX Classes
 90
        0
 91
        4
280
     0
281
     0
  0
CLASS
  1
VISUALSTYLE
  2
AcDbVisualStyle
  3
ObjectDBX Classes
 90
     4095
 91
        4
280
     0
281
     0
  0
CLASS
  1
MATERIAL
  2
AcDbMaterial
  3
ObjectDBX Classes
 90
     1153
 91
        4
280
     0
281
     0
  0
CLASS
  1
SCALE
  2
AcDbScale
  3
ObjectDBX Classes
 90
     1153
 91
        4
280
     0
281
     0
  0
CLASS
  1
TABLESTYLE
  2
AcDbTableStyle
  3
ObjectDBX Classes
 90
     4095
 91
        4
280
     0
281
     0
  0
CLASS
  1
MLEADERSTYLE
  2
AcDbMLeaderStyle
  3
ACDB_MLEADERSTYLE_CLASS
 90
     4095
 91
        4
280
     0
281
     0
  0
CLASS
  1
SUN
  2
AcDbSun
  3
SCENEOE
 90
     1153
 91
        4
280
     0
281
     0
  0
CLASS
  1
DICTIONARYVAR
  2
AcDbDictionaryVar
  3
ObjectDBX Classes
 90
        0
 91
        4
280
     0
281
     0
  0
CLASS
  1
CELLSTYLEMAP
  2
AcDbCellStyleMap
  3
ObjectDBX Classes
 90
     1152
 91
        4
280
     0
281
     0
  0
ENDSEC
  0
SECTION
  2
TABLES
  0
TABLE
  2
VPORT
  5
8
330
0
100
AcDbSymbolTable
 70
     1
  0
VPORT
  5
29
330
8
100
AcDbSymbolTableRecord
100
AcDbViewportTableRecord
  2
*Active
 70
     0
 10
0.0
 20
0.0
 11
1.0
 21
1.0
 12
0.0
 22
-1.4359375
 13
0.0
 23
0.0
 14
0.5
 24
0.5
 15
0.5
 25
0.5
 16
0.0
 26
0.0
 36
1.0
 17
0.0
 27
0.0
 37
0.0
 40
4.0003125
 41
1.49800796812749
 42
50.0
 43
0.0
 44
0.0
 50
0.0
 51
0.0
 71
     0
 72
   100
 73
     1
 74
     3
 75
     0
 76
     0
 77
     0
 78
     0
281
     0
 65
     1
110
0.0
120
0.0
130
0.0
111
1.0
121
0.0
131
0.0
112
0.0
122
1.0
132
0.0
 79
     0
146
0.0
348
2F
 60
     3
 61
     5
292
     1
282
     1
141
0.0
142
0.0
 63
   250
361
6D
  0
ENDTAB
  0
TABLE
  2
LTYPE
  5
5
330
0
100
AcDbSymbolTable
 70
     3
  0
LTYPE
  5
14
330
5
100
AcDbSymbolTableRecord
100
AcDbLinetypeTableRecord
  2
ByBlock
 70
     0
  3

 72
    65
 73
     0
 40
0.0
  0
LTYPE
  5
15
330
5
100
AcDbSymbolTableRecord
100
AcDbLinetypeTableRecord
  2
ByLayer
 70
     0
  3

 72
    65
 73
     0
 40
0.0
  0
LTYPE
  5
16
330
5
100
AcDbSymbolTableRecord
100
AcDbLinetypeTableRecord
  2
Continuous
 70
     0
  3
Solid line
 72
    65
 73
     0
 40
0.0
  0
LTYPE
  5
A6
330
5
100
AcDbSymbolTableRecord
100
AcDbLinetypeTableRecord
  2
Dashed
 70
     0
  3

 72
    65
 73
     2
 40
2.0
 49
1.0
 74
     0
 49
-1.0
 74
     0
  0
LTYPE
  5
BA
330
5
100
AcDbSymbolTableRecord
100
AcDbLinetypeTableRecord
  2
Center
 70
     0
  3

 72
    65
 73
     4
 40
1.5
 49
0.45
 74
     0
 49
-0.5
 74
     0
 49
0.05
 74
     0
 49
-0.5
 74
     0
  0
ENDTAB
  0
TABLE
  2
LAYER
  5
2
330
0
100
AcDbSymbolTable
 70
     7
  0
LAYER
  5
10
330
2
100
AcDbSymbolTableRecord
100
AcDbLayerTableRecord
  2
0
 70
     0
 62
     7
  6
Continuous
370
    -3
390
F
347
46
348
0
  0
LAYER
  5
72
330
2
100
AcDbSymbolTableRecord
100
AcDbLayerTableRecord
  2
AM_6
 70
     0
 62
    -2
  6
Continuous
370
    35
390
F
347
46
348
0
  0
LAYER
  5
A7
330
2
100
AcDbSymbolTableRecord
100
AcDbLayerTableRecord
  2
AM_9
 70
     0
 62
     6
  6
Dashed
370
    25
390
F
347
46
348
0
  0
LAYER
  5
BB
330
2
100
AcDbSymbolTableRecord
100
AcDbLayerTableRecord
  2
AM_7
 70
     0
 62
     7
  6
Center
370
    25
390
F
347
46
348
0
  0
LAYER
  5
BD
330
2
100
AcDbSymbolTableRecord
100
AcDbLayerTableRecord
  2
AM_4
 70
     0
 62
     7
  6
Continuous
370
    50
390
F
347
46
348
0
  0
LAYER
  5
D2
330
2
100
AcDbSymbolTableRecord
100
AcDbLayerTableRecord
  2
AM_5
 70
     0
 62
     3
  6
Continuous
370
    25
390
F
347
46
348
0
  0
LAYER
  5
19A
330
2
100
AcDbSymbolTableRecord
100
AcDbLayerTableRecord
  2
ConnectionPoints
 70
     0
 62
     7
  6
Continuous
370
    50
390
F
347
46
348
0
  0
ENDTAB
  0
TABLE
  2
STYLE
  5
3
330
0
100
AcDbSymbolTable
 70
     1
  0
STYLE
  5
11
330
3
100
AcDbSymbolTableRecord
100
AcDbTextStyleTableRecord
  2
Standard
 70
     0
 40
0.0
 41
1.0
 50
0.0
 71
     0
 42
0.2
  3
txt
  4

  0
ENDTAB
  0
TABLE
  2
VIEW
  5
6
330
0
100
AcDbSymbolTable
 70
     0
  0
ENDTAB
  0
TABLE
  2
UCS
  5
7
330
0
100
AcDbSymbolTable
 70
     0
  0
ENDTAB
  0
TABLE
  2
APPID
  5
9
330
0
100
AcDbSymbolTable
 70
     1
  0
APPID
  5
12
330
9
100
AcDbSymbolTableRecord
100
AcDbRegAppTableRecord
  2
ACAD
 70
     0
  0
ENDTAB
  0
TABLE
  2
DIMSTYLE
  5
A
330
0
100
AcDbSymbolTable
 70
     1
100
AcDbDimStyleTable
  0
DIMSTYLE
105
27
330
A
100
AcDbSymbolTableRecord
100
AcDbDimStyleTableRecord
  2
Standard
 70
     0
178
     0
340
11
  0
ENDTAB
  0
TABLE
  2
BLOCK_RECORD
  5
1
330
0
100
AcDbSymbolTable
 70
     6
  0
BLOCK_RECORD
  5
1F
330
1
100
AcDbSymbolTableRecord
100
AcDbBlockTableRecord
  2
*Model_Space
340
22
 70
     0
280
     1
281
     0
  0
BLOCK_RECORD
  5
1B
330
1
100
AcDbSymbolTableRecord
100
AcDbBlockTableRecord
  2
*Paper_Space
340
1E
 70
     0
280
     1
281
     0
  0
BLOCK_RECORD
  5
23
330
1
100
AcDbSymbolTableRecord
100
AcDbBlockTableRecord
  2
*Paper_Space0
340
26
 70
     0
280
     1
281
     0
  0
BLOCK_RECORD
  5
6E
330
1
100
AcDbSymbolTableRecord
100
AcDbBlockTableRecord
  2
1_070549_4
340
0
102
{BLKREFS
331
6F
102
}
 70
     0
280
     1
281
     0
  0
BLOCK_RECORD
  5
8D
330
1
100
AcDbSymbolTableRecord
100
AcDbBlockTableRecord
  2
2_2_3_16CS2i_0_in_070549_4
340
0
102
{BLKREFS
331
8E
102
}
 70
     0
280
     1
281
     0
  0
BLOCK_RECORD
  5
D4
330
1
100
AcDbSymbolTableRecord
100
AcDbBlockTableRecord
  2
3_070007i_0_in_070549_4
340
0
102
{BLKREFS
331
D5
102
}
 70
     0
280
     1
281
     0
  0
BLOCK_RECORD
  5
126
330
1
100
AcDbSymbolTableRecord
100
AcDbBlockTableRecord
  2
4_405015E_Inch_0_in_070549_4
340
0
102
{BLKREFS
331
127
102
}
 70
     0
280
     1
281
     0
  0
BLOCK_RECORD
  5
143
330
1
100
AcDbSymbolTableRecord
100
AcDbBlockTableRecord
  2
5_070549H_0_in_070549_4
340
0
102
{BLKREFS
331
144
102
}
 70
     0
280
     1
281
     0
  0
ENDTAB
  0
ENDSEC
  0
SECTION
  2
BLOCKS
  0
BLOCK
  5
20
330
1F
100
AcDbEntity
  8
0
100
AcDbBlockBegin
  2
*Model_Space
 70
     0
 10
0.0
 20
0.0
 30
0.0
  3
*Model_Space
  1

  0
ENDBLK
  5
21
330
1F
100
AcDbEntity
  8
0
100
AcDbBlockEnd
  0
BLOCK
  5
1C
330
1B
100
AcDbEntity
 67
     1
  8
0
100
AcDbBlockBegin
  2
*Paper_Space
 70
     0
 10
0.0
 20
0.0
 30
0.0
  3
*Paper_Space
  1

  0
ENDBLK
  5
1D
330
1B
100
AcDbEntity
 67
     1
  8
0
100
AcDbBlockEnd
  0
BLOCK
  5
24
330
23
100
AcDbEntity
  8
0
100
AcDbBlockBegin
  2
*Paper_Space0
 70
     0
 10
0.0
 20
0.0
 30
0.0
  3
*Paper_Space0
  1

  0
ENDBLK
  5
25
330
23
100
AcDbEntity
  8
0
100
AcDbBlockEnd
  0
BLOCK
  5
70
330
6E
100
AcDbEntity
  8
0
100
AcDbBlockBegin
  2
1_070549_4
 70
     2
 10
0.0
 20
0.0
 30
0.0
  3
1_070549_4
  1

  0
ATTDEF
  5
73
330
6E
100
AcDbEntity
  8
AM_6
100
AcDbText
 10
7.9375
 20
0.1023437499999994
 30
0.0
 40
0.5
  1
S-2000 Flange Bearing - Square Trident Seal
100
AcDbAttributeDefinition
  3

  2
NN
 70
     8
280
     0
  0
ATTDEF
  5
74
330
6E
100
AcDbEntity
  8
AM_6
100
AcDbText
 10
7.9375
 20
-0.3976562500000005
 30
0.0
 40
0.5
  1
S-2000 4 Bolt Square Flange Bearing -Inch
100
AcDbAttributeDefinition
  3

  2
NT
 70
     8
280
     0
  0
ATTDEF
  5
75
330
6E
100
AcDbEntity
  8
AM_6
100
AcDbText
 10
7.9375
 20
-0.8976562500000005
 30
0.0
 40
0.5
  1
070549
100
AcDbAttributeDefinition
  3

  2
NB
 70
     8
280
     0
  0
ATTDEF
  5
76
330
6E
100
AcDbEntity
  8
AM_6
100
AcDbText
 10
7.9375
 20
-1.39765625
 30
0.0
 40
0.5
  1
$PN.
100
AcDbAttributeDefinition
  3

  2
NBSYN
 70
     8
280
     0
  0
ATTDEF
  5
77
330
6E
100
AcDbEntity
  8
AM_6
100
AcDbText
 10
7.9375
 20
-1.89765625
 30
0.0
 40
0.5
  1
070549
100
AcDbAttributeDefinition
  3

  2
LINA
 70
     8
280
     0
  0
ATTDEF
  5
78
330
6E
100
AcDbEntity
  8
AM_6
100
AcDbText
 10
7.9375
 20
-2.397656250000001
 30
0.0
 40
0.5
  1
2-3/16
100
AcDbAttributeDefinition
  3

  2
SS
 70
     8
280
     0
  0
ATTDEF
  5
79
330
6E
100
AcDbEntity
  8
AM_6
100
AcDbText
 10
7.9375
 20
-2.897656250000001
 30
0.0
 40
0.5
  1
070549
100
AcDbAttributeDefinition
  3

  2
PN
 70
     8
280
     0
  0
ATTDEF
  5
7A
330
6E
100
AcDbEntity
  8
AM_6
100
AcDbText
 10
7.9375
 20
-3.397656250000001
 30
0.0
 40
0.5
  1
F4S-S2-203R
100
AcDbAttributeDefinition
  3

  2
DESCRIPTION
 70
     8
280
     0
  0
ATTDEF
  5
7B
330
6E
100
AcDbEntity
  8
AM_6
100
AcDbText
 10
7.9375
 20
-3.897656250000001
 30
0.0
 40
0.5
  1
Non-Expansion Type
100
AcDbAttributeDefinition
  3

  2
EF
 70
     8
280
     0
  0
ATTDEF
  5
7C
330
6E
100
AcDbEntity
  8
AM_6
100
AcDbText
 10
7.9375
 20
-4.397656250000001
 30
0.0
 40
0.5
  1
Contact Seal
100
AcDbAttributeDefinition
  3

  2
ST
 70
     8
280
     0
  0
ATTDEF
  5
7D
330
6E
100
AcDbEntity
  8
AM_6
100
AcDbText
 10
7.9375
 20
-4.897656250000001
 30
0.0
 40
0.5
  1
2-15/16
100
AcDbAttributeDefinition
  3

  2
A
 70
     8
280
     0
  0
ATTDEF
  5
7E
330
6E
100
AcDbEntity
  8
AM_6
100
AcDbText
 10
7.9375
 20
-5.397656250000001
 30
0.0
 40
0.5
  1
5-7/8
100
AcDbAttributeDefinition
  3

  2
B
 70
     8
280
     0
  0
ATTDEF
  5
7F
330
6E
100
AcDbEntity
  8
AM_6
100
AcDbText
 10
7.9375
 20
-5.897656250000001
 30
0.0
 40
0.5
  1
3-1/4
100
AcDbAttributeDefinition
  3

  2
C
 70
     8
280
     0
  0
ATTDEF
  5
80
330
6E
100
AcDbEntity
  8
AM_6
100
AcDbText
 10
7.9375
 20
-6.397656250000001
 30
0.0
 40
0.5
  1
4-33/64
100
AcDbAttributeDefinition
  3

  2
D
 70
     8
280
     0
  0
ATTDEF
  5
81
330
6E
100
AcDbEntity
  8
AM_6
100
AcDbText
 10
7.9375
 20
-6.897656250000001
 30
0.0
 40
0.5
  1
5/8
100
AcDbAttributeDefinition
  3

  2
F
 70
     8
280
     0
  0
ATTDEF
  5
82
330
6E
100
AcDbEntity
  8
AM_6
100
AcDbText
 10
7.9375
 20
-7.397656250000001
 30
0.0
 40
0.5
  1
1-13/64
100
AcDbAttributeDefinition
  3

  2
G
 70
     8
280
     0
  0
ATTDEF
  5
83
330
6E
100
AcDbEntity
  8
AM_6
100
AcDbText
 10
7.9375
 20
-7.897656250000001
 30
0.0
 40
0.5
  1
9/16
100
AcDbAttributeDefinition
  3

  2
H
 70
     8
280
     0
  0
ATTDEF
  5
84
330
6E
100
AcDbEntity
  8
AM_6
100
AcDbText
 10
7.9375
 20
-8.39765625
 30
0.0
 40
0.5
  1
5-1/64
100
AcDbAttributeDefinition
  3

  2
J
 70
     8
280
     0
  0
ATTDEF
  5
85
330
6E
100
AcDbEntity
  8
AM_6
100
AcDbText
 10
7.9375
 20
-8.89765625
 30
0.0
 40
0.5
  1
6-3/8
100
AcDbAttributeDefinition
  3

  2
K
 70
     8
280
     0
  0
ATTDEF
  5
86
330
6E
100
AcDbEntity
  8
AM_6
100
AcDbText
 10
7.9375
 20
-9.39765625
 30
0.0
 40
0.5
  1
3-3/4
100
AcDbAttributeDefinition
  3

  2
L
 70
     8
280
     0
  0
ATTDEF
  5
87
330
6E
100
AcDbEntity
  8
AM_6
100
AcDbText
 10
7.9375
 20
-9.89765625
 30
0.0
 40
0.5
  1
3-3/32
100
AcDbAttributeDefinition
  3

  2
N
 70
     8
280
     0
  0
ATTDEF
  5
88
330
6E
100
AcDbEntity
  8
AM_6
100
AcDbText
 10
7.9375
 20
-10.39765625
 30
0.0
 40
0.5
  1
5/16
100
AcDbAttributeDefinition
  3

  2
P
 70
     8
280
     0
  0
ATTDEF
  5
89
330
6E
100
AcDbEntity
  8
AM_6
100
AcDbText
 10
7.9375
 20
-10.89765625
 30
0.0
 40
0.5
  1
1/4
100
AcDbAttributeDefinition
  3

  2
X
 70
     8
280
     0
  0
ATTDEF
  5
8A
330
6E
100
AcDbEntity
  8
AM_6
100
AcDbText
 10
7.9375
 20
-11.39765625
 30
0.0
 40
0.5
  1
0.025
100
AcDbAttributeDefinition
  3

  2
Y
 70
     8
280
     0
  0
ATTDEF
  5
8B
330
6E
100
AcDbEntity
  8
AM_6
100
AcDbText
 10
7.9375
 20
-11.89765625
 30
0.0
 40
0.5
  1
2-19/32
100
AcDbAttributeDefinition
  3

  2
Z
 70
     8
280
     0
  0
ATTDEF
  5
8C
330
6E
100
AcDbEntity
  8
AM_6
100
AcDbText
 10
7.9375
 20
-12.39765625
 30
0.0
 40
0.5
  1
baldor
100
AcDbAttributeDefinition
  3

  2
COMPANY
 70
     8
280
     0
  0
INSERT
  5
8E
330
6E
100
AcDbEntity
  8
0
100
AcDbBlockReference
  2
2_2_3_16CS2i_0_in_070549_4
 10
0.0
 20
0.0
 30
0.0
  0
INSERT
  5
D5
330
6E
100
AcDbEntity
  8
0
100
AcDbBlockReference
  2
3_070007i_0_in_070549_4
 10
0.0
 20
0.0
 30
0.0
  0
INSERT
  5
127
330
6E
100
AcDbEntity
  8
0
100
AcDbBlockReference
  2
4_405015E_Inch_0_in_070549_4
 10
0.0
 20
0.0
 30
0.0
  0
INSERT
  5
144
330
6E
100
AcDbEntity
  8
0
100
AcDbBlockReference
  2
5_070549H_0_in_070549_4
 10
0.0
 20
0.0
 30
0.0
  0
ENDBLK
  5
71
330
6E
100
AcDbEntity
  8
0
100
AcDbBlockEnd
  0
BLOCK
  5
8F
330
8D
100
AcDbEntity
  8
0
100
AcDbBlockBegin
  2
2_2_3_16CS2i_0_in_070549_4
 70
     2
 10
0.0
 20
0.0
 30
0.0
  3
2_2_3_16CS2i_0_in_070549_4
  1

  0
ATTDEF
  5
91
330
8D
100
AcDbEntity
  8
AM_6
100
AcDbText
 10
6.875
 20
-2.616
 30
0.0
 40
0.5
  1
S-2000 Collar -Inch
100
AcDbAttributeDefinition
  3

  2
NN
 70
     8
280
     0
  0
ATTDEF
  5
92
330
8D
100
AcDbEntity
  8
AM_6
100
AcDbText
 10
6.875
 20
-3.116
 30
0.0
 40
0.5
  1
S-2000 Bearings
100
AcDbAttributeDefinition
  3

  2
NT
 70
     8
280
     0
  0
ATTDEF
  5
93
330
8D
100
AcDbEntity
  8
AM_6
100
AcDbText
 10
6.875
 20
-3.616
 30
0.0
 40
0.5
  1
2-3/16CS2i
100
AcDbAttributeDefinition
  3

  2
NB
 70
     8
280
     0
  0
ATTDEF
  5
94
330
8D
100
AcDbEntity
  8
AM_6
100
AcDbText
 10
6.875
 20
-4.116
 30
0.0
 40
0.5
  1
$BORE.CS2i
100
AcDbAttributeDefinition
  3

  2
NBSYN
 70
     8
280
     0
  0
ATTDEF
  5
95
330
8D
100
AcDbEntity
  8
AM_6
100
AcDbText
 10
6.875
 20
-4.616
 30
0.0
 40
0.5
  1
2-3/16CS2i
100
AcDbAttributeDefinition
  3

  2
LINA
 70
     8
280
     0
  0
ATTDEF
  5
96
330
8D
100
AcDbEntity
  8
AM_6
100
AcDbText
 10
6.875
 20
-5.116
 30
0.0
 40
0.5
  1
2-3/16
100
AcDbAttributeDefinition
  3

  2
BORE
 70
     8
280
     0
  0
ATTDEF
  5
97
330
8D
100
AcDbEntity
  8
AM_6
100
AcDbText
 10
6.875
 20
-5.616
 30
0.0
 40
0.5
  1
2.187500
100
AcDbAttributeDefinition
  3

  2
BORE1
 70
     8
280
     0
  0
ATTDEF
  5
98
330
8D
100
AcDbEntity
  8
AM_6
100
AcDbText
 10
6.875
 20
-6.116
 30
0.0
 40
0.5
  1
3-3/4
100
AcDbAttributeDefinition
  3

  2
L1
 70
     8
280
     0
  0
ATTDEF
  5
99
330
8D
100
AcDbEntity
  8
AM_6
100
AcDbText
 10
6.875
 20
-6.616
 30
0.0
 40
0.5
  1
3.75000
100
AcDbAttributeDefinition
  3

  2
L
 70
     8
280
     0
  0
ATTDEF
  5
9A
330
8D
100
AcDbEntity
  8
AM_6
100
AcDbText
 10
6.875
 20
-7.116
 30
0.0
 40
0.5
  1
3.65625
100
AcDbAttributeDefinition
  3

  2
L2
 70
     8
280
     0
  0
ATTDEF
  5
9B
330
8D
100
AcDbEntity
  8
AM_6
100
AcDbText
 10
6.875
 20
-7.616
 30
0.0
 40
0.5
  1
3.75
100
AcDbAttributeDefinition
  3

  2
A
 70
     8
280
     0
  0
ATTDEF
  5
9C
330
8D
100
AcDbEntity
  8
AM_6
100
AcDbText
 10
6.875
 20
-8.116
 30
0.0
 40
0.5
  1
1.66
100
AcDbAttributeDefinition
  3

  2
B
 70
     8
280
     0
  0
ATTDEF
  5
9D
330
8D
100
AcDbEntity
  8
AM_6
100
AcDbText
 10
6.875
 20
-8.616
 30
0.0
 40
0.5
  1
2.62
100
AcDbAttributeDefinition
  3

  2
C
 70
     8
280
     0
  0
ATTDEF
  5
9E
330
8D
100
AcDbEntity
  8
AM_6
100
AcDbText
 10
6.875
 20
-9.116
 30
0.0
 40
0.5
  1
3.81
100
AcDbAttributeDefinition
  3

  2
D
 70
     8
280
     0
  0
ATTDEF
  5
9F
330
8D
100
AcDbEntity
  8
AM_6
100
AcDbText
 10
6.875
 20
-9.616
 30
0.0
 40
0.5
  1
0.41
100
AcDbAttributeDefinition
  3

  2
E
 70
     8
280
     0
  0
ATTDEF
  5
A0
330
8D
100
AcDbEntity
  8
AM_6
100
AcDbText
 10
6.875
 20
-10.116
 30
0.0
 40
0.5
  1
0.317
100
AcDbAttributeDefinition
  3

  2
F
 70
     8
280
     0
  0
ATTDEF
  5
A1
330
8D
100
AcDbEntity
  8
AM_6
100
AcDbText
 10
6.875
 20
-10.616
 30
0.0
 40
0.5
  1
3/8-16
100
AcDbAttributeDefinition
  3

  2
CS
 70
     8
280
     0
  0
ATTDEF
  5
A2
330
8D
100
AcDbEntity
  8
AM_6
100
AcDbText
 10
6.875
 20
-11.116
 30
0.0
 40
0.5
  1
0.3750
100
AcDbAttributeDefinition
  3

  2
NDM
 70
     8
280
     0
  0
ATTDEF
  5
A3
330
8D
100
AcDbEntity
  8
AM_6
100
AcDbText
 10
6.875
 20
-11.616
 30
0.0
 40
0.5
  1
0.3070
100
AcDbAttributeDefinition
  3

  2
KDM
 70
     8
280
     0
  0
ATTDEF
  5
A4
330
8D
100
AcDbEntity
  8
AM_6
100
AcDbText
 10
6.875
 20
-12.116
 30
0.0
 40
0.5
  1
1
100
AcDbAttributeDefinition
  3

  2
DD
 70
     8
280
     0
  0
ATTDEF
  5
A5
330
8D
100
AcDbEntity
  8
AM_6
100
AcDbText
 10
6.875
 20
-12.616
 30
0.0
 40
0.5
  1
baldor
100
AcDbAttributeDefinition
  3

  2
COMPANY
 70
     8
280
     0
  0
LINE
  5
A8
330
8D
100
AcDbEntity
  8
AM_9
100
AcDbLine
 10
1.225563850703691
 20
-2.797077735467822
 30
0.0
 11
1.217730804683094
 21
-2.787307682241181
 31
0.0
  0
LINE
  5
A9
330
8D
100
AcDbEntity
  8
AM_9
100
AcDbLine
 10
1.217816328964345
 20
-3.078585644470063
 30
0.0
 11
1.225563850703691
 21
-3.068922264532177
 31
0.0
  0
LWPOLYLINE
  5
AA
330
8D
100
AcDbEntity
  8
AM_9
100
AcDbPolyline
 90
       26
 70
     0
 43
0.0
 10
1.217684314164586
 20
-2.787249695645517
 10
1.216999396072269
 20
-2.78640969285707
 10
1.206362002735438
 20
-2.77658177062218
 10
1.19468364102338
 20
-2.771357915908208
 10
1.181775253773751
 20
-2.770961035959137
 10
1.16838690396558
 20
-2.775594424418918
 10
1.154820036961259
 20
-2.785330223445363
 10
1.141698668648096
 20
-2.799882177892986
 10
1.12979606196759
 20
-2.818611480547188
 10
1.119434091176485
 20
-2.841240600676214
 10
1.111592513900957
 20
-2.865799513172281
 10
1.106115373294208
 20
-2.892640596075073
 10
1.103518187254809
 20
-2.918806879059509
 10
1.103419024349801
 20
-2.945413312255015
 10
1.10569528589723
 20
-2.970358590402661
 10
1.110111606136304
 20
-2.994272864413716
 10
1.116550127683316
 20
-3.016771781918626
 10
1.124630728156065
 20
-3.037080400446549
 10
1.134619270852658
 20
-3.055728298023222
 10
1.145646884395766
 20
-3.071088966392302
 10
1.158137890744344
 20
-3.083524895961858
 10
1.170906775726575
 20
-3.091655558172997
 10
1.184122051604662
 20
-3.09533772390218
 10
1.196798082246531
 20
-3.094068765370067
 10
1.208773773828
 20
-3.087661891818041
 10
1.217685908410276
 20
-3.07874831614948
  0
LWPOLYLINE
  5
AB
330
8D
100
AcDbEntity
  8
AM_9
100
AcDbPolyline
 90
        6
 70
     0
 43
0.0
 10
1.250316389556263
 20
-2.932999999999999
 10
1.249881487022084
 20
-2.912284004110846
 10
1.248175629209625
 20
-2.887345489956255
 10
1.245216622848759
 20
-2.863920787962261
 10
1.241041179679522
 20
-2.842317549032613
 10
1.231937313881441
 20
-2.812739795400335
  0
LWPOLYLINE
  5
AC
330
8D
100
AcDbEntity
  8
AM_9
100
AcDbPolyline
 90
        8
 70
     0
 43
0.0
 10
1.222563099857151
 20
-3.071893544311149
 10
1.22886418038631
 20
-3.06029549681806
 10
1.236632271926409
 20
-3.040013127851825
 10
1.242516554667284
 20
-3.016924217417115
 10
1.246803816034648
 20
-2.990954832298562
 10
1.24928127022974
 20
-2.964898493763942
 10
1.250293238592868
 20
-2.937814561680348
 10
1.250316389556263
 20
-2.932999999999999
  0
LWPOLYLINE
  5
AD
330
8D
100
AcDbEntity
  8
AM_9
100
AcDbPolyline
 90
        3
 70
     0
 43
0.0
 10
1.217685908410276
 20
-3.07874831614948
 10
1.219566981798516
 20
-3.076292117539706
 10
1.222563099857151
 20
-3.071893544311149
  0
LINE
  5
AE
330
8D
100
AcDbEntity
  8
AM_9
100
AcDbLine
 10
1.195284024933284
 20
-3.08665
 30
0.0
 11
1.656806198120635
 21
-3.08665
 31
0.0
  0
LINE
  5
AF
330
8D
100
AcDbEntity
  8
AM_9
100
AcDbLine
 10
1.668648582102528
 20
-2.77935
 30
0.0
 11
1.195284024933284
 21
-2.77935
 31
0.0
  0
ELLIPSE
  5
B0
330
8D
100
AcDbEntity
  8
AM_9
100
AcDbEllipse
 10
1.668648582102532
 20
-2.93300000000006
 30
0.0
 11
-2.822504710336067E-17
 21
-0.1536500000000656
 31
0.0
210
0.0
220
0.0
230
1.0
 40
0.4226182617406748
 41
3.449612544764388
 42
4.71238898038469
  0
LINE
  5
B1
330
8D
100
AcDbEntity
  8
AM_9
100
AcDbLine
 10
1.660719268649208
 20
-2.769200241271257
 30
0.0
 11
1.638368756332123
 21
-2.79707773546782
 31
0.0
  0
LWPOLYLINE
  5
B2
330
8D
100
AcDbEntity
  8
AM_9
100
AcDbPolyline
 90
       39
 70
     0
 43
0.0
 10
-0.1210596296870884
 20
-2.816363459354553
 10
-0.1380706071265528
 20
-2.834170115771167
 10
-0.1525342706923626
 20
-2.854801959092453
 10
-0.1643967438447603
 20
-2.879586369756576
 10
-0.1718671759439518
 20
-2.906997189190408
 10
-0.1741232344449831
 20
-2.932611386332227
 10
-0.1718626982362593
 20
-2.959028432271583
 10
-0.1655966254627791
 20
-2.983097425947526
 10
-0.1552349511698023
 20
-3.00643954382495
 10
-0.1412573633607875
 20
-3.027833282325705
 10
-0.1236562657339956
 20
-3.047239242274472
 10
-0.1024002684883928
 20
-3.064298195922008
 10
-0.0781056686083398
 20
-3.07815026822706
 10
-0.0508998687165548
 20
-3.088363865708289
 10
-0.0216203839008335
 20
-3.094235321434017
 10
0.0085516278986318
 20
-3.095302778927689
 10
0.0393336208691112
 20
-3.091276415948909
 10
0.0684408241020605
 20
-3.08235444446062
 10
0.0963944229988956
 20
-3.068207843527011
 10
0.1203075545524224
 20
-3.050312488178497
 10
0.1413136064491949
 20
-3.027760408416192
 10
0.1565972625778261
 20
-3.003884898216064
 10
0.1676657698532875
 20
-2.976727222146959
 10
0.1730481175155231
 20
-2.950982440638728
 10
0.173844925862247
 20
-2.923834429079858
 10
0.1702736894798117
 20
-2.899111648408038
 10
0.1624509144122013
 20
-2.874652034726319
 10
0.150986632057124
 20
-2.852235988033971
 10
0.1357406240249631
 20
-2.831401601548725
 10
0.116822232929838
 20
-2.812657391076654
 10
0.0946425783032141
 20
-2.796716068578944
 10
0.0691608229352961
 20
-2.783935850865356
 10
0.0412292577860673
 20
-2.775146488292912
 10
0.0116219643831877
 20
-2.77086444620377
 10
-0.0191288069462426
 20
-2.771489163129055
 10
-0.0490551602363756
 20
-2.777117688413546
 10
-0.0784268920163274
 20
-2.788001183284306
 10
-0.10056079052441
 20
-2.800467052695836
 10
-0.1210596296870885
 20
-2.816363459354553
  0
LINE
  5
B3
330
8D
100
AcDbEntity
  8
AM_9
100
AcDbLine
 10
1.223524049242601
 20
-2.795654791227103
 30
0.0
 11
1.217684314164586
 21
-2.787249695645517
 31
0.0
  0
LWPOLYLINE
  5
B4
330
8D
100
AcDbEntity
  8
AM_9
100
AcDbPolyline
 90
        3
 70
     0
 43
0.0
 10
1.231937313881441
 20
-2.812739795400335
 10
1.224952589298932
 20
-2.798102157395506
 10
1.223524049242601
 20
-2.795654791227103
  0
LINE
  5
B5
330
8D
100
AcDbEntity
  8
AM_9
100
AcDbLine
 10
1.31
 20
-3.25
 30
0.0
 11
1.31
 21
-2.616
 31
0.0
  0
LINE
  5
B6
330
8D
100
AcDbEntity
  8
AM_9
100
AcDbLine
 10
-1.31
 20
-2.616
 30
0.0
 11
-1.31
 21
-3.25
 31
0.0
  0
LINE
  5
B7
330
8D
100
AcDbEntity
  8
AM_9
100
AcDbLine
 10
0.15365
 20
-2.932999999999999
 30
0.0
 11
-0.15365
 21
-2.932999999999999
 31
0.0
  0
LINE
  5
B8
330
8D
100
AcDbEntity
  8
AM_9
100
AcDbLine
 10
1.71591683909683
 20
-2.932999999999999
 30
0.0
 11
1.615946645935733
 21
-2.932999999999999
 31
0.0
  0
ELLIPSE
  5
B9
330
8D
100
AcDbEntity
  8
AM_9
100
AcDbEllipse
 10
1.195284024933284
 20
-2.932999999999999
 30
0.0
 11
-2.822504710334875E-17
 21
-0.1536500000000007
 31
0.0
210
0.0
220
0.0
230
1.0
 40
0.4226182617406985
 41
0.0
 42
6.283185307179586
  0
LINE
  5
BC
330
8D
100
AcDbEntity
  8
AM_7
100
AcDbLine
 10
-0.1613324999999999
 20
-2.932999999999999
 30
0.0
 11
0.1613324999999999
 21
-2.932999999999999
 31
0.0
  0
LWPOLYLINE
  5
BE
330
8D
100
AcDbEntity
  8
AM_4
100
AcDbPolyline
 90
       11
 70
     0
 43
0.0
 10
1.656849998542957
 20
-3.086649999327498
 10
1.64935923158306
 20
-3.085646716688784
 10
1.638291466109967
 20
-3.080547203614805
 10
1.627459803395313
 20
-3.07131980031357
 10
1.617214338916251
 20
-3.058153009545071
 10
1.607919774943726
 20
-3.041480178782845
 10
1.599910109475777
 20
-3.021658694300661
 10
1.593503412558469
 20
-2.999332860650557
 10
1.588981005999465
 20
-2.975098999109214
 10
1.586498691446531
 20
-2.949670305966225
 10
1.586046247263913
 20
-2.932999999999999
  0
ELLIPSE
  5
BF
330
8D
100
AcDbEntity
  8
AM_4
100
AcDbEllipse
 10
1.668648582102523
 20
-2.932999999999995
 30
0.0
 11
-2.822504710334769E-17
 21
-0.153649999999995
 31
0.0
210
0.0
220
0.0
230
1.0
 40
0.4226182617406985
 41
1.570796326794897
 42
3.44961254476438
  0
LWPOLYLINE
  5
C0
330
8D
100
AcDbEntity
  8
AM_4
100
AcDbPolyline
 90
       14
 70
     0
 43
0.0
 10
1.660952272291752
 20
-2.768909620235249
 10
1.665605381725764
 20
-2.763524472185906
 10
1.678711108023097
 20
-2.752236115849509
 10
1.69144615883847
 20
-2.7465221591861
 10
1.704009864618884
 20
-2.745865128966385
 10
1.715651105535827
 20
-2.750158322171802
 10
1.726477909908139
 20
-2.759076016102374
 10
1.736289552648598
 20
-2.772454347795304
 10
1.744878175070563
 20
-2.789762372346376
 10
1.752356864937151
 20
-2.811337160993076
 10
1.758342321238348
 20
-2.835939649917972
 10
1.76295676419834
 20
-2.864219315209771
 10
1.765894760625679
 20
-2.89429387625647
 10
1.76719475769525
 20
-2.932999999999999
  0
LINE
  5
C1
330
8D
100
AcDbEntity
  8
AM_4
100
AcDbLine
 10
-1.722458333333333
 20
-3.25
 30
0.0
 11
1.722458333331688
 21
-3.25
 31
0.0
  0
ARC
  5
C2
330
8D
100
AcDbEntity
  8
AM_4
100
AcDbCircle
 10
1.722458333333333
 20
-3.144333333333333
 30
0.0
 40
0.105666666666667
100
AcDbArc
 50
270.0
 51
0.0
  0
ARC
  5
C3
330
8D
100
AcDbEntity
  8
AM_4
100
AcDbCircle
 10
-1.722458333333333
 20
-3.144333333333333
 30
0.0
 40
0.1056666666666668
100
AcDbArc
 50
180.0
 51
270.0
  0
LWPOLYLINE
  5
C4
330
8D
100
AcDbEntity
  8
AM_4
100
AcDbPolyline
 90
       20
 70
     0
 43
0.0
 10
0.15365
 20
-2.932999999999999
 10
0.1515395991881519
 20
-2.958378581085125
 10
0.1450242496564725
 20
-2.98375716217025
 10
0.1346546261703944
 20
-3.007003068523618
 10
0.1201353245703577
 20
-3.028790533406881
 10
0.1026378893883346
 20
-3.047340658393713
 10
0.081686283635517
 20
-3.063137133692954
 10
0.0589983462357651
 20
-3.074871482833741
 10
0.0339445512609399
 20
-3.082853561651678
 10
0.0086983723729996
 20
-3.086403588022121
 10
-0.0175300423312108
 20
-3.085646716688784
 10
-0.042468334342848
 20
-3.080664359539274
 10
-0.0669025809757279
 20
-3.07131980031357
 10
-0.0888176653901712
 20
-3.058378406492663
 10
-0.1088134794556346
 20
-3.041480178782845
 10
-0.1252698961683864
 20
-3.02197064467543
 10
-0.1385939179686963
 20
-2.999332860650557
 10
-0.1476659114004807
 20
-2.97546293807858
 10
-0.1527429978722181
 20
-2.949670305966225
 10
-0.15365
 20
-2.932999999999999
  0
LINE
  5
C5
330
8D
100
AcDbEntity
  8
AM_4
100
AcDbLine
 10
-1.828125
 20
-3.144333333333333
 30
0.0
 11
1.828125
 21
-3.144333333333333
 31
0.0
  0
LWPOLYLINE
  5
C6
330
8D
100
AcDbEntity
  8
AM_4
100
AcDbPolyline
 90
       11
 70
     0
 43
0.0
 10
1.71591683909683
 20
-2.932999999999999
 10
1.715159463142617
 20
-2.958742001669664
 10
1.712912190944498
 20
-2.98375716217025
 10
1.709183101455433
 20
-3.007318464068364
 10
1.704033921022635
 20
-3.028790533406881
 10
1.697500187906907
 20
-3.047576072959489
 10
1.689711202061004
 20
-3.063137133692954
 10
1.680774652251414
 20
-3.07500015575863
 10
1.67090387148812
 20
-3.082853561651678
 10
1.660342766452992
 20
-3.086408641025081
 10
1.656849998542957
 20
-3.086649999327498
  0
LINE
  5
C7
330
8D
100
AcDbEntity
  8
AM_4
100
AcDbLine
 10
1.828125
 20
-3.144333333333333
 30
0.0
 11
1.828125
 21
-2.932999999999999
 31
0.0
  0
LINE
  5
C8
330
8D
100
AcDbEntity
  8
AM_4
100
AcDbLine
 10
-1.828125
 20
-2.932999999999999
 30
0.0
 11
-1.828125
 21
-3.144333333333333
 31
0.0
  0
LINE
  5
C9
330
8D
100
AcDbEntity
  8
AM_4
100
AcDbLine
 10
1.71591683909683
 20
-2.932999999999999
 30
0.0
 11
1.875
 21
-2.932999999999999
 31
0.0
  0
LINE
  5
CA
330
8D
100
AcDbEntity
  8
AM_4
100
AcDbLine
 10
0.15365
 20
-2.932999999999999
 30
0.0
 11
1.615946645935733
 21
-2.932999999999999
 31
0.0
  0
LWPOLYLINE
  5
CB
330
8D
100
AcDbEntity
  8
AM_4
100
AcDbPolyline
 90
        8
 70
     0
 43
0.0
 10
1.615946645935732
 20
-2.932999999999999
 10
1.616666315552194
 20
-2.909548747672894
 10
1.618800089558374
 20
-2.886437321172983
 10
1.624100299772152
 20
-2.855321107221946
 10
1.631874999123903
 20
-2.826448797452761
 10
1.641690499171764
 20
-2.801136994364871
 10
1.653245458117283
 20
-2.779702054368457
 10
1.660952272291752
 20
-2.768909620235249
  0
LINE
  5
CC
330
8D
100
AcDbEntity
  8
AM_4
100
AcDbLine
 10
-1.875
 20
-2.616
 30
0.0
 11
1.875
 21
-2.616
 31
0.0
  0
LINE
  5
CD
330
8D
100
AcDbEntity
  8
AM_4
100
AcDbLine
 10
1.875
 20
-2.932999999999999
 30
0.0
 11
1.875
 21
-2.616
 31
0.0
  0
LINE
  5
CE
330
8D
100
AcDbEntity
  8
AM_4
100
AcDbLine
 10
-1.875
 20
-2.616
 30
0.0
 11
-1.875
 21
-2.932999999999999
 31
0.0
  0
LINE
  5
CF
330
8D
100
AcDbEntity
  8
AM_4
100
AcDbLine
 10
-1.875
 20
-2.932999999999999
 30
0.0
 11
-0.15365
 21
-2.932999999999999
 31
0.0
  0
LWPOLYLINE
  5
D0
330
8D
100
AcDbEntity
  8
AM_4
100
AcDbPolyline
 90
       20
 70
     0
 43
0.0
 10
-0.1789417607470984
 20
-2.932999999999999
 10
-0.1775544043661239
 20
-2.909718660586491
 10
-0.1733262199381616
 20
-2.886437321172983
 10
-0.1630273679391601
 20
-2.855760661351643
 10
-0.1471956902587711
 20
-2.826448797452761
 10
-0.1274859376883898
 20
-2.801488540448501
 10
-0.1029704093318451
 20
-2.779702054368457
 10
-0.0768952656293091
 20
-2.763724132260832
 10
-0.0474915673137428
 20
-2.752236115849509
 10
-0.0188980122079816
 20
-2.746550516730776
 10
0.0111514790280457
 20
-2.745865128966385
 10
0.0391341337019712
 20
-2.750047077974398
 10
0.0667966569708152
 20
-2.759076016102374
 10
0.092027384873843
 20
-2.772236501685281
 10
0.1154068158291718
 20
-2.789762372346376
 10
0.1358485487913043
 20
-2.811025438991017
 10
0.1530620304673608
 20
-2.835939649917972
 10
0.1662962895631634
 20
-2.863822784430437
 10
0.1750804621692249
 20
-2.89429387625647
 10
0.1789417607470981
 20
-2.932999999999999
  0
ARC
  5
D1
330
8D
100
AcDbEntity
  8
AM_4
100
AcDbCircle
 10
0.0
 20
-2.932999999999999
 30
0.0
 40
0.15365
100
AcDbArc
 50
0.0
 51
179.9999991462263
  0
CIRCLE
  5
D3
330
8D
100
AcDbEntity
  8
AM_5
100
AcDbCircle
 10
0.0000000000000004
 20
-2.932999999999999
 30
0.0
 40
0.1875000000000003
  0
ENDBLK
  5
90
330
8D
100
AcDbEntity
  8
0
100
AcDbBlockEnd
  0
BLOCK
  5
D6
330
D4
100
AcDbEntity
  8
0
100
AcDbBlockBegin
  2
3_070007i_0_in_070549_4
 70
     2
 10
0.0
 20
0.0
 30
0.0
  3
3_070007i_0_in_070549_4
  1

  0
ATTDEF
  5
D8
330
D4
100
AcDbEntity
  8
AM_6
100
AcDbText
 10
6.9685
 20
-0.3125
 30
0.0
 40
0.5
  1
S-2000 Insert -Inch
100
AcDbAttributeDefinition
  3

  2
NN
 70
     8
280
     0
  0
ATTDEF
  5
D9
330
D4
100
AcDbEntity
  8
AM_6
100
AcDbText
 10
6.9685
 20
-0.8125
 30
0.0
 40
0.5
  1
S-2000 Bearings
100
AcDbAttributeDefinition
  3

  2
NT
 70
     8
280
     0
  0
ATTDEF
  5
DA
330
D4
100
AcDbEntity
  8
AM_6
100
AcDbText
 10
6.9685
 20
-1.3125
 30
0.0
 40
0.5
  1
070007i
100
AcDbAttributeDefinition
  3

  2
NB
 70
     8
280
     0
  0
ATTDEF
  5
DB
330
D4
100
AcDbEntity
  8
AM_6
100
AcDbText
 10
6.9685
 20
-1.8125
 30
0.0
 40
0.5
  1
$PN.i
100
AcDbAttributeDefinition
  3

  2
NBSYN
 70
     8
280
     0
  0
ATTDEF
  5
DC
330
D4
100
AcDbEntity
  8
AM_6
100
AcDbText
 10
6.9685
 20
-2.3125
 30
0.0
 40
0.5
  1
070007i
100
AcDbAttributeDefinition
  3

  2
LINA
 70
     8
280
     0
  0
ATTDEF
  5
DD
330
D4
100
AcDbEntity
  8
AM_6
100
AcDbText
 10
6.9685
 20
-2.8125
 30
0.0
 40
0.5
  1
2-3/16
100
AcDbAttributeDefinition
  3

  2
SS
 70
     8
280
     0
  0
ATTDEF
  5
DE
330
D4
100
AcDbEntity
  8
AM_6
100
AcDbText
 10
6.9685
 20
-3.3125
 30
0.0
 40
0.5
  1
2.62
100
AcDbAttributeDefinition
  3

  2
CC
 70
     8
280
     0
  0
ATTDEF
  5
DF
330
D4
100
AcDbEntity
  8
AM_6
100
AcDbText
 10
6.9685
 20
-3.8125
 30
0.0
 40
0.5
  1
2.187500
100
AcDbAttributeDefinition
  3

  2
SS1
 70
     8
280
     0
  0
ATTDEF
  5
E0
330
D4
100
AcDbEntity
  8
AM_6
100
AcDbText
 10
6.9685
 20
-4.3125
 30
0.0
 40
0.5
  1
070007
100
AcDbAttributeDefinition
  3

  2
PN
 70
     8
280
     0
  0
ATTDEF
  5
E1
330
D4
100
AcDbEntity
  8
AM_6
100
AcDbText
 10
6.9685
 20
-4.8125
 30
0.0
 40
0.5
  1
INS-S2-203R
100
AcDbAttributeDefinition
  3

  2
DESCRIPTION
 70
     8
280
     0
  0
ATTDEF
  5
E2
330
D4
100
AcDbEntity
  8
AM_6
100
AcDbText
 10
6.9685
 20
-5.3125
 30
0.0
 40
0.5
  1
Contact Seal
100
AcDbAttributeDefinition
  3

  2
ST
 70
     8
280
     0
  0
ATTDEF
  5
E3
330
D4
100
AcDbEntity
  8
AM_6
100
AcDbText
 10
6.9685
 20
-5.8125
 30
0.0
 40
0.5
  1
1
100
AcDbAttributeDefinition
  3

  2
ST1
 70
     8
280
     0
  0
ATTDEF
  5
E4
330
D4
100
AcDbEntity
  8
AM_6
100
AcDbText
 10
6.9685
 20
-6.3125
 30
0.0
 40
0.5
  1
3.9370
100
AcDbAttributeDefinition
  3

  2
A
 70
     8
280
     0
  0
ATTDEF
  5
E5
330
D4
100
AcDbEntity
  8
AM_6
100
AcDbText
 10
6.9685
 20
-6.8125
 30
0.0
 40
0.5
  1
1-3/64
100
AcDbAttributeDefinition
  3

  2
B
 70
     8
280
     0
  0
ATTDEF
  5
E6
330
D4
100
AcDbEntity
  8
AM_6
100
AcDbText
 10
6.9685
 20
-7.3125
 30
0.0
 40
0.5
  1
2-15/16
100
AcDbAttributeDefinition
  3

  2
C
 70
     8
280
     0
  0
ATTDEF
  5
E7
330
D4
100
AcDbEntity
  8
AM_6
100
AcDbText
 10
6.9685
 20
-7.8125
 30
0.0
 40
0.5
  1
1.050
100
AcDbAttributeDefinition
  3

  2
D
 70
     8
280
     0
  0
ATTDEF
  5
E8
330
D4
100
AcDbEntity
  8
AM_6
100
AcDbText
 10
6.9685
 20
-8.3125
 30
0.0
 40
0.5
  1
3-21/32
100
AcDbAttributeDefinition
  3

  2
E
 70
     8
280
     0
  0
ATTDEF
  5
E9
330
D4
100
AcDbEntity
  8
AM_6
100
AcDbText
 10
6.9685
 20
-8.8125
 30
0.0
 40
0.5
  1
0.40625
100
AcDbAttributeDefinition
  3

  2
F
 70
     8
280
     0
  0
ATTDEF
  5
EA
330
D4
100
AcDbEntity
  8
AM_6
100
AcDbText
 10
6.9685
 20
-9.3125
 30
0.0
 40
0.5
  1
1
100
AcDbAttributeDefinition
  3

  2
DD
 70
     8
280
     0
  0
ATTDEF
  5
EB
330
D4
100
AcDbEntity
  8
AM_6
100
AcDbText
 10
6.9685
 20
-9.8125
 30
0.0
 40
0.5
  1
baldor
100
AcDbAttributeDefinition
  3

  2
COMPANY
 70
     8
280
     0
  0
LINE
  5
EC
330
D4
100
AcDbEntity
  8
AM_9
100
AcDbLine
 10
1.187263201018011
 20
-2.728
 30
0.0
 11
0.991156738268439
 21
-2.728
 31
0.0
  0
LINE
  5
ED
330
D4
100
AcDbEntity
  8
AM_9
100
AcDbLine
 10
0.991230190518359
 20
-3.138
 30
0.0
 11
1.187263201018011
 21
-3.138
 31
0.0
  0
LWPOLYLINE
  5
EE
330
D4
100
AcDbEntity
  8
AM_9
100
AcDbPolyline
 90
       21
 70
     0
 43
0.0
 10
0.9912807621024943
 20
-2.728000000598485
 10
0.9817677725008773
 20
-2.729185919992238
 10
0.9665998142692884
 20
-2.735638227981815
 10
0.9512845801542088
 20
-2.747453382857473
 10
0.9363041615986458
 20
-2.764466311747424
 10
0.9223478978037626
 20
-2.786081848137523
 10
0.9098607191976659
 20
-2.812196050986026
 10
0.8996338345651546
 20
-2.841744082465577
 10
0.8922170350969668
 20
-2.874011661326747
 10
0.8879804805530923
 20
-2.908000272164695
 10
0.8872097125363625
 20
-2.942210247936746
 10
0.8897971433870957
 20
-2.976156960913158
 10
0.8955967158644388
 20
-3.008592788977798
 10
0.9042565973765444
 20
-3.038935554185032
 10
0.9155249208420962
 20
-3.066635862579424
 10
0.9287415117412195
 20
-3.09063019505583
 10
0.9435329512696529
 20
-3.11044781651697
 10
0.959080215576122
 20
-3.125237562367084
 10
0.9746693329036318
 20
-3.134449829596604
 10
0.9898184761551077
 20
-3.137971255466082
 10
0.9912667978224846
 20
-3.137999999263455
  0
LWPOLYLINE
  5
EF
330
D4
100
AcDbEntity
  8
AM_9
100
AcDbPolyline
 90
       11
 70
     0
 43
0.0
 10
0.9912667978224846
 20
-3.137999999263455
 10
1.003802918371051
 20
-3.135685776092236
 10
1.016521393800403
 20
-3.12784402015236
 10
1.027673597480799
 20
-3.114635464307554
 10
1.037179259771529
 20
-3.096502689581855
 10
1.045069455505341
 20
-3.073527891358673
 10
1.051248706954836
 20
-3.046623733254016
 10
1.055800005746392
 20
-3.016187443334288
 10
1.058759614214757
 20
-2.983335312723606
 10
1.059948640093625
 20
-2.95836813203633
 10
1.060343758159011
 20
-2.933
  0
LWPOLYLINE
  5
F0
330
D4
100
AcDbEntity
  8
AM_9
100
AcDbPolyline
 90
       12
 70
     0
 43
0.0
 10
1.085999105122733
 20
-2.932999999999999
 10
1.08616176233639
 20
-2.922656547522722
 10
1.088739689646789
 20
-2.888648783836643
 10
1.094409877144046
 20
-2.856093384884042
 10
1.102847170245061
 20
-2.825678600926211
 10
1.113789093062649
 20
-2.798057946768477
 10
1.126645538598998
 20
-2.774199030622119
 10
1.141018527423363
 20
-2.754656766026592
 10
1.156192642157241
 20
-2.740160917379447
 10
1.171520680293251
 20
-2.731237237715455
 10
1.186529515648283
 20
-2.728007330194224
 10
1.187258774405259
 20
-2.728000000267581
  0
LWPOLYLINE
  5
F1
330
D4
100
AcDbEntity
  8
AM_9
100
AcDbPolyline
 90
       11
 70
     0
 43
0.0
 10
1.187270413385766
 20
-3.137999999289626
 10
1.177563519845764
 20
-3.136757559447961
 10
1.16249332011631
 20
-3.130173984341719
 10
1.147413980184277
 20
-3.118173897281876
 10
1.13281099579651
 20
-3.1009521331698
 10
1.1193126935682
 20
-3.07909848665385
 10
1.107383045598463
 20
-3.052855437236501
 10
1.097685640642459
 20
-3.023212331163462
 10
1.09071833186564
 20
-2.990921540617336
 10
1.086793840225052
 20
-2.956958571218725
 10
1.085999105122733
 20
-2.932999999999999
  0
LWPOLYLINE
  5
F2
330
D4
100
AcDbEntity
  8
AM_9
100
AcDbPolyline
 90
        3
 70
     0
 43
0.0
 10
1.25828873697357
 20
-2.895226014710914
 10
1.258870822737971
 20
-2.908790928435695
 10
1.259272592436419
 20
-2.933
  0
LWPOLYLINE
  5
F3
330
D4
100
AcDbEntity
  8
AM_9
100
AcDbPolyline
 90
       10
 70
     0
 43
0.0
 10
1.187258774405259
 20
-2.728000000267581
 10
1.200580534138511
 20
-2.7305947362227
 10
1.213491982702566
 20
-2.738774543775759
 10
1.2249567819925
 20
-2.752366491030943
 10
1.234844940827152
 20
-2.770914395415116
 10
1.243118787522108
 20
-2.794224482383055
 10
1.249669078492284
 20
-2.821428635743626
 10
1.25451480876272
 20
-2.852011909521857
 10
1.257665892774119
 20
-2.884927054067791
 10
1.25828873697357
 20
-2.895226014710914
  0
LWPOLYLINE
  5
F4
330
D4
100
AcDbEntity
  8
AM_9
100
AcDbPolyline
 90
       11
 70
     0
 43
0.0
 10
1.060343758159011
 20
-2.933
 10
1.059626033961841
 20
-2.898926809952118
 10
1.057461561710305
 20
-2.865822377970733
 10
1.053789698130665
 20
-2.834658066171018
 10
1.048547038566564
 20
-2.806228904633593
 10
1.041552926499962
 20
-2.781081647604525
 10
1.032824503607823
 20
-2.760181480916717
 10
1.022247645105918
 20
-2.744069561302902
 10
1.01000597544279
 20
-2.733329080184506
 10
0.9964392565428248
 20
-2.728396399590419
 10
0.9912807621024943
 20
-2.728000000598485
  0
LINE
  5
F5
330
D4
100
AcDbEntity
  8
AM_9
100
AcDbLine
 10
-1.09375
 20
-0.3125
 30
0.0
 11
-1.09375
 21
-3.25
 31
0.0
  0
LINE
  5
F6
330
D4
100
AcDbEntity
  8
AM_9
100
AcDbLine
 10
1.09375
 20
-3.25
 30
0.0
 11
1.09375
 21
-0.3125
 31
0.0
  0
LWPOLYLINE
  5
F7
330
D4
100
AcDbEntity
  8
AM_9
100
AcDbPolyline
 90
       11
 70
     0
 43
0.0
 10
1.258726174427535
 20
-2.961232731430796
 10
1.258465837888455
 20
-2.967176491401275
 10
1.25604770321035
 20
-3.000383885282032
 10
1.251978988272666
 20
-3.031651355867768
 10
1.246239731656208
 20
-3.060163968963368
 10
1.238719545099824
 20
-3.085280176973312
 10
1.22948190780081
 20
-3.106128295183939
 10
1.218495110255592
 20
-3.122131762130507
 10
1.205971968495443
 20
-3.13277206533389
 10
1.192238957187316
 20
-3.137632720287751
 10
1.187270413385766
 20
-3.137999999289626
  0
LINE
  5
F8
330
D4
100
AcDbEntity
  8
AM_9
100
AcDbLine
 10
1.259272592436419
 20
-2.933
 30
0.0
 11
1.258726174427535
 21
-2.961232731430796
 31
0.0
  0
LWPOLYLINE
  5
F9
330
D4
100
AcDbEntity
  8
AM_9
100
AcDbPolyline
 90
       21
 70
     0
 43
0.0
 10
-0.2050000000000001
 20
-2.932999999999999
 10
-0.2047633457483493
 20
-2.923152551704021
 10
-0.2001448715926319
 20
-2.888648783836642
 10
-0.1902039849299882
 20
-2.856531417452965
 10
-0.1746628675501592
 20
-2.825678600926211
 10
-0.1546295751160205
 20
-2.798409158931824
 10
-0.1296427866278933
 20
-2.774199030622119
 10
-0.1014919388188296
 20
-2.754886591311056
 10
-0.0695563671712618
 20
-2.740160917379447
 10
-0.0366688362279888
 20
-2.731306181429165
 10
-0.0017335875807116
 20
-2.728007330194224
 10
0.0319009665459805
 20
-2.730497337465819
 10
0.0655856093551429
 20
-2.738774543775759
 10
0.0964814979249858
 20
-2.752123465982591
 10
0.12551197865683
 20
-2.770914395415116
 10
0.1505419316099102
 20
-2.793852140414747
 10
0.1719791576847949
 20
-2.821428635743626
 10
0.1881198969557809
 20
-2.851538939551793
 10
0.1992836969483429
 20
-2.884927054067791
 10
0.203544767014277
 20
-2.908617058809412
 10
0.2050000000000001
 20
-2.933
  0
LWPOLYLINE
  5
FA
330
D4
100
AcDbEntity
  8
AM_9
100
AcDbPolyline
 90
       20
 70
     0
 43
0.0
 10
0.2050000000000001
 20
-2.933
 10
0.2022123957651323
 20
-2.966691942641016
 10
0.1936089150950906
 20
-3.000383885282032
 10
0.1799288980105058
 20
-3.031237424949583
 10
0.1607928014479619
 20
-3.060163968963368
 10
0.1375900678653783
 20
-3.084967013607561
 10
0.1097797495292406
 20
-3.106128295183939
 10
0.0795037556076581
 20
-3.121955425548667
 10
0.0460013251138731
 20
-3.13277206533389
 10
0.0124067901828451
 20
-3.137624220358585
 10
-0.0225356821021837
 20
-3.136757559447961
 10
-0.0555671354045747
 20
-3.130325349265951
 10
-0.0879524176213551
 20
-3.118173897281876
 10
-0.1171300288064872
 20
-3.101242552143598
 10
-0.1438062314277615
 20
-3.07909848665385
 10
-0.1660134283604555
 20
-3.053268622691074
 10
-0.1840835009066647
 20
-3.023212331163461
 10
-0.1965010689564304
 20
-2.991415151279272
 10
-0.2035951543263181
 20
-2.956958571218725
 10
-0.2050000000000001
 20
-2.932999999999999
  0
LINE
  5
FB
330
D4
100
AcDbEntity
  8
AM_9
100
AcDbLine
 10
-1.31
 20
-2.616
 30
0.0
 11
-1.31
 21
-3.25
 31
0.0
  0
LINE
  5
FC
330
D4
100
AcDbEntity
  8
AM_9
100
AcDbLine
 10
1.31
 20
-3.25
 30
0.0
 11
1.31
 21
-2.616
 31
0.0
  0
LINE
  5
FD
330
D4
100
AcDbEntity
  8
AM_9
100
AcDbLine
 10
-1.31
 20
-0.3125
 30
0.0
 11
-1.31
 21
-0.5152499999999999
 31
0.0
  0
LINE
  5
FE
330
D4
100
AcDbEntity
  8
AM_9
100
AcDbLine
 10
1.31
 20
-0.5152499999999999
 30
0.0
 11
1.31
 21
-0.3125
 31
0.0
  0
LINE
  5
FF
330
D4
100
AcDbEntity
  8
AM_9
100
AcDbLine
 10
1.31
 20
-0.3125
 30
0.0
 11
-1.31
 21
-0.3125
 31
0.0
  0
LINE
  5
100
330
D4
100
AcDbEntity
  8
AM_9
100
AcDbLine
 10
-1.5748
 20
-1.8859375
 30
0.0
 11
-1.5748
 21
-2.046875
 31
0.0
  0
LINE
  5
101
330
D4
100
AcDbEntity
  8
AM_9
100
AcDbLine
 10
1.5748
 20
-2.046875
 30
0.0
 11
1.5748
 21
-1.8859375
 31
0.0
  0
LINE
  5
102
330
D4
100
AcDbEntity
  8
AM_9
100
AcDbLine
 10
1.470112500000001
 20
-0.5152499999999999
 30
0.0
 11
-1.470112500000001
 21
-0.5152499999999999
 31
0.0
  0
ARC
  5
103
330
D4
100
AcDbEntity
  8
AM_9
100
AcDbCircle
 10
-1.470112500000001
 20
-0.6199374999999984
 30
0.0
 40
0.1046874999999985
100
AcDbArc
 50
90.0
 51
180.0
  0
ARC
  5
104
330
D4
100
AcDbEntity
  8
AM_9
100
AcDbCircle
 10
1.470112500000001
 20
-0.6199374999999989
 30
0.0
 40
0.1046874999999989
100
AcDbArc
 50
0.0
 51
90.0
  0
LINE
  5
105
330
D4
100
AcDbEntity
  8
AM_9
100
AcDbLine
 10
-1.5748
 20
-0.6199375
 30
0.0
 11
-1.5748
 21
-0.8390624999999998
 31
0.0
  0
LINE
  5
106
330
D4
100
AcDbEntity
  8
AM_9
100
AcDbLine
 10
1.5748
 20
-0.8390624999999998
 30
0.0
 11
1.5748
 21
-0.6199375
 31
0.0
  0
LINE
  5
107
330
D4
100
AcDbEntity
  8
AM_9
100
AcDbLine
 10
1.5748
 20
-0.6199375
 30
0.0
 11
-1.5748
 21
-0.6199375
 31
0.0
  0
LINE
  5
108
330
D4
100
AcDbEntity
  8
AM_9
100
AcDbLine
 10
-1.88976
 20
-1.310156249999997
 30
0.0
 11
-1.88976
 21
-1.414843750000003
 31
0.0
  0
LINE
  5
109
330
D4
100
AcDbEntity
  8
AM_9
100
AcDbLine
 10
1.88976
 20
-1.414843750000003
 30
0.0
 11
1.88976
 21
-1.310156249999997
 31
0.0
  0
LINE
  5
10A
330
D4
100
AcDbEntity
  8
AM_9
100
AcDbLine
 10
-1.88976
 20
-1.414843750000003
 30
0.0
 11
-1.9685
 21
-1.460304310195994
 31
0.0
  0
LINE
  5
10B
330
D4
100
AcDbEntity
  8
AM_9
100
AcDbLine
 10
1.968499999999999
 20
-1.460304310195994
 30
0.0
 11
1.88976
 21
-1.414843750000003
 31
0.0
  0
LINE
  5
10C
330
D4
100
AcDbEntity
  8
AM_9
100
AcDbLine
 10
1.88976
 20
-1.414843750000003
 30
0.0
 11
-1.88976
 21
-1.414843750000003
 31
0.0
  0
LINE
  5
10D
330
D4
100
AcDbEntity
  8
AM_9
100
AcDbLine
 10
1.88976
 20
-1.310156249999997
 30
0.0
 11
1.9685
 21
-1.264695689804006
 31
0.0
  0
LINE
  5
10E
330
D4
100
AcDbEntity
  8
AM_9
100
AcDbLine
 10
-1.968499999999999
 20
-1.264695689804006
 30
0.0
 11
-1.88976
 21
-1.310156249999997
 31
0.0
  0
LINE
  5
10F
330
D4
100
AcDbEntity
  8
AM_9
100
AcDbLine
 10
1.88976
 20
-1.310156249999997
 30
0.0
 11
-1.88976
 21
-1.310156249999997
 31
0.0
  0
LINE
  5
110
330
D4
100
AcDbEntity
  8
AM_9
100
AcDbLine
 10
-1.9685
 20
-0.94375
 30
0.0
 11
-1.9685
 21
-1.264695689804006
 31
0.0
  0
LINE
  5
111
330
D4
100
AcDbEntity
  8
AM_9
100
AcDbLine
 10
1.9685
 20
-1.264695689804006
 30
0.0
 11
1.9685
 21
-0.94375
 31
0.0
  0
LINE
  5
112
330
D4
100
AcDbEntity
  8
AM_9
100
AcDbLine
 10
1.9685
 20
-1.264695689804006
 30
0.0
 11
-1.9685
 21
-1.264695689804006
 31
0.0
  0
LINE
  5
113
330
D4
100
AcDbEntity
  8
AM_9
100
AcDbLine
 10
1.8638125
 20
-1.8859375
 30
0.0
 11
-1.8638125
 21
-1.8859375
 31
0.0
  0
ARC
  5
114
330
D4
100
AcDbEntity
  8
AM_9
100
AcDbCircle
 10
-1.8638125
 20
-1.781250000000001
 30
0.0
 40
0.1046874999999996
100
AcDbArc
 50
180.0
 51
270.0
  0
ARC
  5
115
330
D4
100
AcDbEntity
  8
AM_9
100
AcDbCircle
 10
1.8638125
 20
-1.78125
 30
0.0
 40
0.1046874999999998
100
AcDbArc
 50
270.0
 51
0.0
  0
LINE
  5
116
330
D4
100
AcDbEntity
  8
AM_9
100
AcDbLine
 10
1.863812501559965
 20
-0.8390625000000002
 30
0.0
 11
-1.863812501559965
 21
-0.8390625000000002
 31
0.0
  0
ARC
  5
117
330
D4
100
AcDbEntity
  8
AM_9
100
AcDbCircle
 10
-1.863812500000001
 20
-0.9437499999999992
 30
0.0
 40
0.104687499999999
100
AcDbArc
 50
90.0
 51
180.0
  0
ARC
  5
118
330
D4
100
AcDbEntity
  8
AM_9
100
AcDbCircle
 10
1.863812500000001
 20
-0.9437499999999992
 30
0.0
 40
0.1046874999999992
100
AcDbArc
 50
0.0
 51
90.0
  0
LINE
  5
119
330
D4
100
AcDbEntity
  8
AM_9
100
AcDbLine
 10
1.9685
 20
-0.94375
 30
0.0
 11
-1.9685
 21
-0.94375
 31
0.0
  0
LINE
  5
11A
330
D4
100
AcDbEntity
  8
AM_9
100
AcDbLine
 10
-1.9685
 20
-1.460304310195994
 30
0.0
 11
-1.9685
 21
-1.781250000000001
 31
0.0
  0
LINE
  5
11B
330
D4
100
AcDbEntity
  8
AM_9
100
AcDbLine
 10
1.9685
 20
-1.781250000000001
 30
0.0
 11
1.9685
 21
-1.460304310195994
 31
0.0
  0
LINE
  5
11C
330
D4
100
AcDbEntity
  8
AM_9
100
AcDbLine
 10
1.9685
 20
-1.460304310195994
 30
0.0
 11
-1.9685
 21
-1.460304310195994
 31
0.0
  0
LINE
  5
11D
330
D4
100
AcDbEntity
  8
AM_9
100
AcDbLine
 10
1.9685
 20
-1.781250000000001
 30
0.0
 11
-1.9685
 21
-1.781250000000001
 31
0.0
  0
LINE
  5
11E
330
D4
100
AcDbEntity
  8
AM_4
100
AcDbLine
 10
-1.31
 20
-2.20975
 30
0.0
 11
-1.31
 21
-2.616
 31
0.0
  0
LINE
  5
11F
330
D4
100
AcDbEntity
  8
AM_4
100
AcDbLine
 10
1.31
 20
-2.616
 30
0.0
 11
1.31
 21
-2.20975
 31
0.0
  0
LINE
  5
120
330
D4
100
AcDbEntity
  8
AM_4
100
AcDbLine
 10
1.4701125
 20
-2.20975
 30
0.0
 11
-1.4701125
 21
-2.20975
 31
0.0
  0
ARC
  5
121
330
D4
100
AcDbEntity
  8
AM_4
100
AcDbCircle
 10
-1.4701125
 20
-2.1050625
 30
0.0
 40
0.1046874999999994
100
AcDbArc
 50
179.9999991462263
 51
270.0
  0
ARC
  5
122
330
D4
100
AcDbEntity
  8
AM_4
100
AcDbCircle
 10
1.4701125
 20
-2.1050625
 30
0.0
 40
0.1046875000000003
100
AcDbArc
 50
270.0
 51
0.0
  0
LINE
  5
123
330
D4
100
AcDbEntity
  8
AM_4
100
AcDbLine
 10
-1.5748
 20
-2.046875
 30
0.0
 11
-1.5748
 21
-2.1050625
 31
0.0
  0
LINE
  5
124
330
D4
100
AcDbEntity
  8
AM_4
100
AcDbLine
 10
1.5748
 20
-2.1050625
 30
0.0
 11
1.5748
 21
-2.046875
 31
0.0
  0
LINE
  5
125
330
D4
100
AcDbEntity
  8
AM_4
100
AcDbLine
 10
1.5748
 20
-2.1050625
 30
0.0
 11
-1.5748
 21
-2.1050625
 31
0.0
  0
ENDBLK
  5
D7
330
D4
100
AcDbEntity
  8
0
100
AcDbBlockEnd
  0
BLOCK
  5
128
330
126
100
AcDbEntity
  8
0
100
AcDbBlockBegin
  2
4_405015E_Inch_0_in_070549_4
 70
     2
 10
0.0
 20
0.0
 30
0.0
  3
4_405015E_Inch_0_in_070549_4
  1

  0
ATTDEF
  5
12A
330
126
100
AcDbEntity
  8
AM_6
100
AcDbText
 10
5.21875
 20
-1.052096757229538
 30
0.0
 40
0.5
  1
405015E -Inch
100
AcDbAttributeDefinition
  3

  2
NN
 70
     8
280
     0
  0
ATTDEF
  5
12B
330
126
100
AcDbEntity
  8
AM_6
100
AcDbText
 10
5.21875
 20
-1.552096757229538
 30
0.0
 40
0.5
  1
Grease Fitting
100
AcDbAttributeDefinition
  3

  2
NT
 70
     8
280
     0
  0
ATTDEF
  5
12C
330
126
100
AcDbEntity
  8
AM_6
100
AcDbText
 10
5.21875
 20
-2.052096757229538
 30
0.0
 40
0.5
  1
405015E-Inch
100
AcDbAttributeDefinition
  3

  2
NB
 70
     8
280
     0
  0
ATTDEF
  5
12D
330
126
100
AcDbEntity
  8
AM_6
100
AcDbText
 10
5.21875
 20
-2.552096757229538
 30
0.0
 40
0.5
  1
$MN.-Inch
100
AcDbAttributeDefinition
  3

  2
NBSYN
 70
     8
280
     0
  0
ATTDEF
  5
12E
330
126
100
AcDbEntity
  8
AM_6
100
AcDbText
 10
5.21875
 20
-3.052096757229538
 30
0.0
 40
0.5
  1
405015E
100
AcDbAttributeDefinition
  3

  2
LINA
 70
     8
280
     0
  0
ATTDEF
  5
12F
330
126
100
AcDbEntity
  8
AM_6
100
AcDbText
 10
5.21875
 20
-3.552096757229538
 30
0.0
 40
0.5
  1
405015E
100
AcDbAttributeDefinition
  3

  2
MN
 70
     8
280
     0
  0
ATTDEF
  5
130
330
126
100
AcDbEntity
  8
AM_6
100
AcDbText
 10
5.21875
 20
-4.052096757229538
 30
0.0
 40
0.5
  1
1/8 x 27PTF
100
AcDbAttributeDefinition
  3

  2
T
 70
     8
280
     0
  0
ATTDEF
  5
131
330
126
100
AcDbEntity
  8
AM_6
100
AcDbText
 10
5.21875
 20
-4.552096757229538
 30
0.0
 40
0.5
  1
baldor
100
AcDbAttributeDefinition
  3

  2
COMPANY
 70
     8
280
     0
  0
CIRCLE
  5
132
330
126
100
AcDbEntity
  8
AM_9
100
AcDbCircle
 10
0.0
 20
-1.3046875
 30
0.0
 40
0.161902872472269
  0
CIRCLE
  5
133
330
126
100
AcDbEntity
  8
AM_9
100
AcDbCircle
 10
0.0
 20
-1.3046875
 30
0.0
 40
0.1986176267812154
  0
CIRCLE
  5
134
330
126
100
AcDbEntity
  8
AM_9
100
AcDbCircle
 10
0.0
 20
-1.3046875
 30
0.0
 40
0.2057518972230696
  0
CIRCLE
  5
135
330
126
100
AcDbEntity
  8
AM_9
100
AcDbCircle
 10
0.0
 20
-1.3046875
 30
0.0
 40
0.1188200907348975
  0
CIRCLE
  5
136
330
126
100
AcDbEntity
  8
AM_9
100
AcDbCircle
 10
0.0
 20
-1.3046875
 30
0.0
 40
0.105
  0
LINE
  5
137
330
126
100
AcDbEntity
  8
AM_4
100
AcDbLine
 10
0.0
 20
-1.557278242770461
 30
0.0
 11
0.21875
 21
-1.43098287138523
 31
0.0
  0
LINE
  5
138
330
126
100
AcDbEntity
  8
AM_4
100
AcDbLine
 10
0.21875
 20
-1.43098287138523
 30
0.0
 11
0.21875
 21
-1.178392128614769
 31
0.0
  0
LINE
  5
139
330
126
100
AcDbEntity
  8
AM_4
100
AcDbLine
 10
-0.21875
 20
-1.178392128614769
 30
0.0
 11
-0.21875
 21
-1.43098287138523
 31
0.0
  0
LINE
  5
13A
330
126
100
AcDbEntity
  8
AM_4
100
AcDbLine
 10
-0.21875
 20
-1.43098287138523
 30
0.0
 11
0.0
 21
-1.557278242770461
 31
0.0
  0
LINE
  5
13B
330
126
100
AcDbEntity
  8
AM_4
100
AcDbLine
 10
0.0
 20
-1.052096757229538
 30
0.0
 11
-0.21875
 21
-1.178392128614769
 31
0.0
  0
LINE
  5
13C
330
126
100
AcDbEntity
  8
AM_4
100
AcDbLine
 10
0.21875
 20
-1.178392128614769
 30
0.0
 11
0.0
 21
-1.052096757229538
 31
0.0
  0
CIRCLE
  5
13D
330
126
100
AcDbEntity
  8
AM_4
100
AcDbCircle
 10
0.0
 20
-1.3046875
 30
0.0
 40
0.21375
  0
CIRCLE
  5
13E
330
126
100
AcDbEntity
  8
AM_4
100
AcDbCircle
 10
0.0
 20
-1.3046875
 30
0.0
 40
0.1725340532830154
  0
CIRCLE
  5
13F
330
126
100
AcDbEntity
  8
AM_4
100
AcDbCircle
 10
0.0
 20
-1.3046875
 30
0.0
 40
0.1026779019331875
  0
CIRCLE
  5
140
330
126
100
AcDbEntity
  8
AM_4
100
AcDbCircle
 10
0.0
 20
-1.3046875
 30
0.0
 40
0.135
  0
ARC
  5
141
330
126
100
AcDbEntity
  8
AM_5
100
AcDbCircle
 10
-0.0000000000000001
 20
-1.3046875
 30
0.0
 40
0.2025000050000003
100
AcDbArc
 50
75.00000000000001
 51
15.00000000000007
  0
CIRCLE
  5
142
330
126
100
AcDbEntity
  8
AM_4
100
AcDbCircle
 10
0.0
 20
-1.3046875
 30
0.0
 40
0.2187500000000002
  0
ENDBLK
  5
129
330
126
100
AcDbEntity
  8
0
100
AcDbBlockEnd
  0
BLOCK
  5
145
330
143
100
AcDbEntity
  8
0
100
AcDbBlockBegin
  2
5_070549H_0_in_070549_4
 70
     2
 10
0.0
 20
0.0
 30
0.0
  3
5_070549H_0_in_070549_4
  1

  0
ATTDEF
  5
147
330
143
100
AcDbEntity
  8
AM_6
100
AcDbText
 10
7.9375
 20
0.1023437499999994
 30
0.0
 40
0.5
  1
F4S-S2 -(Contact Seal)-Housing
100
AcDbAttributeDefinition
  3

  2
NN
 70
     8
280
     0
  0
ATTDEF
  5
148
330
143
100
AcDbEntity
  8
AM_6
100
AcDbText
 10
7.9375
 20
-0.3976562500000005
 30
0.0
 40
0.5
  1
S-2000 4 Bolt Square Flange Bearing -Inch
100
AcDbAttributeDefinition
  3

  2
NT
 70
     8
280
     0
  0
ATTDEF
  5
149
330
143
100
AcDbEntity
  8
AM_6
100
AcDbText
 10
7.9375
 20
-0.8976562500000005
 30
0.0
 40
0.5
  1
070549H
100
AcDbAttributeDefinition
  3

  2
NB
 70
     8
280
     0
  0
ATTDEF
  5
14A
330
143
100
AcDbEntity
  8
AM_6
100
AcDbText
 10
7.9375
 20
-1.39765625
 30
0.0
 40
0.5
  1
$PN.H
100
AcDbAttributeDefinition
  3

  2
NBSYN
 70
     8
280
     0
  0
ATTDEF
  5
14B
330
143
100
AcDbEntity
  8
AM_6
100
AcDbText
 10
7.9375
 20
-1.89765625
 30
0.0
 40
0.5
  1
070549
100
AcDbAttributeDefinition
  3

  2
LINA
 70
     8
280
     0
  0
ATTDEF
  5
14C
330
143
100
AcDbEntity
  8
AM_6
100
AcDbText
 10
7.9375
 20
-2.397656250000001
 30
0.0
 40
0.5
  1
2-3/16
100
AcDbAttributeDefinition
  3

  2
SS
 70
     8
280
     0
  0
ATTDEF
  5
14D
330
143
100
AcDbEntity
  8
AM_6
100
AcDbText
 10
7.9375
 20
-2.897656250000001
 30
0.0
 40
0.5
  1
070549
100
AcDbAttributeDefinition
  3

  2
PN
 70
     8
280
     0
  0
ATTDEF
  5
14E
330
143
100
AcDbEntity
  8
AM_6
100
AcDbText
 10
7.9375
 20
-3.397656250000001
 30
0.0
 40
0.5
  1
F4S-S2-203R
100
AcDbAttributeDefinition
  3

  2
DESCRIPTION
 70
     8
280
     0
  0
ATTDEF
  5
14F
330
143
100
AcDbEntity
  8
AM_6
100
AcDbText
 10
7.9375
 20
-3.897656250000001
 30
0.0
 40
0.5
  1
Non-Expansion Type
100
AcDbAttributeDefinition
  3

  2
EF
 70
     8
280
     0
  0
ATTDEF
  5
150
330
143
100
AcDbEntity
  8
AM_6
100
AcDbText
 10
7.9375
 20
-4.397656250000001
 30
0.0
 40
0.5
  1
2-15/16
100
AcDbAttributeDefinition
  3

  2
A
 70
     8
280
     0
  0
ATTDEF
  5
151
330
143
100
AcDbEntity
  8
AM_6
100
AcDbText
 10
7.9375
 20
-4.897656250000001
 30
0.0
 40
0.5
  1
5-7/8
100
AcDbAttributeDefinition
  3

  2
B
 70
     8
280
     0
  0
ATTDEF
  5
152
330
143
100
AcDbEntity
  8
AM_6
100
AcDbText
 10
7.9375
 20
-5.397656250000001
 30
0.0
 40
0.5
  1
3-1/4
100
AcDbAttributeDefinition
  3

  2
C
 70
     8
280
     0
  0
ATTDEF
  5
153
330
143
100
AcDbEntity
  8
AM_6
100
AcDbText
 10
7.9375
 20
-5.897656250000001
 30
0.0
 40
0.5
  1
5/8
100
AcDbAttributeDefinition
  3

  2
F
 70
     8
280
     0
  0
ATTDEF
  5
154
330
143
100
AcDbEntity
  8
AM_6
100
AcDbText
 10
7.9375
 20
-6.397656250000001
 30
0.0
 40
0.5
  1
1-13/64
100
AcDbAttributeDefinition
  3

  2
G
 70
     8
280
     0
  0
ATTDEF
  5
155
330
143
100
AcDbEntity
  8
AM_6
100
AcDbText
 10
7.9375
 20
-6.897656250000001
 30
0.0
 40
0.5
  1
9/16
100
AcDbAttributeDefinition
  3

  2
H
 70
     8
280
     0
  0
ATTDEF
  5
156
330
143
100
AcDbEntity
  8
AM_6
100
AcDbText
 10
7.9375
 20
-7.397656250000001
 30
0.0
 40
0.5
  1
5-1/64
100
AcDbAttributeDefinition
  3

  2
J
 70
     8
280
     0
  0
ATTDEF
  5
157
330
143
100
AcDbEntity
  8
AM_6
100
AcDbText
 10
7.9375
 20
-7.897656250000001
 30
0.0
 40
0.5
  1
6-3/8
100
AcDbAttributeDefinition
  3

  2
K
 70
     8
280
     0
  0
ATTDEF
  5
158
330
143
100
AcDbEntity
  8
AM_6
100
AcDbText
 10
7.9375
 20
-8.39765625
 30
0.0
 40
0.5
  1
6.3750000
100
AcDbAttributeDefinition
  3

  2
K1
 70
     8
280
     0
  0
ATTDEF
  5
159
330
143
100
AcDbEntity
  8
AM_6
100
AcDbText
 10
7.9375
 20
-8.89765625
 30
0.0
 40
0.5
  1
3-3/4
100
AcDbAttributeDefinition
  3

  2
L
 70
     8
280
     0
  0
ATTDEF
  5
15A
330
143
100
AcDbEntity
  8
AM_6
100
AcDbText
 10
7.9375
 20
-9.39765625
 30
0.0
 40
0.5
  1
3-3/32
100
AcDbAttributeDefinition
  3

  2
N
 70
     8
280
     0
  0
ATTDEF
  5
15B
330
143
100
AcDbEntity
  8
AM_6
100
AcDbText
 10
7.9375
 20
-9.89765625
 30
0.0
 40
0.5
  1
3.093750
100
AcDbAttributeDefinition
  3

  2
N1
 70
     8
280
     0
  0
ATTDEF
  5
15C
330
143
100
AcDbEntity
  8
AM_6
100
AcDbText
 10
7.9375
 20
-10.39765625
 30
0.0
 40
0.5
  1
5/16
100
AcDbAttributeDefinition
  3

  2
P
 70
     8
280
     0
  0
ATTDEF
  5
15D
330
143
100
AcDbEntity
  8
AM_6
100
AcDbText
 10
7.9375
 20
-10.89765625
 30
0.0
 40
0.5
  1
1/4
100
AcDbAttributeDefinition
  3

  2
X
 70
     8
280
     0
  0
ATTDEF
  5
15E
330
143
100
AcDbEntity
  8
AM_6
100
AcDbText
 10
7.9375
 20
-11.39765625
 30
0.0
 40
0.5
  1
0.025
100
AcDbAttributeDefinition
  3

  2
Y
 70
     8
280
     0
  0
ATTDEF
  5
15F
330
143
100
AcDbEntity
  8
AM_6
100
AcDbText
 10
7.9375
 20
-11.89765625
 30
0.0
 40
0.5
  1
2-19/32
100
AcDbAttributeDefinition
  3

  2
Z
 70
     8
280
     0
  0
ATTDEF
  5
160
330
143
100
AcDbEntity
  8
AM_6
100
AcDbText
 10
7.9375
 20
-12.39765625
 30
0.0
 40
0.5
  1
baldor
100
AcDbAttributeDefinition
  3

  2
COMPANY
 70
     8
280
     0
  0
LINE
  5
161
330
143
100
AcDbEntity
  8
AM_9
100
AcDbLine
 10
2.383482541006236
 20
-0.5249999999999999
 30
0.0
 11
2.383482541006236
 21
-0.5624999999999999
 31
0.0
  0
LINE
  5
162
330
143
100
AcDbEntity
  8
AM_9
100
AcDbLine
 10
2.349988891952346
 20
-0.5249999999999999
 30
0.0
 11
2.349988891952346
 21
-0.5624999999999999
 31
0.0
  0
LINE
  5
163
330
143
100
AcDbEntity
  8
AM_9
100
AcDbLine
 10
-2.383482541006236
 20
-0.5249999999999999
 30
0.0
 11
-2.383482541006236
 21
-0.5624999999999999
 31
0.0
  0
LINE
  5
164
330
143
100
AcDbEntity
  8
AM_9
100
AcDbLine
 10
-2.349988891952345
 20
-0.5624999999999999
 30
0.0
 11
-2.349988891952345
 21
-0.5249999999999999
 31
0.0
  0
LINE
  5
165
330
143
100
AcDbEntity
  8
AM_9
100
AcDbLine
 10
-2.349988891952345
 20
-0.5249999999999999
 30
0.0
 11
-2.9375
 21
-0.5249999999999999
 31
0.0
  0
LINE
  5
166
330
143
100
AcDbEntity
  8
AM_9
100
AcDbLine
 10
2.364295847922671
 20
-0.5249999999999999
 30
0.0
 11
2.364295847922671
 21
-0.5624999999999999
 31
0.0
  0
LINE
  5
167
330
143
100
AcDbEntity
  8
AM_9
100
AcDbLine
 10
2.5078125
 20
-0.5625000000000007
 30
0.0
 11
2.5078125
 21
-0.525
 31
0.0
  0
LINE
  5
168
330
143
100
AcDbEntity
  8
AM_9
100
AcDbLine
 10
-2.364295847922671
 20
-0.5249999999999999
 30
0.0
 11
-2.364295847922671
 21
-0.5624999999999999
 31
0.0
  0
LINE
  5
169
330
143
100
AcDbEntity
  8
AM_9
100
AcDbLine
 10
-2.5078125
 20
-0.525
 30
0.0
 11
-2.5078125
 21
-0.5625000000000007
 31
0.0
  0
LINE
  5
16A
330
143
100
AcDbEntity
  8
AM_9
100
AcDbLine
 10
2.877419491194459
 20
-0.5249999999999999
 30
0.0
 11
2.877419491194459
 21
-0.5624999999999999
 31
0.0
  0
LINE
  5
16B
330
143
100
AcDbEntity
  8
AM_9
100
AcDbLine
 10
-2.877419491194458
 20
-0.5249999999999999
 30
0.0
 11
-2.877419491194458
 21
-0.5624999999999999
 31
0.0
  0
LINE
  5
16C
330
143
100
AcDbEntity
  8
AM_9
100
AcDbLine
 10
1.9685
 20
-2.046875
 30
0.0
 11
1.9685
 21
-0.0803571428571425
 31
0.0
  0
LINE
  5
16D
330
143
100
AcDbEntity
  8
AM_9
100
AcDbLine
 10
-1.9685
 20
-0.0803571428571425
 30
0.0
 11
-1.9685
 21
-2.046875
 31
0.0
  0
LINE
  5
16E
330
143
100
AcDbEntity
  8
AM_9
100
AcDbLine
 10
2.349988891952346
 20
-0.5249999999999999
 30
0.0
 11
2.9375
 21
-0.5249999999999999
 31
0.0
  0
LINE
  5
16F
330
143
100
AcDbEntity
  8
AM_9
100
AcDbLine
 10
2.23815625
 20
-0.0241071428571432
 30
0.0
 11
2.23815625
 21
0.0
 31
0.0
  0
LINE
  5
170
330
143
100
AcDbEntity
  8
AM_9
100
AcDbLine
 10
-2.23815625
 20
0.0
 30
0.0
 11
-2.23815625
 21
-0.0241071428571432
 31
0.0
  0
LINE
  5
171
330
143
100
AcDbEntity
  8
AM_9
100
AcDbLine
 10
-2.18190625
 20
-0.0803571428571429
 30
0.0
 11
2.181906249999999
 21
-0.0803571428571429
 31
0.0
  0
LINE
  5
172
330
143
100
AcDbEntity
  8
AM_9
100
AcDbLine
 10
-2.23815625
 20
-0.0241071428571432
 30
0.0
 11
2.23815625
 21
-0.0241071428571432
 31
0.0
  0
ARC
  5
173
330
143
100
AcDbEntity
  8
AM_9
100
AcDbCircle
 10
2.181906249999999
 20
-0.0241071428571426
 30
0.0
 40
0.0562500000000003
100
AcDbArc
 50
270.0
 51
0.0
  0
ARC
  5
174
330
143
100
AcDbEntity
  8
AM_9
100
AcDbCircle
 10
-2.181906249999999
 20
-0.0241071428571426
 30
0.0
 40
0.0562500000000004
100
AcDbArc
 50
180.0
 51
270.0
  0
LINE
  5
175
330
143
100
AcDbEntity
  8
AM_9
100
AcDbLine
 10
-1.9453125
 20
-0.5624999999999999
 30
0.0
 11
-1.9453125
 21
0.0000000000000001
 31
0.0
  0
LINE
  5
176
330
143
100
AcDbEntity
  8
AM_9
100
AcDbLine
 10
-2.5703125
 20
0.0000000000000001
 30
0.0
 11
-2.5703125
 21
-0.5624999999999999
 31
0.0
  0
LINE
  5
177
330
143
100
AcDbEntity
  8
AM_9
100
AcDbLine
 10
2.5703125
 20
-0.5624999999999999
 30
0.0
 11
2.5703125
 21
0.0000000000000001
 31
0.0
  0
LINE
  5
178
330
143
100
AcDbEntity
  8
AM_9
100
AcDbLine
 10
1.9453125
 20
0.0000000000000001
 30
0.0
 11
1.9453125
 21
-0.5624999999999999
 31
0.0
  0
LINE
  5
179
330
143
100
AcDbEntity
  8
AM_7
100
AcDbLine
 10
2.2578125
 20
0.0281249999999999
 30
0.0
 11
2.2578125
 21
-0.5906250000000001
 31
0.0
  0
LINE
  5
17A
330
143
100
AcDbEntity
  8
AM_7
100
AcDbLine
 10
-2.2578125
 20
0.0281249999999999
 30
0.0
 11
-2.2578125
 21
-0.5906250000000001
 31
0.0
  0
LINE
  5
17B
330
143
100
AcDbEntity
  8
AM_7
100
AcDbLine
 10
0.0
 20
-3.396875
 30
0.0
 11
0.0
 21
0.1023437499999994
 31
0.0
  0
LINE
  5
17C
330
143
100
AcDbEntity
  8
AM_7
100
AcDbLine
 10
-0.5250000000000001
 20
-1.3046875
 30
0.0
 11
0.5249999999999988
 21
-1.3046875
 31
0.0
  0
LINE
  5
17D
330
143
100
AcDbEntity
  8
AM_4
100
AcDbLine
 10
2.5078125
 20
-2.046875
 30
0.0
 11
2.5078125
 21
-0.5625000000000007
 31
0.0
  0
LINE
  5
17E
330
143
100
AcDbEntity
  8
AM_4
100
AcDbLine
 10
-2.5078125
 20
-0.5625000000000007
 30
0.0
 11
-2.5078125
 21
-2.046875
 31
0.0
  0
LINE
  5
17F
330
143
100
AcDbEntity
  8
AM_4
100
AcDbLine
 10
2.117892992979542
 20
-2.046875
 30
0.0
 11
2.117892992979542
 21
-0.5625
 31
0.0
  0
LINE
  5
180
330
143
100
AcDbEntity
  8
AM_4
100
AcDbLine
 10
-2.117892984999567
 20
-2.046875
 30
0.0
 11
-2.117892984999567
 21
-0.5625000000000006
 31
0.0
  0
LINE
  5
181
330
143
100
AcDbEntity
  8
AM_4
100
AcDbLine
 10
1.98680653422394
 20
-2.046875
 30
0.0
 11
1.98680653422394
 21
-0.5625
 31
0.0
  0
LINE
  5
182
330
143
100
AcDbEntity
  8
AM_4
100
AcDbLine
 10
-1.986806510769831
 20
-2.046875
 30
0.0
 11
-1.986806510769831
 21
-0.5625
 31
0.0
  0
LINE
  5
183
330
143
100
AcDbEntity
  8
AM_4
100
AcDbLine
 10
-1.44595949412529
 20
-2.046875
 30
0.0
 11
-1.44595949412529
 21
-0.5624999999999999
 31
0.0
  0
LINE
  5
184
330
143
100
AcDbEntity
  8
AM_4
100
AcDbLine
 10
2.5078125
 20
-2.046875
 30
0.0
 11
-2.5078125
 21
-2.046875
 31
0.0
  0
LINE
  5
185
330
143
100
AcDbEntity
  8
AM_4
100
AcDbLine
 10
1.445959500583009
 20
-2.046875
 30
0.0
 11
1.445959500583009
 21
-0.5624999999999999
 31
0.0
  0
LINE
  5
186
330
143
100
AcDbEntity
  8
AM_4
100
AcDbLine
 10
-0.8361989468134171
 20
-0.5249999999999999
 30
0.0
 11
-0.8361989468134171
 21
-0.5624999999999999
 31
0.0
  0
LINE
  5
187
330
143
100
AcDbEntity
  8
AM_4
100
AcDbLine
 10
-1.343001416769322
 20
-2.046875
 30
0.0
 11
-1.343001416769322
 21
-0.5624999999999999
 31
0.0
  0
LINE
  5
188
330
143
100
AcDbEntity
  8
AM_4
100
AcDbLine
 10
1.343001416769323
 20
-2.046875
 30
0.0
 11
1.343001416769323
 21
-0.5624999999999999
 31
0.0
  0
LINE
  5
189
330
143
100
AcDbEntity
  8
AM_4
100
AcDbLine
 10
0.8361989468134171
 20
-0.5249999999999999
 30
0.0
 11
0.8361989468134171
 21
-0.5624999999999999
 31
0.0
  0
CIRCLE
  5
18A
330
143
100
AcDbEntity
  8
AM_4
100
AcDbCircle
 10
0.0
 20
-1.3046875
 30
0.0
 40
0.4000000000000006
  0
LINE
  5
18B
330
143
100
AcDbEntity
  8
AM_4
100
AcDbLine
 10
1.044558343380487
 20
-0.5249999999999999
 30
0.0
 11
1.044558343380487
 21
-0.5624999999999999
 31
0.0
  0
LINE
  5
18C
330
143
100
AcDbEntity
  8
AM_4
100
AcDbLine
 10
-1.044558343380487
 20
-0.5249999999999999
 30
0.0
 11
-1.044558343380487
 21
-0.5624999999999999
 31
0.0
  0
LINE
  5
18D
330
143
100
AcDbEntity
  8
AM_4
100
AcDbLine
 10
-2.9375
 20
-0.5624999999999999
 30
0.0
 11
-2.9375
 21
0.0000000000000001
 31
0.0
  0
LINE
  5
18E
330
143
100
AcDbEntity
  8
AM_4
100
AcDbLine
 10
-0.8361989468134171
 20
-0.5624999999999999
 30
0.0
 11
-2.9375
 21
-0.5624999999999999
 31
0.0
  0
LINE
  5
18F
330
143
100
AcDbEntity
  8
AM_4
100
AcDbLine
 10
-1.900082236842105
 20
-0.5249999999999998
 30
0.0
 11
-1.900082236842105
 21
-0.5624999999999998
 31
0.0
  0
LINE
  5
190
330
143
100
AcDbEntity
  8
AM_4
100
AcDbLine
 10
1.900082236842105
 20
-0.5249999999999998
 30
0.0
 11
1.900082236842105
 21
-0.5624999999999998
 31
0.0
  0
LINE
  5
191
330
143
100
AcDbEntity
  8
AM_4
100
AcDbLine
 10
-2.034410022261241
 20
-0.5249999999999998
 30
0.0
 11
-2.034410022261241
 21
-0.5624999999999998
 31
0.0
  0
LINE
  5
192
330
143
100
AcDbEntity
  8
AM_4
100
AcDbLine
 10
2.034410022261245
 20
-0.5249999999999998
 30
0.0
 11
-2.034410022261241
 21
-0.5249999999999998
 31
0.0
  0
LINE
  5
193
330
143
100
AcDbEntity
  8
AM_4
100
AcDbLine
 10
2.034410022261245
 20
-0.5624999999999998
 30
0.0
 11
2.034410022261245
 21
-0.5249999999999998
 31
0.0
  0
LINE
  5
194
330
143
100
AcDbEntity
  8
AM_4
100
AcDbLine
 10
-2.2578125
 20
-0.5624999999999998
 30
0.0
 11
-2.2578125
 21
0.0000000000000002
 31
0.0
  0
LINE
  5
195
330
143
100
AcDbEntity
  8
AM_4
100
AcDbLine
 10
2.9375
 20
0.0000000000000001
 30
0.0
 11
-2.9375
 21
0.0000000000000001
 31
0.0
  0
LINE
  5
196
330
143
100
AcDbEntity
  8
AM_4
100
AcDbLine
 10
2.2578125
 20
-0.5624999999999998
 30
0.0
 11
2.2578125
 21
0.0000000000000002
 31
0.0
  0
LINE
  5
197
330
143
100
AcDbEntity
  8
AM_4
100
AcDbLine
 10
2.9375
 20
-0.5624999999999999
 30
0.0
 11
0.8361989468134171
 21
-0.5624999999999999
 31
0.0
  0
LINE
  5
198
330
143
100
AcDbEntity
  8
AM_4
100
AcDbLine
 10
2.9375
 20
-0.5624999999999999
 30
0.0
 11
2.9375
 21
0.0000000000000001
 31
0.0
  0
CIRCLE
  5
199
330
143
100
AcDbEntity
  8
AM_4
100
AcDbCircle
 10
-0.0000000000000006
 20
-1.3046875
 30
0.0
 40
0.4999999999999995
  0
ENDBLK
  5
146
330
143
100
AcDbEntity
  8
0
100
AcDbBlockEnd
  0
ENDSEC
  0
SECTION
  2
ENTITIES
  0
INSERT
  5
6F
330
1F
100
AcDbEntity
  8
0
100
AcDbBlockReference
  2
1_070549_4
 10
0.0
 20
0.0
 30
0.0
  0
POINT
  5
19B
330
1F
100
AcDbEntity
  8
ConnectionPoints
100
AcDbPoint
 10
0.0
 20
-3.25
 30
0.0000000000000002
  0
POINT
  5
19C
330
1F
100
AcDbEntity
  8
ConnectionPoints
100
AcDbPoint
 10
0.0
 20
0.5249999999999999
 30
0.0
  0
POINT
  5
19D
330
1F
100
AcDbEntity
  8
ConnectionPoints
100
AcDbPoint
 10
0.0
 20
-3.25
 30
0.0000000000000002
  0
POINT
  5
19E
330
1F
100
AcDbEntity
  8
ConnectionPoints
100
AcDbPoint
 10
0.0
 20
-1.3046875
 30
2.6078125
  0
POINT
  5
19F
330
1F
100
AcDbEntity
  8
ConnectionPoints
100
AcDbPoint
 10
0.0
 20
-1.3046875
 30
2.6078125
  0
POINT
  5
1A0
330
1F
100
AcDbEntity
  8
ConnectionPoints
100
AcDbPoint
 10
0.0
 20
-3.0
 30
0.0000000000000002
  0
POINT
  5
1A1
330
1F
100
AcDbEntity
  8
ConnectionPoints
100
AcDbPoint
 10
0.0
 20
-3.25
 30
0.0000000000000002
  0
ENDSEC
  0
SECTION
  2
OBJECTS
  0
DICTIONARY
  5
C
330
0
100
AcDbDictionary
281
     1
  3
ACAD_DETAILVIEWSTYLE
350
1A9
  3
ACAD_GROUP
350
D
  3
ACAD_LAYOUT
350
1A
  3
ACAD_MATERIAL
350
43
  3
ACAD_MLEADERSTYLE
350
6B
  3
ACAD_MLINESTYLE
350
17
  3
ACAD_PLOTSETTINGS
350
19
  3
ACAD_PLOTSTYLENAME
350
E
  3
ACAD_SCALELIST
350
47
  3
ACAD_SECTIONVIEWSTYLE
350
1AA
  3
ACAD_TABLESTYLE
350
69
  3
ACAD_VISUALSTYLE
350
2A
  3
ACDB_RECOMPOSE_DATA
350
1A6
  3
AcDbVariableDictionary
350
1A2
  0
SUN
  5
6D
330
29
100
AcDbSun
 90
        1
290
     0
 63
     7
421
 16777215
 40
1.0
291
     1
 91
  2455826
 92
 54000000
292
     0
 70
     2
 71
   256
280
     1
  0
DICTIONARY
  5
1A9
102
{ACAD_REACTORS
330
C
102
}
330
C
100
AcDbDictionary
281
     1
  0
DICTIONARY
  5
D
102
{ACAD_REACTORS
330
C
102
}
330
C
100
AcDbDictionary
281
     1
  0
DICTIONARY
  5
1A
102
{ACAD_REACTORS
330
C
102
}
330
C
100
AcDbDictionary
281
     1
  3
Layout1
350
1E
  3
Layout2
350
26
  3
Model
350
22
  0
DICTIONARY
  5
43
102
{ACAD_REACTORS
330
C
102
}
330
C
100
AcDbDictionary
281
     1
  3
ByBlock
350
45
  3
ByLayer
350
44
  3
Global
350
46
  0
DICTIONARY
  5
6B
102
{ACAD_REACTORS
330
C
102
}
330
C
100
AcDbDictionary
281
     1
  3
Standard
350
6C
  0
DICTIONARY
  5
17
102
{ACAD_REACTORS
330
C
102
}
330
C
100
AcDbDictionary
281
     1
  3
Standard
350
18
  0
DICTIONARY
  5
19
102
{ACAD_REACTORS
330
C
102
}
330
C
100
AcDbDictionary
281
     1
  0
ACDBDICTIONARYWDFLT
  5
E
102
{ACAD_REACTORS
330
C
102
}
330
C
100
AcDbDictionary
281
     1
  3
Normal
350
F
100
AcDbDictionaryWithDefault
340
F
  0
DICTIONARY
  5
47
102
{ACAD_REACTORS
330
C
102
}
330
C
100
AcDbDictionary
281
     1
  3
A0
350
48
  3
A1
350
49
  3
A2
350
4A
  3
A3
350
4B
  3
A4
350
4C
  3
A5
350
4D
  3
A6
350
4E
  3
A7
350
4F
  3
A8
350
50
  3
A9
350
51
  3
B0
350
52
  3
B1
350
53
  3
B2
350
54
  3
B3
350
55
  3
B4
350
56
  3
B5
350
57
  3
B6
350
58
  3
B7
350
59
  3
B8
350
5A
  3
B9
350
5B
  3
C0
350
5C
  3
C1
350
5D
  3
C2
350
5E
  3
C3
350
5F
  3
C4
350
60
  3
C5
350
61
  3
C6
350
62
  3
C7
350
63
  3
C8
350
64
  3
C9
350
65
  3
D0
350
66
  3
D1
350
67
  3
D2
350
68
  0
DICTIONARY
  5
1AA
102
{ACAD_REACTORS
330
C
102
}
330
C
100
AcDbDictionary
281
     1
  0
DICTIONARY
  5
69
102
{ACAD_REACTORS
330
C
102
}
330
C
100
AcDbDictionary
281
     1
  3
Standard
350
6A
  0
DICTIONARY
  5
2A
102
{ACAD_REACTORS
330
C
102
}
330
C
100
AcDbDictionary
281
     1
  3
2dWireframe
350
2F
  3
Basic
350
32
  3
Brighten
350
36
  3
ColorChange
350
3A
  3
Conceptual
350
34
  3
Dim
350
35
  3
EdgeColorOff
350
3D
  3
Facepattern
350
39
  3
Flat
350
2B
  3
FlatWithEdges
350
2C
  3
Gouraud
350
2D
  3
GouraudWithEdges
350
2E
  3
Hidden
350
31
  3
JitterOff
350
3B
  3
Linepattern
350
38
  3
OverhangOff
350
3C
  3
Realistic
350
33
  3
Shaded
350
42
  3
Shaded with edges
350
41
  3
Shades of Gray
350
3E
  3
Sketchy
350
3F
  3
Thicken
350
37
  3
Wireframe
350
30
  3
X-Ray
350
40
  0
XRECORD
  5
1A6
102
{ACAD_REACTORS
330
C
102
}
330
C
100
AcDbXrecord
280
     1
 90
        1
330
6A
  0
DICTIONARY
  5
1A2
102
{ACAD_REACTORS
330
C
102
}
330
C
100
AcDbDictionary
281
     1
  3
CANNOSCALE
350
1A3
  3
CMLEADERSTYLE
350
1A8
  3
CTABLESTYLE
350
1A7
  0
LAYOUT
  5
1E
102
{ACAD_REACTORS
330
1A
102
}
330
1A
100
AcDbPlotSettings
  1

  2
none_device
  4

  6

 40
0.0
 41
0.0
 42
0.0
 43
0.0
 44
0.0
 45
0.0
 46
0.0
 47
0.0
 48
0.0
 49
0.0
140
0.0
141
0.0
142
1.0
143
1.0
 70
   688
 72
     0
 73
     0
 74
     5
  7

 75
    16
 76
     0
 77
     2
 78
   300
147
1.0
148
0.0
149
0.0
100
AcDbLayout
  1
Layout1
 70
     1
 71
     1
 10
0.0
 20
0.0
 11
12.0
 21
9.0
 12
0.0
 22
0.0
 32
0.0
 14
1.000000000000000E+20
 24
1.000000000000000E+20
 34
1.000000000000000E+20
 15
-1.000000000000000E+20
 25
-1.000000000000000E+20
 35
-1.000000000000000E+20
146
0.0
 13
0.0
 23
0.0
 33
0.0
 16
1.0
 26
0.0
 36
0.0
 17
0.0
 27
1.0
 37
0.0
 76
     0
330
1B
  0
LAYOUT
  5
26
102
{ACAD_REACTORS
330
1A
102
}
330
1A
100
AcDbPlotSettings
  1

  2
none_device
  4

  6

 40
0.0
 41
0.0
 42
0.0
 43
0.0
 44
0.0
 45
0.0
 46
0.0
 47
0.0
 48
0.0
 49
0.0
140
0.0
141
0.0
142
1.0
143
1.0
 70
   688
 72
     0
 73
     0
 74
     5
  7

 75
    16
 76
     0
 77
     2
 78
   300
147
1.0
148
0.0
149
0.0
100
AcDbLayout
  1
Layout2
 70
     1
 71
     2
 10
0.0
 20
0.0
 11
0.0
 21
0.0
 12
0.0
 22
0.0
 32
0.0
 14
0.0
 24
0.0
 34
0.0
 15
0.0
 25
0.0
 35
0.0
146
0.0
 13
0.0
 23
0.0
 33
0.0
 16
1.0
 26
0.0
 36
0.0
 17
0.0
 27
1.0
 37
0.0
 76
     0
330
23
  0
LAYOUT
  5
22
102
{ACAD_REACTORS
330
1A
102
}
330
1A
100
AcDbPlotSettings
  1

  2
none_device
  4
Letter_(8.50_x_11.00_Inches)
  6

 40
6.35
 41
6.35
 42
6.35000508
 43
6.35000508
 44
215.9
 45
279.4
 46
0.0
 47
0.0
 48
0.0
 49
0.0
140
0.0
141
0.0
142
1.0
143
1.0
 70
  1712
 72
     0
 73
     0
 74
     0
  7

 75
     0
 76
     0
 77
     2
 78
   300
147
1.0
148
0.0
149
0.0
100
AcDbLayout
  1
Model
 70
     1
 71
     0
 10
0.0
 20
0.0
 11
12.0
 21
9.0
 12
0.0
 22
0.0
 32
0.0
 14
1.000000000000000E+20
 24
1.000000000000000E+20
 34
1.000000000000000E+20
 15
-1.000000000000000E+20
 25
-1.000000000000000E+20
 35
-1.000000000000000E+20
146
0.0
 13
0.0
 23
0.0
 33
0.0
 16
1.0
 26
0.0
 36
0.0
 17
0.0
 27
1.0
 37
0.0
 76
     0
330
1F
331
29
  0
MATERIAL
  5
45
102
{ACAD_REACTORS
330
43
102
}
330
43
100
AcDbMaterial
  1
ByBlock
 72
     1
 94
      127
  0
MATERIAL
  5
44
102
{ACAD_REACTORS
330
43
102
}
330
43
100
AcDbMaterial
  1
ByLayer
 72
     1
 94
      127
  0
MATERIAL
  5
46
102
{ACAD_REACTORS
330
43
102
}
330
43
100
AcDbMaterial
  1
Global
 72
     1
 94
      127
  0
MLEADERSTYLE
  5
6C
102
{ACAD_REACTORS
330
6B
102
}
330
6B
100
AcDbMLeaderStyle
179
     2
170
     2
171
     1
172
     0
 90
        2
 40
0.0
 41
0.0
173
     1
 91
-1056964608
340
14
 92
       -2
290
     1
 42
0.09
291
     1
 43
0.36
  3
Standard
341
0
 44
0.18
300

342
11
174
     1
178
     6
175
     1
176
     0
 93
-1056964608
 45
0.18
292
     0
297
     0
 46
0.18
343
0
 94
-1056964608
 47
1.0
 49
1.0
140
1.0
293
     1
141
0.0
294
     1
177
     0
142
1.0
295
     0
296
     0
143
0.125
271
     0
272
     9
273
     9
298
     0
  0
MLINESTYLE
  5
18
102
{ACAD_REACTORS
330
17
102
}
330
17
100
AcDbMlineStyle
  2
Standard
 70
     0
  3

 62
   256
 51
90.0
 52
90.0
 71
     2
 49
0.5
 62
   256
  6
BYLAYER
 49
-0.5
 62
   256
  6
BYLAYER
  0
ACDBPLACEHOLDER
  5
F
102
{ACAD_REACTORS
330
E
102
}
330
E
  0
SCALE
  5
48
102
{ACAD_REACTORS
330
47
102
}
330
47
100
AcDbScale
 70
     0
300
1:1
140
1.0
141
1.0
290
     1
  0
SCALE
  5
49
102
{ACAD_REACTORS
330
47
102
}
330
47
100
AcDbScale
 70
     0
300
1:2
140
1.0
141
2.0
290
     0
  0
SCALE
  5
4A
102
{ACAD_REACTORS
330
47
102
}
330
47
100
AcDbScale
 70
     0
300
1:4
140
1.0
141
4.0
290
     0
  0
SCALE
  5
4B
102
{ACAD_REACTORS
330
47
102
}
330
47
100
AcDbScale
 70
     0
300
1:5
140
1.0
141
5.0
290
     0
  0
SCALE
  5
4C
102
{ACAD_REACTORS
330
47
102
}
330
47
100
AcDbScale
 70
     0
300
1:8
140
1.0
141
8.0
290
     0
  0
SCALE
  5
4D
102
{ACAD_REACTORS
330
47
102
}
330
47
100
AcDbScale
 70
     0
300
1:10
140
1.0
141
10.0
290
     0
  0
SCALE
  5
4E
102
{ACAD_REACTORS
330
47
102
}
330
47
100
AcDbScale
 70
     0
300
1:16
140
1.0
141
16.0
290
     0
  0
SCALE
  5
4F
102
{ACAD_REACTORS
330
47
102
}
330
47
100
AcDbScale
 70
     0
300
1:20
140
1.0
141
20.0
290
     0
  0
SCALE
  5
50
102
{ACAD_REACTORS
330
47
102
}
330
47
100
AcDbScale
 70
     0
300
1:30
140
1.0
141
30.0
290
     0
  0
SCALE
  5
51
102
{ACAD_REACTORS
330
47
102
}
330
47
100
AcDbScale
 70
     0
300
1:40
140
1.0
141
40.0
290
     0
  0
SCALE
  5
52
102
{ACAD_REACTORS
330
47
102
}
330
47
100
AcDbScale
 70
     0
300
1:50
140
1.0
141
50.0
290
     0
  0
SCALE
  5
53
102
{ACAD_REACTORS
330
47
102
}
330
47
100
AcDbScale
 70
     0
300
1:100
140
1.0
141
100.0
290
     0
  0
SCALE
  5
54
102
{ACAD_REACTORS
330
47
102
}
330
47
100
AcDbScale
 70
     0
300
2:1
140
2.0
141
1.0
290
     0
  0
SCALE
  5
55
102
{ACAD_REACTORS
330
47
102
}
330
47
100
AcDbScale
 70
     0
300
4:1
140
4.0
141
1.0
290
     0
  0
SCALE
  5
56
102
{ACAD_REACTORS
330
47
102
}
330
47
100
AcDbScale
 70
     0
300
8:1
140
8.0
141
1.0
290
     0
  0
SCALE
  5
57
102
{ACAD_REACTORS
330
47
102
}
330
47
100
AcDbScale
 70
     0
300
10:1
140
10.0
141
1.0
290
     0
  0
SCALE
  5
58
102
{ACAD_REACTORS
330
47
102
}
330
47
100
AcDbScale
 70
     0
300
100:1
140
100.0
141
1.0
290
     0
  0
SCALE
  5
59
102
{ACAD_REACTORS
330
47
102
}
330
47
100
AcDbScale
 70
     0
300
1/128" = 1'-0"
140
0.0078125
141
12.0
290
     0
  0
SCALE
  5
5A
102
{ACAD_REACTORS
330
47
102
}
330
47
100
AcDbScale
 70
     0
300
1/64" = 1'-0"
140
0.015625
141
12.0
290
     0
  0
SCALE
  5
5B
102
{ACAD_REACTORS
330
47
102
}
330
47
100
AcDbScale
 70
     0
300
1/32" = 1'-0"
140
0.03125
141
12.0
290
     0
  0
SCALE
  5
5C
102
{ACAD_REACTORS
330
47
102
}
330
47
100
AcDbScale
 70
     0
300
1/16" = 1'-0"
140
0.0625
141
12.0
290
     0
  0
SCALE
  5
5D
102
{ACAD_REACTORS
330
47
102
}
330
47
100
AcDbScale
 70
     0
300
3/32" = 1'-0"
140
0.09375
141
12.0
290
     0
  0
SCALE
  5
5E
102
{ACAD_REACTORS
330
47
102
}
330
47
100
AcDbScale
 70
     0
300
1/8" = 1'-0"
140
0.125
141
12.0
290
     0
  0
SCALE
  5
5F
102
{ACAD_REACTORS
330
47
102
}
330
47
100
AcDbScale
 70
     0
300
3/16" = 1'-0"
140
0.1875
141
12.0
290
     0
  0
SCALE
  5
60
102
{ACAD_REACTORS
330
47
102
}
330
47
100
AcDbScale
 70
     0
300
1/4" = 1'-0"
140
0.25
141
12.0
290
     0
  0
SCALE
  5
61
102
{ACAD_REACTORS
330
47
102
}
330
47
100
AcDbScale
 70
     0
300
3/8" = 1'-0"
140
0.375
141
12.0
290
     0
  0
SCALE
  5
62
102
{ACAD_REACTORS
330
47
102
}
330
47
100
AcDbScale
 70
     0
300
1/2" = 1'-0"
140
0.5
141
12.0
290
     0
  0
SCALE
  5
63
102
{ACAD_REACTORS
330
47
102
}
330
47
100
AcDbScale
 70
     0
300
3/4" = 1'-0"
140
0.75
141
12.0
290
     0
  0
SCALE
  5
64
102
{ACAD_REACTORS
330
47
102
}
330
47
100
AcDbScale
 70
     0
300
1" = 1'-0"
140
1.0
141
12.0
290
     0
  0
SCALE
  5
65
102
{ACAD_REACTORS
330
47
102
}
330
47
100
AcDbScale
 70
     0
300
1-1/2" = 1'-0"
140
1.5
141
12.0
290
     0
  0
SCALE
  5
66
102
{ACAD_REACTORS
330
47
102
}
330
47
100
AcDbScale
 70
     0
300
3" = 1'-0"
140
3.0
141
12.0
290
     0
  0
SCALE
  5
67
102
{ACAD_REACTORS
330
47
102
}
330
47
100
AcDbScale
 70
     0
300
6" = 1'-0"
140
6.0
141
12.0
290
     0
  0
SCALE
  5
68
102
{ACAD_REACTORS
330
47
102
}
330
47
100
AcDbScale
 70
     0
300
1'-0" = 1'-0"
140
12.0
141
12.0
290
     0
  0
TABLESTYLE
  5
6A
102
{ACAD_REACTORS
330
69
102
}
102
{ACAD_XDICTIONARY
360
1A4
102
}
330
69
100
AcDbTableStyle
  3
Standard
 70
     0
 71
     0
 40
0.06
 41
0.06
280
     0
281
     0
  7
Standard
140
0.18
170
     2
 62
     0
 63
   257
283
     0
 90
        4
 91
        0
  1

274
    -2
284
     1
 64
     0
275
    -2
285
     1
 65
     0
276
    -2
286
     1
 66
     0
277
    -2
287
     1
 67
     0
278
    -2
288
     1
 68
     0
279
    -2
289
     1
 69
     0
  7
Standard
140
0.25
170
     5
 62
     0
 63
   257
283
     0
 90
        4
 91
        0
  1

274
    -2
284
     1
 64
     0
275
    -2
285
     1
 65
     0
276
    -2
286
     1
 66
     0
277
    -2
287
     1
 67
     0
278
    -2
288
     1
 68
     0
279
    -2
289
     1
 69
     0
  7
Standard
140
0.18
170
     5
 62
     0
 63
   257
283
     0
 90
        4
 91
        0
  1

274
    -2
284
     1
 64
     0
275
    -2
285
     1
 65
     0
276
    -2
286
     1
 66
     0
277
    -2
287
     1
 67
     0
278
    -2
288
     1
 68
     0
279
    -2
289
     1
 69
     0
  0
VISUALSTYLE
  5
2F
102
{ACAD_REACTORS
330
2A
102
}
330
2A
100
AcDbVisualStyle
  2
2dWireframe
 70
     4
177
     3
291
     0
 70
    58
 90
        0
176
     1
 90
        2
176
     1
 90
        0
176
     1
 90
        0
176
     1
 40
0.6
176
     1
 40
30.0
176
     1
 62
     7
420
 16777215
176
     1
 90
        1
176
     1
 90
        4
176
     1
 62
     7
176
     1
 62
   257
176
     1
 90
        1
176
     1
 90
        1
176
     1
 40
1.0
176
     1
 90
        0
176
     1
 62
   257
176
     1
 40
1.0
176
     1
 90
        1
176
     1
 90
        6
176
     1
 90
        2
176
     1
 62
     7
176
     1
 90
        5
176
     1
 90
        0
176
     1
 90
        0
176
     1
290
     0
176
     1
 90
        1
176
     1
 40
0.0
176
     1
 90
        0
176
     1
290
     1
176
     1
290
     1
176
     1
290
     0
176
     1
290
     0
176
     1
290
     0
176
     1
290
     0
176
     1
290
     0
176
     1
290
     0
176
     1
290
     0
176
     1
 90
       50
176
     1
 40
0.0
176
     1
 40
1.0
176
     1
 90
        0
176
     1
 62
    18
420
        0
176
     1
 90
       50
176
     1
 90
        3
176
     1
 62
     5
420
      255
176
     1
290
     0
176
     1
 90
       50
176
     1
 90
       50
176
     1
 90
       50
176
     1
290
     0
176
     1
 90
       50
176
     1
 62
   256
176
     0
 40
1.0
176
     0
 90
        2
176
     1
  1
strokes_ogs.tif
176
     1
290
     0
176
     1
 40
1.0
176
     1
 40
1.0
176
     1
  0
VISUALSTYLE
  5
32
102
{ACAD_REACTORS
330
2A
102
}
330
2A
100
AcDbVisualStyle
  2
Basic
 70
     7
177
     3
291
     1
 70
    58
 90
        1
176
     1
 90
        0
176
     1
 90
        1
176
     1
 90
        0
176
     1
 40
0.6
176
     1
 40
30.0
176
     1
 62
     7
420
 16777215
176
     1
 90
        0
176
     1
 90
        4
176
     1
 62
     7
176
     1
 62
   257
176
     1
 90
        1
176
     1
 90
        1
176
     1
 40
1.0
176
     1
 90
        8
176
     1
 62
     7
176
     1
 40
1.0
176
     1
 90
        1
176
     1
 90
        6
176
     1
 90
        2
176
     1
 62
     7
176
     1
 90
        5
176
     1
 90
        0
176
     1
 90
        0
176
     1
290
     0
176
     1
 90
        1
176
     1
 40
0.0
176
     1
 90
        0
176
     1
290
     0
176
     1
290
     1
176
     1
290
     1
176
     1
290
     0
176
     1
290
     0
176
     1
290
     0
176
     1
290
     0
176
     1
290
     0
176
     1
290
     0
176
     1
 90
       50
176
     1
 40
0.0
176
     1
 40
1.0
176
     1
 90
        0
176
     1
 62
    18
420
        0
176
     1
 90
       50
176
     1
 90
        3
176
     1
 62
     5
420
      255
176
     1
290
     0
176
     1
 90
       50
176
     1
 90
       50
176
     1
 90
       50
176
     1
290
     0
176
     1
 90
       50
176
     1
 62
   256
176
     0
 40
1.0
176
     0
 90
        2
176
     1
  1
strokes_ogs.tif
176
     1
290
     0
176
     1
 40
1.0
176
     1
 40
1.0
176
     1
  0
VISUALSTYLE
  5
36
102
{ACAD_REACTORS
330
2A
102
}
330
2A
100
AcDbVisualStyle
  2
Brighten
 70
    12
177
     3
291
     1
 70
    58
 90
        2
176
     1
 90
        2
176
     1
 90
        0
176
     1
 90
        0
176
     1
 40
0.6
176
     1
 40
30.0
176
     1
 62
     7
420
 16777215
176
     1
 90
        1
176
     1
 90
        4
176
     1
 62
     7
176
     1
 62
   257
176
     1
 90
        1
176
     1
 90
        1
176
     1
 40
1.0
176
     1
 90
        8
176
     1
 62
     7
176
     1
 40
1.0
176
     1
 90
        1
176
     1
 90
        6
176
     1
 90
        2
176
     1
 62
     7
176
     1
 90
        5
176
     1
 90
        0
176
     1
 90
        0
176
     1
290
     0
176
     1
 90
        1
176
     1
 40
50.0
176
     1
 90
        0
176
     1
290
     0
176
     1
290
     1
176
     1
290
     1
176
     1
290
     0
176
     1
290
     0
176
     1
290
     0
176
     1
290
     0
176
     1
290
     0
176
     1
290
     0
176
     1
 90
       50
176
     1
 40
0.0
176
     1
 40
1.0
176
     1
 90
        0
176
     1
 62
    18
420
        0
176
     1
 90
       50
176
     1
 90
        3
176
     1
 62
     5
420
      255
176
     1
290
     0
176
     1
 90
       50
176
     1
 90
       50
176
     1
 90
       50
176
     1
290
     0
176
     1
 90
       50
176
     1
 62
   256
176
     0
 40
1.0
176
     0
 90
        2
176
     1
  1
strokes_ogs.tif
176
     1
290
     0
176
     1
 40
1.0
176
     1
 40
1.0
176
     1
  0
VISUALSTYLE
  5
3A
102
{ACAD_REACTORS
330
2A
102
}
330
2A
100
AcDbVisualStyle
  2
ColorChange
 70
    16
177
     3
291
     1
 70
    58
 90
        2
176
     1
 90
        2
176
     1
 90
        3
176
     1
 90
        0
176
     1
 40
0.6
176
     1
 40
30.0
176
     1
 62
     8
420
  8421504
176
     1
 90
        1
176
     1
 90
        4
176
     1
 62
     7
176
     1
 62
   257
176
     1
 90
        1
176
     1
 90
        1
176
     1
 40
1.0
176
     1
 90
        8
176
     1
 62
     8
420
  8421504
176
     1
 40
1.0
176
     1
 90
        1
176
     1
 90
        6
176
     1
 90
        2
176
     1
 62
     7
176
     1
 90
        5
176
     1
 90
        0
176
     1
 90
        0
176
     1
290
     0
176
     1
 90
        1
176
     1
 40
0.0
176
     1
 90
        0
176
     1
290
     0
176
     1
290
     1
176
     1
290
     1
176
     1
290
     0
176
     1
290
     0
176
     1
290
     0
176
     1
290
     0
176
     1
290
     0
176
     1
290
     0
176
     1
 90
       50
176
     1
 40
0.0
176
     1
 40
1.0
176
     1
 90
        0
176
     1
 62
    18
420
        0
176
     1
 90
       50
176
     1
 90
        3
176
     1
 62
     5
420
      255
176
     1
290
     0
176
     1
 90
       50
176
     1
 90
       50
176
     1
 90
       50
176
     1
290
     0
176
     1
 90
       50
176
     1
 62
   256
176
     0
 40
1.0
176
     0
 90
        2
176
     1
  1
strokes_ogs.tif
176
     1
290
     0
176
     1
 40
1.0
176
     1
 40
1.0
176
     1
  0
VISUALSTYLE
  5
34
102
{ACAD_REACTORS
330
2A
102
}
330
2A
100
AcDbVisualStyle
  2
Conceptual
 70
     9
177
     3
291
     0
 70
    58
 90
        3
176
     1
 90
        2
176
     1
 90
        0
176
     1
 90
        0
176
     1
 40
0.6
176
     1
 40
30.0
176
     1
 62
     7
420
 16777215
176
     1
 90
        2
176
     1
 90
        2
176
     1
 62
     7
176
     1
 62
   257
176
     1
 90
        1
176
     1
 90
        1
176
     1
 40
179.0
176
     1
 90
        8
176
     1
 62
     7
176
     1
 40
1.0
176
     1
 90
        1
176
     1
 90
        6
176
     1
 90
        2
176
     1
 62
     7
176
     1
 90
        3
176
     1
 90
        0
176
     1
 90
        0
176
     1
290
     0
176
     1
 90
        1
176
     1
 40
0.0
176
     1
 90
        0
176
     1
290
     0
176
     1
290
     1
176
     1
290
     1
176
     1
290
     0
176
     1
290
     0
176
     1
290
     0
176
     1
290
     0
176
     1
290
     0
176
     1
290
     0
176
     1
 90
       50
176
     1
 40
0.0
176
     1
 40
1.0
176
     1
 90
        0
176
     1
 62
    18
420
        0
176
     1
 90
       50
176
     1
 90
        3
176
     1
 62
     5
420
      255
176
     1
290
     0
176
     1
 90
       50
176
     1
 90
       50
176
     1
 90
       50
176
     1
290
     0
176
     1
 90
       50
176
     1
 62
   256
176
     0
 40
1.0
176
     0
 90
        2
176
     1
  1
strokes_ogs.tif
176
     1
290
     0
176
     1
 40
1.0
176
     1
 40
1.0
176
     1
  0
VISUALSTYLE
  5
35
102
{ACAD_REACTORS
330
2A
102
}
330
2A
100
AcDbVisualStyle
  2
Dim
 70
    11
177
     3
291
     1
 70
    58
 90
        2
176
     1
 90
        2
176
     1
 90
        0
176
     1
 90
        0
176
     1
 40
0.6
176
     1
 40
30.0
176
     1
 62
     7
420
 16777215
176
     1
 90
        1
176
     1
 90
        4
176
     1
 62
     7
176
     1
 62
   257
176
     1
 90
        1
176
     1
 90
        1
176
     1
 40
1.0
176
     1
 90
        8
176
     1
 62
     7
176
     1
 40
1.0
176
     1
 90
        1
176
     1
 90
        6
176
     1
 90
        2
176
     1
 62
     7
176
     1
 90
        5
176
     1
 90
        0
176
     1
 90
        0
176
     1
290
     0
176
     1
 90
        1
176
     1
 40
-50.0
176
     1
 90
        0
176
     1
290
     0
176
     1
290
     1
176
     1
290
     1
176
     1
290
     0
176
     1
290
     0
176
     1
290
     0
176
     1
290
     0
176
     1
290
     0
176
     1
290
     0
176
     1
 90
       50
176
     1
 40
0.0
176
     1
 40
1.0
176
     1
 90
        0
176
     1
 62
    18
420
        0
176
     1
 90
       50
176
     1
 90
        3
176
     1
 62
     5
420
      255
176
     1
290
     0
176
     1
 90
       50
176
     1
 90
       50
176
     1
 90
       50
176
     1
290
     0
176
     1
 90
       50
176
     1
 62
   256
176
     0
 40
1.0
176
     0
 90
        2
176
     1
  1
strokes_ogs.tif
176
     1
290
     0
176
     1
 40
1.0
176
     1
 40
1.0
176
     1
  0
VISUALSTYLE
  5
3D
102
{ACAD_REACTORS
330
2A
102
}
330
2A
100
AcDbVisualStyle
  2
EdgeColorOff
 70
    22
177
     3
291
     1
 70
    58
 90
        2
176
     0
 90
        2
176
     0
 90
        0
176
     0
 90
        0
176
     0
 40
0.6
176
     0
 40
30.0
176
     0
 62
     7
420
 16777215
176
     0
 90
        1
176
     0
 90
        4
176
     0
 62
     7
176
     0
 62
   257
176
     0
 90
        1
176
     0
 90
        1
176
     0
 40
1.0
176
     0
 90
        8
176
     2
 62
     7
176
     0
 40
1.0
176
     0
 90
        1
176
     0
 90
        6
176
     0
 90
        2
176
     0
 62
     7
176
     0
 90
        5
176
     0
 90
        0
176
     0
 90
        0
176
     0
290
     0
176
     0
 90
        1
176
     0
 40
0.0
176
     0
 90
        0
176
     0
290
     0
176
     0
290
     1
176
     0
290
     1
176
     0
290
     0
176
     0
290
     0
176
     0
290
     0
176
     0
290
     0
176
     0
290
     0
176
     0
290
     0
176
     0
 90
       50
176
     0
 40
0.0
176
     0
 40
1.0
176
     0
 90
        0
176
     0
 62
    18
420
        0
176
     0
 90
       50
176
     0
 90
        3
176
     0
 62
     5
420
      255
176
     0
290
     0
176
     0
 90
       50
176
     0
 90
       50
176
     0
 90
       50
176
     0
290
     0
176
     0
 90
       50
176
     0
 62
   256
176
     0
 40
1.0
176
     0
 90
        2
176
     0
  1
strokes_ogs.tif
176
     0
290
     0
176
     0
 40
1.0
176
     0
 40
1.0
176
     0
  0
VISUALSTYLE
  5
39
102
{ACAD_REACTORS
330
2A
102
}
330
2A
100
AcDbVisualStyle
  2
Facepattern
 70
    15
177
     3
291
     1
 70
    58
 90
        2
176
     1
 90
        2
176
     1
 90
        0
176
     1
 90
        0
176
     1
 40
0.6
176
     1
 40
30.0
176
     1
 62
     7
420
 16777215
176
     1
 90
        1
176
     1
 90
        4
176
     1
 62
     7
176
     1
 62
   257
176
     1
 90
        1
176
     1
 90
        1
176
     1
 40
1.0
176
     1
 90
        8
176
     1
 62
     7
176
     1
 40
1.0
176
     1
 90
        1
176
     1
 90
        6
176
     1
 90
        2
176
     1
 62
     7
176
     1
 90
        5
176
     1
 90
        0
176
     1
 90
        0
176
     1
290
     0
176
     1
 90
        1
176
     1
 40
0.0
176
     1
 90
        0
176
     1
290
     0
176
     1
290
     1
176
     1
290
     1
176
     1
290
     0
176
     1
290
     0
176
     1
290
     0
176
     1
290
     0
176
     1
290
     0
176
     1
290
     0
176
     1
 90
       50
176
     1
 40
0.0
176
     1
 40
1.0
176
     1
 90
        0
176
     1
 62
    18
420
        0
176
     1
 90
       50
176
     1
 90
        3
176
     1
 62
     5
420
      255
176
     1
290
     0
176
     1
 90
       50
176
     1
 90
       50
176
     1
 90
       50
176
     1
290
     0
176
     1
 90
       50
176
     1
 62
   256
176
     0
 40
1.0
176
     0
 90
        2
176
     1
  1
strokes_ogs.tif
176
     1
290
     0
176
     1
 40
1.0
176
     1
 40
1.0
176
     1
  0
VISUALSTYLE
  5
2B
102
{ACAD_REACTORS
330
2A
102
}
330
2A
100
AcDbVisualStyle
  2
Flat
 70
     0
177
     3
291
     1
 70
    58
 90
        2
176
     1
 90
        1
176
     1
 90
        1
176
     1
 90
        2
176
     1
 40
0.6
176
     1
 40
30.0
176
     1
 62
     7
420
 16777215
176
     1
 90
        0
176
     1
 90
        0
176
     1
 62
     7
176
     1
 62
   257
176
     1
 90
        1
176
     1
 90
        1
176
     1
 40
1.0
176
     1
 90
        8
176
     1
 62
     7
176
     1
 40
1.0
176
     1
 90
        1
176
     1
 90
        6
176
     1
 90
        2
176
     1
 62
     7
176
     1
 90
        5
176
     1
 90
        0
176
     1
 90
        0
176
     1
290
     0
176
     1
 90
       13
176
     1
 40
0.0
176
     1
 90
        0
176
     1
290
     0
176
     1
290
     1
176
     1
290
     1
176
     1
290
     0
176
     1
290
     0
176
     1
290
     0
176
     1
290
     0
176
     1
290
     0
176
     1
290
     0
176
     1
 90
       50
176
     1
 40
0.0
176
     1
 40
1.0
176
     1
 90
        0
176
     1
 62
    18
420
        0
176
     1
 90
       50
176
     1
 90
        3
176
     1
 62
     5
420
      255
176
     1
290
     0
176
     1
 90
       50
176
     1
 90
       50
176
     1
 90
       50
176
     1
290
     0
176
     1
 90
       50
176
     1
 62
   256
176
     0
 40
1.0
176
     0
 90
        2
176
     1
  1
strokes_ogs.tif
176
     1
290
     0
176
     1
 40
1.0
176
     1
 40
1.0
176
     1
  0
VISUALSTYLE
  5
2C
102
{ACAD_REACTORS
330
2A
102
}
330
2A
100
AcDbVisualStyle
  2
FlatWithEdges
 70
     1
177
     3
291
     1
 70
    58
 90
        2
176
     1
 90
        1
176
     1
 90
        1
176
     1
 90
        2
176
     1
 40
0.6
176
     1
 40
30.0
176
     1
 62
     7
420
 16777215
176
     1
 90
        1
176
     1
 90
        0
176
     1
 62
     7
176
     1
 62
   257
176
     1
 90
        1
176
     1
 90
        1
176
     1
 40
1.0
176
     1
 90
        0
176
     1
 62
   257
176
     1
 40
1.0
176
     1
 90
        1
176
     1
 90
        6
176
     1
 90
        2
176
     1
 62
     7
176
     1
 90
        5
176
     1
 90
        0
176
     1
 90
        0
176
     1
290
     0
176
     1
 90
       13
176
     1
 40
0.0
176
     1
 90
        0
176
     1
290
     0
176
     1
290
     1
176
     1
290
     1
176
     1
290
     0
176
     1
290
     0
176
     1
290
     0
176
     1
290
     0
176
     1
290
     0
176
     1
290
     0
176
     1
 90
       50
176
     1
 40
0.0
176
     1
 40
1.0
176
     1
 90
        0
176
     1
 62
    18
420
        0
176
     1
 90
       50
176
     1
 90
        3
176
     1
 62
     5
420
      255
176
     1
290
     0
176
     1
 90
       50
176
     1
 90
       50
176
     1
 90
       50
176
     1
290
     0
176
     1
 90
       50
176
     1
 62
   256
176
     0
 40
1.0
176
     0
 90
        2
176
     1
  1
strokes_ogs.tif
176
     1
290
     0
176
     1
 40
1.0
176
     1
 40
1.0
176
     1
  0
VISUALSTYLE
  5
2D
102
{ACAD_REACTORS
330
2A
102
}
330
2A
100
AcDbVisualStyle
  2
Gouraud
 70
     2
177
     3
291
     1
 70
    58
 90
        2
176
     1
 90
        2
176
     1
 90
        1
176
     1
 90
        2
176
     1
 40
0.6
176
     1
 40
30.0
176
     1
 62
     7
420
 16777215
176
     1
 90
        0
176
     1
 90
        0
176
     1
 62
     7
176
     1
 62
   257
176
     1
 90
        1
176
     1
 90
        1
176
     1
 40
1.0
176
     1
 90
        0
176
     1
 62
     7
176
     1
 40
1.0
176
     1
 90
        1
176
     1
 90
        6
176
     1
 90
        2
176
     1
 62
     7
176
     1
 90
        5
176
     1
 90
        0
176
     1
 90
        0
176
     1
290
     0
176
     1
 90
       13
176
     1
 40
0.0
176
     1
 90
        0
176
     1
290
     0
176
     1
290
     1
176
     1
290
     1
176
     1
290
     0
176
     1
290
     0
176
     1
290
     0
176
     1
290
     0
176
     1
290
     0
176
     1
290
     0
176
     1
 90
       50
176
     1
 40
0.0
176
     1
 40
1.0
176
     1
 90
        0
176
     1
 62
    18
420
        0
176
     1
 90
       50
176
     1
 90
        3
176
     1
 62
     5
420
      255
176
     1
290
     0
176
     1
 90
       50
176
     1
 90
       50
176
     1
 90
       50
176
     1
290
     0
176
     1
 90
       50
176
     1
 62
   256
176
     0
 40
1.0
176
     0
 90
        2
176
     1
  1
strokes_ogs.tif
176
     1
290
     0
176
     1
 40
1.0
176
     1
 40
1.0
176
     1
  0
VISUALSTYLE
  5
2E
102
{ACAD_REACTORS
330
2A
102
}
330
2A
100
AcDbVisualStyle
  2
GouraudWithEdges
 70
     3
177
     3
291
     1
 70
    58
 90
        2
176
     1
 90
        2
176
     1
 90
        1
176
     1
 90
        2
176
     1
 40
0.6
176
     1
 40
30.0
176
     1
 62
     7
420
 16777215
176
     1
 90
        1
176
     1
 90
        0
176
     1
 62
     7
176
     1
 62
   257
176
     1
 90
        1
176
     1
 90
        1
176
     1
 40
1.0
176
     1
 90
        0
176
     1
 62
   257
176
     1
 40
1.0
176
     1
 90
        1
176
     1
 90
        6
176
     1
 90
        2
176
     1
 62
     7
176
     1
 90
        5
176
     1
 90
        0
176
     1
 90
        0
176
     1
290
     0
176
     1
 90
       13
176
     1
 40
0.0
176
     1
 90
        0
176
     1
290
     0
176
     1
290
     1
176
     1
290
     1
176
     1
290
     0
176
     1
290
     0
176
     1
290
     0
176
     1
290
     0
176
     1
290
     0
176
     1
290
     0
176
     1
 90
       50
176
     1
 40
0.0
176
     1
 40
1.0
176
     1
 90
        0
176
     1
 62
    18
420
        0
176
     1
 90
       50
176
     1
 90
        3
176
     1
 62
     5
420
      255
176
     1
290
     0
176
     1
 90
       50
176
     1
 90
       50
176
     1
 90
       50
176
     1
290
     0
176
     1
 90
       50
176
     1
 62
   256
176
     0
 40
1.0
176
     0
 90
        2
176
     1
  1
strokes_ogs.tif
176
     1
290
     0
176
     1
 40
1.0
176
     1
 40
1.0
176
     1
  0
VISUALSTYLE
  5
31
102
{ACAD_REACTORS
330
2A
102
}
330
2A
100
AcDbVisualStyle
  2
Hidden
 70
     6
177
     3
291
     0
 70
    58
 90
        1
176
     1
 90
        2
176
     1
 90
        2
176
     1
 90
        0
176
     1
 40
0.6
176
     1
 40
30.0
176
     1
 62
     7
420
 16777215
176
     1
 90
        2
176
     1
 90
        2
176
     1
 62
     7
176
     1
 62
   257
176
     1
 90
        2
176
     1
 90
        1
176
     1
 40
40.0
176
     1
 90
        0
176
     1
 62
   257
176
     1
 40
1.0
176
     1
 90
        1
176
     1
 90
        6
176
     1
 90
        2
176
     1
 62
     7
176
     1
 90
        3
176
     1
 90
        0
176
     1
 90
        0
176
     1
290
     0
176
     1
 90
        1
176
     1
 40
0.0
176
     1
 90
        0
176
     1
290
     0
176
     1
290
     1
176
     1
290
     1
176
     1
290
     0
176
     1
290
     0
176
     1
290
     0
176
     1
290
     0
176
     1
290
     0
176
     1
290
     0
176
     1
 90
       50
176
     1
 40
0.0
176
     1
 40
1.0
176
     1
 90
        0
176
     1
 62
    18
420
        0
176
     1
 90
       50
176
     1
 90
        3
176
     1
 62
     5
420
      255
176
     1
290
     0
176
     1
 90
       50
176
     1
 90
       50
176
     1
 90
       50
176
     1
290
     0
176
     1
 90
       50
176
     1
 62
   256
176
     0
 40
1.0
176
     0
 90
        2
176
     1
  1
strokes_ogs.tif
176
     1
290
     0
176
     1
 40
1.0
176
     1
 40
1.0
176
     1
  0
VISUALSTYLE
  5
3B
102
{ACAD_REACTORS
330
2A
102
}
330
2A
100
AcDbVisualStyle
  2
JitterOff
 70
    20
177
     3
291
     1
 70
    58
 90
        2
176
     0
 90
        2
176
     0
 90
        0
176
     0
 90
        0
176
     0
 40
0.6
176
     0
 40
30.0
176
     0
 62
     7
420
 16777215
176
     0
 90
        1
176
     0
 90
        4
176
     0
 62
     7
176
     0
 62
   257
176
     0
 90
        1
176
     0
 90
        1
176
     0
 40
1.0
176
     0
 90
       10
176
     2
 62
     7
176
     0
 40
1.0
176
     0
 90
        1
176
     0
 90
        6
176
     0
 90
        2
176
     0
 62
     7
176
     0
 90
        5
176
     0
 90
        0
176
     0
 90
        0
176
     0
290
     0
176
     0
 90
        1
176
     0
 40
0.0
176
     0
 90
        0
176
     0
290
     0
176
     0
290
     1
176
     0
290
     1
176
     0
290
     0
176
     0
290
     0
176
     0
290
     0
176
     0
290
     0
176
     0
290
     0
176
     0
290
     0
176
     0
 90
       50
176
     0
 40
0.0
176
     0
 40
1.0
176
     0
 90
        0
176
     0
 62
    18
420
        0
176
     0
 90
       50
176
     0
 90
        3
176
     0
 62
     5
420
      255
176
     0
290
     0
176
     0
 90
       50
176
     0
 90
       50
176
     0
 90
       50
176
     0
290
     0
176
     0
 90
       50
176
     0
 62
   256
176
     0
 40
1.0
176
     0
 90
        2
176
     0
  1
strokes_ogs.tif
176
     0
290
     0
176
     0
 40
1.0
176
     0
 40
1.0
176
     0
  0
VISUALSTYLE
  5
38
102
{ACAD_REACTORS
330
2A
102
}
330
2A
100
AcDbVisualStyle
  2
Linepattern
 70
    14
177
     3
291
     1
 70
    58
 90
        2
176
     1
 90
        2
176
     1
 90
        0
176
     1
 90
        0
176
     1
 40
0.6
176
     1
 40
30.0
176
     1
 62
     7
420
 16777215
176
     1
 90
        1
176
     1
 90
        4
176
     1
 62
     7
176
     1
 62
   257
176
     1
 90
        7
176
     1
 90
        7
176
     1
 40
1.0
176
     1
 90
        8
176
     1
 62
     7
176
     1
 40
1.0
176
     1
 90
        1
176
     1
 90
        6
176
     1
 90
        2
176
     1
 62
     7
176
     1
 90
        5
176
     1
 90
        0
176
     1
 90
        0
176
     1
290
     0
176
     1
 90
        1
176
     1
 40
0.0
176
     1
 90
        0
176
     1
290
     0
176
     1
290
     1
176
     1
290
     1
176
     1
290
     0
176
     1
290
     0
176
     1
290
     0
176
     1
290
     0
176
     1
290
     0
176
     1
290
     0
176
     1
 90
       50
176
     1
 40
0.0
176
     1
 40
1.0
176
     1
 90
        0
176
     1
 62
    18
420
        0
176
     1
 90
       50
176
     1
 90
        3
176
     1
 62
     5
420
      255
176
     1
290
     0
176
     1
 90
       50
176
     1
 90
       50
176
     1
 90
       50
176
     1
290
     0
176
     1
 90
       50
176
     1
 62
   256
176
     0
 40
1.0
176
     0
 90
        2
176
     1
  1
strokes_ogs.tif
176
     1
290
     0
176
     1
 40
1.0
176
     1
 40
1.0
176
     1
  0
VISUALSTYLE
  5
3C
102
{ACAD_REACTORS
330
2A
102
}
330
2A
100
AcDbVisualStyle
  2
OverhangOff
 70
    21
177
     3
291
     1
 70
    58
 90
        2
176
     0
 90
        2
176
     0
 90
        0
176
     0
 90
        0
176
     0
 40
0.6
176
     0
 40
30.0
176
     0
 62
     7
420
 16777215
176
     0
 90
        1
176
     0
 90
        4
176
     0
 62
     7
176
     0
 62
   257
176
     0
 90
        1
176
     0
 90
        1
176
     0
 40
1.0
176
     0
 90
        9
176
     2
 62
     7
176
     0
 40
1.0
176
     0
 90
        1
176
     0
 90
        6
176
     0
 90
        2
176
     0
 62
     7
176
     0
 90
        5
176
     0
 90
        0
176
     0
 90
        0
176
     0
290
     0
176
     0
 90
        1
176
     0
 40
0.0
176
     0
 90
        0
176
     0
290
     0
176
     0
290
     1
176
     0
290
     1
176
     0
290
     0
176
     0
290
     0
176
     0
290
     0
176
     0
290
     0
176
     0
290
     0
176
     0
290
     0
176
     0
 90
       50
176
     0
 40
0.0
176
     0
 40
1.0
176
     0
 90
        0
176
     0
 62
    18
420
        0
176
     0
 90
       50
176
     0
 90
        3
176
     0
 62
     5
420
      255
176
     0
290
     0
176
     0
 90
       50
176
     0
 90
       50
176
     0
 90
       50
176
     0
290
     0
176
     0
 90
       50
176
     0
 62
   256
176
     0
 40
1.0
176
     0
 90
        2
176
     0
  1
strokes_ogs.tif
176
     0
290
     0
176
     0
 40
1.0
176
     0
 40
1.0
176
     0
  0
VISUALSTYLE
  5
33
102
{ACAD_REACTORS
330
2A
102
}
330
2A
100
AcDbVisualStyle
  2
Realistic
 70
     8
177
     3
291
     0
 70
    58
 90
        2
176
     1
 90
        3
176
     1
 90
        0
176
     1
 90
        2
176
     1
 40
0.6
176
     1
 40
30.0
176
     1
 62
     7
420
 16777215
176
     1
 90
        0
176
     1
 90
        0
176
     1
 62
     7
176
     1
 62
   257
176
     1
 90
        1
176
     1
 90
        1
176
     1
 40
1.0
176
     1
 90
        8
176
     1
 62
   257
176
     1
 40
1.0
176
     1
 90
        1
176
     1
 90
        6
176
     1
 90
        2
176
     1
 62
     7
176
     1
 90
        3
176
     1
 90
        0
176
     1
 90
        0
176
     1
290
     0
176
     1
 90
       13
176
     1
 40
0.0
176
     1
 90
        0
176
     1
290
     0
176
     1
290
     1
176
     1
290
     1
176
     1
290
     0
176
     1
290
     0
176
     1
290
     0
176
     1
290
     0
176
     1
290
     0
176
     1
290
     0
176
     1
 90
       50
176
     1
 40
0.0
176
     1
 40
1.0
176
     1
 90
        0
176
     1
 62
    18
420
        0
176
     1
 90
       50
176
     1
 90
        3
176
     1
 62
     5
420
      255
176
     1
290
     0
176
     1
 90
       50
176
     1
 90
       50
176
     1
 90
       50
176
     1
290
     0
176
     1
 90
       50
176
     1
 62
   256
176
     0
 40
1.0
176
     0
 90
        2
176
     1
  1
strokes_ogs.tif
176
     1
290
     0
176
     1
 40
1.0
176
     1
 40
1.0
176
     1
  0
VISUALSTYLE
  5
42
102
{ACAD_REACTORS
330
2A
102
}
330
2A
100
AcDbVisualStyle
  2
Shaded
 70
    27
177
     3
291
     0
 70
    58
 90
        2
176
     1
 90
        2
176
     1
 90
        1
176
     1
 90
        2
176
     1
 40
0.6
176
     1
 40
30.0
176
     1
 62
     7
420
 16777215
176
     1
 90
        0
176
     1
 90
        4
176
     1
 62
     7
176
     1
 62
   257
176
     1
 90
        1
176
     1
 90
        1
176
     1
 40
1.0
176
     1
 90
        8
176
     1
 62
   257
176
     1
 40
1.0
176
     1
 90
        1
176
     1
 90
        6
176
     1
 90
        2
176
     1
 62
     8
420
  7895160
176
     1
 90
        3
176
     1
 90
        0
176
     1
 90
        0
176
     1
290
     0
176
     1
 90
        5
176
     1
 40
0.0
176
     1
 90
        0
176
     1
290
     0
176
     1
290
     1
176
     1
290
     1
176
     1
290
     0
176
     1
290
     0
176
     1
290
     0
176
     1
290
     0
176
     1
290
     0
176
     1
290
     0
176
     1
 90
       50
176
     1
 40
0.0
176
     1
 40
1.0
176
     1
 90
        0
176
     1
 62
    18
420
        0
176
     1
 90
       50
176
     1
 90
        3
176
     1
 62
     5
420
      255
176
     1
290
     0
176
     1
 90
       50
176
     1
 90
       50
176
     1
 90
       50
176
     1
290
     0
176
     1
 90
       50
176
     1
 62
   256
176
     0
 40
1.0
176
     0
 90
        2
176
     1
  1
strokes_ogs.tif
176
     1
290
     0
176
     1
 40
1.0
176
     1
 40
1.0
176
     1
  0
VISUALSTYLE
  5
41
102
{ACAD_REACTORS
330
2A
102
}
330
2A
100
AcDbVisualStyle
  2
Shaded with edges
 70
    26
177
     3
291
     0
 70
    58
 90
        2
176
     1
 90
        2
176
     1
 90
        1
176
     1
 90
        2
176
     1
 40
0.6
176
     1
 40
30.0
176
     1
 62
     7
420
 16777215
176
     1
 90
        1
176
     1
 90
       10
176
     1
 62
     7
176
     1
 62
   257
176
     1
 90
        2
176
     1
 90
        1
176
     1
 40
1.0
176
     1
 90
        8
176
     1
 62
   257
176
     1
 40
1.0
176
     1
 90
        1
176
     1
 90
        6
176
     1
 90
        2
176
     1
 62
     7
176
     1
 90
        3
176
     1
 90
        0
176
     1
 90
        0
176
     1
290
     0
176
     1
 90
        5
176
     1
 40
0.0
176
     1
 90
        0
176
     1
290
     0
176
     1
290
     1
176
     1
290
     1
176
     1
290
     0
176
     1
290
     0
176
     1
290
     0
176
     1
290
     0
176
     1
290
     0
176
     1
290
     0
176
     1
 90
       50
176
     1
 40
0.0
176
     1
 40
1.0
176
     1
 90
        0
176
     1
 62
    18
420
        0
176
     1
 90
       50
176
     1
 90
        3
176
     1
 62
     5
420
      255
176
     1
290
     0
176
     1
 90
       50
176
     1
 90
       50
176
     1
 90
       50
176
     1
290
     0
176
     1
 90
       50
176
     1
 62
   256
176
     0
 40
1.0
176
     0
 90
        2
176
     1
  1
strokes_ogs.tif
176
     1
290
     0
176
     1
 40
1.0
176
     1
 40
1.0
176
     1
  0
VISUALSTYLE
  5
3E
102
{ACAD_REACTORS
330
2A
102
}
330
2A
100
AcDbVisualStyle
  2
Shades of Gray
 70
    23
177
     3
291
     0
 70
    58
 90
        2
176
     1
 90
        2
176
     1
 90
        3
176
     1
 90
        0
176
     1
 40
0.6
176
     1
 40
30.0
176
     1
 62
     7
420
 16777215
176
     1
 90
        2
176
     1
 90
        2
176
     1
 62
     7
176
     1
 62
     7
176
     1
 90
        1
176
     1
 90
        1
176
     1
 40
40.0
176
     1
 90
        8
176
     1
 62
     7
176
     1
 40
1.0
176
     1
 90
        1
176
     1
 90
        6
176
     1
 90
        2
176
     1
 62
     7
176
     1
 90
        3
176
     1
 90
        0
176
     1
 90
        0
176
     1
290
     0
176
     1
 90
        1
176
     1
 40
0.0
176
     1
 90
        0
176
     1
290
     0
176
     1
290
     1
176
     1
290
     1
176
     1
290
     0
176
     1
290
     0
176
     1
290
     0
176
     1
290
     0
176
     1
290
     0
176
     1
290
     0
176
     1
 90
       50
176
     1
 40
0.0
176
     1
 40
1.0
176
     1
 90
        0
176
     1
 62
    18
420
        0
176
     1
 90
       50
176
     1
 90
        3
176
     1
 62
     5
420
      255
176
     1
290
     0
176
     1
 90
       50
176
     1
 90
       50
176
     1
 90
       50
176
     1
290
     0
176
     1
 90
       50
176
     1
 62
   256
176
     0
 40
1.0
176
     0
 90
        2
176
     1
  1
strokes_ogs.tif
176
     1
290
     0
176
     1
 40
1.0
176
     1
 40
1.0
176
     1
  0
VISUALSTYLE
  5
3F
102
{ACAD_REACTORS
330
2A
102
}
330
2A
100
AcDbVisualStyle
  2
Sketchy
 70
    24
177
     3
291
     0
 70
    58
 90
        1
176
     1
 90
        2
176
     1
 90
        2
176
     1
 90
        0
176
     1
 40
0.6
176
     1
 40
30.0
176
     1
 62
     7
420
 16777215
176
     1
 90
        2
176
     1
 90
        2
176
     1
 62
     7
176
     1
 62
     7
176
     1
 90
        1
176
     1
 90
        1
176
     1
 40
40.0
176
     1
 90
       11
176
     1
 62
     7
176
     1
 40
1.0
176
     1
 90
        1
176
     1
 90
        6
176
     1
 90
        2
176
     1
 62
     7
176
     1
 90
        6
176
     1
 90
        0
176
     1
 90
        0
176
     1
290
     0
176
     1
 90
        1
176
     1
 40
0.0
176
     1
 90
        0
176
     1
290
     0
176
     1
290
     1
176
     1
290
     1
176
     1
290
     0
176
     1
290
     0
176
     1
290
     0
176
     1
290
     0
176
     1
290
     0
176
     1
290
     0
176
     1
 90
       50
176
     1
 40
0.0
176
     1
 40
1.0
176
     1
 90
        0
176
     1
 62
    18
420
        0
176
     1
 90
       50
176
     1
 90
        3
176
     1
 62
     5
420
      255
176
     1
290
     0
176
     1
 90
       50
176
     1
 90
       50
176
     1
 90
       50
176
     1
290
     0
176
     1
 90
       50
176
     1
 62
   256
176
     0
 40
1.0
176
     0
 90
        2
176
     1
  1
strokes_ogs.tif
176
     1
290
     0
176
     1
 40
1.0
176
     1
 40
1.0
176
     1
  0
VISUALSTYLE
  5
37
102
{ACAD_REACTORS
330
2A
102
}
330
2A
100
AcDbVisualStyle
  2
Thicken
 70
    13
177
     3
291
     1
 70
    58
 90
        2
176
     1
 90
        2
176
     1
 90
        0
176
     1
 90
        0
176
     1
 40
0.6
176
     1
 40
30.0
176
     1
 62
     7
420
 16777215
176
     1
 90
        1
176
     1
 90
        4
176
     1
 62
     7
176
     1
 62
   257
176
     1
 90
        1
176
     1
 90
        1
176
     1
 40
1.0
176
     1
 90
       12
176
     1
 62
     7
176
     1
 40
1.0
176
     1
 90
        1
176
     1
 90
        6
176
     1
 90
        2
176
     1
 62
     7
176
     1
 90
        5
176
     1
 90
        0
176
     1
 90
        0
176
     1
290
     0
176
     1
 90
        1
176
     1
 40
0.0
176
     1
 90
        0
176
     1
290
     0
176
     1
290
     1
176
     1
290
     1
176
     1
290
     0
176
     1
290
     0
176
     1
290
     0
176
     1
290
     0
176
     1
290
     0
176
     1
290
     0
176
     1
 90
       50
176
     1
 40
0.0
176
     1
 40
1.0
176
     1
 90
        0
176
     1
 62
    18
420
        0
176
     1
 90
       50
176
     1
 90
        3
176
     1
 62
     5
420
      255
176
     1
290
     0
176
     1
 90
       50
176
     1
 90
       50
176
     1
 90
       50
176
     1
290
     0
176
     1
 90
       50
176
     1
 62
   256
176
     0
 40
1.0
176
     0
 90
        2
176
     1
  1
strokes_ogs.tif
176
     1
290
     0
176
     1
 40
1.0
176
     1
 40
1.0
176
     1
  0
VISUALSTYLE
  5
30
102
{ACAD_REACTORS
330
2A
102
}
330
2A
100
AcDbVisualStyle
  2
Wireframe
 70
     5
177
     3
291
     0
 70
    58
 90
        0
176
     1
 90
        2
176
     1
 90
        0
176
     1
 90
        0
176
     1
 40
0.6
176
     1
 40
30.0
176
     1
 62
     7
420
 16777215
176
     1
 90
        1
176
     1
 90
        4
176
     1
 62
     7
176
     1
 62
   257
176
     1
 90
        1
176
     1
 90
        1
176
     1
 40
1.0
176
     1
 90
        0
176
     1
 62
   257
176
     1
 40
1.0
176
     1
 90
        1
176
     1
 90
        6
176
     1
 90
        2
176
     1
 62
     7
176
     1
 90
        3
176
     1
 90
        0
176
     1
 90
        0
176
     1
290
     0
176
     1
 90
        1
176
     1
 40
0.0
176
     1
 90
        0
176
     1
290
     0
176
     1
290
     1
176
     1
290
     1
176
     1
290
     0
176
     1
290
     0
176
     1
290
     0
176
     1
290
     0
176
     1
290
     0
176
     1
290
     0
176
     1
 90
       50
176
     1
 40
0.0
176
     1
 40
1.0
176
     1
 90
        0
176
     1
 62
    18
420
        0
176
     1
 90
       50
176
     1
 90
        3
176
     1
 62
     5
420
      255
176
     1
290
     0
176
     1
 90
       50
176
     1
 90
       50
176
     1
 90
       50
176
     1
290
     0
176
     1
 90
       50
176
     1
 62
   256
176
     0
 40
1.0
176
     0
 90
        2
176
     1
  1
strokes_ogs.tif
176
     1
290
     0
176
     1
 40
1.0
176
     1
 40
1.0
176
     1
  0
VISUALSTYLE
  5
40
102
{ACAD_REACTORS
330
2A
102
}
330
2A
100
AcDbVisualStyle
  2
X-Ray
 70
    25
177
     3
291
     0
 70
    58
 90
        2
176
     1
 90
        2
176
     1
 90
        1
176
     1
 90
        1
176
     1
 40
0.5
176
     1
 40
30.0
176
     1
 62
     7
420
 16777215
176
     1
 90
        1
176
     1
 90
        0
176
     1
 62
     7
176
     1
 62
   257
176
     1
 90
        1
176
     1
 90
        1
176
     1
 40
1.0
176
     1
 90
        8
176
     1
 62
     7
176
     1
 40
1.0
176
     1
 90
        1
176
     1
 90
        6
176
     1
 90
        2
176
     1
 62
     7
176
     1
 90
        3
176
     1
 90
        0
176
     1
 90
        0
176
     1
290
     0
176
     1
 90
       13
176
     1
 40
0.0
176
     1
 90
        0
176
     1
290
     0
176
     1
290
     1
176
     1
290
     1
176
     1
290
     0
176
     1
290
     0
176
     1
290
     0
176
     1
290
     0
176
     1
290
     0
176
     1
290
     0
176
     1
 90
       50
176
     1
 40
0.0
176
     1
 40
1.0
176
     1
 90
        0
176
     1
 62
    18
420
        0
176
     1
 90
       50
176
     1
 90
        3
176
     1
 62
     5
420
      255
176
     1
290
     0
176
     1
 90
       50
176
     1
 90
       50
176
     1
 90
       50
176
     1
290
     0
176
     1
 90
       50
176
     1
 62
   256
176
     0
 40
1.0
176
     0
 90
        2
176
     1
  1
strokes_ogs.tif
176
     1
290
     0
176
     1
 40
1.0
176
     1
 40
1.0
176
     1
  0
DICTIONARYVAR
  5
1A3
102
{ACAD_REACTORS
330
1A2
102
}
330
1A2
100
DictionaryVariables
280
     0
  1
1:1
  0
DICTIONARYVAR
  5
1A8
102
{ACAD_REACTORS
330
1A2
102
}
330
1A2
100
DictionaryVariables
280
     0
  1
Standard
  0
DICTIONARYVAR
  5
1A7
102
{ACAD_REACTORS
330
1A2
102
}
330
1A2
100
DictionaryVariables
280
     0
  1
Standard
  0
DICTIONARY
  5
1A4
330
6A
100
AcDbDictionary
280
     1
281
     1
  3
ACAD_ROUNDTRIP_2008_TABLESTYLE_CELLSTYLEMAP
360
1A5
  0
CELLSTYLEMAP
  5
1A5
102
{ACAD_REACTORS
330
1A4
102
}
330
1A4
100
AcDbCellStyleMap
 90
        3
300
CELLSTYLE
  1
TABLEFORMAT_BEGIN
 90
        5
170
     1
 91
        0
 92
    32768
 62
   257
 93
        1
300
CONTENTFORMAT
  1
CONTENTFORMAT_BEGIN
 90
        0
 91
        0
 92
        4
 93
        0
300

 40
0.0
140
1.0
 94
        5
 62
     0
340
11
144
0.25
309
CONTENTFORMAT_END
171
     1
301
MARGIN
  1
CELLMARGIN_BEGIN
 40
0.06
 40
0.06
 40
0.06
 40
0.06
 40
0.06
 40
0.06
309
CELLMARGIN_END
 94
        6
 95
        1
302
GRIDFORMAT
  1
GRIDFORMAT_BEGIN
 90
        0
 91
        1
 62
     0
 92
       -2
340
14
 93
        0
 40
0.045
309
GRIDFORMAT_END
 95
        2
302
GRIDFORMAT
  1
GRIDFORMAT_BEGIN
 90
        0
 91
        1
 62
     0
 92
       -2
340
14
 93
        0
 40
0.045
309
GRIDFORMAT_END
 95
        4
302
GRIDFORMAT
  1
GRIDFORMAT_BEGIN
 90
        0
 91
        1
 62
     0
 92
       -2
340
14
 93
        0
 40
0.045
309
GRIDFORMAT_END
 95
        8
302
GRIDFORMAT
  1
GRIDFORMAT_BEGIN
 90
        0
 91
        1
 62
     0
 92
       -2
340
14
 93
        0
 40
0.045
309
GRIDFORMAT_END
 95
       16
302
GRIDFORMAT
  1
GRIDFORMAT_BEGIN
 90
        0
 91
        1
 62
     0
 92
       -2
340
14
 93
        0
 40
0.045
309
GRIDFORMAT_END
 95
       32
302
GRIDFORMAT
  1
GRIDFORMAT_BEGIN
 90
        0
 91
        1
 62
     0
 92
       -2
340
14
 93
        0
 40
0.045
309
GRIDFORMAT_END
309
TABLEFORMAT_END
  1
CELLSTYLE_BEGIN
 90
        1
 91
        1
300
_TITLE
309
CELLSTYLE_END
300
CELLSTYLE
  1
TABLEFORMAT_BEGIN
 90
        5
170
     1
 91
        0
 92
        0
 62
   257
 93
        1
300
CONTENTFORMAT
  1
CONTENTFORMAT_BEGIN
 90
        0
 91
        0
 92
        4
 93
        0
300

 40
0.0
140
1.0
 94
        5
 62
     0
340
11
144
0.18
309
CONTENTFORMAT_END
171
     1
301
MARGIN
  1
CELLMARGIN_BEGIN
 40
0.06
 40
0.06
 40
0.06
 40
0.06
 40
0.06
 40
0.06
309
CELLMARGIN_END
 94
        6
 95
        1
302
GRIDFORMAT
  1
GRIDFORMAT_BEGIN
 90
        0
 91
        1
 62
     0
 92
       -2
340
14
 93
        0
 40
0.045
309
GRIDFORMAT_END
 95
        2
302
GRIDFORMAT
  1
GRIDFORMAT_BEGIN
 90
        0
 91
        1
 62
     0
 92
       -2
340
14
 93
        0
 40
0.045
309
GRIDFORMAT_END
 95
        4
302
GRIDFORMAT
  1
GRIDFORMAT_BEGIN
 90
        0
 91
        1
 62
     0
 92
       -2
340
14
 93
        0
 40
0.045
309
GRIDFORMAT_END
 95
        8
302
GRIDFORMAT
  1
GRIDFORMAT_BEGIN
 90
        0
 91
        1
 62
     0
 92
       -2
340
14
 93
        0
 40
0.045
309
GRIDFORMAT_END
 95
       16
302
GRIDFORMAT
  1
GRIDFORMAT_BEGIN
 90
        0
 91
        1
 62
     0
 92
       -2
340
14
 93
        0
 40
0.045
309
GRIDFORMAT_END
 95
       32
302
GRIDFORMAT
  1
GRIDFORMAT_BEGIN
 90
        0
 91
        1
 62
     0
 92
       -2
340
14
 93
        0
 40
0.045
309
GRIDFORMAT_END
309
TABLEFORMAT_END
  1
CELLSTYLE_BEGIN
 90
        2
 91
        1
300
_HEADER
309
CELLSTYLE_END
300
CELLSTYLE
  1
TABLEFORMAT_BEGIN
 90
        5
170
     1
 91
        0
 92
        0
 62
   257
 93
        1
300
CONTENTFORMAT
  1
CONTENTFORMAT_BEGIN
 90
        0
 91
        0
 92
        4
 93
        0
300

 40
0.0
140
1.0
 94
        2
 62
     0
340
11
144
0.18
309
CONTENTFORMAT_END
171
     1
301
MARGIN
  1
CELLMARGIN_BEGIN
 40
0.06
 40
0.06
 40
0.06
 40
0.06
 40
0.06
 40
0.06
309
CELLMARGIN_END
 94
        6
 95
        1
302
GRIDFORMAT
  1
GRIDFORMAT_BEGIN
 90
        0
 91
        1
 62
     0
 92
       -2
340
14
 93
        0
 40
0.045
309
GRIDFORMAT_END
 95
        2
302
GRIDFORMAT
  1
GRIDFORMAT_BEGIN
 90
        0
 91
        1
 62
     0
 92
       -2
340
14
 93
        0
 40
0.045
309
GRIDFORMAT_END
 95
        4
302
GRIDFORMAT
  1
GRIDFORMAT_BEGIN
 90
        0
 91
        1
 62
     0
 92
       -2
340
14
 93
        0
 40
0.045
309
GRIDFORMAT_END
 95
        8
302
GRIDFORMAT
  1
GRIDFORMAT_BEGIN
 90
        0
 91
        1
 62
     0
 92
       -2
340
14
 93
        0
 40
0.045
309
GRIDFORMAT_END
 95
       16
302
GRIDFORMAT
  1
GRIDFORMAT_BEGIN
 90
        0
 91
        1
 62
     0
 92
       -2
340
14
 93
        0
 40
0.045
309
GRIDFORMAT_END
 95
       32
302
GRIDFORMAT
  1
GRIDFORMAT_BEGIN
 90
        0
 91
        1
 62
     0
 92
       -2
340
14
 93
        0
 40
0.045
309
GRIDFORMAT_END
309
TABLEFORMAT_END
  1
CELLSTYLE_BEGIN
 90
        3
 91
        2
300
_DATA
309
CELLSTYLE_END
  0
ENDSEC
  0
EOF