0
SECTION
  2
HEADER
  9
$ACADVER
  1
AC1027
  9
$ACADMAINTVER
 70
     8
  9
$DWGCODEPAGE
  3
ANSI_1252
  9
$REQUIREDVERSIONS
160
                 0
  9
$COMMENTS
  1
File was created by Cadenas
  9
$CUSTOMPROPERTYTAG
  1
NN
  9
$CUSTOMPROPERTY
  1
S-2000 Flange Bearing - Square Trident Seal
  9
$CUSTOMPROPERTYTAG
  1
NT
  9
$CUSTOMPROPERTY
  1
S-2000 4 Bolt Square Flange Bearing -Inch
  9
$CUSTOMPROPERTYTAG
  1
NB
  9
$CUSTOMPROPERTY
  1
070541
  9
$CUSTOMPROPERTYTAG
  1
NBSYN
  9
$CUSTOMPROPERTY
  1
$PN.
  9
$CUSTOMPROPERTYTAG
  1
LINA
  9
$CUSTOMPROPERTY
  1
070541
  9
$CUSTOMPROPERTYTAG
  1
SS
  9
$CUSTOMPROPERTY
  1
1-3/8
  9
$CUSTOMPROPERTYTAG
  1
PN
  9
$CUSTOMPROPERTY
  1
070541
  9
$CUSTOMPROPERTYTAG
  1
DESCRIPTION
  9
$CUSTOMPROPERTY
  1
F4S-S2-106R
  9
$CUSTOMPROPERTYTAG
  1
EF
  9
$CUSTOMPROPERTY
  1
Non-Expansion Type
  9
$CUSTOMPROPERTYTAG
  1
ST
  9
$CUSTOMPROPERTY
  1
Contact Seal
  9
$CUSTOMPROPERTYTAG
  1
A
  9
$CUSTOMPROPERTY
  1
2-17/32
  9
$CUSTOMPROPERTYTAG
  1
B
  9
$CUSTOMPROPERTY
  1
4-3/4
  9
$CUSTOMPROPERTYTAG
  1
C
  9
$CUSTOMPROPERTY
  1
2-49/64
  9
$CUSTOMPROPERTYTAG
  1
D
  9
$CUSTOMPROPERTY
  1
3-17/32
  9
$CUSTOMPROPERTYTAG
  1
F
  9
$CUSTOMPROPERTY
  1
1/2
  9
$CUSTOMPROPERTYTAG
  1
G
  9
$CUSTOMPROPERTY
  1
63/64
  9
$CUSTOMPROPERTYTAG
  1
H
  9
$CUSTOMPROPERTY
  1
1/2
  9
$CUSTOMPROPERTYTAG
  1
J
  9
$CUSTOMPROPERTY
  1
3-13/16
  9
$CUSTOMPROPERTYTAG
  1
K
  9
$CUSTOMPROPERTY
  1
5
  9
$CUSTOMPROPERTYTAG
  1
L
  9
$CUSTOMPROPERTY
  1
2-3/4
  9
$CUSTOMPROPERTYTAG
  1
N
  9
$CUSTOMPROPERTY
  1
2-31/64
  9
$CUSTOMPROPERTYTAG
  1
P
  9
$CUSTOMPROPERTY
  1
15/64
  9
$CUSTOMPROPERTYTAG
  1
X
  9
$CUSTOMPROPERTY
  1
3/16
  9
$CUSTOMPROPERTYTAG
  1
Y
  9
$CUSTOMPROPERTY
  1
0.020
  9
$CUSTOMPROPERTYTAG
  1
Z
  9
$CUSTOMPROPERTY
  1
1-51/64
  9
$CUSTOMPROPERTYTAG
  1
COMPANY
  9
$CUSTOMPROPERTY
  1
baldor
  9
$INSBASE
 10
0.0
 20
0.0
 30
0.0
  9
$EXTMIN
 10
1.000000000000000E+20
 20
1.000000000000000E+20
 30
1.000000000000000E+20
  9
$EXTMAX
 10
-1.000000000000000E+20
 20
-1.000000000000000E+20
 30
-1.000000000000000E+20
  9
$LIMMIN
 10
0.0
 20
0.0
  9
$LIMMAX
 10
12.0
 20
9.0
  9
$ORTHOMODE
 70
     0
  9
$REGENMODE
 70
     1
  9
$FILLMODE
 70
     1
  9
$QTEXTMODE
 70
     0
  9
$MIRRTEXT
 70
     1
  9
$LTSCALE
 40
1.0
  9
$ATTMODE
 70
     1
  9
$TEXTSIZE
 40
0.2
  9
$TRACEWID
 40
0.05
  9
$TEXTSTYLE
  7
Standard
  9
$CLAYER
  8
0
  9
$CELTYPE
  6
ByLayer
  9
$CECOLOR
 62
   256
  9
$CELTSCALE
 40
1.0
  9
$DISPSILH
 70
     0
  9
$DIMSCALE
 40
1.0
  9
$DIMASZ
 40
0.18
  9
$DIMEXO
 40
0.0625
  9
$DIMDLI
 40
0.38
  9
$DIMRND
 40
0.0
  9
$DIMDLE
 40
0.0
  9
$DIMEXE
 40
0.18
  9
$DIMTP
 40
0.0
  9
$DIMTM
 40
0.0
  9
$DIMTXT
 40
0.18
  9
$DIMCEN
 40
0.09
  9
$DIMTSZ
 40
0.0
  9
$DIMTOL
 70
     0
  9
$DIMLIM
 70
     0
  9
$DIMTIH
 70
     1
  9
$DIMTOH
 70
     1
  9
$DIMSE1
 70
     0
  9
$DIMSE2
 70
     0
  9
$DIMTAD
 70
     0
  9
$DIMZIN
 70
     0
  9
$DIMBLK
  1

  9
$DIMASO
 70
     1
  9
$DIMSHO
 70
     1
  9
$DIMPOST
  1

  9
$DIMAPOST
  1

  9
$DIMALT
 70
     0
  9
$DIMALTD
 70
     2
  9
$DIMALTF
 40
25.4
  9
$DIMLFAC
 40
1.0
  9
$DIMTOFL
 70
     0
  9
$DIMTVP
 40
0.0
  9
$DIMTIX
 70
     0
  9
$DIMSOXD
 70
     0
  9
$DIMSAH
 70
     0
  9
$DIMBLK1
  1

  9
$DIMBLK2
  1

  9
$DIMSTYLE
  2
Standard
  9
$DIMCLRD
 70
     0
  9
$DIMCLRE
 70
     0
  9
$DIMCLRT
 70
     0
  9
$DIMTFAC
 40
1.0
  9
$DIMGAP
 40
0.09
  9
$DIMJUST
 70
     0
  9
$DIMSD1
 70
     0
  9
$DIMSD2
 70
     0
  9
$DIMTOLJ
 70
     1
  9
$DIMTZIN
 70
     0
  9
$DIMALTZ
 70
     0
  9
$DIMALTTZ
 70
     0
  9
$DIMUPT
 70
     0
  9
$DIMDEC
 70
     4
  9
$DIMTDEC
 70
     4
  9
$DIMALTU
 70
     2
  9
$DIMALTTD
 70
     2
  9
$DIMTXSTY
  7
Standard
  9
$DIMAUNIT
 70
     0
  9
$DIMADEC
 70
     0
  9
$DIMALTRND
 40
0.0
  9
$DIMAZIN
 70
     0
  9
$DIMDSEP
 70
    46
  9
$DIMATFIT
 70
     3
  9
$DIMFRAC
 70
     0
  9
$DIMLDRBLK
  1

  9
$DIMLUNIT
 70
     2
  9
$DIMLWD
 70
    -2
  9
$DIMLWE
 70
    -2
  9
$DIMTMOVE
 70
     0
  9
$DIMFXL
 40
1.0
  9
$DIMFXLON
 70
     0
  9
$DIMJOGANG
 40
0.7853981633974483
  9
$DIMTFILL
 70
     0
  9
$DIMTFILLCLR
 70
     0
  9
$DIMARCSYM
 70
     0
  9
$DIMLTYPE
  6

  9
$DIMLTEX1
  6

  9
$DIMLTEX2
  6

  9
$DIMTXTDIRECTION
 70
     0
  9
$LUNITS
 70
     2
  9
$LUPREC
 70
     4
  9
$SKETCHINC
 40
0.1
  9
$FILLETRAD
 40
0.5
  9
$AUNITS
 70
     0
  9
$AUPREC
 70
     0
  9
$MENU
  1
.
  9
$ELEVATION
 40
0.0
  9
$PELEVATION
 40
0.0
  9
$THICKNESS
 40
0.0
  9
$LIMCHECK
 70
     0
  9
$CHAMFERA
 40
0.0
  9
$CHAMFERB
 40
0.0
  9
$CHAMFERC
 40
0.0
  9
$CHAMFERD
 40
0.0
  9
$SKPOLY
 70
     0
  9
$TDCREATE
 40
2458168.984784711
  9
$TDUCREATE
 40
2458168.943118044
  9
$TDUPDATE
 40
2458168.984784896
  9
$TDUUPDATE
 40
2458168.943118229
  9
$TDINDWG
 40
0.0000000116
  9
$TDUSRTIMER
 40
0.0000000116
  9
$USRTIMER
 70
     1
  9
$ANGBASE
 50
0.0
  9
$ANGDIR
 70
     0
  9
$PDMODE
 70
     0
  9
$PDSIZE
 40
0.0
  9
$PLINEWID
 40
0.0
  9
$SPLFRAME
 70
     0
  9
$SPLINETYPE
 70
     6
  9
$SPLINESEGS
 70
     8
  9
$HANDSEED
  5
1DE
  9
$SURFTAB1
 70
     6
  9
$SURFTAB2
 70
     6
  9
$SURFTYPE
 70
     6
  9
$SURFU
 70
     6
  9
$SURFV
 70
     6
  9
$UCSBASE
  2

  9
$UCSNAME
  2

  9
$UCSORG
 10
0.0
 20
0.0
 30
0.0
  9
$UCSXDIR
 10
1.0
 20
0.0
 30
0.0
  9
$UCSYDIR
 10
0.0
 20
1.0
 30
0.0
  9
$UCSORTHOREF
  2

  9
$UCSORTHOVIEW
 70
     0
  9
$UCSORGTOP
 10
0.0
 20
0.0
 30
0.0
  9
$UCSORGBOTTOM
 10
0.0
 20
0.0
 30
0.0
  9
$UCSORGLEFT
 10
0.0
 20
0.0
 30
0.0
  9
$UCSORGRIGHT
 10
0.0
 20
0.0
 30
0.0
  9
$UCSORGFRONT
 10
0.0
 20
0.0
 30
0.0
  9
$UCSORGBACK
 10
0.0
 20
0.0
 30
0.0
  9
$PUCSBASE
  2

  9
$PUCSNAME
  2

  9
$PUCSORG
 10
0.0
 20
0.0
 30
0.0
  9
$PUCSXDIR
 10
1.0
 20
0.0
 30
0.0
  9
$PUCSYDIR
 10
0.0
 20
1.0
 30
0.0
  9
$PUCSORTHOREF
  2

  9
$PUCSORTHOVIEW
 70
     0
  9
$PUCSORGTOP
 10
0.0
 20
0.0
 30
0.0
  9
$PUCSORGBOTTOM
 10
0.0
 20
0.0
 30
0.0
  9
$PUCSORGLEFT
 10
0.0
 20
0.0
 30
0.0
  9
$PUCSORGRIGHT
 10
0.0
 20
0.0
 30
0.0
  9
$PUCSORGFRONT
 10
0.0
 20
0.0
 30
0.0
  9
$PUCSORGBACK
 10
0.0
 20
0.0
 30
0.0
  9
$USERI1
 70
     0
  9
$USERI2
 70
     0
  9
$USERI3
 70
     0
  9
$USERI4
 70
     0
  9
$USERI5
 70
     0
  9
$USERR1
 40
0.0
  9
$USERR2
 40
0.0
  9
$USERR3
 40
0.0
  9
$USERR4
 40
0.0
  9
$USERR5
 40
0.0
  9
$WORLDVIEW
 70
     1
  9
$SHADEDGE
 70
     3
  9
$SHADEDIF
 70
    70
  9
$TILEMODE
 70
     1
  9
$MAXACTVP
 70
    64
  9
$PINSBASE
 10
0.0
 20
0.0
 30
0.0
  9
$PLIMCHECK
 70
     0
  9
$PEXTMIN
 10
1.000000000000000E+20
 20
1.000000000000000E+20
 30
1.000000000000000E+20
  9
$PEXTMAX
 10
-1.000000000000000E+20
 20
-1.000000000000000E+20
 30
-1.000000000000000E+20
  9
$PLIMMIN
 10
0.0
 20
0.0
  9
$PLIMMAX
 10
12.0
 20
9.0
  9
$UNITMODE
 70
     0
  9
$VISRETAIN
 70
     1
  9
$PLINEGEN
 70
     0
  9
$PSLTSCALE
 70
     1
  9
$TREEDEPTH
 70
  3020
  9
$CMLSTYLE
  2
Standard
  9
$CMLJUST
 70
     0
  9
$CMLSCALE
 40
1.0
  9
$PROXYGRAPHICS
 70
     1
  9
$MEASUREMENT
 70
     0
  9
$CELWEIGHT
370
    -1
  9
$ENDCAPS
280
     0
  9
$JOINSTYLE
280
     0
  9
$LWDISPLAY
290
     0
  9
$INSUNITS
 70
     1
  9
$HYPERLINKBASE
  1

  9
$STYLESHEET
  1

  9
$XEDIT
290
     1
  9
$CEPSNTYPE
380
     0
  9
$PSTYLEMODE
290
     1
  9
$FINGERPRINTGUID
  2
{ECB04A3C-4E35-43B0-9F2A-D78B7EDD648B}
  9
$VERSIONGUID
  2
{FAEB1C32-E019-11D5-929B-00C0DF256EC4}
  9
$EXTNAMES
290
     1
  9
$PSVPSCALE
 40
0.0
  9
$OLESTARTUP
290
     0
  9
$SORTENTS
280
   127
  9
$INDEXCTL
280
     0
  9
$HIDETEXT
280
     1
  9
$XCLIPFRAME
280
     2
  9
$HALOGAP
280
     0
  9
$OBSCOLOR
 70
   257
  9
$OBSLTYPE
280
     0
  9
$INTERSECTIONDISPLAY
280
     0
  9
$INTERSECTIONCOLOR
 70
   257
  9
$DIMASSOC
280
     2
  9
$PROJECTNAME
  1

  9
$CAMERADISPLAY
290
     0
  9
$LENSLENGTH
 40
50.0
  9
$CAMERAHEIGHT
 40
0.0
  9
$STEPSPERSEC
 40
2.0
  9
$STEPSIZE
 40
6.0
  9
$3DDWFPREC
 40
2.0
  9
$PSOLWIDTH
 40
0.25
  9
$PSOLHEIGHT
 40
4.0
  9
$LOFTANG1
 40
1.570796326794897
  9
$LOFTANG2
 40
1.570796326794897
  9
$LOFTMAG1
 40
0.0
  9
$LOFTMAG2
 40
0.0
  9
$LOFTPARAM
 70
     7
  9
$LOFTNORMALS
280
     1
  9
$LATITUDE
 40
37.795
  9
$LONGITUDE
 40
-122.394
  9
$NORTHDIRECTION
 40
0.0
  9
$TIMEZONE
 70
 -8000
  9
$LIGHTGLYPHDISPLAY
280
     1
  9
$TILEMODELIGHTSYNCH
280
     1
  9
$CMATERIAL
347
44
  9
$SOLIDHIST
280
     0
  9
$SHOWHIST
280
     1
  9
$DWFFRAME
280
     2
  9
$DGNFRAME
280
     2
  9
$REALWORLDSCALE
290
     1
  9
$INTERFERECOLOR
 62
   256
  9
$CSHADOW
280
     0
  9
$SHADOWPLANELOCATION
 40
0.0
  0
ENDSEC
  0
SECTION
  2
CLASSES
  0
CLASS
  1
ACDBDICTIONARYWDFLT
  2
AcDbDictionaryWithDefault
  3
ObjectDBX Classes
 90
        0
 91
        4
280
     0
281
     0
  0
CLASS
  1
VISUALSTYLE
  2
AcDbVisualStyle
  3
ObjectDBX Classes
 90
     4095
 91
        4
280
     0
281
     0
  0
CLASS
  1
MATERIAL
  2
AcDbMaterial
  3
ObjectDBX Classes
 90
     1153
 91
        4
280
     0
281
     0
  0
CLASS
  1
SCALE
  2
AcDbScale
  3
ObjectDBX Classes
 90
     1153
 91
        4
280
     0
281
     0
  0
CLASS
  1
TABLESTYLE
  2
AcDbTableStyle
  3
ObjectDBX Classes
 90
     4095
 91
        4
280
     0
281
     0
  0
CLASS
  1
MLEADERSTYLE
  2
AcDbMLeaderStyle
  3
ACDB_MLEADERSTYLE_CLASS
 90
     4095
 91
        4
280
     0
281
     0
  0
CLASS
  1
SUN
  2
AcDbSun
  3
SCENEOE
 90
     1153
 91
        4
280
     0
281
     0
  0
CLASS
  1
DICTIONARYVAR
  2
AcDbDictionaryVar
  3
ObjectDBX Classes
 90
        0
 91
        4
280
     0
281
     0
  0
CLASS
  1
CELLSTYLEMAP
  2
AcDbCellStyleMap
  3
ObjectDBX Classes
 90
     1152
 91
        4
280
     0
281
     0
  0
ENDSEC
  0
SECTION
  2
TABLES
  0
TABLE
  2
VPORT
  5
8
330
0
100
AcDbSymbolTable
 70
     1
  0
VPORT
  5
29
330
8
100
AcDbSymbolTableRecord
100
AcDbViewportTableRecord
  2
*Active
 70
     0
 10
0.0
 20
0.0
 11
1.0
 21
1.0
 12
-1.26765625
 22
0.0191249999999998
 13
0.0
 23
0.0
 14
0.5
 24
0.5
 15
0.5
 25
0.5
 16
0.0
 26
0.0
 36
1.0
 17
0.0
 27
0.0
 37
0.0
 40
4.884015
 41
0.6785490523677755
 42
50.0
 43
0.0
 44
0.0
 50
0.0
 51
0.0
 71
     0
 72
   100
 73
     1
 74
     3
 75
     0
 76
     0
 77
     0
 78
     0
281
     0
 65
     1
110
0.0
120
0.0
130
0.0
111
1.0
121
0.0
131
0.0
112
0.0
122
1.0
132
0.0
 79
     0
146
0.0
348
2F
 60
     3
 61
     5
292
     1
282
     1
141
0.0
142
0.0
 63
   250
361
6D
  0
ENDTAB
  0
TABLE
  2
LTYPE
  5
5
330
0
100
AcDbSymbolTable
 70
     3
  0
LTYPE
  5
14
330
5
100
AcDbSymbolTableRecord
100
AcDbLinetypeTableRecord
  2
ByBlock
 70
     0
  3

 72
    65
 73
     0
 40
0.0
  0
LTYPE
  5
15
330
5
100
AcDbSymbolTableRecord
100
AcDbLinetypeTableRecord
  2
ByLayer
 70
     0
  3

 72
    65
 73
     0
 40
0.0
  0
LTYPE
  5
16
330
5
100
AcDbSymbolTableRecord
100
AcDbLinetypeTableRecord
  2
Continuous
 70
     0
  3
Solid line
 72
    65
 73
     0
 40
0.0
  0
LTYPE
  5
A6
330
5
100
AcDbSymbolTableRecord
100
AcDbLinetypeTableRecord
  2
Dashed
 70
     0
  3

 72
    65
 73
     2
 40
2.0
 49
1.0
 74
     0
 49
-1.0
 74
     0
  0
LTYPE
  5
128
330
5
100
AcDbSymbolTableRecord
100
AcDbLinetypeTableRecord
  2
Center
 70
     0
  3

 72
    65
 73
     4
 40
1.5
 49
0.45
 74
     0
 49
-0.5
 74
     0
 49
0.05
 74
     0
 49
-0.5
 74
     0
  0
ENDTAB
  0
TABLE
  2
LAYER
  5
2
330
0
100
AcDbSymbolTable
 70
     7
  0
LAYER
  5
10
330
2
100
AcDbSymbolTableRecord
100
AcDbLayerTableRecord
  2
0
 70
     0
 62
     7
  6
Continuous
370
    -3
390
F
347
46
348
0
  0
LAYER
  5
72
330
2
100
AcDbSymbolTableRecord
100
AcDbLayerTableRecord
  2
AM_6
 70
     0
 62
    -2
  6
Continuous
370
    35
390
F
347
46
348
0
  0
LAYER
  5
A7
330
2
100
AcDbSymbolTableRecord
100
AcDbLayerTableRecord
  2
AM_9
 70
     0
 62
     6
  6
Dashed
370
    25
390
F
347
46
348
0
  0
LAYER
  5
B8
330
2
100
AcDbSymbolTableRecord
100
AcDbLayerTableRecord
  2
AM_5
 70
     0
 62
     3
  6
Continuous
370
    25
390
F
347
46
348
0
  0
LAYER
  5
BD
330
2
100
AcDbSymbolTableRecord
100
AcDbLayerTableRecord
  2
AM_4
 70
     0
 62
     7
  6
Continuous
370
    50
390
F
347
46
348
0
  0
LAYER
  5
129
330
2
100
AcDbSymbolTableRecord
100
AcDbLayerTableRecord
  2
AM_7
 70
     0
 62
     7
  6
Center
370
    25
390
F
347
46
348
0
  0
LAYER
  5
1CD
330
2
100
AcDbSymbolTableRecord
100
AcDbLayerTableRecord
  2
ConnectionPoints
 70
     0
 62
     7
  6
Continuous
370
    50
390
F
347
46
348
0
  0
ENDTAB
  0
TABLE
  2
STYLE
  5
3
330
0
100
AcDbSymbolTable
 70
     1
  0
STYLE
  5
11
330
3
100
AcDbSymbolTableRecord
100
AcDbTextStyleTableRecord
  2
Standard
 70
     0
 40
0.0
 41
1.0
 50
0.0
 71
     0
 42
0.2
  3
txt
  4

  0
ENDTAB
  0
TABLE
  2
VIEW
  5
6
330
0
100
AcDbSymbolTable
 70
     0
  0
ENDTAB
  0
TABLE
  2
UCS
  5
7
330
0
100
AcDbSymbolTable
 70
     0
  0
ENDTAB
  0
TABLE
  2
APPID
  5
9
330
0
100
AcDbSymbolTable
 70
     1
  0
APPID
  5
12
330
9
100
AcDbSymbolTableRecord
100
AcDbRegAppTableRecord
  2
ACAD
 70
     0
  0
ENDTAB
  0
TABLE
  2
DIMSTYLE
  5
A
330
0
100
AcDbSymbolTable
 70
     1
100
AcDbDimStyleTable
  0
DIMSTYLE
105
27
330
A
100
AcDbSymbolTableRecord
100
AcDbDimStyleTableRecord
  2
Standard
 70
     0
178
     0
340
11
  0
ENDTAB
  0
TABLE
  2
BLOCK_RECORD
  5
1
330
0
100
AcDbSymbolTable
 70
     6
  0
BLOCK_RECORD
  5
1F
330
1
100
AcDbSymbolTableRecord
100
AcDbBlockTableRecord
  2
*Model_Space
340
22
 70
     0
280
     1
281
     0
  0
BLOCK_RECORD
  5
1B
330
1
100
AcDbSymbolTableRecord
100
AcDbBlockTableRecord
  2
*Paper_Space
340
1E
 70
     0
280
     1
281
     0
  0
BLOCK_RECORD
  5
23
330
1
100
AcDbSymbolTableRecord
100
AcDbBlockTableRecord
  2
*Paper_Space0
340
26
 70
     0
280
     1
281
     0
  0
BLOCK_RECORD
  5
6E
330
1
100
AcDbSymbolTableRecord
100
AcDbBlockTableRecord
  2
1_070541_2
340
0
102
{BLKREFS
331
6F
102
}
 70
     0
280
     1
281
     0
  0
BLOCK_RECORD
  5
8D
330
1
100
AcDbSymbolTableRecord
100
AcDbBlockTableRecord
  2
2_1_3_8CS2i_0_in_070541_2
340
0
102
{BLKREFS
331
8E
102
}
 70
     0
280
     1
281
     0
  0
BLOCK_RECORD
  5
D0
330
1
100
AcDbSymbolTableRecord
100
AcDbBlockTableRecord
  2
3_070000i_0_in_070541_2
340
0
102
{BLKREFS
331
D1
102
}
 70
     0
280
     1
281
     0
  0
BLOCK_RECORD
  5
133
330
1
100
AcDbSymbolTableRecord
100
AcDbBlockTableRecord
  2
4_405015E_Inch_0_in_070541_2
340
0
102
{BLKREFS
331
134
102
}
 70
     0
280
     1
281
     0
  0
BLOCK_RECORD
  5
171
330
1
100
AcDbSymbolTableRecord
100
AcDbBlockTableRecord
  2
5_070541H_0_in_070541_2
340
0
102
{BLKREFS
331
172
102
}
 70
     0
280
     1
281
     0
  0
ENDTAB
  0
ENDSEC
  0
SECTION
  2
BLOCKS
  0
BLOCK
  5
20
330
1F
100
AcDbEntity
  8
0
100
AcDbBlockBegin
  2
*Model_Space
 70
     0
 10
0.0
 20
0.0
 30
0.0
  3
*Model_Space
  1

  0
ENDBLK
  5
21
330
1F
100
AcDbEntity
  8
0
100
AcDbBlockEnd
  0
BLOCK
  5
1C
330
1B
100
AcDbEntity
 67
     1
  8
0
100
AcDbBlockBegin
  2
*Paper_Space
 70
     0
 10
0.0
 20
0.0
 30
0.0
  3
*Paper_Space
  1

  0
ENDBLK
  5
1D
330
1B
100
AcDbEntity
 67
     1
  8
0
100
AcDbBlockEnd
  0
BLOCK
  5
24
330
23
100
AcDbEntity
  8
0
100
AcDbBlockBegin
  2
*Paper_Space0
 70
     0
 10
0.0
 20
0.0
 30
0.0
  3
*Paper_Space0
  1

  0
ENDBLK
  5
25
330
23
100
AcDbEntity
  8
0
100
AcDbBlockEnd
  0
BLOCK
  5
70
330
6E
100
AcDbEntity
  8
0
100
AcDbBlockBegin
  2
1_070541_2
 70
     2
 10
0.0
 20
0.0
 30
0.0
  3
1_070541_2
  1

  0
ATTDEF
  5
73
330
6E
100
AcDbEntity
  8
AM_6
100
AcDbText
 10
5.0890625
 20
2.41325
 30
0.0
 40
0.5
  1
S-2000 Flange Bearing - Square Trident Seal
100
AcDbAttributeDefinition
  3

  2
NN
 70
     8
280
     0
  0
ATTDEF
  5
74
330
6E
100
AcDbEntity
  8
AM_6
100
AcDbText
 10
5.0890625
 20
1.91325
 30
0.0
 40
0.5
  1
S-2000 4 Bolt Square Flange Bearing -Inch
100
AcDbAttributeDefinition
  3

  2
NT
 70
     8
280
     0
  0
ATTDEF
  5
75
330
6E
100
AcDbEntity
  8
AM_6
100
AcDbText
 10
5.0890625
 20
1.41325
 30
0.0
 40
0.5
  1
070541
100
AcDbAttributeDefinition
  3

  2
NB
 70
     8
280
     0
  0
ATTDEF
  5
76
330
6E
100
AcDbEntity
  8
AM_6
100
AcDbText
 10
5.0890625
 20
0.9132500000000001
 30
0.0
 40
0.5
  1
$PN.
100
AcDbAttributeDefinition
  3

  2
NBSYN
 70
     8
280
     0
  0
ATTDEF
  5
77
330
6E
100
AcDbEntity
  8
AM_6
100
AcDbText
 10
5.0890625
 20
0.4132500000000001
 30
0.0
 40
0.5
  1
070541
100
AcDbAttributeDefinition
  3

  2
LINA
 70
     8
280
     0
  0
ATTDEF
  5
78
330
6E
100
AcDbEntity
  8
AM_6
100
AcDbText
 10
5.0890625
 20
-0.0867499999999999
 30
0.0
 40
0.5
  1
1-3/8
100
AcDbAttributeDefinition
  3

  2
SS
 70
     8
280
     0
  0
ATTDEF
  5
79
330
6E
100
AcDbEntity
  8
AM_6
100
AcDbText
 10
5.0890625
 20
-0.5867499999999999
 30
0.0
 40
0.5
  1
070541
100
AcDbAttributeDefinition
  3

  2
PN
 70
     8
280
     0
  0
ATTDEF
  5
7A
330
6E
100
AcDbEntity
  8
AM_6
100
AcDbText
 10
5.0890625
 20
-1.08675
 30
0.0
 40
0.5
  1
F4S-S2-106R
100
AcDbAttributeDefinition
  3

  2
DESCRIPTION
 70
     8
280
     0
  0
ATTDEF
  5
7B
330
6E
100
AcDbEntity
  8
AM_6
100
AcDbText
 10
5.0890625
 20
-1.58675
 30
0.0
 40
0.5
  1
Non-Expansion Type
100
AcDbAttributeDefinition
  3

  2
EF
 70
     8
280
     0
  0
ATTDEF
  5
7C
330
6E
100
AcDbEntity
  8
AM_6
100
AcDbText
 10
5.0890625
 20
-2.08675
 30
0.0
 40
0.5
  1
Contact Seal
100
AcDbAttributeDefinition
  3

  2
ST
 70
     8
280
     0
  0
ATTDEF
  5
7D
330
6E
100
AcDbEntity
  8
AM_6
100
AcDbText
 10
5.0890625
 20
-2.58675
 30
0.0
 40
0.5
  1
2-17/32
100
AcDbAttributeDefinition
  3

  2
A
 70
     8
280
     0
  0
ATTDEF
  5
7E
330
6E
100
AcDbEntity
  8
AM_6
100
AcDbText
 10
5.0890625
 20
-3.08675
 30
0.0
 40
0.5
  1
4-3/4
100
AcDbAttributeDefinition
  3

  2
B
 70
     8
280
     0
  0
ATTDEF
  5
7F
330
6E
100
AcDbEntity
  8
AM_6
100
AcDbText
 10
5.0890625
 20
-3.58675
 30
0.0
 40
0.5
  1
2-49/64
100
AcDbAttributeDefinition
  3

  2
C
 70
     8
280
     0
  0
ATTDEF
  5
80
330
6E
100
AcDbEntity
  8
AM_6
100
AcDbText
 10
5.0890625
 20
-4.08675
 30
0.0
 40
0.5
  1
3-17/32
100
AcDbAttributeDefinition
  3

  2
D
 70
     8
280
     0
  0
ATTDEF
  5
81
330
6E
100
AcDbEntity
  8
AM_6
100
AcDbText
 10
5.0890625
 20
-4.58675
 30
0.0
 40
0.5
  1
1/2
100
AcDbAttributeDefinition
  3

  2
F
 70
     8
280
     0
  0
ATTDEF
  5
82
330
6E
100
AcDbEntity
  8
AM_6
100
AcDbText
 10
5.0890625
 20
-5.08675
 30
0.0
 40
0.5
  1
63/64
100
AcDbAttributeDefinition
  3

  2
G
 70
     8
280
     0
  0
ATTDEF
  5
83
330
6E
100
AcDbEntity
  8
AM_6
100
AcDbText
 10
5.0890625
 20
-5.58675
 30
0.0
 40
0.5
  1
1/2
100
AcDbAttributeDefinition
  3

  2
H
 70
     8
280
     0
  0
ATTDEF
  5
84
330
6E
100
AcDbEntity
  8
AM_6
100
AcDbText
 10
5.0890625
 20
-6.08675
 30
0.0
 40
0.5
  1
3-13/16
100
AcDbAttributeDefinition
  3

  2
J
 70
     8
280
     0
  0
ATTDEF
  5
85
330
6E
100
AcDbEntity
  8
AM_6
100
AcDbText
 10
5.0890625
 20
-6.58675
 30
0.0
 40
0.5
  1
5
100
AcDbAttributeDefinition
  3

  2
K
 70
     8
280
     0
  0
ATTDEF
  5
86
330
6E
100
AcDbEntity
  8
AM_6
100
AcDbText
 10
5.0890625
 20
-7.08675
 30
0.0
 40
0.5
  1
2-3/4
100
AcDbAttributeDefinition
  3

  2
L
 70
     8
280
     0
  0
ATTDEF
  5
87
330
6E
100
AcDbEntity
  8
AM_6
100
AcDbText
 10
5.0890625
 20
-7.58675
 30
0.0
 40
0.5
  1
2-31/64
100
AcDbAttributeDefinition
  3

  2
N
 70
     8
280
     0
  0
ATTDEF
  5
88
330
6E
100
AcDbEntity
  8
AM_6
100
AcDbText
 10
5.0890625
 20
-8.08675
 30
0.0
 40
0.5
  1
15/64
100
AcDbAttributeDefinition
  3

  2
P
 70
     8
280
     0
  0
ATTDEF
  5
89
330
6E
100
AcDbEntity
  8
AM_6
100
AcDbText
 10
5.0890625
 20
-8.58675
 30
0.0
 40
0.5
  1
3/16
100
AcDbAttributeDefinition
  3

  2
X
 70
     8
280
     0
  0
ATTDEF
  5
8A
330
6E
100
AcDbEntity
  8
AM_6
100
AcDbText
 10
5.0890625
 20
-9.08675
 30
0.0
 40
0.5
  1
0.020
100
AcDbAttributeDefinition
  3

  2
Y
 70
     8
280
     0
  0
ATTDEF
  5
8B
330
6E
100
AcDbEntity
  8
AM_6
100
AcDbText
 10
5.0890625
 20
-9.58675
 30
0.0
 40
0.5
  1
1-51/64
100
AcDbAttributeDefinition
  3

  2
Z
 70
     8
280
     0
  0
ATTDEF
  5
8C
330
6E
100
AcDbEntity
  8
AM_6
100
AcDbText
 10
5.0890625
 20
-10.08675
 30
0.0
 40
0.5
  1
baldor
100
AcDbAttributeDefinition
  3

  2
COMPANY
 70
     8
280
     0
  0
INSERT
  5
8E
330
6E
100
AcDbEntity
  8
0
100
AcDbBlockReference
  2
2_1_3_8CS2i_0_in_070541_2
 10
0.0
 20
0.0
 30
0.0
  0
INSERT
  5
D1
330
6E
100
AcDbEntity
  8
0
100
AcDbBlockReference
  2
3_070000i_0_in_070541_2
 10
0.0
 20
0.0
 30
0.0
  0
INSERT
  5
134
330
6E
100
AcDbEntity
  8
0
100
AcDbBlockReference
  2
4_405015E_Inch_0_in_070541_2
 10
0.0
 20
0.0
 30
0.0
  0
INSERT
  5
172
330
6E
100
AcDbEntity
  8
0
100
AcDbBlockReference
  2
5_070541H_0_in_070541_2
 10
0.0
 20
0.0
 30
0.0
  0
ENDBLK
  5
71
330
6E
100
AcDbEntity
  8
0
100
AcDbBlockEnd
  0
BLOCK
  5
8F
330
8D
100
AcDbEntity
  8
0
100
AcDbBlockBegin
  2
2_1_3_8CS2i_0_in_070541_2
 70
     2
 10
0.0
 20
0.0
 30
0.0
  3
2_1_3_8CS2i_0_in_070541_2
  1

  0
ATTDEF
  5
91
330
8D
100
AcDbEntity
  8
AM_6
100
AcDbText
 10
2.806375
 20
1.375
 30
0.0
 40
0.5
  1
S-2000 Collar -Inch
100
AcDbAttributeDefinition
  3

  2
NN
 70
     8
280
     0
  0
ATTDEF
  5
92
330
8D
100
AcDbEntity
  8
AM_6
100
AcDbText
 10
2.806375
 20
0.875
 30
0.0
 40
0.5
  1
S-2000 Bearings
100
AcDbAttributeDefinition
  3

  2
NT
 70
     8
280
     0
  0
ATTDEF
  5
93
330
8D
100
AcDbEntity
  8
AM_6
100
AcDbText
 10
2.806375
 20
0.375
 30
0.0
 40
0.5
  1
1-3/8CS2i
100
AcDbAttributeDefinition
  3

  2
NB
 70
     8
280
     0
  0
ATTDEF
  5
94
330
8D
100
AcDbEntity
  8
AM_6
100
AcDbText
 10
2.806375
 20
-0.125
 30
0.0
 40
0.5
  1
$BORE.CS2i
100
AcDbAttributeDefinition
  3

  2
NBSYN
 70
     8
280
     0
  0
ATTDEF
  5
95
330
8D
100
AcDbEntity
  8
AM_6
100
AcDbText
 10
2.806375
 20
-0.625
 30
0.0
 40
0.5
  1
1-3/8CS2i
100
AcDbAttributeDefinition
  3

  2
LINA
 70
     8
280
     0
  0
ATTDEF
  5
96
330
8D
100
AcDbEntity
  8
AM_6
100
AcDbText
 10
2.806375
 20
-1.125
 30
0.0
 40
0.5
  1
1-3/8
100
AcDbAttributeDefinition
  3

  2
BORE
 70
     8
280
     0
  0
ATTDEF
  5
97
330
8D
100
AcDbEntity
  8
AM_6
100
AcDbText
 10
2.806375
 20
-1.625
 30
0.0
 40
0.5
  1
1.375000
100
AcDbAttributeDefinition
  3

  2
BORE1
 70
     8
280
     0
  0
ATTDEF
  5
98
330
8D
100
AcDbEntity
  8
AM_6
100
AcDbText
 10
2.806375
 20
-2.125
 30
0.0
 40
0.5
  1
2-3/4
100
AcDbAttributeDefinition
  3

  2
L1
 70
     8
280
     0
  0
ATTDEF
  5
99
330
8D
100
AcDbEntity
  8
AM_6
100
AcDbText
 10
2.806375
 20
-2.625
 30
0.0
 40
0.5
  1
2.75000
100
AcDbAttributeDefinition
  3

  2
L
 70
     8
280
     0
  0
ATTDEF
  5
9A
330
8D
100
AcDbEntity
  8
AM_6
100
AcDbText
 10
2.806375
 20
-3.125
 30
0.0
 40
0.5
  1
2.65625
100
AcDbAttributeDefinition
  3

  2
L2
 70
     8
280
     0
  0
ATTDEF
  5
9B
330
8D
100
AcDbEntity
  8
AM_6
100
AcDbText
 10
2.806375
 20
-3.625
 30
0.0
 40
0.5
  1
3.00
100
AcDbAttributeDefinition
  3

  2
A
 70
     8
280
     0
  0
ATTDEF
  5
9C
330
8D
100
AcDbEntity
  8
AM_6
100
AcDbText
 10
2.806375
 20
-4.125
 30
0.0
 40
0.5
  1
1.25
100
AcDbAttributeDefinition
  3

  2
B
 70
     8
280
     0
  0
ATTDEF
  5
9D
330
8D
100
AcDbEntity
  8
AM_6
100
AcDbText
 10
2.806375
 20
-4.625
 30
0.0
 40
0.5
  1
1.75
100
AcDbAttributeDefinition
  3

  2
C
 70
     8
280
     0
  0
ATTDEF
  5
9E
330
8D
100
AcDbEntity
  8
AM_6
100
AcDbText
 10
2.806375
 20
-5.125
 30
0.0
 40
0.5
  1
2.81
100
AcDbAttributeDefinition
  3

  2
D
 70
     8
280
     0
  0
ATTDEF
  5
9F
330
8D
100
AcDbEntity
  8
AM_6
100
AcDbText
 10
2.806375
 20
-5.625
 30
0.0
 40
0.5
  1
0.35
100
AcDbAttributeDefinition
  3

  2
E
 70
     8
280
     0
  0
ATTDEF
  5
A0
330
8D
100
AcDbEntity
  8
AM_6
100
AcDbText
 10
2.806375
 20
-6.125
 30
0.0
 40
0.5
  1
0.286
100
AcDbAttributeDefinition
  3

  2
F
 70
     8
280
     0
  0
ATTDEF
  5
A1
330
8D
100
AcDbEntity
  8
AM_6
100
AcDbText
 10
2.806375
 20
-6.625
 30
0.0
 40
0.5
  1
5/16-18
100
AcDbAttributeDefinition
  3

  2
CS
 70
     8
280
     0
  0
ATTDEF
  5
A2
330
8D
100
AcDbEntity
  8
AM_6
100
AcDbText
 10
2.806375
 20
-7.125
 30
0.0
 40
0.5
  1
0.3125
100
AcDbAttributeDefinition
  3

  2
NDM
 70
     8
280
     0
  0
ATTDEF
  5
A3
330
8D
100
AcDbEntity
  8
AM_6
100
AcDbText
 10
2.806375
 20
-7.625
 30
0.0
 40
0.5
  1
0.2520
100
AcDbAttributeDefinition
  3

  2
KDM
 70
     8
280
     0
  0
ATTDEF
  5
A4
330
8D
100
AcDbEntity
  8
AM_6
100
AcDbText
 10
2.806375
 20
-8.125
 30
0.0
 40
0.5
  1
1
100
AcDbAttributeDefinition
  3

  2
DD
 70
     8
280
     0
  0
ATTDEF
  5
A5
330
8D
100
AcDbEntity
  8
AM_6
100
AcDbText
 10
2.806375
 20
-8.625
 30
0.0
 40
0.5
  1
baldor
100
AcDbAttributeDefinition
  3

  2
COMPANY
 70
     8
280
     0
  0
LINE
  5
A8
330
8D
100
AcDbEntity
  8
AM_9
100
AcDbLine
 10
-2.353425
 20
0.8842166666666609
 30
0.0
 11
-2.353425
 21
1.34495
 31
0.0
  0
LINE
  5
A9
330
8D
100
AcDbEntity
  8
AM_9
100
AcDbLine
 10
-2.605825
 20
1.328086163487361
 30
0.0
 11
-2.605825
 21
0.8842166666666609
 31
0.0
  0
LINE
  5
AA
330
8D
100
AcDbEntity
  8
AM_9
100
AcDbLine
 10
-2.479625
 20
1.34495
 30
0.0
 11
-2.353425
 21
1.34495
 31
0.0
  0
LINE
  5
AB
330
8D
100
AcDbEntity
  8
AM_9
100
AcDbLine
 10
-2.353425
 20
1.34495
 30
0.0
 11
-2.323375
 21
1.375
 31
0.0
  0
LINE
  5
AC
330
8D
100
AcDbEntity
  8
AM_9
100
AcDbLine
 10
-2.605825
 20
0.8842166666666609
 30
0.0
 11
-2.353425
 21
0.8842166666666609
 31
0.0
  0
LINE
  5
AD
330
8D
100
AcDbEntity
  8
AM_9
100
AcDbLine
 10
-2.605825
 20
0.8842166666666609
 30
0.0
 11
-2.614947756135508
 21
0.8750939105311548
 31
0.0
  0
LINE
  5
AE
330
8D
100
AcDbEntity
  8
AM_9
100
AcDbLine
 10
-2.344426376692721
 20
0.8752180433593841
 30
0.0
 11
-2.353425
 21
0.8842166666666609
 31
0.0
  0
LWPOLYLINE
  5
AF
330
8D
100
AcDbEntity
  8
AM_9
100
AcDbPolyline
 90
       38
 70
     0
 43
0.0
 10
-2.382137944615281
 20
0.2743731080557927
 10
-2.369495670254475
 20
0.290208723517433
 10
-2.359277100472583
 20
0.3074241341673319
 10
-2.350402076816619
 20
0.3294306542079466
 10
-2.345374860806134
 20
0.3522153566566855
 10
-2.344372776894823
 20
0.3760788117394498
 10
-2.347650548847853
 20
0.3994424596119319
 10
-2.355297747625659
 20
0.4218773501572923
 10
-2.36709931497326
 20
0.4425398213078152
 10
-2.382592780635396
 20
0.4605376263200308
 10
-2.401553028831851
 20
0.4756867412286175
 10
-2.422181075368702
 20
0.4867933339497426
 10
-2.444900560392113
 20
0.4944473998520149
 10
-2.466573264240496
 20
0.498024373935492
 10
-2.488669684241965
 20
0.4983421825221649
 10
-2.508932696735585
 20
0.495652193577081
 10
-2.528389666059562
 20
0.4902387315737613
 10
-2.546773128261477
 20
0.4821376512726603
 10
-2.563444681444544
 20
0.4716906817304885
 10
-2.579164183502118
 20
0.4580642858508741
 10
-2.592261951173199
 20
0.4423822146551882
 10
-2.603296908509522
 20
0.4233165305818416
 10
-2.610781367690981
 20
0.4026972617325483
 10
-2.614652732512036
 20
0.3797008329426673
 10
-2.614335188987226
 20
0.3561175715320626
 10
-2.609649083668002
 20
0.3321188293758308
 10
-2.600703315598571
 20
0.3088956051556692
 10
-2.587710227015778
 20
0.2873380055979092
 10
-2.570943304145891
 20
0.2680703259489703
 10
-2.551639725291365
 20
0.252557488057692
 10
-2.52969751054515
 20
0.2406364257056903
 10
-2.507963942753325
 20
0.233560563078763
 10
-2.4852598770907
 20
0.2304276571482684
 10
-2.464407158177672
 20
0.2312439789963973
 10
-2.443995279908922
 20
0.235448895554187
 10
-2.424932411503918
 20
0.2427260654065009
 10
-2.407281115607669
 20
0.2527551944583894
 10
-2.382137944615281
 20
0.2743731080557927
  0
LINE
  5
B0
330
8D
100
AcDbEntity
  8
AM_9
100
AcDbLine
 10
-2.765625
 20
-0.875
 30
0.0
 11
-2.193625
 21
-0.875
 31
0.0
  0
LINE
  5
B1
330
8D
100
AcDbEntity
  8
AM_9
100
AcDbLine
 10
-2.193625
 20
0.875
 30
0.0
 11
-2.344741962535732
 21
0.875
 31
0.0
  0
LINE
  5
B2
330
8D
100
AcDbEntity
  8
AM_9
100
AcDbLine
 10
-2.614811435141006
 20
0.875
 30
0.0
 11
-2.765625
 21
0.875
 31
0.0
  0
LWPOLYLINE
  5
B3
330
8D
100
AcDbEntity
  8
AM_9
100
AcDbPolyline
 90
       21
 70
     0
 43
0.0
 10
-2.615041666665992
 20
0.8749999999998772
 10
-2.615008606156805
 20
0.874993947356603
 10
-2.612261230202912
 20
0.8744957887278755
 10
-2.605306016560207
 20
0.873277482940251
 10
-2.593873970900006
 20
0.8714097172826724
 10
-2.579107484702335
 20
0.8692487463534143
 10
-2.560240093504593
 20
0.8669077065439224
 10
-2.540212174492273
 20
0.8649477428884089
 10
-2.517199299387511
 20
0.8633744315584263
 10
-2.49586356407008
 20
0.8625721331397559
 10
-2.473259206282982
 20
0.8624159782618532
 10
-2.453163202169759
 20
0.8628773888899471
 10
-2.43325063387473
 20
0.8638897112264659
 10
-2.414948700304487
 20
0.8653035315819461
 10
-2.397878679073801
 20
0.8670346320224149
 10
-2.382110701466213
 20
0.8689823829023264
 10
-2.368566602637141
 20
0.8709186336298376
 10
-2.35727043156556
 20
0.8727166463535221
 10
-2.349242548557432
 20
0.8740942665872905
 10
-2.344875973049293
 20
0.8748780373430577
 10
-2.344208333333421
 20
0.8749999999999847
  0
LINE
  5
B4
330
8D
100
AcDbEntity
  8
AM_9
100
AcDbLine
 10
-2.353425
 20
0.3736861106688196
 30
0.0
 11
-2.353425
 21
0.5684004311281539
 31
0.0
  0
LINE
  5
B5
330
8D
100
AcDbEntity
  8
AM_9
100
AcDbLine
 10
-2.605825
 20
0.5612734845163311
 30
0.0
 11
-2.605825
 21
0.3736861106688196
 31
0.0
  0
ELLIPSE
  5
B6
330
8D
100
AcDbEntity
  8
AM_9
100
AcDbEllipse
 10
-2.479625
 20
0.3736861106688193
 30
0.0
 11
0.1262000000000003
 21
0.0
 31
0.0
210
0.0
220
0.0
230
1.0
 40
0.90630778703665
 41
2.186864647202812
 42
7.30145732636899
  0
LINE
  5
B7
330
8D
100
AcDbEntity
  8
AM_9
100
AcDbLine
 10
-2.479625
 20
0.4540243884041286
 30
0.0
 11
-2.479625
 21
0.673126225968746
 31
0.0
  0
LINE
  5
B9
330
8D
100
AcDbEntity
  8
AM_5
100
AcDbLine
 10
-2.635875
 20
1.328125
 30
0.0
 11
-2.635875
 21
0.875
 31
0.0
  0
LINE
  5
BA
330
8D
100
AcDbEntity
  8
AM_5
100
AcDbLine
 10
-2.55775
 20
0.8541666666666666
 30
0.0
 11
-2.635875
 21
0.8541666666666666
 31
0.0
  0
LINE
  5
BB
330
8D
100
AcDbEntity
  8
AM_5
100
AcDbLine
 10
-2.323375
 20
1.375
 30
0.0
 11
-2.323375
 21
0.875
 31
0.0
  0
LINE
  5
BC
330
8D
100
AcDbEntity
  8
AM_5
100
AcDbLine
 10
-2.4015
 20
0.8541666666666666
 30
0.0
 11
-2.323375
 21
0.8541666666666666
 31
0.0
  0
ELLIPSE
  5
BE
330
8D
100
AcDbEntity
  8
AM_4
100
AcDbEllipse
 10
-2.479625
 20
0.3736861106688201
 30
0.0
 11
0.126199999999999
 21
0.0
 31
0.0
210
0.0
220
0.0
230
1.0
 40
0.9063077870366529
 41
1.018272019189396
 42
2.186864647202818
  0
LWPOLYLINE
  5
BF
330
8D
100
AcDbEntity
  8
AM_4
100
AcDbPolyline
 90
       11
 70
     0
 43
0.0
 10
-2.605824999460588
 20
0.5612793038508381
 10
-2.605007769742056
 20
0.5742525279795131
 10
-2.600834791427672
 20
0.592897188304635
 10
-2.593277813031322
 20
0.6105297327198234
 10
-2.582487408113066
 20
0.6266837443357411
 10
-2.568820427508808
 20
0.6409339142733167
 10
-2.552553871310503
 20
0.6529305996906021
 10
-2.534226169132425
 20
0.6623432374875075
 10
-2.514324843468661
 20
0.6688988803997016
 10
-2.49343680399684
 20
0.672469656366686
 10
-2.479625
 20
0.673126225968746
  0
ELLIPSE
  5
C0
330
8D
100
AcDbEntity
  8
AM_4
100
AcDbEllipse
 10
-2.479625
 20
0.5684004311281532
 30
0.0
 11
0.1262000000000008
 21
0.0
 31
0.0
210
0.0
220
0.0
230
1.0
 40
0.90630778703665
 41
4.71238898038469
 42
7.853981633974483
  0
LINE
  5
C1
330
8D
100
AcDbEntity
  8
AM_4
100
AcDbLine
 10
-2.479625
 20
-1.375
 30
0.0
 11
-2.479625
 21
0.4540243884041286
 31
0.0
  0
LWPOLYLINE
  5
C2
330
8D
100
AcDbEntity
  8
AM_4
100
AcDbPolyline
 90
       11
 70
     0
 43
0.0
 10
-2.479625
 20
0.4443741405206955
 10
-2.500756447093476
 20
0.4460730147513535
 10
-2.521290954367899
 20
0.4510651019306764
 10
-2.540631331333701
 20
0.4592341589564921
 10
-2.5582579986566
 20
0.4702776107509175
 10
-2.573691159029479
 20
0.4839313497959742
 10
-2.586478249577083
 20
0.4997155039350314
 10
-2.596234047121186
 20
0.5172133555590326
 10
-2.602695619329845
 20
0.5358529389538452
 10
-2.605623711375933
 20
0.5550340090220672
 10
-2.605824999460588
 20
0.5612793038508381
  0
LWPOLYLINE
  5
C3
330
8D
100
AcDbEntity
  8
AM_4
100
AcDbPolyline
 90
       11
 70
     0
 43
0.0
 10
-2.479625
 20
1.322115568180407
 10
-2.500457977183949
 20
1.322279693772595
 10
-2.521290954367899
 20
1.322771948363885
 10
-2.540372761626058
 20
1.323510432965141
 10
-2.5582579986566
 20
1.32445185797851
 10
-2.573497863042507
 20
1.325443959600253
 10
-2.586478249577083
 20
1.326426474618998
 10
-2.59612804116989
 20
1.327238687737376
 10
-2.602695619329845
 20
1.327831296877443
 10
-2.605619440476503
 20
1.328105483256502
 10
-2.605824999999957
 20
1.328124999999996
  0
LINE
  5
C4
330
8D
100
AcDbEntity
  8
AM_4
100
AcDbLine
 10
-2.670291666666667
 20
-1.328125
 30
0.0
 11
-2.479625
 21
-1.328125
 31
0.0
  0
LINE
  5
C5
330
8D
100
AcDbEntity
  8
AM_4
100
AcDbLine
 10
-2.605414972551335
 20
1.328125
 30
0.0
 11
-2.670291666666667
 21
1.328125
 31
0.0
  0
LINE
  5
C6
330
8D
100
AcDbEntity
  8
AM_4
100
AcDbLine
 10
-2.765625
 20
1.232791666666667
 30
0.0
 11
-2.765625
 21
-1.232791666666667
 31
0.0
  0
ARC
  5
C7
330
8D
100
AcDbEntity
  8
AM_4
100
AcDbCircle
 10
-2.670291666666667
 20
-1.232791666666667
 30
0.0
 40
0.0953333333333326
100
AcDbArc
 50
180.0
 51
270.0
  0
ARC
  5
C8
330
8D
100
AcDbEntity
  8
AM_4
100
AcDbCircle
 10
-2.670291666666667
 20
1.232791666666667
 30
0.0
 40
0.095333333333333
100
AcDbArc
 50
90.0
 51
180.0
  0
LINE
  5
C9
330
8D
100
AcDbEntity
  8
AM_4
100
AcDbLine
 10
-2.670291666666667
 20
1.328125
 30
0.0
 11
-2.670291666666667
 21
-1.328125
 31
0.0
  0
LINE
  5
CA
330
8D
100
AcDbEntity
  8
AM_4
100
AcDbLine
 10
-2.479625
 20
1.366986120150041
 30
0.0
 11
-2.479625
 21
0.673126225968746
 31
0.0
  0
LWPOLYLINE
  5
CB
330
8D
100
AcDbEntity
  8
AM_4
100
AcDbPolyline
 90
       20
 70
     0
 43
0.0
 10
-2.479625
 20
0.7120608479335562
 10
-2.459968768213998
 20
0.7110417279007348
 10
-2.440598362511572
 20
0.7080055127829642
 10
-2.414564859755089
 20
0.7004109047954153
 10
-2.390414837676337
 20
0.689076887904278
 10
-2.369283933915898
 20
0.6744515988275497
 10
-2.351413441730541
 20
0.6567261169850118
 10
-2.33802426300055
 20
0.6371991968443258
 10
-2.328734496559511
 20
0.6157201069407842
 10
-2.324137549692404
 20
0.5941502975657454
 10
-2.323732675737965
 20
0.5720101051467508
 10
-2.327399795793293
 20
0.550722864354976
 10
-2.3348556885824
 20
0.530126943770674
 10
-2.345974729300734
 20
0.5106792968210111
 10
-2.360302875021348
 20
0.4930148281165235
 10
-2.378216163048292
 20
0.4770008883182446
 10
-2.398615490593438
 20
0.4637826156352803
 10
-2.422179246262341
 20
0.4532680229194453
 10
-2.44723050004842
 20
0.4464377804878872
 10
-2.479625
 20
0.4433657479093907
  0
LINE
  5
CC
330
8D
100
AcDbEntity
  8
AM_4
100
AcDbLine
 10
-2.479625
 20
-1.375
 30
0.0
 11
-2.193625
 21
-1.375
 31
0.0
  0
LINE
  5
CD
330
8D
100
AcDbEntity
  8
AM_4
100
AcDbLine
 10
-2.193625
 20
1.375
 30
0.0
 11
-2.323375
 21
1.375
 31
0.0
  0
LWPOLYLINE
  5
CE
330
8D
100
AcDbEntity
  8
AM_4
100
AcDbPolyline
 90
       11
 70
     0
 43
0.0
 10
-2.323375000000031
 20
1.374999999999997
 10
-2.323732675737965
 20
1.374963543381437
 10
-2.327306680200052
 20
1.374603753150546
 10
-2.3348556885824
 20
1.373870707077001
 10
-2.345796252007839
 20
1.372873314516525
 10
-2.360302875021348
 20
1.371669886595542
 10
-2.377960723954482
 20
1.370389074696999
 10
-2.398615490593438
 20
1.369148571323816
 10
-2.42185136308127
 20
1.368086741003399
 10
-2.44723050004842
 20
1.367332328078934
 10
-2.479625
 20
1.366986120150041
  0
LINE
  5
CF
330
8D
100
AcDbEntity
  8
AM_4
100
AcDbLine
 10
-2.193625
 20
1.375
 30
0.0
 11
-2.193625
 21
-1.375
 31
0.0
  0
ENDBLK
  5
90
330
8D
100
AcDbEntity
  8
0
100
AcDbBlockEnd
  0
BLOCK
  5
D2
330
D0
100
AcDbEntity
  8
0
100
AcDbBlockBegin
  2
3_070000i_0_in_070541_2
 70
     2
 10
0.0
 20
0.0
 30
0.0
  3
3_070000i_0_in_070541_2
  1

  0
ATTDEF
  5
D4
330
D0
100
AcDbEntity
  8
AM_6
100
AcDbText
 10
4.765625
 20
1.5748
 30
0.0
 40
0.5
  1
S-2000 Insert -Inch
100
AcDbAttributeDefinition
  3

  2
NN
 70
     8
280
     0
  0
ATTDEF
  5
D5
330
D0
100
AcDbEntity
  8
AM_6
100
AcDbText
 10
4.765625
 20
1.0748
 30
0.0
 40
0.5
  1
S-2000 Bearings
100
AcDbAttributeDefinition
  3

  2
NT
 70
     8
280
     0
  0
ATTDEF
  5
D6
330
D0
100
AcDbEntity
  8
AM_6
100
AcDbText
 10
4.765625
 20
0.5748000000000002
 30
0.0
 40
0.5
  1
070000i
100
AcDbAttributeDefinition
  3

  2
NB
 70
     8
280
     0
  0
ATTDEF
  5
D7
330
D0
100
AcDbEntity
  8
AM_6
100
AcDbText
 10
4.765625
 20
0.0748000000000002
 30
0.0
 40
0.5
  1
$PN.i
100
AcDbAttributeDefinition
  3

  2
NBSYN
 70
     8
280
     0
  0
ATTDEF
  5
D8
330
D0
100
AcDbEntity
  8
AM_6
100
AcDbText
 10
4.765625
 20
-0.4251999999999998
 30
0.0
 40
0.5
  1
070000i
100
AcDbAttributeDefinition
  3

  2
LINA
 70
     8
280
     0
  0
ATTDEF
  5
D9
330
D0
100
AcDbEntity
  8
AM_6
100
AcDbText
 10
4.765625
 20
-0.9251999999999998
 30
0.0
 40
0.5
  1
1-3/8
100
AcDbAttributeDefinition
  3

  2
SS
 70
     8
280
     0
  0
ATTDEF
  5
DA
330
D0
100
AcDbEntity
  8
AM_6
100
AcDbText
 10
4.765625
 20
-1.4252
 30
0.0
 40
0.5
  1
1.75
100
AcDbAttributeDefinition
  3

  2
CC
 70
     8
280
     0
  0
ATTDEF
  5
DB
330
D0
100
AcDbEntity
  8
AM_6
100
AcDbText
 10
4.765625
 20
-1.9252
 30
0.0
 40
0.5
  1
1.375000
100
AcDbAttributeDefinition
  3

  2
SS1
 70
     8
280
     0
  0
ATTDEF
  5
DC
330
D0
100
AcDbEntity
  8
AM_6
100
AcDbText
 10
4.765625
 20
-2.4252
 30
0.0
 40
0.5
  1
070000
100
AcDbAttributeDefinition
  3

  2
PN
 70
     8
280
     0
  0
ATTDEF
  5
DD
330
D0
100
AcDbEntity
  8
AM_6
100
AcDbText
 10
4.765625
 20
-2.9252
 30
0.0
 40
0.5
  1
INS-S2-106R
100
AcDbAttributeDefinition
  3

  2
DESCRIPTION
 70
     8
280
     0
  0
ATTDEF
  5
DE
330
D0
100
AcDbEntity
  8
AM_6
100
AcDbText
 10
4.765625
 20
-3.4252
 30
0.0
 40
0.5
  1
Contact Seal
100
AcDbAttributeDefinition
  3

  2
ST
 70
     8
280
     0
  0
ATTDEF
  5
DF
330
D0
100
AcDbEntity
  8
AM_6
100
AcDbText
 10
4.765625
 20
-3.9252
 30
0.0
 40
0.5
  1
1
100
AcDbAttributeDefinition
  3

  2
ST1
 70
     8
280
     0
  0
ATTDEF
  5
E0
330
D0
100
AcDbEntity
  8
AM_6
100
AcDbText
 10
4.765625
 20
-4.4252
 30
0.0
 40
0.5
  1
3.1496
100
AcDbAttributeDefinition
  3

  2
A
 70
     8
280
     0
  0
ATTDEF
  5
E1
330
D0
100
AcDbEntity
  8
AM_6
100
AcDbText
 10
4.765625
 20
-4.9252
 30
0.0
 40
0.5
  1
61/64
100
AcDbAttributeDefinition
  3

  2
B
 70
     8
280
     0
  0
ATTDEF
  5
E2
330
D0
100
AcDbEntity
  8
AM_6
100
AcDbText
 10
4.765625
 20
-5.4252
 30
0.0
 40
0.5
  1
2-17/32
100
AcDbAttributeDefinition
  3

  2
C
 70
     8
280
     0
  0
ATTDEF
  5
E3
330
D0
100
AcDbEntity
  8
AM_6
100
AcDbText
 10
4.765625
 20
-5.9252
 30
0.0
 40
0.5
  1
0.970
100
AcDbAttributeDefinition
  3

  2
D
 70
     8
280
     0
  0
ATTDEF
  5
E4
330
D0
100
AcDbEntity
  8
AM_6
100
AcDbText
 10
4.765625
 20
-6.4252
 30
0.0
 40
0.5
  1
2-21/32
100
AcDbAttributeDefinition
  3

  2
E
 70
     8
280
     0
  0
ATTDEF
  5
E5
330
D0
100
AcDbEntity
  8
AM_6
100
AcDbText
 10
4.765625
 20
-6.9252
 30
0.0
 40
0.5
  1
0.28125
100
AcDbAttributeDefinition
  3

  2
F
 70
     8
280
     0
  0
ATTDEF
  5
E6
330
D0
100
AcDbEntity
  8
AM_6
100
AcDbText
 10
4.765625
 20
-7.4252
 30
0.0
 40
0.5
  1
1
100
AcDbAttributeDefinition
  3

  2
DD
 70
     8
280
     0
  0
ATTDEF
  5
E7
330
D0
100
AcDbEntity
  8
AM_6
100
AcDbText
 10
4.765625
 20
-7.9252
 30
0.0
 40
0.5
  1
baldor
100
AcDbAttributeDefinition
  3

  2
COMPANY
 70
     8
280
     0
  0
LINE
  5
E8
330
D0
100
AcDbEntity
  8
AM_9
100
AcDbLine
 10
-2.654624999999999
 20
0.8748810429011844
 30
0.0
 11
-2.654624999999999
 21
0.6875
 31
0.0
  0
LINE
  5
E9
330
D0
100
AcDbEntity
  8
AM_9
100
AcDbLine
 10
-2.304625
 20
0.6875
 30
0.0
 11
-2.304625
 21
0.8749488859246093
 31
0.0
  0
LINE
  5
EA
330
D0
100
AcDbEntity
  8
AM_9
100
AcDbLine
 10
-2.654624999999999
 20
0.3697909790231121
 30
0.0
 11
-2.654624999999999
 21
0.2905026548801895
 31
0.0
  0
LINE
  5
EB
330
D0
100
AcDbEntity
  8
AM_9
100
AcDbLine
 10
-2.304625
 20
0.2904844444938264
 30
0.0
 11
-2.304625
 21
0.3697909790231121
 31
0.0
  0
LWPOLYLINE
  5
EC
330
D0
100
AcDbEntity
  8
AM_9
100
AcDbPolyline
 90
        4
 70
     0
 43
0.0
 10
-2.649105648159471
 20
0.3294837378734274
 10
-2.65078535805238
 20
0.32309596731643
 10
-2.654487249602311
 20
0.2968269806199512
 10
-2.654624998957692
 20
0.2905673652706828
  0
LWPOLYLINE
  5
ED
330
D0
100
AcDbEntity
  8
AM_9
100
AcDbPolyline
 90
        5
 70
     0
 43
0.0
 10
-2.602894738984825
 20
0.3983460636238196
 10
-2.611349570732798
 20
0.3908581080460294
 10
-2.628908737341341
 20
0.3707090655216231
 10
-2.64222669151855
 20
0.347895997270777
 10
-2.649105648159471
 20
0.3294837378734274
  0
LWPOLYLINE
  5
EE
330
D0
100
AcDbEntity
  8
AM_9
100
AcDbPolyline
 90
        7
 70
     0
 43
0.0
 10
-2.479625
 20
0.4395834344139
 10
-2.484833211278105
 20
0.439508794679851
 10
-2.513687658453168
 20
0.4369184996994815
 10
-2.541077481393561
 20
0.4306682078459794
 10
-2.566788838131698
 20
0.4209144145790709
 10
-2.590583910805749
 20
0.4074964480027323
 10
-2.602894738984825
 20
0.3983460636238196
  0
LWPOLYLINE
  5
EF
330
D0
100
AcDbEntity
  8
AM_9
100
AcDbPolyline
 90
        6
 70
     0
 43
0.0
 10
-2.35724479386404
 20
0.3990721305717581
 10
-2.374271411749723
 20
0.4111105206478161
 10
-2.399244451530553
 20
0.4239090201373764
 10
-2.426741255270023
 20
0.4330408599720411
 10
-2.455827557749883
 20
0.4382900723273782
 10
-2.479625
 20
0.4395834344139
  0
LWPOLYLINE
  5
F0
330
D0
100
AcDbEntity
  8
AM_9
100
AcDbPolyline
 90
        6
 70
     0
 43
0.0
 10
-2.310452398001835
 20
0.3305212830451182
 10
-2.310716156986291
 20
0.3313273653789507
 10
-2.320378611047525
 20
0.3546927502517386
 10
-2.334412587145197
 20
0.3760931224668245
 10
-2.352302334083305
 20
0.3948950624766338
 10
-2.35724479386404
 20
0.3990721305717581
  0
LWPOLYLINE
  5
F1
330
D0
100
AcDbEntity
  8
AM_9
100
AcDbPolyline
 90
        3
 70
     0
 43
0.0
 10
-2.304625000270626
 20
0.2905412343860763
 10
-2.305510102187597
 20
0.3063865627025081
 10
-2.310452398001835
 20
0.3305212830451182
  0
LWPOLYLINE
  5
F2
330
D0
100
AcDbEntity
  8
AM_9
100
AcDbPolyline
 90
       11
 70
     0
 43
0.0
 10
-2.654624998957692
 20
0.2905673652706828
 10
-2.653235910777273
 20
0.2705849335804341
 10
-2.647316111265947
 20
0.244421307477519
 10
-2.636927197712609
 20
0.2192650527770275
 10
-2.622414342620553
 20
0.1956917496758791
 10
-2.603626720563685
 20
0.1739295827559999
 10
-2.581421700111584
 20
0.1552445621429873
 10
-2.555820236424668
 20
0.140058771161522
 10
-2.527958738418464
 20
0.1292865566329515
 10
-2.504043546855925
 20
0.1241272119987382
 10
-2.479625
 20
0.1223757089510726
  0
LWPOLYLINE
  5
F3
330
D0
100
AcDbEntity
  8
AM_9
100
AcDbPolyline
 90
        8
 70
     0
 43
0.0
 10
-2.382647676294305
 20
0.4966542011306739
 10
-2.366056828961354
 20
0.4861360443036571
 10
-2.345523441083623
 20
0.4686266234022796
 10
-2.328499165800636
 20
0.4478449178684511
 10
-2.315759317136913
 20
0.424548689604124
 10
-2.307781957917508
 20
0.3994248455457204
 10
-2.304661873539867
 20
0.3730435618409575
 10
-2.304625000794035
 20
0.3698060877460544
  0
LWPOLYLINE
  5
F4
330
D0
100
AcDbEntity
  8
AM_9
100
AcDbPolyline
 90
        9
 70
     0
 43
0.0
 10
-2.581642640567149
 20
0.4937418976964185
 10
-2.557933892580933
 20
0.5056665267301663
 10
-2.530397001484435
 20
0.5147216145558063
 10
-2.501371589325063
 20
0.5198107376650554
 10
-2.472202619515724
 20
0.5207808966294853
 10
-2.443246299982172
 20
0.5177848399256204
 10
-2.415604881077245
 20
0.5109244826368345
 10
-2.389731953035973
 20
0.5003857056993662
 10
-2.382647676294305
 20
0.4966542011306739
  0
LWPOLYLINE
  5
F5
330
D0
100
AcDbEntity
  8
AM_9
100
AcDbPolyline
 90
        8
 70
     0
 43
0.0
 10
-2.654624999531642
 20
0.3697793752210052
 10
-2.653634250110168
 20
0.3865604251005008
 10
-2.648176802629401
 20
0.4118544494447836
 10
-2.638161892920984
 20
0.4356214211437488
 10
-2.62371978810897
 20
0.4573781044779421
 10
-2.605360313404188
 20
0.4765108919669643
 10
-2.583119122232558
 20
0.4928277828524043
 10
-2.581642640567149
 20
0.4937418976964185
  0
LWPOLYLINE
  5
F6
330
D0
100
AcDbEntity
  8
AM_9
100
AcDbPolyline
 90
       11
 70
     0
 43
0.0
 10
-2.304625000794035
 20
0.3698060877460544
 10
-2.306496181899809
 20
0.3466110232193444
 10
-2.313060256493086
 20
0.3204469326772156
 10
-2.324187638645026
 20
0.2953902633695363
 10
-2.339505902679899
 20
0.2721087156624933
 10
-2.358985669136524
 20
0.2510158163233128
 10
-2.381832225996138
 20
0.2331403424479246
 10
-2.407755209615527
 20
0.2189993924174686
 10
-2.435773241540443
 20
0.2092496540465204
 10
-2.457516237387562
 20
0.2051135709773875
 10
-2.479625
 20
0.2037158213049312
  0
LWPOLYLINE
  5
F7
330
D0
100
AcDbEntity
  8
AM_9
100
AcDbPolyline
 90
       11
 70
     0
 43
0.0
 10
-2.479625
 20
0.1223757089510726
 10
-2.450785328972925
 20
0.1248287609740013
 10
-2.422772056000256
 20
0.1320042375025998
 10
-2.39641576172107
 20
0.1436616797362527
 10
-2.372348127666413
 20
0.1593048508562815
 10
-2.350810624070116
 20
0.1788683610494619
 10
-2.332847945927336
 20
0.2013769301336684
 10
-2.318831992050901
 20
0.2265235771088611
 10
-2.309421123598151
 20
0.2531634660643796
 10
-2.305037750026674
 20
0.2798747138334464
 10
-2.304625000270626
 20
0.2905412343860763
  0
LWPOLYLINE
  5
F8
330
D0
100
AcDbEntity
  8
AM_9
100
AcDbPolyline
 90
       11
 70
     0
 43
0.0
 10
-2.479625
 20
0.6648543073486101
 10
-2.451198528000128
 20
0.665461730162118
 10
-2.422772056000256
 20
0.6672806810042069
 10
-2.396755822450674
 20
0.669998918348158
 10
-2.372348127666413
 20
0.673453470803794
 10
-2.351075785977258
 20
0.6771677417197784
 10
-2.332847945927335
 20
0.6808632414826415
 10
-2.318992025642761
 20
0.6839840659334495
 10
-2.309421123598151
 20
0.6862948415529695
 10
-2.305048636805997
 20
0.6873922872610984
 10
-2.304625000001079
 20
0.6874999999997253
  0
LINE
  5
F9
330
D0
100
AcDbEntity
  8
AM_9
100
AcDbLine
 10
-0.2343749999999999
 20
0.6875
 30
0.0
 11
-2.304625
 21
0.6875
 31
0.0
  0
LINE
  5
FA
330
D0
100
AcDbEntity
  8
AM_9
100
AcDbLine
 10
-2.654624999999999
 20
0.6875
 30
0.0
 11
-2.765625
 21
0.6875
 31
0.0
  0
LINE
  5
FB
330
D0
100
AcDbEntity
  8
AM_9
100
AcDbLine
 10
-2.765625
 20
-0.6875
 30
0.0
 11
-0.2343749999999999
 21
-0.6875
 31
0.0
  0
LINE
  5
FC
330
D0
100
AcDbEntity
  8
AM_9
100
AcDbLine
 10
-2.649841702992662
 20
0.6862980227114837
 30
0.0
 11
-2.654624999996248
 21
0.6874999999990448
 31
0.0
  0
LINE
  5
FD
330
D0
100
AcDbEntity
  8
AM_9
100
AcDbLine
 10
-2.467490958227984
 20
0.6649650253733087
 30
0.0
 11
-2.482229990581615
 21
0.6648594106846426
 31
0.0
  0
LWPOLYLINE
  5
FE
330
D0
100
AcDbEntity
  8
AM_9
100
AcDbPolyline
 90
       11
 70
     0
 43
0.0
 10
-2.654624999996248
 20
0.6874999999990448
 10
-2.653305331779524
 20
0.6871652695291328
 10
-2.647316111265947
 20
0.6856759867441824
 10
-2.637110668096072
 20
0.683251773254681
 10
-2.622414342620553
 20
0.6800147398152555
 10
-2.603920942406148
 20
0.6763732189395382
 10
-2.581421700111584
 20
0.6726022733782632
 10
-2.556227114195436
 20
0.6692526682047749
 10
-2.527958738418464
 20
0.6666088810310768
 10
-2.504298040975886
 20
0.6653119636313461
 10
-2.479625
 20
0.6648543073486101
  0
LINE
  5
FF
330
D0
100
AcDbEntity
  8
AM_9
100
AcDbLine
 10
-0.2343749999999999
 20
-0.8749999999999998
 30
0.0
 11
-0.2343749999999999
 21
0.8749999999999998
 31
0.0
  0
LINE
  5
100
330
D0
100
AcDbEntity
  8
AM_9
100
AcDbLine
 10
-0.2343749999999999
 20
0.8749999999999998
 30
0.0
 11
-0.496375
 21
0.8749999999999998
 31
0.0
  0
LINE
  5
101
330
D0
100
AcDbEntity
  8
AM_9
100
AcDbLine
 10
-0.496375
 20
-0.8749999999999998
 30
0.0
 11
-0.2343749999999999
 21
-0.8749999999999998
 31
0.0
  0
LWPOLYLINE
  5
102
330
D0
100
AcDbEntity
  8
AM_9
100
AcDbPolyline
 90
       11
 70
     0
 43
0.0
 10
-2.479625
 20
0.2037158213049312
 10
-2.508671420180066
 20
0.2061429975843998
 10
-2.536890970978669
 20
0.2132554189937574
 10
-2.563454225665774
 20
0.2248434207094195
 10
-2.587690253459151
 20
0.2404354906910037
 10
-2.609169332920276
 20
0.2598212932158233
 10
-2.627031101515195
 20
0.2821524353384291
 10
-2.640827793243252
 20
0.3069842750009513
 10
-2.650035875531932
 20
0.3333244789163157
 10
-2.654274912038659
 20
0.3600035783308752
 10
-2.654624999531642
 20
0.3697793752210052
  0
LWPOLYLINE
  5
103
330
D0
100
AcDbEntity
  8
AM_9
100
AcDbPolyline
 90
       11
 70
     0
 43
0.0
 10
-2.479625
 20
0.8573214099741124
 10
-2.508257985489335
 20
0.8577994216936919
 10
-2.536890970978669
 20
0.8592318612761808
 10
-2.56310603080583
 20
0.8613762723133278
 10
-2.587690253459151
 20
0.8641053749428892
 10
-2.608902778174746
 20
0.8670136930463088
 10
-2.627031101515195
 20
0.8699014649739983
 10
-2.640673654765078
 20
0.8723168399163468
 10
-2.650035875531932
 20
0.8740937401100409
 10
-2.65426628569591
 20
0.8749283277329181
 10
-2.654624999999272
 20
0.8749999999998544
  0
LINE
  5
104
330
D0
100
AcDbEntity
  8
AM_9
100
AcDbLine
 10
-2.193625
 20
0.8750000000000001
 30
0.0
 11
-2.304882609014524
 21
0.8750000000000001
 31
0.0
  0
LINE
  5
105
330
D0
100
AcDbEntity
  8
AM_9
100
AcDbLine
 10
-2.65402872543194
 20
0.8750000000000001
 30
0.0
 11
-2.765625
 21
0.8750000000000001
 31
0.0
  0
LINE
  5
106
330
D0
100
AcDbEntity
  8
AM_9
100
AcDbLine
 10
-2.765625
 20
-0.8750000000000001
 30
0.0
 11
-2.193625
 21
-0.8750000000000001
 31
0.0
  0
LINE
  5
107
330
D0
100
AcDbEntity
  8
AM_9
100
AcDbLine
 10
-2.313726291311542
 20
0.8732252753697055
 30
0.0
 11
-2.304625000001128
 21
0.8749999999997746
 31
0.0
  0
LINE
  5
108
330
D0
100
AcDbEntity
  8
AM_9
100
AcDbLine
 10
-2.490623875975938
 20
0.8573919612830061
 30
0.0
 11
-2.475512079327727
 21
0.8573312755968118
 31
0.0
  0
LWPOLYLINE
  5
109
330
D0
100
AcDbEntity
  8
AM_9
100
AcDbPolyline
 90
       11
 70
     0
 43
0.0
 10
-2.304625000001128
 20
0.8749999999997746
 10
-2.306418494267661
 20
0.8746430664150988
 10
-2.313060256493086
 20
0.8733520560344059
 10
-2.323989851050496
 20
0.8713336327656211
 10
-2.339505902679899
 20
0.8686963574424611
 10
-2.358676503811286
 20
0.8658109139588803
 10
-2.381832225996138
 20
0.8628808878677117
 10
-2.407349512733218
 20
0.8603625666308657
 10
-2.435773241540443
 20
0.8584421801845454
 10
-2.457331758041331
 20
0.8576112106526057
 10
-2.479625
 20
0.8573214099741124
  0
LINE
  5
10A
330
D0
100
AcDbEntity
  8
AM_9
100
AcDbLine
 10
-0.5916874999999999
 20
1.25984
 30
0.0
 11
-0.7278125000000001
 21
1.25984
 31
0.0
  0
LINE
  5
10B
330
D0
100
AcDbEntity
  8
AM_9
100
AcDbLine
 10
-0.7278125000000001
 20
-1.25984
 30
0.0
 11
-0.5916874999999999
 21
-1.25984
 31
0.0
  0
LINE
  5
10C
330
D0
100
AcDbEntity
  8
AM_9
100
AcDbLine
 10
-0.496375
 20
-1.1645275
 30
0.0
 11
-0.496375
 21
1.1645275
 31
0.0
  0
LINE
  5
10D
330
D0
100
AcDbEntity
  8
AM_9
100
AcDbLine
 10
-0.5916874999999999
 20
-1.25984
 30
0.0
 11
-0.5916874999999999
 21
1.25984
 31
0.0
  0
ARC
  5
10E
330
D0
100
AcDbEntity
  8
AM_9
100
AcDbCircle
 10
-0.5916874999999999
 20
1.1645275
 30
0.0
 40
0.0953125
100
AcDbArc
 50
0.0
 51
90.0
  0
ARC
  5
10F
330
D0
100
AcDbEntity
  8
AM_9
100
AcDbCircle
 10
-0.5916874999999999
 20
-1.1645275
 30
0.0
 40
0.0953124999999999
100
AcDbArc
 50
270.0
 51
0.0
  0
LINE
  5
110
330
D0
100
AcDbEntity
  8
AM_9
100
AcDbLine
 10
-1.6809375
 20
1.25984
 30
0.0
 11
-1.78125
 21
1.25984
 31
0.0
  0
LINE
  5
111
330
D0
100
AcDbEntity
  8
AM_9
100
AcDbLine
 10
-1.78125
 20
-1.25984
 30
0.0
 11
-1.6809375
 21
-1.25984
 31
0.0
  0
LINE
  5
112
330
D0
100
AcDbEntity
  8
AM_9
100
AcDbLine
 10
-1.156718750000001
 20
1.511808
 30
0.0
 11
-1.252031249999999
 21
1.511808
 31
0.0
  0
LINE
  5
113
330
D0
100
AcDbEntity
  8
AM_9
100
AcDbLine
 10
-1.252031249999999
 20
-1.511808
 30
0.0
 11
-1.156718750000001
 21
-1.511808
 31
0.0
  0
LINE
  5
114
330
D0
100
AcDbEntity
  8
AM_9
100
AcDbLine
 10
-0.823125
 20
1.5748
 30
0.0
 11
-1.120350301843208
 21
1.5748
 31
0.0
  0
LINE
  5
115
330
D0
100
AcDbEntity
  8
AM_9
100
AcDbLine
 10
-1.120350301843208
 20
-1.5748
 30
0.0
 11
-0.823125
 21
-1.5748
 31
0.0
  0
LINE
  5
116
330
D0
100
AcDbEntity
  8
AM_9
100
AcDbLine
 10
-1.120350301843208
 20
-1.5748
 30
0.0
 11
-1.120350301843208
 21
1.5748
 31
0.0
  0
LINE
  5
117
330
D0
100
AcDbEntity
  8
AM_9
100
AcDbLine
 10
-1.156718750000001
 20
-1.511808
 30
0.0
 11
-1.156718750000001
 21
1.511808
 31
0.0
  0
LINE
  5
118
330
D0
100
AcDbEntity
  8
AM_9
100
AcDbLine
 10
-1.156718750000001
 20
-1.511808
 30
0.0
 11
-1.120350301843208
 21
-1.5748
 31
0.0
  0
LINE
  5
119
330
D0
100
AcDbEntity
  8
AM_9
100
AcDbLine
 10
-1.120350301843208
 20
1.5748
 30
0.0
 11
-1.156718750000001
 21
1.511808
 31
0.0
  0
LINE
  5
11A
330
D0
100
AcDbEntity
  8
AM_9
100
AcDbLine
 10
-1.252031249999999
 20
-1.511808
 30
0.0
 11
-1.252031249999999
 21
1.511808
 31
0.0
  0
LINE
  5
11B
330
D0
100
AcDbEntity
  8
AM_9
100
AcDbLine
 10
-1.252031249999999
 20
1.511808
 30
0.0
 11
-1.288399698156792
 21
1.5748
 31
0.0
  0
LINE
  5
11C
330
D0
100
AcDbEntity
  8
AM_9
100
AcDbLine
 10
-1.288399698156792
 20
-1.5748
 30
0.0
 11
-1.252031249999999
 21
-1.511808
 31
0.0
  0
LINE
  5
11D
330
D0
100
AcDbEntity
  8
AM_9
100
AcDbLine
 10
-0.7278125000000003
 20
-1.479487500000001
 30
0.0
 11
-0.7278125000000003
 21
1.479487500000001
 31
0.0
  0
LINE
  5
11E
330
D0
100
AcDbEntity
  8
AM_9
100
AcDbLine
 10
-0.823125
 20
-1.5748
 30
0.0
 11
-0.823125
 21
1.5748
 31
0.0
  0
ARC
  5
11F
330
D0
100
AcDbEntity
  8
AM_9
100
AcDbCircle
 10
-0.8231249999999991
 20
1.479487500000001
 30
0.0
 40
0.0953124999999988
100
AcDbArc
 50
0.0
 51
90.0
  0
ARC
  5
120
330
D0
100
AcDbEntity
  8
AM_9
100
AcDbCircle
 10
-0.8231249999999994
 20
-1.479487500000001
 30
0.0
 40
0.095312499999999
100
AcDbArc
 50
270.0
 51
0.0
  0
LINE
  5
121
330
D0
100
AcDbEntity
  8
AM_9
100
AcDbLine
 10
-1.6809375
 20
-1.4794875
 30
0.0
 11
-1.6809375
 21
1.4794875
 31
0.0
  0
ARC
  5
122
330
D0
100
AcDbEntity
  8
AM_9
100
AcDbCircle
 10
-1.585625
 20
1.4794875
 30
0.0
 40
0.0953124999999999
100
AcDbArc
 50
90.0
 51
180.0
  0
ARC
  5
123
330
D0
100
AcDbEntity
  8
AM_9
100
AcDbCircle
 10
-1.585625
 20
-1.4794875
 30
0.0
 40
0.0953124999999999
100
AcDbArc
 50
180.0
 51
270.0
  0
LINE
  5
124
330
D0
100
AcDbEntity
  8
AM_9
100
AcDbLine
 10
-1.288399698156792
 20
-1.5748
 30
0.0
 11
-1.288399698156792
 21
1.5748
 31
0.0
  0
LINE
  5
125
330
D0
100
AcDbEntity
  8
AM_9
100
AcDbLine
 10
-1.585625
 20
-1.5748
 30
0.0
 11
-1.585625
 21
1.5748
 31
0.0
  0
LINE
  5
126
330
D0
100
AcDbEntity
  8
AM_9
100
AcDbLine
 10
-1.288399698156792
 20
1.5748
 30
0.0
 11
-1.585625
 21
1.5748
 31
0.0
  0
LINE
  5
127
330
D0
100
AcDbEntity
  8
AM_9
100
AcDbLine
 10
-1.585625
 20
-1.5748
 30
0.0
 11
-1.288399698156792
 21
-1.5748
 31
0.0
  0
LINE
  5
12A
330
D0
100
AcDbEntity
  8
AM_7
100
AcDbLine
 10
-2.479625
 20
-0.0448717948717949
 30
0.0
 11
-2.479625
 21
1.401041666666667
 31
0.0
  0
LINE
  5
12B
330
D0
100
AcDbEntity
  8
AM_4
100
AcDbLine
 10
-1.912375
 20
0.8750000000000001
 30
0.0
 11
-2.193625
 21
0.8750000000000001
 31
0.0
  0
LINE
  5
12C
330
D0
100
AcDbEntity
  8
AM_4
100
AcDbLine
 10
-2.193625
 20
-0.8750000000000001
 30
0.0
 11
-1.912375
 21
-0.8750000000000001
 31
0.0
  0
LINE
  5
12D
330
D0
100
AcDbEntity
  8
AM_4
100
AcDbLine
 10
-1.912375
 20
-1.1645275
 30
0.0
 11
-1.912375
 21
1.1645275
 31
0.0
  0
ARC
  5
12E
330
D0
100
AcDbEntity
  8
AM_4
100
AcDbCircle
 10
-1.8170625
 20
1.1645275
 30
0.0
 40
0.0953125000000001
100
AcDbArc
 50
90.0
 51
180.0
  0
ARC
  5
12F
330
D0
100
AcDbEntity
  8
AM_4
100
AcDbCircle
 10
-1.8170625
 20
-1.1645275
 30
0.0
 40
0.0953124999999999
100
AcDbArc
 50
180.0
 51
270.0
  0
LINE
  5
130
330
D0
100
AcDbEntity
  8
AM_4
100
AcDbLine
 10
-1.8170625
 20
-1.25984
 30
0.0
 11
-1.8170625
 21
1.25984
 31
0.0
  0
LINE
  5
131
330
D0
100
AcDbEntity
  8
AM_4
100
AcDbLine
 10
-1.78125
 20
1.25984
 30
0.0
 11
-1.8170625
 21
1.25984
 31
0.0
  0
LINE
  5
132
330
D0
100
AcDbEntity
  8
AM_4
100
AcDbLine
 10
-1.8170625
 20
-1.25984
 30
0.0
 11
-1.78125
 21
-1.25984
 31
0.0
  0
ENDBLK
  5
D3
330
D0
100
AcDbEntity
  8
0
100
AcDbBlockEnd
  0
BLOCK
  5
135
330
133
100
AcDbEntity
  8
0
100
AcDbBlockBegin
  2
4_405015E_Inch_0_in_070541_2
 70
     2
 10
0.0
 20
0.0
 30
0.0
  3
4_405015E_Inch_0_in_070541_2
  1

  0
ATTDEF
  5
137
330
133
100
AcDbEntity
  8
AM_6
100
AcDbText
 10
4.111965742770462
 20
2.38125
 30
0.0
 40
0.5
  1
405015E -Inch
100
AcDbAttributeDefinition
  3

  2
NN
 70
     8
280
     0
  0
ATTDEF
  5
138
330
133
100
AcDbEntity
  8
AM_6
100
AcDbText
 10
4.111965742770462
 20
1.88125
 30
0.0
 40
0.5
  1
Grease Fitting
100
AcDbAttributeDefinition
  3

  2
NT
 70
     8
280
     0
  0
ATTDEF
  5
139
330
133
100
AcDbEntity
  8
AM_6
100
AcDbText
 10
4.111965742770462
 20
1.38125
 30
0.0
 40
0.5
  1
405015E-Inch
100
AcDbAttributeDefinition
  3

  2
NB
 70
     8
280
     0
  0
ATTDEF
  5
13A
330
133
100
AcDbEntity
  8
AM_6
100
AcDbText
 10
4.111965742770462
 20
0.8812500000000001
 30
0.0
 40
0.5
  1
$MN.-Inch
100
AcDbAttributeDefinition
  3

  2
NBSYN
 70
     8
280
     0
  0
ATTDEF
  5
13B
330
133
100
AcDbEntity
  8
AM_6
100
AcDbText
 10
4.111965742770462
 20
0.3812500000000001
 30
0.0
 40
0.5
  1
405015E
100
AcDbAttributeDefinition
  3

  2
LINA
 70
     8
280
     0
  0
ATTDEF
  5
13C
330
133
100
AcDbEntity
  8
AM_6
100
AcDbText
 10
4.111965742770462
 20
-0.1187499999999999
 30
0.0
 40
0.5
  1
405015E
100
AcDbAttributeDefinition
  3

  2
MN
 70
     8
280
     0
  0
ATTDEF
  5
13D
330
133
100
AcDbEntity
  8
AM_6
100
AcDbText
 10
4.111965742770462
 20
-0.6187499999999999
 30
0.0
 40
0.5
  1
1/8 x 27PTF
100
AcDbAttributeDefinition
  3

  2
T
 70
     8
280
     0
  0
ATTDEF
  5
13E
330
133
100
AcDbEntity
  8
AM_6
100
AcDbText
 10
4.111965742770462
 20
-1.11875
 30
0.0
 40
0.5
  1
baldor
100
AcDbAttributeDefinition
  3

  2
COMPANY
 70
     8
280
     0
  0
LINE
  5
13F
330
133
100
AcDbEntity
  8
AM_9
100
AcDbLine
 10
-1.302527872472269
 20
1.74125
 30
0.0
 11
-0.978722127527731
 21
1.74125
 31
0.0
  0
LINE
  5
140
330
133
100
AcDbEntity
  8
AM_9
100
AcDbLine
 10
-0.978722127527731
 20
1.74125
 30
0.0
 11
-0.9420073732187846
 21
1.777964754308947
 31
0.0
  0
LINE
  5
141
330
133
100
AcDbEntity
  8
AM_9
100
AcDbLine
 10
-1.339242626781215
 20
1.777964754308947
 30
0.0
 11
-1.302527872472269
 21
1.74125
 31
0.0
  0
LINE
  5
142
330
133
100
AcDbEntity
  8
AM_9
100
AcDbLine
 10
-1.339242626781215
 20
1.777964754308947
 30
0.0
 11
-0.9420073732187846
 21
1.777964754308947
 31
0.0
  0
LINE
  5
143
330
133
100
AcDbEntity
  8
AM_9
100
AcDbLine
 10
-0.9420073732187846
 20
1.777964754308947
 30
0.0
 11
-0.9348731027769304
 21
2.00625
 31
0.0
  0
LINE
  5
144
330
133
100
AcDbEntity
  8
AM_9
100
AcDbLine
 10
-1.346376897223069
 20
2.00625
 30
0.0
 11
-1.339242626781215
 21
1.777964754308947
 31
0.0
  0
LINE
  5
145
330
133
100
AcDbEntity
  8
AM_5
100
AcDbLine
 10
-0.972475875147652
 20
1.941120087748463
 30
0.0
 11
-0.978722127527731
 21
1.74125
 31
0.0
  0
LINE
  5
146
330
133
100
AcDbEntity
  8
AM_5
100
AcDbLine
 10
-0.9348731027769304
 20
2.00625
 30
0.0
 11
-0.972475875147652
 21
1.941120087748463
 31
0.0
  0
LINE
  5
147
330
133
100
AcDbEntity
  8
AM_5
100
AcDbLine
 10
-1.344341485751557
 20
1.941120087748463
 30
0.0
 11
-0.9369085142484432
 21
1.941120087748463
 31
0.0
  0
LINE
  5
148
330
133
100
AcDbEntity
  8
AM_5
100
AcDbLine
 10
-1.308774124852348
 20
1.941120087748463
 30
0.0
 11
-1.302527872472269
 21
1.74125
 31
0.0
  0
LINE
  5
149
330
133
100
AcDbEntity
  8
AM_5
100
AcDbLine
 10
-1.346376897223069
 20
2.00625
 30
0.0
 11
-1.308774124852348
 21
1.941120087748463
 31
0.0
  0
LINE
  5
14A
330
133
100
AcDbEntity
  8
AM_4
100
AcDbLine
 10
-1.035625
 20
2.21125
 30
0.0
 11
-1.035625
 21
2.24125
 31
0.0
  0
LINE
  5
14B
330
133
100
AcDbEntity
  8
AM_4
100
AcDbLine
 10
-1.245625
 20
2.24125
 30
0.0
 11
-1.245625
 21
2.21125
 31
0.0
  0
LINE
  5
14C
330
133
100
AcDbEntity
  8
AM_4
100
AcDbLine
 10
-1.359375
 20
2.10625
 30
0.0
 11
-0.9218749999999999
 21
2.10625
 31
0.0
  0
LINE
  5
14D
330
133
100
AcDbEntity
  8
AM_4
100
AcDbLine
 10
-0.8880342572295388
 20
2.097182400303386
 30
0.0
 11
-0.9218749999999999
 21
2.10625
 31
0.0
  0
LINE
  5
14E
330
133
100
AcDbEntity
  8
AM_4
100
AcDbLine
 10
-1.359375
 20
2.10625
 30
0.0
 11
-1.393215742770461
 21
2.097182400303386
 31
0.0
  0
LINE
  5
14F
330
133
100
AcDbEntity
  8
AM_4
100
AcDbLine
 10
-0.921875
 20
2.00625
 30
0.0
 11
-0.8880342572295388
 21
2.015317599696615
 31
0.0
  0
LINE
  5
150
330
133
100
AcDbEntity
  8
AM_4
100
AcDbLine
 10
-1.393215742770461
 20
2.015317599696615
 30
0.0
 11
-1.359375
 21
2.00625
 31
0.0
  0
LINE
  5
151
330
133
100
AcDbEntity
  8
AM_4
100
AcDbLine
 10
-1.245625
 20
2.21125
 30
0.0
 11
-1.035625
 21
2.21125
 31
0.0
  0
LINE
  5
152
330
133
100
AcDbEntity
  8
AM_4
100
AcDbLine
 10
-1.245625
 20
2.21125
 30
0.0
 11
-1.259445090734898
 21
2.179003121618572
 31
0.0
  0
LINE
  5
153
330
133
100
AcDbEntity
  8
AM_4
100
AcDbLine
 10
-1.021804909265102
 20
2.179003121618572
 30
0.0
 11
-1.035625
 21
2.21125
 31
0.0
  0
LINE
  5
154
330
133
100
AcDbEntity
  8
AM_4
100
AcDbLine
 10
-1.245625
 20
2.24125
 30
0.0
 11
-1.035625
 21
2.24125
 31
0.0
  0
LINE
  5
155
330
133
100
AcDbEntity
  8
AM_4
100
AcDbLine
 10
-1.035625
 20
2.24125
 30
0.0
 11
-1.005625
 21
2.30125
 31
0.0
  0
LINE
  5
156
330
133
100
AcDbEntity
  8
AM_4
100
AcDbLine
 10
-1.275625
 20
2.30125
 30
0.0
 11
-1.245625
 21
2.24125
 31
0.0
  0
LINE
  5
157
330
133
100
AcDbEntity
  8
AM_4
100
AcDbLine
 10
-1.243302901933188
 20
2.38125
 30
0.0
 11
-1.037947098066812
 21
2.38125
 31
0.0
  0
LINE
  5
158
330
133
100
AcDbEntity
  8
AM_4
100
AcDbLine
 10
-1.275625
 20
2.30125
 30
0.0
 11
-1.005625
 21
2.30125
 31
0.0
  0
LINE
  5
159
330
133
100
AcDbEntity
  8
AM_4
100
AcDbLine
 10
-1.243302901933188
 20
2.38125
 30
0.0
 11
-1.275625
 21
2.30125
 31
0.0
  0
LINE
  5
15A
330
133
100
AcDbEntity
  8
AM_4
100
AcDbLine
 10
-1.005625
 20
2.30125
 30
0.0
 11
-1.037947098066812
 21
2.38125
 31
0.0
  0
LINE
  5
15B
330
133
100
AcDbEntity
  8
AM_4
100
AcDbLine
 10
-1.259445090734898
 20
2.179003121618572
 30
0.0
 11
-1.021804909265102
 21
2.179003121618572
 31
0.0
  0
LINE
  5
15C
330
133
100
AcDbEntity
  8
AM_4
100
AcDbLine
 10
-1.259445090734898
 20
2.179003121618572
 30
0.0
 11
-1.313159053283016
 21
2.124568198540882
 31
0.0
  0
LINE
  5
15D
330
133
100
AcDbEntity
  8
AM_4
100
AcDbLine
 10
-0.9680909467169845
 20
2.124568198540882
 30
0.0
 11
-1.021804909265102
 21
2.179003121618572
 31
0.0
  0
LINE
  5
15E
330
133
100
AcDbEntity
  8
AM_4
100
AcDbLine
 10
-1.313159053283016
 20
2.124568198540882
 30
0.0
 11
-0.9680909467169845
 21
2.124568198540882
 31
0.0
  0
LINE
  5
15F
330
133
100
AcDbEntity
  8
AM_4
100
AcDbLine
 10
-1.313159053283016
 20
2.124568198540882
 30
0.0
 11
-1.354375
 21
2.10625
 31
0.0
  0
LINE
  5
160
330
133
100
AcDbEntity
  8
AM_4
100
AcDbLine
 10
-0.9268749999999999
 20
2.10625
 30
0.0
 11
-0.9680909467169845
 21
2.124568198540882
 31
0.0
  0
LINE
  5
161
330
133
100
AcDbEntity
  8
AM_4
100
AcDbLine
 10
-1.266920371385231
 20
2.097182400303386
 30
0.0
 11
-1.266920371385231
 21
2.015317599696615
 31
0.0
  0
LWPOLYLINE
  5
162
330
133
100
AcDbEntity
  8
AM_4
100
AcDbPolyline
 90
        3
 70
     0
 43
0.0
 10
-1.393215742770461
 20
2.097182400303386
 10
-1.361783864423564
 20
2.10383547505038
 10
-1.330068057077846
 20
2.10625
  0
LINE
  5
163
330
133
100
AcDbEntity
  8
AM_4
100
AcDbLine
 10
-1.393215742770461
 20
2.097182400303386
 30
0.0
 11
-1.393215742770461
 21
2.015317599696615
 31
0.0
  0
LWPOLYLINE
  5
164
330
133
100
AcDbEntity
  8
AM_4
100
AcDbPolyline
 90
        3
 70
     0
 43
0.0
 10
-1.330068057077846
 20
2.00625
 10
-1.361641899924154
 20
2.008643380785034
 10
-1.393215742770461
 20
2.015317599696615
  0
LWPOLYLINE
  5
165
330
133
100
AcDbEntity
  8
AM_4
100
AcDbPolyline
 90
        3
 70
     0
 43
0.0
 10
-1.140625
 20
2.00625
 10
-1.203772685692615
 20
2.008643380785034
 10
-1.266920371385231
 20
2.015317599696615
  0
LWPOLYLINE
  5
166
330
133
100
AcDbEntity
  8
AM_4
100
AcDbPolyline
 90
        3
 70
     0
 43
0.0
 10
-1.266920371385231
 20
2.015317599696615
 10
-1.298352249732128
 20
2.00866452494962
 10
-1.330068057077846
 20
2.00625
  0
LINE
  5
167
330
133
100
AcDbEntity
  8
AM_4
100
AcDbLine
 10
-0.8880342572295388
 20
2.097182400303386
 30
0.0
 11
-0.8880342572295388
 21
2.015317599696615
 31
0.0
  0
LWPOLYLINE
  5
168
330
133
100
AcDbEntity
  8
AM_4
100
AcDbPolyline
 90
        3
 70
     0
 43
0.0
 10
-0.951181942922154
 20
2.10625
 10
-0.9196081000758464
 20
2.103856619214965
 10
-0.8880342572295388
 20
2.097182400303386
  0
LINE
  5
169
330
133
100
AcDbEntity
  8
AM_4
100
AcDbLine
 10
-1.014329628614769
 20
2.097182400303386
 30
0.0
 11
-1.014329628614769
 21
2.015317599696615
 31
0.0
  0
LWPOLYLINE
  5
16A
330
133
100
AcDbEntity
  8
AM_4
100
AcDbPolyline
 90
        3
 70
     0
 43
0.0
 10
-0.8880342572295388
 20
2.015317599696615
 10
-0.9194661355764358
 20
2.00866452494962
 10
-0.951181942922154
 20
2.00625
  0
LWPOLYLINE
  5
16B
330
133
100
AcDbEntity
  8
AM_4
100
AcDbPolyline
 90
        4
 70
     0
 43
0.0
 10
-1.140625
 20
2.10625
 10
-1.092225183944101
 20
2.104832439282863
 10
-1.043825367888202
 20
2.100767587482157
 10
-1.014329628614769
 20
2.097182400303386
  0
LWPOLYLINE
  5
16C
330
133
100
AcDbEntity
  8
AM_4
100
AcDbPolyline
 90
        3
 70
     0
 43
0.0
 10
-1.014329628614769
 20
2.097182400303386
 10
-0.9828977502678724
 20
2.10383547505038
 10
-0.951181942922154
 20
2.10625
  0
LWPOLYLINE
  5
16D
330
133
100
AcDbEntity
  8
AM_4
100
AcDbPolyline
 90
        3
 70
     0
 43
0.0
 10
-1.330068057077846
 20
2.10625
 10
-1.298494214231538
 20
2.103856619214965
 10
-1.266920371385231
 20
2.097182400303386
  0
LWPOLYLINE
  5
16E
330
133
100
AcDbEntity
  8
AM_4
100
AcDbPolyline
 90
        3
 70
     0
 43
0.0
 10
-1.266920371385231
 20
2.097182400303386
 10
-1.204056614691437
 20
2.10383547505038
 10
-1.140625
 20
2.10625
  0
LWPOLYLINE
  5
16F
330
133
100
AcDbEntity
  8
AM_4
100
AcDbPolyline
 90
        3
 70
     0
 43
0.0
 10
-0.951181942922154
 20
2.00625
 10
-0.9827557857684616
 20
2.008643380785034
 10
-1.014329628614769
 20
2.015317599696615
  0
LWPOLYLINE
  5
170
330
133
100
AcDbEntity
  8
AM_4
100
AcDbPolyline
 90
        4
 70
     0
 43
0.0
 10
-1.014329628614769
 20
2.015317599696615
 10
-1.043825367888202
 20
2.011732412517844
 10
-1.092082558752246
 20
2.007675828243072
 10
-1.140625
 20
2.00625
  0
ENDBLK
  5
136
330
133
100
AcDbEntity
  8
0
100
AcDbBlockEnd
  0
BLOCK
  5
173
330
171
100
AcDbEntity
  8
0
100
AcDbBlockBegin
  2
5_070541H_0_in_070541_2
 70
     2
 10
0.0
 20
0.0
 30
0.0
  3
5_070541H_0_in_070541_2
  1

  0
ATTDEF
  5
175
330
171
100
AcDbEntity
  8
AM_6
100
AcDbText
 10
5.0890625
 20
2.41325
 30
0.0
 40
0.5
  1
F4S-S2 -(Contact Seal)-Housing
100
AcDbAttributeDefinition
  3

  2
NN
 70
     8
280
     0
  0
ATTDEF
  5
176
330
171
100
AcDbEntity
  8
AM_6
100
AcDbText
 10
5.0890625
 20
1.91325
 30
0.0
 40
0.5
  1
S-2000 4 Bolt Square Flange Bearing -Inch
100
AcDbAttributeDefinition
  3

  2
NT
 70
     8
280
     0
  0
ATTDEF
  5
177
330
171
100
AcDbEntity
  8
AM_6
100
AcDbText
 10
5.0890625
 20
1.41325
 30
0.0
 40
0.5
  1
070541H
100
AcDbAttributeDefinition
  3

  2
NB
 70
     8
280
     0
  0
ATTDEF
  5
178
330
171
100
AcDbEntity
  8
AM_6
100
AcDbText
 10
5.0890625
 20
0.9132500000000001
 30
0.0
 40
0.5
  1
$PN.H
100
AcDbAttributeDefinition
  3

  2
NBSYN
 70
     8
280
     0
  0
ATTDEF
  5
179
330
171
100
AcDbEntity
  8
AM_6
100
AcDbText
 10
5.0890625
 20
0.4132500000000001
 30
0.0
 40
0.5
  1
070541
100
AcDbAttributeDefinition
  3

  2
LINA
 70
     8
280
     0
  0
ATTDEF
  5
17A
330
171
100
AcDbEntity
  8
AM_6
100
AcDbText
 10
5.0890625
 20
-0.0867499999999999
 30
0.0
 40
0.5
  1
1-3/8
100
AcDbAttributeDefinition
  3

  2
SS
 70
     8
280
     0
  0
ATTDEF
  5
17B
330
171
100
AcDbEntity
  8
AM_6
100
AcDbText
 10
5.0890625
 20
-0.5867499999999999
 30
0.0
 40
0.5
  1
070541
100
AcDbAttributeDefinition
  3

  2
PN
 70
     8
280
     0
  0
ATTDEF
  5
17C
330
171
100
AcDbEntity
  8
AM_6
100
AcDbText
 10
5.0890625
 20
-1.08675
 30
0.0
 40
0.5
  1
F4S-S2-106R
100
AcDbAttributeDefinition
  3

  2
DESCRIPTION
 70
     8
280
     0
  0
ATTDEF
  5
17D
330
171
100
AcDbEntity
  8
AM_6
100
AcDbText
 10
5.0890625
 20
-1.58675
 30
0.0
 40
0.5
  1
Non-Expansion Type
100
AcDbAttributeDefinition
  3

  2
EF
 70
     8
280
     0
  0
ATTDEF
  5
17E
330
171
100
AcDbEntity
  8
AM_6
100
AcDbText
 10
5.0890625
 20
-2.08675
 30
0.0
 40
0.5
  1
2-17/32
100
AcDbAttributeDefinition
  3

  2
A
 70
     8
280
     0
  0
ATTDEF
  5
17F
330
171
100
AcDbEntity
  8
AM_6
100
AcDbText
 10
5.0890625
 20
-2.58675
 30
0.0
 40
0.5
  1
4-3/4
100
AcDbAttributeDefinition
  3

  2
B
 70
     8
280
     0
  0
ATTDEF
  5
180
330
171
100
AcDbEntity
  8
AM_6
100
AcDbText
 10
5.0890625
 20
-3.08675
 30
0.0
 40
0.5
  1
2-49/64
100
AcDbAttributeDefinition
  3

  2
C
 70
     8
280
     0
  0
ATTDEF
  5
181
330
171
100
AcDbEntity
  8
AM_6
100
AcDbText
 10
5.0890625
 20
-3.58675
 30
0.0
 40
0.5
  1
1/2
100
AcDbAttributeDefinition
  3

  2
F
 70
     8
280
     0
  0
ATTDEF
  5
182
330
171
100
AcDbEntity
  8
AM_6
100
AcDbText
 10
5.0890625
 20
-4.08675
 30
0.0
 40
0.5
  1
63/64
100
AcDbAttributeDefinition
  3

  2
G
 70
     8
280
     0
  0
ATTDEF
  5
183
330
171
100
AcDbEntity
  8
AM_6
100
AcDbText
 10
5.0890625
 20
-4.58675
 30
0.0
 40
0.5
  1
1/2
100
AcDbAttributeDefinition
  3

  2
H
 70
     8
280
     0
  0
ATTDEF
  5
184
330
171
100
AcDbEntity
  8
AM_6
100
AcDbText
 10
5.0890625
 20
-5.08675
 30
0.0
 40
0.5
  1
3-13/16
100
AcDbAttributeDefinition
  3

  2
J
 70
     8
280
     0
  0
ATTDEF
  5
185
330
171
100
AcDbEntity
  8
AM_6
100
AcDbText
 10
5.0890625
 20
-5.58675
 30
0.0
 40
0.5
  1
5
100
AcDbAttributeDefinition
  3

  2
K
 70
     8
280
     0
  0
ATTDEF
  5
186
330
171
100
AcDbEntity
  8
AM_6
100
AcDbText
 10
5.0890625
 20
-6.08675
 30
0.0
 40
0.5
  1
5.0000000
100
AcDbAttributeDefinition
  3

  2
K1
 70
     8
280
     0
  0
ATTDEF
  5
187
330
171
100
AcDbEntity
  8
AM_6
100
AcDbText
 10
5.0890625
 20
-6.58675
 30
0.0
 40
0.5
  1
2-3/4
100
AcDbAttributeDefinition
  3

  2
L
 70
     8
280
     0
  0
ATTDEF
  5
188
330
171
100
AcDbEntity
  8
AM_6
100
AcDbText
 10
5.0890625
 20
-7.08675
 30
0.0
 40
0.5
  1
2-31/64
100
AcDbAttributeDefinition
  3

  2
N
 70
     8
280
     0
  0
ATTDEF
  5
189
330
171
100
AcDbEntity
  8
AM_6
100
AcDbText
 10
5.0890625
 20
-7.58675
 30
0.0
 40
0.5
  1
2.484375
100
AcDbAttributeDefinition
  3

  2
N1
 70
     8
280
     0
  0
ATTDEF
  5
18A
330
171
100
AcDbEntity
  8
AM_6
100
AcDbText
 10
5.0890625
 20
-8.08675
 30
0.0
 40
0.5
  1
15/64
100
AcDbAttributeDefinition
  3

  2
P
 70
     8
280
     0
  0
ATTDEF
  5
18B
330
171
100
AcDbEntity
  8
AM_6
100
AcDbText
 10
5.0890625
 20
-8.58675
 30
0.0
 40
0.5
  1
3/16
100
AcDbAttributeDefinition
  3

  2
X
 70
     8
280
     0
  0
ATTDEF
  5
18C
330
171
100
AcDbEntity
  8
AM_6
100
AcDbText
 10
5.0890625
 20
-9.08675
 30
0.0
 40
0.5
  1
0.020
100
AcDbAttributeDefinition
  3

  2
Y
 70
     8
280
     0
  0
ATTDEF
  5
18D
330
171
100
AcDbEntity
  8
AM_6
100
AcDbText
 10
5.0890625
 20
-9.58675
 30
0.0
 40
0.5
  1
1-51/64
100
AcDbAttributeDefinition
  3

  2
Z
 70
     8
280
     0
  0
ATTDEF
  5
18E
330
171
100
AcDbEntity
  8
AM_6
100
AcDbText
 10
5.0890625
 20
-10.08675
 30
0.0
 40
0.5
  1
baldor
100
AcDbAttributeDefinition
  3

  2
COMPANY
 70
     8
280
     0
  0
LINE
  5
18F
330
171
100
AcDbEntity
  8
AM_9
100
AcDbLine
 10
-0.4666666666666666
 20
-2.375
 30
0.0
 11
-0.4666666666666667
 21
-1.832960083827409
 31
0.0
  0
LINE
  5
190
330
171
100
AcDbEntity
  8
AM_9
100
AcDbLine
 10
-0.4666666666666666
 20
-1.858080320617826
 30
0.0
 11
-0.4999999999999999
 21
-1.858080320617826
 31
0.0
  0
LINE
  5
191
330
171
100
AcDbEntity
  8
AM_9
100
AcDbLine
 10
-0.4666666666666667
 20
-1.832960083827409
 30
0.0
 11
-0.5
 21
-1.832960083827409
 31
0.0
  0
LINE
  5
192
330
171
100
AcDbEntity
  8
AM_9
100
AcDbLine
 10
-0.4666666666666666
 20
1.858080320617826
 30
0.0
 11
-0.4999999999999999
 21
1.858080320617826
 31
0.0
  0
LINE
  5
193
330
171
100
AcDbEntity
  8
AM_9
100
AcDbLine
 10
-0.5
 20
1.832960083827408
 30
0.0
 11
-0.4666666666666667
 21
1.832960083827408
 31
0.0
  0
LINE
  5
194
330
171
100
AcDbEntity
  8
AM_9
100
AcDbLine
 10
-0.4666666666666667
 20
1.832960083827408
 30
0.0
 11
-0.4666666666666666
 21
2.375
 31
0.0
  0
LINE
  5
195
330
171
100
AcDbEntity
  8
AM_9
100
AcDbLine
 10
-0.4666666666666667
 20
-1.839523359902566
 30
0.0
 11
-0.5
 21
-1.839523359902566
 31
0.0
  0
LINE
  5
196
330
171
100
AcDbEntity
  8
AM_9
100
AcDbLine
 10
-0.5000000000000001
 20
-1.90625
 30
0.0
 11
-0.4666666666666667
 21
-1.90625
 31
0.0
  0
LINE
  5
197
330
171
100
AcDbEntity
  8
AM_9
100
AcDbLine
 10
-0.4666666666666667
 20
1.839523359902566
 30
0.0
 11
-0.5
 21
1.839523359902566
 31
0.0
  0
LINE
  5
198
330
171
100
AcDbEntity
  8
AM_9
100
AcDbLine
 10
-1.635370636759524
 20
1.904878554552123
 30
0.0
 11
-1.640625
 21
1.90625
 31
0.0
  0
LINE
  5
199
330
171
100
AcDbEntity
  8
AM_9
100
AcDbLine
 10
-0.4666666666666667
 20
1.90625
 30
0.0
 11
-0.4999999999999998
 21
1.90625
 31
0.0
  0
LINE
  5
19A
330
171
100
AcDbEntity
  8
AM_9
100
AcDbLine
 10
-0.4666666666666666
 20
2.321134716243308
 30
0.0
 11
-0.4999999999999999
 21
2.321134716243308
 31
0.0
  0
LINE
  5
19B
330
171
100
AcDbEntity
  8
AM_9
100
AcDbLine
 10
-0.4666666666666666
 20
-2.321134716243308
 30
0.0
 11
-0.4999999999999999
 21
-2.321134716243308
 31
0.0
  0
LINE
  5
19C
330
171
100
AcDbEntity
  8
AM_9
100
AcDbLine
 10
-1.78125
 20
-1.5748
 30
0.0
 11
-0.0714285714285711
 21
-1.5748
 31
0.0
  0
LINE
  5
19D
330
171
100
AcDbEntity
  8
AM_9
100
AcDbLine
 10
-0.0714285714285711
 20
1.5748
 30
0.0
 11
-1.78125
 21
1.5748
 31
0.0
  0
LINE
  5
19E
330
171
100
AcDbEntity
  8
AM_9
100
AcDbLine
 10
-0.0214285714285714
 20
-1.740525
 30
0.0
 11
0.0
 21
-1.740525
 31
0.0
  0
LINE
  5
19F
330
171
100
AcDbEntity
  8
AM_9
100
AcDbLine
 10
0.0
 20
1.740525
 30
0.0
 11
-0.0214285714285714
 21
1.740525
 31
0.0
  0
LINE
  5
1A0
330
171
100
AcDbEntity
  8
AM_9
100
AcDbLine
 10
-0.0714285714285714
 20
1.690525
 30
0.0
 11
-0.0714285714285714
 21
-1.690525
 31
0.0
  0
ARC
  5
1A1
330
171
100
AcDbEntity
  8
AM_9
100
AcDbCircle
 10
-0.0214285714285718
 20
-1.690525
 30
0.0
 40
0.0499999999999996
100
AcDbArc
 50
179.9999991462263
 51
270.0
  0
ARC
  5
1A2
330
171
100
AcDbEntity
  8
AM_9
100
AcDbCircle
 10
-0.0214285714285718
 20
1.690525
 30
0.0
 40
0.0499999999999994
100
AcDbArc
 50
90.0
 51
180.0
  0
LINE
  5
1A3
330
171
100
AcDbEntity
  8
AM_9
100
AcDbLine
 10
-0.0214285714285714
 20
1.740525
 30
0.0
 11
-0.0214285714285714
 21
-1.740525
 31
0.0
  0
LINE
  5
1A4
330
171
100
AcDbEntity
  8
AM_9
100
AcDbLine
 10
-0.4999999999999998
 20
-2.015625
 30
0.0
 11
0.0000000000000001
 21
-2.015625
 31
0.0
  0
LINE
  5
1A5
330
171
100
AcDbEntity
  8
AM_9
100
AcDbLine
 10
0.0000000000000001
 20
-1.515625
 30
0.0
 11
-0.4999999999999998
 21
-1.515625
 31
0.0
  0
LINE
  5
1A6
330
171
100
AcDbEntity
  8
AM_9
100
AcDbLine
 10
-0.4999999999999998
 20
1.515625
 30
0.0
 11
0.0000000000000001
 21
1.515625
 31
0.0
  0
LINE
  5
1A7
330
171
100
AcDbEntity
  8
AM_9
100
AcDbLine
 10
0.0000000000000001
 20
2.015625
 30
0.0
 11
-0.4999999999999998
 21
2.015625
 31
0.0
  0
LINE
  5
1A8
330
171
100
AcDbEntity
  8
AM_7
100
AcDbLine
 10
0.0249999999999999
 20
1.765625
 30
0.0
 11
-0.5250000000000001
 21
1.765625
 31
0.0
  0
LINE
  5
1A9
330
171
100
AcDbEntity
  8
AM_7
100
AcDbLine
 10
0.0249999999999999
 20
-1.765625
 30
0.0
 11
-0.5250000000000001
 21
-1.765625
 31
0.0
  0
LINE
  5
1AA
330
171
100
AcDbEntity
  8
AM_7
100
AcDbLine
 10
-2.8921875
 20
0.0
 30
0.0
 11
0.0890625
 21
0.0
 31
0.0
  0
LINE
  5
1AB
330
171
100
AcDbEntity
  8
AM_7
100
AcDbLine
 10
-1.140625
 20
2.41325
 30
0.0
 11
-1.140625
 21
1.6582275
 31
0.0
  0
LINE
  5
1AC
330
171
100
AcDbEntity
  8
AM_4
100
AcDbLine
 10
-1.540625
 20
2.00625
 30
0.0
 11
-0.7406250000933532
 21
2.00625
 31
0.0
  0
ARC
  5
1AD
330
171
100
AcDbEntity
  8
AM_4
100
AcDbCircle
 10
-0.7406249999999995
 20
1.90625
 30
0.0
 40
0.0999999999999995
100
AcDbArc
 50
0.0
 51
90.0
  0
ARC
  5
1AE
330
171
100
AcDbEntity
  8
AM_4
100
AcDbCircle
 10
-1.540625
 20
1.90625
 30
0.0
 40
0.0999999999999999
100
AcDbArc
 50
90.0
 51
180.0
  0
LINE
  5
1AF
330
171
100
AcDbEntity
  8
AM_4
100
AcDbLine
 10
-1.640625
 20
1.90625
 30
0.0
 11
-0.640625
 21
1.90625
 31
0.0
  0
LINE
  5
1B0
330
171
100
AcDbEntity
  8
AM_4
100
AcDbLine
 10
-1.78125
 20
-1.90625
 30
0.0
 11
-0.5000000000000001
 21
-1.90625
 31
0.0
  0
LWPOLYLINE
  5
1B1
330
171
100
AcDbEntity
  8
AM_4
100
AcDbPolyline
 90
       39
 70
     0
 43
0.0
 10
-1.640625
 20
1.90625
 10
-1.638959854749145
 20
1.905813259561444
 10
-1.633990813586308
 20
1.904520645337214
 10
-1.625453262877304
 20
1.902326248879258
 10
-1.613530174493492
 20
1.899323133793384
 10
-1.598795418327206
 20
1.895707740361764
 10
-1.581071143912997
 20
1.891502542474587
 10
-1.559859290456215
 20
1.886675902822962
 10
-1.535774598803403
 20
1.881470772543249
 10
-1.50918496306563
 20
1.876066678273679
 10
-1.480101321081584
 20
1.870570296747782
 10
-1.447786760196793
 20
1.864977115518179
 10
-1.413245114174726
 20
1.859599631413343
 10
-1.377157450626764
 20
1.854653712242664
 10
-1.33935732034893
 20
1.85021177102819
 10
-1.298880984351207
 20
1.846304437329398
 10
-1.257156298069177
 20
1.843195216446073
 10
-1.216692066012779
 20
1.841081561771163
 10
-1.175676465734286
 20
1.839841750735677
 10
-1.133135471188756
 20
1.839525051560355
 10
-1.090652506667552
 20
1.840186488535839
 10
-1.050856826496262
 20
1.841698322069311
 10
-1.011677084837846
 20
1.844021861943254
 10
-0.9723030801176631
 20
1.84719411532364
 10
-0.9341256996911181
 20
1.851062133891798
 10
-0.8979923065992742
 20
1.855441398213666
 10
-0.863486354070283
 20
1.860267424745098
 10
-0.8299593550771935
 20
1.865557334242863
 10
-0.7985832411770691
 20
1.871037580402565
 10
-0.7694658935792351
 20
1.876579010319412
 10
-0.7429027859875376
 20
1.882012758197716
 10
-0.7184350312262465
 20
1.887334840052352
 10
-0.6970362620939707
 20
1.892236779818283
 10
-0.6792939155049351
 20
1.896474043648606
 10
-0.6647614554287262
 20
1.900061887295237
 10
-0.6532774629424902
 20
1.902969761062095
 10
-0.6454294098690073
 20
1.904995468494658
 10
-0.6418341244640537
 20
1.905933209747371
 10
-0.640625
 20
1.90625
  0
LINE
  5
1B2
330
171
100
AcDbEntity
  8
AM_4
100
AcDbLine
 10
-0.4999999999999998
 20
1.90625
 30
0.0
 11
-0.6406250000000002
 21
1.90625
 31
0.0
  0
LINE
  5
1B3
330
171
100
AcDbEntity
  8
AM_4
100
AcDbLine
 10
-1.640625
 20
1.90625
 30
0.0
 11
-1.78125
 21
1.90625
 31
0.0
  0
LINE
  5
1B4
330
171
100
AcDbEntity
  8
AM_4
100
AcDbLine
 10
-1.78125
 20
-1.642856395426531
 30
0.0
 11
-0.5000000000000001
 21
-1.642856395426531
 31
0.0
  0
LINE
  5
1B5
330
171
100
AcDbEntity
  8
AM_4
100
AcDbLine
 10
-1.78125
 20
1.642856395426531
 30
0.0
 11
-0.5000000000000001
 21
1.642856395426531
 31
0.0
  0
LINE
  5
1B6
330
171
100
AcDbEntity
  8
AM_4
100
AcDbLine
 10
-1.78125
 20
-1.543924742121355
 30
0.0
 11
-0.5000000000000001
 21
-1.543924742121355
 31
0.0
  0
LINE
  5
1B7
330
171
100
AcDbEntity
  8
AM_4
100
AcDbLine
 10
-1.78125
 20
1.543924742121355
 30
0.0
 11
-0.5000000000000001
 21
1.543924742121355
 31
0.0
  0
LINE
  5
1B8
330
171
100
AcDbEntity
  8
AM_4
100
AcDbLine
 10
-1.78125
 20
1.048475832489027
 30
0.0
 11
-0.5000000000000001
 21
1.048475832489027
 31
0.0
  0
LINE
  5
1B9
330
171
100
AcDbEntity
  8
AM_4
100
AcDbLine
 10
-1.78125
 20
-1.90625
 30
0.0
 11
-1.78125
 21
1.90625
 31
0.0
  0
LINE
  5
1BA
330
171
100
AcDbEntity
  8
AM_4
100
AcDbLine
 10
-1.78125
 20
-1.048475832489029
 30
0.0
 11
-0.5000000000000001
 21
-1.048475832489028
 31
0.0
  0
LINE
  5
1BB
330
171
100
AcDbEntity
  8
AM_4
100
AcDbLine
 10
-1.78125
 20
0.9668567249112688
 30
0.0
 11
-0.5000000000000001
 21
0.9668567249112688
 31
0.0
  0
LINE
  5
1BC
330
171
100
AcDbEntity
  8
AM_4
100
AcDbLine
 10
-1.78125
 20
-0.966856716118808
 30
0.0
 11
-0.5000000000000001
 21
-0.966856716118808
 31
0.0
  0
LINE
  5
1BD
330
171
100
AcDbEntity
  8
AM_4
100
AcDbLine
 10
-0.4666666666666666
 20
-0.4999428676086646
 30
0.0
 11
-0.4999999999999998
 21
-0.4999428676086646
 31
0.0
  0
LINE
  5
1BE
330
171
100
AcDbEntity
  8
AM_4
100
AcDbLine
 10
-0.4666666666666666
 20
0.4999428676086649
 30
0.0
 11
-0.4999999999999998
 21
0.4999428676086649
 31
0.0
  0
LINE
  5
1BF
330
171
100
AcDbEntity
  8
AM_4
100
AcDbLine
 10
-0.4666666666666666
 20
0.642867575898041
 30
0.0
 11
-0.4999999999999998
 21
0.642867575898041
 31
0.0
  0
LINE
  5
1C0
330
171
100
AcDbEntity
  8
AM_4
100
AcDbLine
 10
-0.4666666666666666
 20
-0.6428675758980411
 30
0.0
 11
-0.4999999999999998
 21
-0.6428675758980411
 31
0.0
  0
LINE
  5
1C1
330
171
100
AcDbEntity
  8
AM_4
100
AcDbLine
 10
-0.4666666666666666
 20
-1.444901315789474
 30
0.0
 11
-0.4999999999999998
 21
-1.444901315789474
 31
0.0
  0
LINE
  5
1C2
330
171
100
AcDbEntity
  8
AM_4
100
AcDbLine
 10
-0.4999999999999998
 20
2.375
 30
0.0
 11
0.0000000000000001
 21
2.375
 31
0.0
  0
LINE
  5
1C3
330
171
100
AcDbEntity
  8
AM_4
100
AcDbLine
 10
-0.4999999999999998
 20
0.4999428676086649
 30
0.0
 11
-0.4999999999999998
 21
2.375
 31
0.0
  0
LINE
  5
1C4
330
171
100
AcDbEntity
  8
AM_4
100
AcDbLine
 10
-0.4666666666666666
 20
1.444901315789474
 30
0.0
 11
-0.4999999999999998
 21
1.444901315789474
 31
0.0
  0
LINE
  5
1C5
330
171
100
AcDbEntity
  8
AM_4
100
AcDbLine
 10
-0.4666666666666666
 20
1.565333123406633
 30
0.0
 11
-0.4999999999999998
 21
1.565333123406633
 31
0.0
  0
LINE
  5
1C6
330
171
100
AcDbEntity
  8
AM_4
100
AcDbLine
 10
-0.4666666666666666
 20
-1.565333123406632
 30
0.0
 11
-0.4666666666666666
 21
1.565333123406633
 31
0.0
  0
LINE
  5
1C7
330
171
100
AcDbEntity
  8
AM_4
100
AcDbLine
 10
-0.4999999999999998
 20
-1.565333123406632
 30
0.0
 11
-0.4666666666666666
 21
-1.565333123406632
 31
0.0
  0
LINE
  5
1C8
330
171
100
AcDbEntity
  8
AM_4
100
AcDbLine
 10
-0.4999999999999998
 20
1.765625
 30
0.0
 11
0.0000000000000001
 21
1.765625
 31
0.0
  0
LINE
  5
1C9
330
171
100
AcDbEntity
  8
AM_4
100
AcDbLine
 10
0.0000000000000001
 20
-2.375
 30
0.0
 11
0.0000000000000001
 21
2.375
 31
0.0
  0
LINE
  5
1CA
330
171
100
AcDbEntity
  8
AM_4
100
AcDbLine
 10
-0.4999999999999998
 20
-1.765624999999999
 30
0.0
 11
0.0000000000000001
 21
-1.765624999999999
 31
0.0
  0
LINE
  5
1CB
330
171
100
AcDbEntity
  8
AM_4
100
AcDbLine
 10
-0.4999999999999998
 20
-2.375
 30
0.0
 11
-0.4999999999999998
 21
-0.4999428676086646
 31
0.0
  0
LINE
  5
1CC
330
171
100
AcDbEntity
  8
AM_4
100
AcDbLine
 10
-0.4999999999999998
 20
-2.375
 30
0.0
 11
0.0000000000000001
 21
-2.375
 31
0.0
  0
ENDBLK
  5
174
330
171
100
AcDbEntity
  8
0
100
AcDbBlockEnd
  0
ENDSEC
  0
SECTION
  2
ENTITIES
  0
INSERT
  5
6F
330
1F
100
AcDbEntity
  8
0
100
AcDbBlockReference
  2
1_070541_2
 10
0.0
 20
0.0
 30
0.0
  0
POINT
  5
1CE
330
1F
100
AcDbEntity
  8
ConnectionPoints
100
AcDbPoint
 10
-2.765625
 20
0.0
 30
0.0000000000000002
  0
POINT
  5
1CF
330
1F
100
AcDbEntity
  8
ConnectionPoints
100
AcDbPoint
 10
0.3568750000000001
 20
0.0
 30
0.0
  0
POINT
  5
1D0
330
1F
100
AcDbEntity
  8
ConnectionPoints
100
AcDbPoint
 10
-2.765625
 20
0.0
 30
0.0000000000000002
  0
POINT
  5
1D1
330
1F
100
AcDbEntity
  8
ConnectionPoints
100
AcDbPoint
 10
-1.140625
 20
2.00625
 30
0.0000000000000001
  0
POINT
  5
1D2
330
1F
100
AcDbEntity
  8
ConnectionPoints
100
AcDbPoint
 10
-1.140625
 20
2.00625
 30
0.0000000000000001
  0
POINT
  5
1D3
330
1F
100
AcDbEntity
  8
ConnectionPoints
100
AcDbPoint
 10
-2.578125
 20
0.0
 30
0.0000000000000002
  0
POINT
  5
1D4
330
1F
100
AcDbEntity
  8
ConnectionPoints
100
AcDbPoint
 10
-2.765625
 20
0.0
 30
0.0000000000000002
  0
ENDSEC
  0
SECTION
  2
OBJECTS
  0
DICTIONARY
  5
C
330
0
100
AcDbDictionary
281
     1
  3
ACAD_DETAILVIEWSTYLE
350
1DC
  3
ACAD_GROUP
350
D
  3
ACAD_LAYOUT
350
1A
  3
ACAD_MATERIAL
350
43
  3
ACAD_MLEADERSTYLE
350
6B
  3
ACAD_MLINESTYLE
350
17
  3
ACAD_PLOTSETTINGS
350
19
  3
ACAD_PLOTSTYLENAME
350
E
  3
ACAD_SCALELIST
350
47
  3
ACAD_SECTIONVIEWSTYLE
350
1DD
  3
ACAD_TABLESTYLE
350
69
  3
ACAD_VISUALSTYLE
350
2A
  3
ACDB_RECOMPOSE_DATA
350
1D9
  3
AcDbVariableDictionary
350
1D5
  0
SUN
  5
6D
330
29
100
AcDbSun
 90
        1
290
     0
 63
     7
421
 16777215
 40
1.0
291
     1
 91
  2455826
 92
 54000000
292
     0
 70
     2
 71
   256
280
     1
  0
DICTIONARY
  5
1DC
102
{ACAD_REACTORS
330
C
102
}
330
C
100
AcDbDictionary
281
     1
  0
DICTIONARY
  5
D
102
{ACAD_REACTORS
330
C
102
}
330
C
100
AcDbDictionary
281
     1
  0
DICTIONARY
  5
1A
102
{ACAD_REACTORS
330
C
102
}
330
C
100
AcDbDictionary
281
     1
  3
Layout1
350
1E
  3
Layout2
350
26
  3
Model
350
22
  0
DICTIONARY
  5
43
102
{ACAD_REACTORS
330
C
102
}
330
C
100
AcDbDictionary
281
     1
  3
ByBlock
350
45
  3
ByLayer
350
44
  3
Global
350
46
  0
DICTIONARY
  5
6B
102
{ACAD_REACTORS
330
C
102
}
330
C
100
AcDbDictionary
281
     1
  3
Standard
350
6C
  0
DICTIONARY
  5
17
102
{ACAD_REACTORS
330
C
102
}
330
C
100
AcDbDictionary
281
     1
  3
Standard
350
18
  0
DICTIONARY
  5
19
102
{ACAD_REACTORS
330
C
102
}
330
C
100
AcDbDictionary
281
     1
  0
ACDBDICTIONARYWDFLT
  5
E
102
{ACAD_REACTORS
330
C
102
}
330
C
100
AcDbDictionary
281
     1
  3
Normal
350
F
100
AcDbDictionaryWithDefault
340
F
  0
DICTIONARY
  5
47
102
{ACAD_REACTORS
330
C
102
}
330
C
100
AcDbDictionary
281
     1
  3
A0
350
48
  3
A1
350
49
  3
A2
350
4A
  3
A3
350
4B
  3
A4
350
4C
  3
A5
350
4D
  3
A6
350
4E
  3
A7
350
4F
  3
A8
350
50
  3
A9
350
51
  3
B0
350
52
  3
B1
350
53
  3
B2
350
54
  3
B3
350
55
  3
B4
350
56
  3
B5
350
57
  3
B6
350
58
  3
B7
350
59
  3
B8
350
5A
  3
B9
350
5B
  3
C0
350
5C
  3
C1
350
5D
  3
C2
350
5E
  3
C3
350
5F
  3
C4
350
60
  3
C5
350
61
  3
C6
350
62
  3
C7
350
63
  3
C8
350
64
  3
C9
350
65
  3
D0
350
66
  3
D1
350
67
  3
D2
350
68
  0
DICTIONARY
  5
1DD
102
{ACAD_REACTORS
330
C
102
}
330
C
100
AcDbDictionary
281
     1
  0
DICTIONARY
  5
69
102
{ACAD_REACTORS
330
C
102
}
330
C
100
AcDbDictionary
281
     1
  3
Standard
350
6A
  0
DICTIONARY
  5
2A
102
{ACAD_REACTORS
330
C
102
}
330
C
100
AcDbDictionary
281
     1
  3
2dWireframe
350
2F
  3
Basic
350
32
  3
Brighten
350
36
  3
ColorChange
350
3A
  3
Conceptual
350
34
  3
Dim
350
35
  3
EdgeColorOff
350
3D
  3
Facepattern
350
39
  3
Flat
350
2B
  3
FlatWithEdges
350
2C
  3
Gouraud
350
2D
  3
GouraudWithEdges
350
2E
  3
Hidden
350
31
  3
JitterOff
350
3B
  3
Linepattern
350
38
  3
OverhangOff
350
3C
  3
Realistic
350
33
  3
Shaded
350
42
  3
Shaded with edges
350
41
  3
Shades of Gray
350
3E
  3
Sketchy
350
3F
  3
Thicken
350
37
  3
Wireframe
350
30
  3
X-Ray
350
40
  0
XRECORD
  5
1D9
102
{ACAD_REACTORS
330
C
102
}
330
C
100
AcDbXrecord
280
     1
 90
        1
330
6A
  0
DICTIONARY
  5
1D5
102
{ACAD_REACTORS
330
C
102
}
330
C
100
AcDbDictionary
281
     1
  3
CANNOSCALE
350
1D6
  3
CMLEADERSTYLE
350
1DB
  3
CTABLESTYLE
350
1DA
  0
LAYOUT
  5
1E
102
{ACAD_REACTORS
330
1A
102
}
330
1A
100
AcDbPlotSettings
  1

  2
none_device
  4

  6

 40
0.0
 41
0.0
 42
0.0
 43
0.0
 44
0.0
 45
0.0
 46
0.0
 47
0.0
 48
0.0
 49
0.0
140
0.0
141
0.0
142
1.0
143
1.0
 70
   688
 72
     0
 73
     0
 74
     5
  7

 75
    16
 76
     0
 77
     2
 78
   300
147
1.0
148
0.0
149
0.0
100
AcDbLayout
  1
Layout1
 70
     1
 71
     1
 10
0.0
 20
0.0
 11
12.0
 21
9.0
 12
0.0
 22
0.0
 32
0.0
 14
1.000000000000000E+20
 24
1.000000000000000E+20
 34
1.000000000000000E+20
 15
-1.000000000000000E+20
 25
-1.000000000000000E+20
 35
-1.000000000000000E+20
146
0.0
 13
0.0
 23
0.0
 33
0.0
 16
1.0
 26
0.0
 36
0.0
 17
0.0
 27
1.0
 37
0.0
 76
     0
330
1B
  0
LAYOUT
  5
26
102
{ACAD_REACTORS
330
1A
102
}
330
1A
100
AcDbPlotSettings
  1

  2
none_device
  4

  6

 40
0.0
 41
0.0
 42
0.0
 43
0.0
 44
0.0
 45
0.0
 46
0.0
 47
0.0
 48
0.0
 49
0.0
140
0.0
141
0.0
142
1.0
143
1.0
 70
   688
 72
     0
 73
     0
 74
     5
  7

 75
    16
 76
     0
 77
     2
 78
   300
147
1.0
148
0.0
149
0.0
100
AcDbLayout
  1
Layout2
 70
     1
 71
     2
 10
0.0
 20
0.0
 11
0.0
 21
0.0
 12
0.0
 22
0.0
 32
0.0
 14
0.0
 24
0.0
 34
0.0
 15
0.0
 25
0.0
 35
0.0
146
0.0
 13
0.0
 23
0.0
 33
0.0
 16
1.0
 26
0.0
 36
0.0
 17
0.0
 27
1.0
 37
0.0
 76
     0
330
23
  0
LAYOUT
  5
22
102
{ACAD_REACTORS
330
1A
102
}
330
1A
100
AcDbPlotSettings
  1

  2
none_device
  4
Letter_(8.50_x_11.00_Inches)
  6

 40
6.35
 41
6.35
 42
6.35000508
 43
6.35000508
 44
215.9
 45
279.4
 46
0.0
 47
0.0
 48
0.0
 49
0.0
140
0.0
141
0.0
142
1.0
143
1.0
 70
  1712
 72
     0
 73
     0
 74
     0
  7

 75
     0
 76
     0
 77
     2
 78
   300
147
1.0
148
0.0
149
0.0
100
AcDbLayout
  1
Model
 70
     1
 71
     0
 10
0.0
 20
0.0
 11
12.0
 21
9.0
 12
0.0
 22
0.0
 32
0.0
 14
1.000000000000000E+20
 24
1.000000000000000E+20
 34
1.000000000000000E+20
 15
-1.000000000000000E+20
 25
-1.000000000000000E+20
 35
-1.000000000000000E+20
146
0.0
 13
0.0
 23
0.0
 33
0.0
 16
1.0
 26
0.0
 36
0.0
 17
0.0
 27
1.0
 37
0.0
 76
     0
330
1F
331
29
  0
MATERIAL
  5
45
102
{ACAD_REACTORS
330
43
102
}
330
43
100
AcDbMaterial
  1
ByBlock
 72
     1
 94
      127
  0
MATERIAL
  5
44
102
{ACAD_REACTORS
330
43
102
}
330
43
100
AcDbMaterial
  1
ByLayer
 72
     1
 94
      127
  0
MATERIAL
  5
46
102
{ACAD_REACTORS
330
43
102
}
330
43
100
AcDbMaterial
  1
Global
 72
     1
 94
      127
  0
MLEADERSTYLE
  5
6C
102
{ACAD_REACTORS
330
6B
102
}
330
6B
100
AcDbMLeaderStyle
179
     2
170
     2
171
     1
172
     0
 90
        2
 40
0.0
 41
0.0
173
     1
 91
-1056964608
340
14
 92
       -2
290
     1
 42
0.09
291
     1
 43
0.36
  3
Standard
341
0
 44
0.18
300

342
11
174
     1
178
     6
175
     1
176
     0
 93
-1056964608
 45
0.18
292
     0
297
     0
 46
0.18
343
0
 94
-1056964608
 47
1.0
 49
1.0
140
1.0
293
     1
141
0.0
294
     1
177
     0
142
1.0
295
     0
296
     0
143
0.125
271
     0
272
     9
273
     9
298
     0
  0
MLINESTYLE
  5
18
102
{ACAD_REACTORS
330
17
102
}
330
17
100
AcDbMlineStyle
  2
Standard
 70
     0
  3

 62
   256
 51
90.0
 52
90.0
 71
     2
 49
0.5
 62
   256
  6
BYLAYER
 49
-0.5
 62
   256
  6
BYLAYER
  0
ACDBPLACEHOLDER
  5
F
102
{ACAD_REACTORS
330
E
102
}
330
E
  0
SCALE
  5
48
102
{ACAD_REACTORS
330
47
102
}
330
47
100
AcDbScale
 70
     0
300
1:1
140
1.0
141
1.0
290
     1
  0
SCALE
  5
49
102
{ACAD_REACTORS
330
47
102
}
330
47
100
AcDbScale
 70
     0
300
1:2
140
1.0
141
2.0
290
     0
  0
SCALE
  5
4A
102
{ACAD_REACTORS
330
47
102
}
330
47
100
AcDbScale
 70
     0
300
1:4
140
1.0
141
4.0
290
     0
  0
SCALE
  5
4B
102
{ACAD_REACTORS
330
47
102
}
330
47
100
AcDbScale
 70
     0
300
1:5
140
1.0
141
5.0
290
     0
  0
SCALE
  5
4C
102
{ACAD_REACTORS
330
47
102
}
330
47
100
AcDbScale
 70
     0
300
1:8
140
1.0
141
8.0
290
     0
  0
SCALE
  5
4D
102
{ACAD_REACTORS
330
47
102
}
330
47
100
AcDbScale
 70
     0
300
1:10
140
1.0
141
10.0
290
     0
  0
SCALE
  5
4E
102
{ACAD_REACTORS
330
47
102
}
330
47
100
AcDbScale
 70
     0
300
1:16
140
1.0
141
16.0
290
     0
  0
SCALE
  5
4F
102
{ACAD_REACTORS
330
47
102
}
330
47
100
AcDbScale
 70
     0
300
1:20
140
1.0
141
20.0
290
     0
  0
SCALE
  5
50
102
{ACAD_REACTORS
330
47
102
}
330
47
100
AcDbScale
 70
     0
300
1:30
140
1.0
141
30.0
290
     0
  0
SCALE
  5
51
102
{ACAD_REACTORS
330
47
102
}
330
47
100
AcDbScale
 70
     0
300
1:40
140
1.0
141
40.0
290
     0
  0
SCALE
  5
52
102
{ACAD_REACTORS
330
47
102
}
330
47
100
AcDbScale
 70
     0
300
1:50
140
1.0
141
50.0
290
     0
  0
SCALE
  5
53
102
{ACAD_REACTORS
330
47
102
}
330
47
100
AcDbScale
 70
     0
300
1:100
140
1.0
141
100.0
290
     0
  0
SCALE
  5
54
102
{ACAD_REACTORS
330
47
102
}
330
47
100
AcDbScale
 70
     0
300
2:1
140
2.0
141
1.0
290
     0
  0
SCALE
  5
55
102
{ACAD_REACTORS
330
47
102
}
330
47
100
AcDbScale
 70
     0
300
4:1
140
4.0
141
1.0
290
     0
  0
SCALE
  5
56
102
{ACAD_REACTORS
330
47
102
}
330
47
100
AcDbScale
 70
     0
300
8:1
140
8.0
141
1.0
290
     0
  0
SCALE
  5
57
102
{ACAD_REACTORS
330
47
102
}
330
47
100
AcDbScale
 70
     0
300
10:1
140
10.0
141
1.0
290
     0
  0
SCALE
  5
58
102
{ACAD_REACTORS
330
47
102
}
330
47
100
AcDbScale
 70
     0
300
100:1
140
100.0
141
1.0
290
     0
  0
SCALE
  5
59
102
{ACAD_REACTORS
330
47
102
}
330
47
100
AcDbScale
 70
     0
300
1/128" = 1'-0"
140
0.0078125
141
12.0
290
     0
  0
SCALE
  5
5A
102
{ACAD_REACTORS
330
47
102
}
330
47
100
AcDbScale
 70
     0
300
1/64" = 1'-0"
140
0.015625
141
12.0
290
     0
  0
SCALE
  5
5B
102
{ACAD_REACTORS
330
47
102
}
330
47
100
AcDbScale
 70
     0
300
1/32" = 1'-0"
140
0.03125
141
12.0
290
     0
  0
SCALE
  5
5C
102
{ACAD_REACTORS
330
47
102
}
330
47
100
AcDbScale
 70
     0
300
1/16" = 1'-0"
140
0.0625
141
12.0
290
     0
  0
SCALE
  5
5D
102
{ACAD_REACTORS
330
47
102
}
330
47
100
AcDbScale
 70
     0
300
3/32" = 1'-0"
140
0.09375
141
12.0
290
     0
  0
SCALE
  5
5E
102
{ACAD_REACTORS
330
47
102
}
330
47
100
AcDbScale
 70
     0
300
1/8" = 1'-0"
140
0.125
141
12.0
290
     0
  0
SCALE
  5
5F
102
{ACAD_REACTORS
330
47
102
}
330
47
100
AcDbScale
 70
     0
300
3/16" = 1'-0"
140
0.1875
141
12.0
290
     0
  0
SCALE
  5
60
102
{ACAD_REACTORS
330
47
102
}
330
47
100
AcDbScale
 70
     0
300
1/4" = 1'-0"
140
0.25
141
12.0
290
     0
  0
SCALE
  5
61
102
{ACAD_REACTORS
330
47
102
}
330
47
100
AcDbScale
 70
     0
300
3/8" = 1'-0"
140
0.375
141
12.0
290
     0
  0
SCALE
  5
62
102
{ACAD_REACTORS
330
47
102
}
330
47
100
AcDbScale
 70
     0
300
1/2" = 1'-0"
140
0.5
141
12.0
290
     0
  0
SCALE
  5
63
102
{ACAD_REACTORS
330
47
102
}
330
47
100
AcDbScale
 70
     0
300
3/4" = 1'-0"
140
0.75
141
12.0
290
     0
  0
SCALE
  5
64
102
{ACAD_REACTORS
330
47
102
}
330
47
100
AcDbScale
 70
     0
300
1" = 1'-0"
140
1.0
141
12.0
290
     0
  0
SCALE
  5
65
102
{ACAD_REACTORS
330
47
102
}
330
47
100
AcDbScale
 70
     0
300
1-1/2" = 1'-0"
140
1.5
141
12.0
290
     0
  0
SCALE
  5
66
102
{ACAD_REACTORS
330
47
102
}
330
47
100
AcDbScale
 70
     0
300
3" = 1'-0"
140
3.0
141
12.0
290
     0
  0
SCALE
  5
67
102
{ACAD_REACTORS
330
47
102
}
330
47
100
AcDbScale
 70
     0
300
6" = 1'-0"
140
6.0
141
12.0
290
     0
  0
SCALE
  5
68
102
{ACAD_REACTORS
330
47
102
}
330
47
100
AcDbScale
 70
     0
300
1'-0" = 1'-0"
140
12.0
141
12.0
290
     0
  0
TABLESTYLE
  5
6A
102
{ACAD_REACTORS
330
69
102
}
102
{ACAD_XDICTIONARY
360
1D7
102
}
330
69
100
AcDbTableStyle
  3
Standard
 70
     0
 71
     0
 40
0.06
 41
0.06
280
     0
281
     0
  7
Standard
140
0.18
170
     2
 62
     0
 63
   257
283
     0
 90
        4
 91
        0
  1

274
    -2
284
     1
 64
     0
275
    -2
285
     1
 65
     0
276
    -2
286
     1
 66
     0
277
    -2
287
     1
 67
     0
278
    -2
288
     1
 68
     0
279
    -2
289
     1
 69
     0
  7
Standard
140
0.25
170
     5
 62
     0
 63
   257
283
     0
 90
        4
 91
        0
  1

274
    -2
284
     1
 64
     0
275
    -2
285
     1
 65
     0
276
    -2
286
     1
 66
     0
277
    -2
287
     1
 67
     0
278
    -2
288
     1
 68
     0
279
    -2
289
     1
 69
     0
  7
Standard
140
0.18
170
     5
 62
     0
 63
   257
283
     0
 90
        4
 91
        0
  1

274
    -2
284
     1
 64
     0
275
    -2
285
     1
 65
     0
276
    -2
286
     1
 66
     0
277
    -2
287
     1
 67
     0
278
    -2
288
     1
 68
     0
279
    -2
289
     1
 69
     0
  0
VISUALSTYLE
  5
2F
102
{ACAD_REACTORS
330
2A
102
}
330
2A
100
AcDbVisualStyle
  2
2dWireframe
 70
     4
177
     3
291
     0
 70
    58
 90
        0
176
     1
 90
        2
176
     1
 90
        0
176
     1
 90
        0
176
     1
 40
0.6
176
     1
 40
30.0
176
     1
 62
     7
420
 16777215
176
     1
 90
        1
176
     1
 90
        4
176
     1
 62
     7
176
     1
 62
   257
176
     1
 90
        1
176
     1
 90
        1
176
     1
 40
1.0
176
     1
 90
        0
176
     1
 62
   257
176
     1
 40
1.0
176
     1
 90
        1
176
     1
 90
        6
176
     1
 90
        2
176
     1
 62
     7
176
     1
 90
        5
176
     1
 90
        0
176
     1
 90
        0
176
     1
290
     0
176
     1
 90
        1
176
     1
 40
0.0
176
     1
 90
        0
176
     1
290
     1
176
     1
290
     1
176
     1
290
     0
176
     1
290
     0
176
     1
290
     0
176
     1
290
     0
176
     1
290
     0
176
     1
290
     0
176
     1
290
     0
176
     1
 90
       50
176
     1
 40
0.0
176
     1
 40
1.0
176
     1
 90
        0
176
     1
 62
    18
420
        0
176
     1
 90
       50
176
     1
 90
        3
176
     1
 62
     5
420
      255
176
     1
290
     0
176
     1
 90
       50
176
     1
 90
       50
176
     1
 90
       50
176
     1
290
     0
176
     1
 90
       50
176
     1
 62
   256
176
     0
 40
1.0
176
     0
 90
        2
176
     1
  1
strokes_ogs.tif
176
     1
290
     0
176
     1
 40
1.0
176
     1
 40
1.0
176
     1
  0
VISUALSTYLE
  5
32
102
{ACAD_REACTORS
330
2A
102
}
330
2A
100
AcDbVisualStyle
  2
Basic
 70
     7
177
     3
291
     1
 70
    58
 90
        1
176
     1
 90
        0
176
     1
 90
        1
176
     1
 90
        0
176
     1
 40
0.6
176
     1
 40
30.0
176
     1
 62
     7
420
 16777215
176
     1
 90
        0
176
     1
 90
        4
176
     1
 62
     7
176
     1
 62
   257
176
     1
 90
        1
176
     1
 90
        1
176
     1
 40
1.0
176
     1
 90
        8
176
     1
 62
     7
176
     1
 40
1.0
176
     1
 90
        1
176
     1
 90
        6
176
     1
 90
        2
176
     1
 62
     7
176
     1
 90
        5
176
     1
 90
        0
176
     1
 90
        0
176
     1
290
     0
176
     1
 90
        1
176
     1
 40
0.0
176
     1
 90
        0
176
     1
290
     0
176
     1
290
     1
176
     1
290
     1
176
     1
290
     0
176
     1
290
     0
176
     1
290
     0
176
     1
290
     0
176
     1
290
     0
176
     1
290
     0
176
     1
 90
       50
176
     1
 40
0.0
176
     1
 40
1.0
176
     1
 90
        0
176
     1
 62
    18
420
        0
176
     1
 90
       50
176
     1
 90
        3
176
     1
 62
     5
420
      255
176
     1
290
     0
176
     1
 90
       50
176
     1
 90
       50
176
     1
 90
       50
176
     1
290
     0
176
     1
 90
       50
176
     1
 62
   256
176
     0
 40
1.0
176
     0
 90
        2
176
     1
  1
strokes_ogs.tif
176
     1
290
     0
176
     1
 40
1.0
176
     1
 40
1.0
176
     1
  0
VISUALSTYLE
  5
36
102
{ACAD_REACTORS
330
2A
102
}
330
2A
100
AcDbVisualStyle
  2
Brighten
 70
    12
177
     3
291
     1
 70
    58
 90
        2
176
     1
 90
        2
176
     1
 90
        0
176
     1
 90
        0
176
     1
 40
0.6
176
     1
 40
30.0
176
     1
 62
     7
420
 16777215
176
     1
 90
        1
176
     1
 90
        4
176
     1
 62
     7
176
     1
 62
   257
176
     1
 90
        1
176
     1
 90
        1
176
     1
 40
1.0
176
     1
 90
        8
176
     1
 62
     7
176
     1
 40
1.0
176
     1
 90
        1
176
     1
 90
        6
176
     1
 90
        2
176
     1
 62
     7
176
     1
 90
        5
176
     1
 90
        0
176
     1
 90
        0
176
     1
290
     0
176
     1
 90
        1
176
     1
 40
50.0
176
     1
 90
        0
176
     1
290
     0
176
     1
290
     1
176
     1
290
     1
176
     1
290
     0
176
     1
290
     0
176
     1
290
     0
176
     1
290
     0
176
     1
290
     0
176
     1
290
     0
176
     1
 90
       50
176
     1
 40
0.0
176
     1
 40
1.0
176
     1
 90
        0
176
     1
 62
    18
420
        0
176
     1
 90
       50
176
     1
 90
        3
176
     1
 62
     5
420
      255
176
     1
290
     0
176
     1
 90
       50
176
     1
 90
       50
176
     1
 90
       50
176
     1
290
     0
176
     1
 90
       50
176
     1
 62
   256
176
     0
 40
1.0
176
     0
 90
        2
176
     1
  1
strokes_ogs.tif
176
     1
290
     0
176
     1
 40
1.0
176
     1
 40
1.0
176
     1
  0
VISUALSTYLE
  5
3A
102
{ACAD_REACTORS
330
2A
102
}
330
2A
100
AcDbVisualStyle
  2
ColorChange
 70
    16
177
     3
291
     1
 70
    58
 90
        2
176
     1
 90
        2
176
     1
 90
        3
176
     1
 90
        0
176
     1
 40
0.6
176
     1
 40
30.0
176
     1
 62
     8
420
  8421504
176
     1
 90
        1
176
     1
 90
        4
176
     1
 62
     7
176
     1
 62
   257
176
     1
 90
        1
176
     1
 90
        1
176
     1
 40
1.0
176
     1
 90
        8
176
     1
 62
     8
420
  8421504
176
     1
 40
1.0
176
     1
 90
        1
176
     1
 90
        6
176
     1
 90
        2
176
     1
 62
     7
176
     1
 90
        5
176
     1
 90
        0
176
     1
 90
        0
176
     1
290
     0
176
     1
 90
        1
176
     1
 40
0.0
176
     1
 90
        0
176
     1
290
     0
176
     1
290
     1
176
     1
290
     1
176
     1
290
     0
176
     1
290
     0
176
     1
290
     0
176
     1
290
     0
176
     1
290
     0
176
     1
290
     0
176
     1
 90
       50
176
     1
 40
0.0
176
     1
 40
1.0
176
     1
 90
        0
176
     1
 62
    18
420
        0
176
     1
 90
       50
176
     1
 90
        3
176
     1
 62
     5
420
      255
176
     1
290
     0
176
     1
 90
       50
176
     1
 90
       50
176
     1
 90
       50
176
     1
290
     0
176
     1
 90
       50
176
     1
 62
   256
176
     0
 40
1.0
176
     0
 90
        2
176
     1
  1
strokes_ogs.tif
176
     1
290
     0
176
     1
 40
1.0
176
     1
 40
1.0
176
     1
  0
VISUALSTYLE
  5
34
102
{ACAD_REACTORS
330
2A
102
}
330
2A
100
AcDbVisualStyle
  2
Conceptual
 70
     9
177
     3
291
     0
 70
    58
 90
        3
176
     1
 90
        2
176
     1
 90
        0
176
     1
 90
        0
176
     1
 40
0.6
176
     1
 40
30.0
176
     1
 62
     7
420
 16777215
176
     1
 90
        2
176
     1
 90
        2
176
     1
 62
     7
176
     1
 62
   257
176
     1
 90
        1
176
     1
 90
        1
176
     1
 40
179.0
176
     1
 90
        8
176
     1
 62
     7
176
     1
 40
1.0
176
     1
 90
        1
176
     1
 90
        6
176
     1
 90
        2
176
     1
 62
     7
176
     1
 90
        3
176
     1
 90
        0
176
     1
 90
        0
176
     1
290
     0
176
     1
 90
        1
176
     1
 40
0.0
176
     1
 90
        0
176
     1
290
     0
176
     1
290
     1
176
     1
290
     1
176
     1
290
     0
176
     1
290
     0
176
     1
290
     0
176
     1
290
     0
176
     1
290
     0
176
     1
290
     0
176
     1
 90
       50
176
     1
 40
0.0
176
     1
 40
1.0
176
     1
 90
        0
176
     1
 62
    18
420
        0
176
     1
 90
       50
176
     1
 90
        3
176
     1
 62
     5
420
      255
176
     1
290
     0
176
     1
 90
       50
176
     1
 90
       50
176
     1
 90
       50
176
     1
290
     0
176
     1
 90
       50
176
     1
 62
   256
176
     0
 40
1.0
176
     0
 90
        2
176
     1
  1
strokes_ogs.tif
176
     1
290
     0
176
     1
 40
1.0
176
     1
 40
1.0
176
     1
  0
VISUALSTYLE
  5
35
102
{ACAD_REACTORS
330
2A
102
}
330
2A
100
AcDbVisualStyle
  2
Dim
 70
    11
177
     3
291
     1
 70
    58
 90
        2
176
     1
 90
        2
176
     1
 90
        0
176
     1
 90
        0
176
     1
 40
0.6
176
     1
 40
30.0
176
     1
 62
     7
420
 16777215
176
     1
 90
        1
176
     1
 90
        4
176
     1
 62
     7
176
     1
 62
   257
176
     1
 90
        1
176
     1
 90
        1
176
     1
 40
1.0
176
     1
 90
        8
176
     1
 62
     7
176
     1
 40
1.0
176
     1
 90
        1
176
     1
 90
        6
176
     1
 90
        2
176
     1
 62
     7
176
     1
 90
        5
176
     1
 90
        0
176
     1
 90
        0
176
     1
290
     0
176
     1
 90
        1
176
     1
 40
-50.0
176
     1
 90
        0
176
     1
290
     0
176
     1
290
     1
176
     1
290
     1
176
     1
290
     0
176
     1
290
     0
176
     1
290
     0
176
     1
290
     0
176
     1
290
     0
176
     1
290
     0
176
     1
 90
       50
176
     1
 40
0.0
176
     1
 40
1.0
176
     1
 90
        0
176
     1
 62
    18
420
        0
176
     1
 90
       50
176
     1
 90
        3
176
     1
 62
     5
420
      255
176
     1
290
     0
176
     1
 90
       50
176
     1
 90
       50
176
     1
 90
       50
176
     1
290
     0
176
     1
 90
       50
176
     1
 62
   256
176
     0
 40
1.0
176
     0
 90
        2
176
     1
  1
strokes_ogs.tif
176
     1
290
     0
176
     1
 40
1.0
176
     1
 40
1.0
176
     1
  0
VISUALSTYLE
  5
3D
102
{ACAD_REACTORS
330
2A
102
}
330
2A
100
AcDbVisualStyle
  2
EdgeColorOff
 70
    22
177
     3
291
     1
 70
    58
 90
        2
176
     0
 90
        2
176
     0
 90
        0
176
     0
 90
        0
176
     0
 40
0.6
176
     0
 40
30.0
176
     0
 62
     7
420
 16777215
176
     0
 90
        1
176
     0
 90
        4
176
     0
 62
     7
176
     0
 62
   257
176
     0
 90
        1
176
     0
 90
        1
176
     0
 40
1.0
176
     0
 90
        8
176
     2
 62
     7
176
     0
 40
1.0
176
     0
 90
        1
176
     0
 90
        6
176
     0
 90
        2
176
     0
 62
     7
176
     0
 90
        5
176
     0
 90
        0
176
     0
 90
        0
176
     0
290
     0
176
     0
 90
        1
176
     0
 40
0.0
176
     0
 90
        0
176
     0
290
     0
176
     0
290
     1
176
     0
290
     1
176
     0
290
     0
176
     0
290
     0
176
     0
290
     0
176
     0
290
     0
176
     0
290
     0
176
     0
290
     0
176
     0
 90
       50
176
     0
 40
0.0
176
     0
 40
1.0
176
     0
 90
        0
176
     0
 62
    18
420
        0
176
     0
 90
       50
176
     0
 90
        3
176
     0
 62
     5
420
      255
176
     0
290
     0
176
     0
 90
       50
176
     0
 90
       50
176
     0
 90
       50
176
     0
290
     0
176
     0
 90
       50
176
     0
 62
   256
176
     0
 40
1.0
176
     0
 90
        2
176
     0
  1
strokes_ogs.tif
176
     0
290
     0
176
     0
 40
1.0
176
     0
 40
1.0
176
     0
  0
VISUALSTYLE
  5
39
102
{ACAD_REACTORS
330
2A
102
}
330
2A
100
AcDbVisualStyle
  2
Facepattern
 70
    15
177
     3
291
     1
 70
    58
 90
        2
176
     1
 90
        2
176
     1
 90
        0
176
     1
 90
        0
176
     1
 40
0.6
176
     1
 40
30.0
176
     1
 62
     7
420
 16777215
176
     1
 90
        1
176
     1
 90
        4
176
     1
 62
     7
176
     1
 62
   257
176
     1
 90
        1
176
     1
 90
        1
176
     1
 40
1.0
176
     1
 90
        8
176
     1
 62
     7
176
     1
 40
1.0
176
     1
 90
        1
176
     1
 90
        6
176
     1
 90
        2
176
     1
 62
     7
176
     1
 90
        5
176
     1
 90
        0
176
     1
 90
        0
176
     1
290
     0
176
     1
 90
        1
176
     1
 40
0.0
176
     1
 90
        0
176
     1
290
     0
176
     1
290
     1
176
     1
290
     1
176
     1
290
     0
176
     1
290
     0
176
     1
290
     0
176
     1
290
     0
176
     1
290
     0
176
     1
290
     0
176
     1
 90
       50
176
     1
 40
0.0
176
     1
 40
1.0
176
     1
 90
        0
176
     1
 62
    18
420
        0
176
     1
 90
       50
176
     1
 90
        3
176
     1
 62
     5
420
      255
176
     1
290
     0
176
     1
 90
       50
176
     1
 90
       50
176
     1
 90
       50
176
     1
290
     0
176
     1
 90
       50
176
     1
 62
   256
176
     0
 40
1.0
176
     0
 90
        2
176
     1
  1
strokes_ogs.tif
176
     1
290
     0
176
     1
 40
1.0
176
     1
 40
1.0
176
     1
  0
VISUALSTYLE
  5
2B
102
{ACAD_REACTORS
330
2A
102
}
330
2A
100
AcDbVisualStyle
  2
Flat
 70
     0
177
     3
291
     1
 70
    58
 90
        2
176
     1
 90
        1
176
     1
 90
        1
176
     1
 90
        2
176
     1
 40
0.6
176
     1
 40
30.0
176
     1
 62
     7
420
 16777215
176
     1
 90
        0
176
     1
 90
        0
176
     1
 62
     7
176
     1
 62
   257
176
     1
 90
        1
176
     1
 90
        1
176
     1
 40
1.0
176
     1
 90
        8
176
     1
 62
     7
176
     1
 40
1.0
176
     1
 90
        1
176
     1
 90
        6
176
     1
 90
        2
176
     1
 62
     7
176
     1
 90
        5
176
     1
 90
        0
176
     1
 90
        0
176
     1
290
     0
176
     1
 90
       13
176
     1
 40
0.0
176
     1
 90
        0
176
     1
290
     0
176
     1
290
     1
176
     1
290
     1
176
     1
290
     0
176
     1
290
     0
176
     1
290
     0
176
     1
290
     0
176
     1
290
     0
176
     1
290
     0
176
     1
 90
       50
176
     1
 40
0.0
176
     1
 40
1.0
176
     1
 90
        0
176
     1
 62
    18
420
        0
176
     1
 90
       50
176
     1
 90
        3
176
     1
 62
     5
420
      255
176
     1
290
     0
176
     1
 90
       50
176
     1
 90
       50
176
     1
 90
       50
176
     1
290
     0
176
     1
 90
       50
176
     1
 62
   256
176
     0
 40
1.0
176
     0
 90
        2
176
     1
  1
strokes_ogs.tif
176
     1
290
     0
176
     1
 40
1.0
176
     1
 40
1.0
176
     1
  0
VISUALSTYLE
  5
2C
102
{ACAD_REACTORS
330
2A
102
}
330
2A
100
AcDbVisualStyle
  2
FlatWithEdges
 70
     1
177
     3
291
     1
 70
    58
 90
        2
176
     1
 90
        1
176
     1
 90
        1
176
     1
 90
        2
176
     1
 40
0.6
176
     1
 40
30.0
176
     1
 62
     7
420
 16777215
176
     1
 90
        1
176
     1
 90
        0
176
     1
 62
     7
176
     1
 62
   257
176
     1
 90
        1
176
     1
 90
        1
176
     1
 40
1.0
176
     1
 90
        0
176
     1
 62
   257
176
     1
 40
1.0
176
     1
 90
        1
176
     1
 90
        6
176
     1
 90
        2
176
     1
 62
     7
176
     1
 90
        5
176
     1
 90
        0
176
     1
 90
        0
176
     1
290
     0
176
     1
 90
       13
176
     1
 40
0.0
176
     1
 90
        0
176
     1
290
     0
176
     1
290
     1
176
     1
290
     1
176
     1
290
     0
176
     1
290
     0
176
     1
290
     0
176
     1
290
     0
176
     1
290
     0
176
     1
290
     0
176
     1
 90
       50
176
     1
 40
0.0
176
     1
 40
1.0
176
     1
 90
        0
176
     1
 62
    18
420
        0
176
     1
 90
       50
176
     1
 90
        3
176
     1
 62
     5
420
      255
176
     1
290
     0
176
     1
 90
       50
176
     1
 90
       50
176
     1
 90
       50
176
     1
290
     0
176
     1
 90
       50
176
     1
 62
   256
176
     0
 40
1.0
176
     0
 90
        2
176
     1
  1
strokes_ogs.tif
176
     1
290
     0
176
     1
 40
1.0
176
     1
 40
1.0
176
     1
  0
VISUALSTYLE
  5
2D
102
{ACAD_REACTORS
330
2A
102
}
330
2A
100
AcDbVisualStyle
  2
Gouraud
 70
     2
177
     3
291
     1
 70
    58
 90
        2
176
     1
 90
        2
176
     1
 90
        1
176
     1
 90
        2
176
     1
 40
0.6
176
     1
 40
30.0
176
     1
 62
     7
420
 16777215
176
     1
 90
        0
176
     1
 90
        0
176
     1
 62
     7
176
     1
 62
   257
176
     1
 90
        1
176
     1
 90
        1
176
     1
 40
1.0
176
     1
 90
        0
176
     1
 62
     7
176
     1
 40
1.0
176
     1
 90
        1
176
     1
 90
        6
176
     1
 90
        2
176
     1
 62
     7
176
     1
 90
        5
176
     1
 90
        0
176
     1
 90
        0
176
     1
290
     0
176
     1
 90
       13
176
     1
 40
0.0
176
     1
 90
        0
176
     1
290
     0
176
     1
290
     1
176
     1
290
     1
176
     1
290
     0
176
     1
290
     0
176
     1
290
     0
176
     1
290
     0
176
     1
290
     0
176
     1
290
     0
176
     1
 90
       50
176
     1
 40
0.0
176
     1
 40
1.0
176
     1
 90
        0
176
     1
 62
    18
420
        0
176
     1
 90
       50
176
     1
 90
        3
176
     1
 62
     5
420
      255
176
     1
290
     0
176
     1
 90
       50
176
     1
 90
       50
176
     1
 90
       50
176
     1
290
     0
176
     1
 90
       50
176
     1
 62
   256
176
     0
 40
1.0
176
     0
 90
        2
176
     1
  1
strokes_ogs.tif
176
     1
290
     0
176
     1
 40
1.0
176
     1
 40
1.0
176
     1
  0
VISUALSTYLE
  5
2E
102
{ACAD_REACTORS
330
2A
102
}
330
2A
100
AcDbVisualStyle
  2
GouraudWithEdges
 70
     3
177
     3
291
     1
 70
    58
 90
        2
176
     1
 90
        2
176
     1
 90
        1
176
     1
 90
        2
176
     1
 40
0.6
176
     1
 40
30.0
176
     1
 62
     7
420
 16777215
176
     1
 90
        1
176
     1
 90
        0
176
     1
 62
     7
176
     1
 62
   257
176
     1
 90
        1
176
     1
 90
        1
176
     1
 40
1.0
176
     1
 90
        0
176
     1
 62
   257
176
     1
 40
1.0
176
     1
 90
        1
176
     1
 90
        6
176
     1
 90
        2
176
     1
 62
     7
176
     1
 90
        5
176
     1
 90
        0
176
     1
 90
        0
176
     1
290
     0
176
     1
 90
       13
176
     1
 40
0.0
176
     1
 90
        0
176
     1
290
     0
176
     1
290
     1
176
     1
290
     1
176
     1
290
     0
176
     1
290
     0
176
     1
290
     0
176
     1
290
     0
176
     1
290
     0
176
     1
290
     0
176
     1
 90
       50
176
     1
 40
0.0
176
     1
 40
1.0
176
     1
 90
        0
176
     1
 62
    18
420
        0
176
     1
 90
       50
176
     1
 90
        3
176
     1
 62
     5
420
      255
176
     1
290
     0
176
     1
 90
       50
176
     1
 90
       50
176
     1
 90
       50
176
     1
290
     0
176
     1
 90
       50
176
     1
 62
   256
176
     0
 40
1.0
176
     0
 90
        2
176
     1
  1
strokes_ogs.tif
176
     1
290
     0
176
     1
 40
1.0
176
     1
 40
1.0
176
     1
  0
VISUALSTYLE
  5
31
102
{ACAD_REACTORS
330
2A
102
}
330
2A
100
AcDbVisualStyle
  2
Hidden
 70
     6
177
     3
291
     0
 70
    58
 90
        1
176
     1
 90
        2
176
     1
 90
        2
176
     1
 90
        0
176
     1
 40
0.6
176
     1
 40
30.0
176
     1
 62
     7
420
 16777215
176
     1
 90
        2
176
     1
 90
        2
176
     1
 62
     7
176
     1
 62
   257
176
     1
 90
        2
176
     1
 90
        1
176
     1
 40
40.0
176
     1
 90
        0
176
     1
 62
   257
176
     1
 40
1.0
176
     1
 90
        1
176
     1
 90
        6
176
     1
 90
        2
176
     1
 62
     7
176
     1
 90
        3
176
     1
 90
        0
176
     1
 90
        0
176
     1
290
     0
176
     1
 90
        1
176
     1
 40
0.0
176
     1
 90
        0
176
     1
290
     0
176
     1
290
     1
176
     1
290
     1
176
     1
290
     0
176
     1
290
     0
176
     1
290
     0
176
     1
290
     0
176
     1
290
     0
176
     1
290
     0
176
     1
 90
       50
176
     1
 40
0.0
176
     1
 40
1.0
176
     1
 90
        0
176
     1
 62
    18
420
        0
176
     1
 90
       50
176
     1
 90
        3
176
     1
 62
     5
420
      255
176
     1
290
     0
176
     1
 90
       50
176
     1
 90
       50
176
     1
 90
       50
176
     1
290
     0
176
     1
 90
       50
176
     1
 62
   256
176
     0
 40
1.0
176
     0
 90
        2
176
     1
  1
strokes_ogs.tif
176
     1
290
     0
176
     1
 40
1.0
176
     1
 40
1.0
176
     1
  0
VISUALSTYLE
  5
3B
102
{ACAD_REACTORS
330
2A
102
}
330
2A
100
AcDbVisualStyle
  2
JitterOff
 70
    20
177
     3
291
     1
 70
    58
 90
        2
176
     0
 90
        2
176
     0
 90
        0
176
     0
 90
        0
176
     0
 40
0.6
176
     0
 40
30.0
176
     0
 62
     7
420
 16777215
176
     0
 90
        1
176
     0
 90
        4
176
     0
 62
     7
176
     0
 62
   257
176
     0
 90
        1
176
     0
 90
        1
176
     0
 40
1.0
176
     0
 90
       10
176
     2
 62
     7
176
     0
 40
1.0
176
     0
 90
        1
176
     0
 90
        6
176
     0
 90
        2
176
     0
 62
     7
176
     0
 90
        5
176
     0
 90
        0
176
     0
 90
        0
176
     0
290
     0
176
     0
 90
        1
176
     0
 40
0.0
176
     0
 90
        0
176
     0
290
     0
176
     0
290
     1
176
     0
290
     1
176
     0
290
     0
176
     0
290
     0
176
     0
290
     0
176
     0
290
     0
176
     0
290
     0
176
     0
290
     0
176
     0
 90
       50
176
     0
 40
0.0
176
     0
 40
1.0
176
     0
 90
        0
176
     0
 62
    18
420
        0
176
     0
 90
       50
176
     0
 90
        3
176
     0
 62
     5
420
      255
176
     0
290
     0
176
     0
 90
       50
176
     0
 90
       50
176
     0
 90
       50
176
     0
290
     0
176
     0
 90
       50
176
     0
 62
   256
176
     0
 40
1.0
176
     0
 90
        2
176
     0
  1
strokes_ogs.tif
176
     0
290
     0
176
     0
 40
1.0
176
     0
 40
1.0
176
     0
  0
VISUALSTYLE
  5
38
102
{ACAD_REACTORS
330
2A
102
}
330
2A
100
AcDbVisualStyle
  2
Linepattern
 70
    14
177
     3
291
     1
 70
    58
 90
        2
176
     1
 90
        2
176
     1
 90
        0
176
     1
 90
        0
176
     1
 40
0.6
176
     1
 40
30.0
176
     1
 62
     7
420
 16777215
176
     1
 90
        1
176
     1
 90
        4
176
     1
 62
     7
176
     1
 62
   257
176
     1
 90
        7
176
     1
 90
        7
176
     1
 40
1.0
176
     1
 90
        8
176
     1
 62
     7
176
     1
 40
1.0
176
     1
 90
        1
176
     1
 90
        6
176
     1
 90
        2
176
     1
 62
     7
176
     1
 90
        5
176
     1
 90
        0
176
     1
 90
        0
176
     1
290
     0
176
     1
 90
        1
176
     1
 40
0.0
176
     1
 90
        0
176
     1
290
     0
176
     1
290
     1
176
     1
290
     1
176
     1
290
     0
176
     1
290
     0
176
     1
290
     0
176
     1
290
     0
176
     1
290
     0
176
     1
290
     0
176
     1
 90
       50
176
     1
 40
0.0
176
     1
 40
1.0
176
     1
 90
        0
176
     1
 62
    18
420
        0
176
     1
 90
       50
176
     1
 90
        3
176
     1
 62
     5
420
      255
176
     1
290
     0
176
     1
 90
       50
176
     1
 90
       50
176
     1
 90
       50
176
     1
290
     0
176
     1
 90
       50
176
     1
 62
   256
176
     0
 40
1.0
176
     0
 90
        2
176
     1
  1
strokes_ogs.tif
176
     1
290
     0
176
     1
 40
1.0
176
     1
 40
1.0
176
     1
  0
VISUALSTYLE
  5
3C
102
{ACAD_REACTORS
330
2A
102
}
330
2A
100
AcDbVisualStyle
  2
OverhangOff
 70
    21
177
     3
291
     1
 70
    58
 90
        2
176
     0
 90
        2
176
     0
 90
        0
176
     0
 90
        0
176
     0
 40
0.6
176
     0
 40
30.0
176
     0
 62
     7
420
 16777215
176
     0
 90
        1
176
     0
 90
        4
176
     0
 62
     7
176
     0
 62
   257
176
     0
 90
        1
176
     0
 90
        1
176
     0
 40
1.0
176
     0
 90
        9
176
     2
 62
     7
176
     0
 40
1.0
176
     0
 90
        1
176
     0
 90
        6
176
     0
 90
        2
176
     0
 62
     7
176
     0
 90
        5
176
     0
 90
        0
176
     0
 90
        0
176
     0
290
     0
176
     0
 90
        1
176
     0
 40
0.0
176
     0
 90
        0
176
     0
290
     0
176
     0
290
     1
176
     0
290
     1
176
     0
290
     0
176
     0
290
     0
176
     0
290
     0
176
     0
290
     0
176
     0
290
     0
176
     0
290
     0
176
     0
 90
       50
176
     0
 40
0.0
176
     0
 40
1.0
176
     0
 90
        0
176
     0
 62
    18
420
        0
176
     0
 90
       50
176
     0
 90
        3
176
     0
 62
     5
420
      255
176
     0
290
     0
176
     0
 90
       50
176
     0
 90
       50
176
     0
 90
       50
176
     0
290
     0
176
     0
 90
       50
176
     0
 62
   256
176
     0
 40
1.0
176
     0
 90
        2
176
     0
  1
strokes_ogs.tif
176
     0
290
     0
176
     0
 40
1.0
176
     0
 40
1.0
176
     0
  0
VISUALSTYLE
  5
33
102
{ACAD_REACTORS
330
2A
102
}
330
2A
100
AcDbVisualStyle
  2
Realistic
 70
     8
177
     3
291
     0
 70
    58
 90
        2
176
     1
 90
        3
176
     1
 90
        0
176
     1
 90
        2
176
     1
 40
0.6
176
     1
 40
30.0
176
     1
 62
     7
420
 16777215
176
     1
 90
        0
176
     1
 90
        0
176
     1
 62
     7
176
     1
 62
   257
176
     1
 90
        1
176
     1
 90
        1
176
     1
 40
1.0
176
     1
 90
        8
176
     1
 62
   257
176
     1
 40
1.0
176
     1
 90
        1
176
     1
 90
        6
176
     1
 90
        2
176
     1
 62
     7
176
     1
 90
        3
176
     1
 90
        0
176
     1
 90
        0
176
     1
290
     0
176
     1
 90
       13
176
     1
 40
0.0
176
     1
 90
        0
176
     1
290
     0
176
     1
290
     1
176
     1
290
     1
176
     1
290
     0
176
     1
290
     0
176
     1
290
     0
176
     1
290
     0
176
     1
290
     0
176
     1
290
     0
176
     1
 90
       50
176
     1
 40
0.0
176
     1
 40
1.0
176
     1
 90
        0
176
     1
 62
    18
420
        0
176
     1
 90
       50
176
     1
 90
        3
176
     1
 62
     5
420
      255
176
     1
290
     0
176
     1
 90
       50
176
     1
 90
       50
176
     1
 90
       50
176
     1
290
     0
176
     1
 90
       50
176
     1
 62
   256
176
     0
 40
1.0
176
     0
 90
        2
176
     1
  1
strokes_ogs.tif
176
     1
290
     0
176
     1
 40
1.0
176
     1
 40
1.0
176
     1
  0
VISUALSTYLE
  5
42
102
{ACAD_REACTORS
330
2A
102
}
330
2A
100
AcDbVisualStyle
  2
Shaded
 70
    27
177
     3
291
     0
 70
    58
 90
        2
176
     1
 90
        2
176
     1
 90
        1
176
     1
 90
        2
176
     1
 40
0.6
176
     1
 40
30.0
176
     1
 62
     7
420
 16777215
176
     1
 90
        0
176
     1
 90
        4
176
     1
 62
     7
176
     1
 62
   257
176
     1
 90
        1
176
     1
 90
        1
176
     1
 40
1.0
176
     1
 90
        8
176
     1
 62
   257
176
     1
 40
1.0
176
     1
 90
        1
176
     1
 90
        6
176
     1
 90
        2
176
     1
 62
     8
420
  7895160
176
     1
 90
        3
176
     1
 90
        0
176
     1
 90
        0
176
     1
290
     0
176
     1
 90
        5
176
     1
 40
0.0
176
     1
 90
        0
176
     1
290
     0
176
     1
290
     1
176
     1
290
     1
176
     1
290
     0
176
     1
290
     0
176
     1
290
     0
176
     1
290
     0
176
     1
290
     0
176
     1
290
     0
176
     1
 90
       50
176
     1
 40
0.0
176
     1
 40
1.0
176
     1
 90
        0
176
     1
 62
    18
420
        0
176
     1
 90
       50
176
     1
 90
        3
176
     1
 62
     5
420
      255
176
     1
290
     0
176
     1
 90
       50
176
     1
 90
       50
176
     1
 90
       50
176
     1
290
     0
176
     1
 90
       50
176
     1
 62
   256
176
     0
 40
1.0
176
     0
 90
        2
176
     1
  1
strokes_ogs.tif
176
     1
290
     0
176
     1
 40
1.0
176
     1
 40
1.0
176
     1
  0
VISUALSTYLE
  5
41
102
{ACAD_REACTORS
330
2A
102
}
330
2A
100
AcDbVisualStyle
  2
Shaded with edges
 70
    26
177
     3
291
     0
 70
    58
 90
        2
176
     1
 90
        2
176
     1
 90
        1
176
     1
 90
        2
176
     1
 40
0.6
176
     1
 40
30.0
176
     1
 62
     7
420
 16777215
176
     1
 90
        1
176
     1
 90
       10
176
     1
 62
     7
176
     1
 62
   257
176
     1
 90
        2
176
     1
 90
        1
176
     1
 40
1.0
176
     1
 90
        8
176
     1
 62
   257
176
     1
 40
1.0
176
     1
 90
        1
176
     1
 90
        6
176
     1
 90
        2
176
     1
 62
     7
176
     1
 90
        3
176
     1
 90
        0
176
     1
 90
        0
176
     1
290
     0
176
     1
 90
        5
176
     1
 40
0.0
176
     1
 90
        0
176
     1
290
     0
176
     1
290
     1
176
     1
290
     1
176
     1
290
     0
176
     1
290
     0
176
     1
290
     0
176
     1
290
     0
176
     1
290
     0
176
     1
290
     0
176
     1
 90
       50
176
     1
 40
0.0
176
     1
 40
1.0
176
     1
 90
        0
176
     1
 62
    18
420
        0
176
     1
 90
       50
176
     1
 90
        3
176
     1
 62
     5
420
      255
176
     1
290
     0
176
     1
 90
       50
176
     1
 90
       50
176
     1
 90
       50
176
     1
290
     0
176
     1
 90
       50
176
     1
 62
   256
176
     0
 40
1.0
176
     0
 90
        2
176
     1
  1
strokes_ogs.tif
176
     1
290
     0
176
     1
 40
1.0
176
     1
 40
1.0
176
     1
  0
VISUALSTYLE
  5
3E
102
{ACAD_REACTORS
330
2A
102
}
330
2A
100
AcDbVisualStyle
  2
Shades of Gray
 70
    23
177
     3
291
     0
 70
    58
 90
        2
176
     1
 90
        2
176
     1
 90
        3
176
     1
 90
        0
176
     1
 40
0.6
176
     1
 40
30.0
176
     1
 62
     7
420
 16777215
176
     1
 90
        2
176
     1
 90
        2
176
     1
 62
     7
176
     1
 62
     7
176
     1
 90
        1
176
     1
 90
        1
176
     1
 40
40.0
176
     1
 90
        8
176
     1
 62
     7
176
     1
 40
1.0
176
     1
 90
        1
176
     1
 90
        6
176
     1
 90
        2
176
     1
 62
     7
176
     1
 90
        3
176
     1
 90
        0
176
     1
 90
        0
176
     1
290
     0
176
     1
 90
        1
176
     1
 40
0.0
176
     1
 90
        0
176
     1
290
     0
176
     1
290
     1
176
     1
290
     1
176
     1
290
     0
176
     1
290
     0
176
     1
290
     0
176
     1
290
     0
176
     1
290
     0
176
     1
290
     0
176
     1
 90
       50
176
     1
 40
0.0
176
     1
 40
1.0
176
     1
 90
        0
176
     1
 62
    18
420
        0
176
     1
 90
       50
176
     1
 90
        3
176
     1
 62
     5
420
      255
176
     1
290
     0
176
     1
 90
       50
176
     1
 90
       50
176
     1
 90
       50
176
     1
290
     0
176
     1
 90
       50
176
     1
 62
   256
176
     0
 40
1.0
176
     0
 90
        2
176
     1
  1
strokes_ogs.tif
176
     1
290
     0
176
     1
 40
1.0
176
     1
 40
1.0
176
     1
  0
VISUALSTYLE
  5
3F
102
{ACAD_REACTORS
330
2A
102
}
330
2A
100
AcDbVisualStyle
  2
Sketchy
 70
    24
177
     3
291
     0
 70
    58
 90
        1
176
     1
 90
        2
176
     1
 90
        2
176
     1
 90
        0
176
     1
 40
0.6
176
     1
 40
30.0
176
     1
 62
     7
420
 16777215
176
     1
 90
        2
176
     1
 90
        2
176
     1
 62
     7
176
     1
 62
     7
176
     1
 90
        1
176
     1
 90
        1
176
     1
 40
40.0
176
     1
 90
       11
176
     1
 62
     7
176
     1
 40
1.0
176
     1
 90
        1
176
     1
 90
        6
176
     1
 90
        2
176
     1
 62
     7
176
     1
 90
        6
176
     1
 90
        0
176
     1
 90
        0
176
     1
290
     0
176
     1
 90
        1
176
     1
 40
0.0
176
     1
 90
        0
176
     1
290
     0
176
     1
290
     1
176
     1
290
     1
176
     1
290
     0
176
     1
290
     0
176
     1
290
     0
176
     1
290
     0
176
     1
290
     0
176
     1
290
     0
176
     1
 90
       50
176
     1
 40
0.0
176
     1
 40
1.0
176
     1
 90
        0
176
     1
 62
    18
420
        0
176
     1
 90
       50
176
     1
 90
        3
176
     1
 62
     5
420
      255
176
     1
290
     0
176
     1
 90
       50
176
     1
 90
       50
176
     1
 90
       50
176
     1
290
     0
176
     1
 90
       50
176
     1
 62
   256
176
     0
 40
1.0
176
     0
 90
        2
176
     1
  1
strokes_ogs.tif
176
     1
290
     0
176
     1
 40
1.0
176
     1
 40
1.0
176
     1
  0
VISUALSTYLE
  5
37
102
{ACAD_REACTORS
330
2A
102
}
330
2A
100
AcDbVisualStyle
  2
Thicken
 70
    13
177
     3
291
     1
 70
    58
 90
        2
176
     1
 90
        2
176
     1
 90
        0
176
     1
 90
        0
176
     1
 40
0.6
176
     1
 40
30.0
176
     1
 62
     7
420
 16777215
176
     1
 90
        1
176
     1
 90
        4
176
     1
 62
     7
176
     1
 62
   257
176
     1
 90
        1
176
     1
 90
        1
176
     1
 40
1.0
176
     1
 90
       12
176
     1
 62
     7
176
     1
 40
1.0
176
     1
 90
        1
176
     1
 90
        6
176
     1
 90
        2
176
     1
 62
     7
176
     1
 90
        5
176
     1
 90
        0
176
     1
 90
        0
176
     1
290
     0
176
     1
 90
        1
176
     1
 40
0.0
176
     1
 90
        0
176
     1
290
     0
176
     1
290
     1
176
     1
290
     1
176
     1
290
     0
176
     1
290
     0
176
     1
290
     0
176
     1
290
     0
176
     1
290
     0
176
     1
290
     0
176
     1
 90
       50
176
     1
 40
0.0
176
     1
 40
1.0
176
     1
 90
        0
176
     1
 62
    18
420
        0
176
     1
 90
       50
176
     1
 90
        3
176
     1
 62
     5
420
      255
176
     1
290
     0
176
     1
 90
       50
176
     1
 90
       50
176
     1
 90
       50
176
     1
290
     0
176
     1
 90
       50
176
     1
 62
   256
176
     0
 40
1.0
176
     0
 90
        2
176
     1
  1
strokes_ogs.tif
176
     1
290
     0
176
     1
 40
1.0
176
     1
 40
1.0
176
     1
  0
VISUALSTYLE
  5
30
102
{ACAD_REACTORS
330
2A
102
}
330
2A
100
AcDbVisualStyle
  2
Wireframe
 70
     5
177
     3
291
     0
 70
    58
 90
        0
176
     1
 90
        2
176
     1
 90
        0
176
     1
 90
        0
176
     1
 40
0.6
176
     1
 40
30.0
176
     1
 62
     7
420
 16777215
176
     1
 90
        1
176
     1
 90
        4
176
     1
 62
     7
176
     1
 62
   257
176
     1
 90
        1
176
     1
 90
        1
176
     1
 40
1.0
176
     1
 90
        0
176
     1
 62
   257
176
     1
 40
1.0
176
     1
 90
        1
176
     1
 90
        6
176
     1
 90
        2
176
     1
 62
     7
176
     1
 90
        3
176
     1
 90
        0
176
     1
 90
        0
176
     1
290
     0
176
     1
 90
        1
176
     1
 40
0.0
176
     1
 90
        0
176
     1
290
     0
176
     1
290
     1
176
     1
290
     1
176
     1
290
     0
176
     1
290
     0
176
     1
290
     0
176
     1
290
     0
176
     1
290
     0
176
     1
290
     0
176
     1
 90
       50
176
     1
 40
0.0
176
     1
 40
1.0
176
     1
 90
        0
176
     1
 62
    18
420
        0
176
     1
 90
       50
176
     1
 90
        3
176
     1
 62
     5
420
      255
176
     1
290
     0
176
     1
 90
       50
176
     1
 90
       50
176
     1
 90
       50
176
     1
290
     0
176
     1
 90
       50
176
     1
 62
   256
176
     0
 40
1.0
176
     0
 90
        2
176
     1
  1
strokes_ogs.tif
176
     1
290
     0
176
     1
 40
1.0
176
     1
 40
1.0
176
     1
  0
VISUALSTYLE
  5
40
102
{ACAD_REACTORS
330
2A
102
}
330
2A
100
AcDbVisualStyle
  2
X-Ray
 70
    25
177
     3
291
     0
 70
    58
 90
        2
176
     1
 90
        2
176
     1
 90
        1
176
     1
 90
        1
176
     1
 40
0.5
176
     1
 40
30.0
176
     1
 62
     7
420
 16777215
176
     1
 90
        1
176
     1
 90
        0
176
     1
 62
     7
176
     1
 62
   257
176
     1
 90
        1
176
     1
 90
        1
176
     1
 40
1.0
176
     1
 90
        8
176
     1
 62
     7
176
     1
 40
1.0
176
     1
 90
        1
176
     1
 90
        6
176
     1
 90
        2
176
     1
 62
     7
176
     1
 90
        3
176
     1
 90
        0
176
     1
 90
        0
176
     1
290
     0
176
     1
 90
       13
176
     1
 40
0.0
176
     1
 90
        0
176
     1
290
     0
176
     1
290
     1
176
     1
290
     1
176
     1
290
     0
176
     1
290
     0
176
     1
290
     0
176
     1
290
     0
176
     1
290
     0
176
     1
290
     0
176
     1
 90
       50
176
     1
 40
0.0
176
     1
 40
1.0
176
     1
 90
        0
176
     1
 62
    18
420
        0
176
     1
 90
       50
176
     1
 90
        3
176
     1
 62
     5
420
      255
176
     1
290
     0
176
     1
 90
       50
176
     1
 90
       50
176
     1
 90
       50
176
     1
290
     0
176
     1
 90
       50
176
     1
 62
   256
176
     0
 40
1.0
176
     0
 90
        2
176
     1
  1
strokes_ogs.tif
176
     1
290
     0
176
     1
 40
1.0
176
     1
 40
1.0
176
     1
  0
DICTIONARYVAR
  5
1D6
102
{ACAD_REACTORS
330
1D5
102
}
330
1D5
100
DictionaryVariables
280
     0
  1
1:1
  0
DICTIONARYVAR
  5
1DB
102
{ACAD_REACTORS
330
1D5
102
}
330
1D5
100
DictionaryVariables
280
     0
  1
Standard
  0
DICTIONARYVAR
  5
1DA
102
{ACAD_REACTORS
330
1D5
102
}
330
1D5
100
DictionaryVariables
280
     0
  1
Standard
  0
DICTIONARY
  5
1D7
330
6A
100
AcDbDictionary
280
     1
281
     1
  3
ACAD_ROUNDTRIP_2008_TABLESTYLE_CELLSTYLEMAP
360
1D8
  0
CELLSTYLEMAP
  5
1D8
102
{ACAD_REACTORS
330
1D7
102
}
330
1D7
100
AcDbCellStyleMap
 90
        3
300
CELLSTYLE
  1
TABLEFORMAT_BEGIN
 90
        5
170
     1
 91
        0
 92
    32768
 62
   257
 93
        1
300
CONTENTFORMAT
  1
CONTENTFORMAT_BEGIN
 90
        0
 91
        0
 92
        4
 93
        0
300

 40
0.0
140
1.0
 94
        5
 62
     0
340
11
144
0.25
309
CONTENTFORMAT_END
171
     1
301
MARGIN
  1
CELLMARGIN_BEGIN
 40
0.06
 40
0.06
 40
0.06
 40
0.06
 40
0.06
 40
0.06
309
CELLMARGIN_END
 94
        6
 95
        1
302
GRIDFORMAT
  1
GRIDFORMAT_BEGIN
 90
        0
 91
        1
 62
     0
 92
       -2
340
14
 93
        0
 40
0.045
309
GRIDFORMAT_END
 95
        2
302
GRIDFORMAT
  1
GRIDFORMAT_BEGIN
 90
        0
 91
        1
 62
     0
 92
       -2
340
14
 93
        0
 40
0.045
309
GRIDFORMAT_END
 95
        4
302
GRIDFORMAT
  1
GRIDFORMAT_BEGIN
 90
        0
 91
        1
 62
     0
 92
       -2
340
14
 93
        0
 40
0.045
309
GRIDFORMAT_END
 95
        8
302
GRIDFORMAT
  1
GRIDFORMAT_BEGIN
 90
        0
 91
        1
 62
     0
 92
       -2
340
14
 93
        0
 40
0.045
309
GRIDFORMAT_END
 95
       16
302
GRIDFORMAT
  1
GRIDFORMAT_BEGIN
 90
        0
 91
        1
 62
     0
 92
       -2
340
14
 93
        0
 40
0.045
309
GRIDFORMAT_END
 95
       32
302
GRIDFORMAT
  1
GRIDFORMAT_BEGIN
 90
        0
 91
        1
 62
     0
 92
       -2
340
14
 93
        0
 40
0.045
309
GRIDFORMAT_END
309
TABLEFORMAT_END
  1
CELLSTYLE_BEGIN
 90
        1
 91
        1
300
_TITLE
309
CELLSTYLE_END
300
CELLSTYLE
  1
TABLEFORMAT_BEGIN
 90
        5
170
     1
 91
        0
 92
        0
 62
   257
 93
        1
300
CONTENTFORMAT
  1
CONTENTFORMAT_BEGIN
 90
        0
 91
        0
 92
        4
 93
        0
300

 40
0.0
140
1.0
 94
        5
 62
     0
340
11
144
0.18
309
CONTENTFORMAT_END
171
     1
301
MARGIN
  1
CELLMARGIN_BEGIN
 40
0.06
 40
0.06
 40
0.06
 40
0.06
 40
0.06
 40
0.06
309
CELLMARGIN_END
 94
        6
 95
        1
302
GRIDFORMAT
  1
GRIDFORMAT_BEGIN
 90
        0
 91
        1
 62
     0
 92
       -2
340
14
 93
        0
 40
0.045
309
GRIDFORMAT_END
 95
        2
302
GRIDFORMAT
  1
GRIDFORMAT_BEGIN
 90
        0
 91
        1
 62
     0
 92
       -2
340
14
 93
        0
 40
0.045
309
GRIDFORMAT_END
 95
        4
302
GRIDFORMAT
  1
GRIDFORMAT_BEGIN
 90
        0
 91
        1
 62
     0
 92
       -2
340
14
 93
        0
 40
0.045
309
GRIDFORMAT_END
 95
        8
302
GRIDFORMAT
  1
GRIDFORMAT_BEGIN
 90
        0
 91
        1
 62
     0
 92
       -2
340
14
 93
        0
 40
0.045
309
GRIDFORMAT_END
 95
       16
302
GRIDFORMAT
  1
GRIDFORMAT_BEGIN
 90
        0
 91
        1
 62
     0
 92
       -2
340
14
 93
        0
 40
0.045
309
GRIDFORMAT_END
 95
       32
302
GRIDFORMAT
  1
GRIDFORMAT_BEGIN
 90
        0
 91
        1
 62
     0
 92
       -2
340
14
 93
        0
 40
0.045
309
GRIDFORMAT_END
309
TABLEFORMAT_END
  1
CELLSTYLE_BEGIN
 90
        2
 91
        1
300
_HEADER
309
CELLSTYLE_END
300
CELLSTYLE
  1
TABLEFORMAT_BEGIN
 90
        5
170
     1
 91
        0
 92
        0
 62
   257
 93
        1
300
CONTENTFORMAT
  1
CONTENTFORMAT_BEGIN
 90
        0
 91
        0
 92
        4
 93
        0
300

 40
0.0
140
1.0
 94
        2
 62
     0
340
11
144
0.18
309
CONTENTFORMAT_END
171
     1
301
MARGIN
  1
CELLMARGIN_BEGIN
 40
0.06
 40
0.06
 40
0.06
 40
0.06
 40
0.06
 40
0.06
309
CELLMARGIN_END
 94
        6
 95
        1
302
GRIDFORMAT
  1
GRIDFORMAT_BEGIN
 90
        0
 91
        1
 62
     0
 92
       -2
340
14
 93
        0
 40
0.045
309
GRIDFORMAT_END
 95
        2
302
GRIDFORMAT
  1
GRIDFORMAT_BEGIN
 90
        0
 91
        1
 62
     0
 92
       -2
340
14
 93
        0
 40
0.045
309
GRIDFORMAT_END
 95
        4
302
GRIDFORMAT
  1
GRIDFORMAT_BEGIN
 90
        0
 91
        1
 62
     0
 92
       -2
340
14
 93
        0
 40
0.045
309
GRIDFORMAT_END
 95
        8
302
GRIDFORMAT
  1
GRIDFORMAT_BEGIN
 90
        0
 91
        1
 62
     0
 92
       -2
340
14
 93
        0
 40
0.045
309
GRIDFORMAT_END
 95
       16
302
GRIDFORMAT
  1
GRIDFORMAT_BEGIN
 90
        0
 91
        1
 62
     0
 92
       -2
340
14
 93
        0
 40
0.045
309
GRIDFORMAT_END
 95
       32
302
GRIDFORMAT
  1
GRIDFORMAT_BEGIN
 90
        0
 91
        1
 62
     0
 92
       -2
340
14
 93
        0
 40
0.045
309
GRIDFORMAT_END
309
TABLEFORMAT_END
  1
CELLSTYLE_BEGIN
 90
        3
 91
        2
300
_DATA
309
CELLSTYLE_END
  0
ENDSEC
  0
EOF