0
SECTION
  2
HEADER
  9
$ACADVER
  1
AC1027
  9
$ACADMAINTVER
 70
     8
  9
$DWGCODEPAGE
  3
ANSI_1252
  9
$REQUIREDVERSIONS
160
                 0
  9
$COMMENTS
  1
File was created by Cadenas
  9
$CUSTOMPROPERTYTAG
  1
NN
  9
$CUSTOMPROPERTY
  1
S-2000 Flange Bearing - Round Labyrinth Seal
  9
$CUSTOMPROPERTYTAG
  1
NT
  9
$CUSTOMPROPERTY
  1
S-2000 3 & 4 Bolt Round Flange Bearing -Inch
  9
$CUSTOMPROPERTYTAG
  1
NB
  9
$CUSTOMPROPERTY
  1
070528
  9
$CUSTOMPROPERTYTAG
  1
NBSYN
  9
$CUSTOMPROPERTY
  1
$PN.
  9
$CUSTOMPROPERTYTAG
  1
LINA
  9
$CUSTOMPROPERTY
  1
070528
  9
$CUSTOMPROPERTYTAG
  1
SS
  9
$CUSTOMPROPERTY
  1
1-3/4
  9
$CUSTOMPROPERTYTAG
  1
PN
  9
$CUSTOMPROPERTY
  1
070528
  9
$CUSTOMPROPERTYTAG
  1
DESCRIPTION
  9
$CUSTOMPROPERTY
  1
F4R-S2-112LE
  9
$CUSTOMPROPERTYTAG
  1
EF
  9
$CUSTOMPROPERTY
  1
Expansion Type
  9
$CUSTOMPROPERTYTAG
  1
ST
  9
$CUSTOMPROPERTY
  1
Labyrinth Seal
  9
$CUSTOMPROPERTYTAG
  1
A
  9
$CUSTOMPROPERTY
  1
2-43/64
  9
$CUSTOMPROPERTYTAG
  1
B
  9
$CUSTOMPROPERTY
  1
6-3/8
  9
$CUSTOMPROPERTYTAG
  1
C
  9
$CUSTOMPROPERTY
  1
2-31/32
  9
$CUSTOMPROPERTYTAG
  1
D
  9
$CUSTOMPROPERTY
  1
3-57/64
  9
$CUSTOMPROPERTYTAG
  1
DD
  9
$CUSTOMPROPERTY
  1
5-1/2
  9
$CUSTOMPROPERTYTAG
  1
E
  9
$CUSTOMPROPERTY
  1
1-57/64
  9
$CUSTOMPROPERTYTAG
  1
F
  9
$CUSTOMPROPERTY
  1
1/2
  9
$CUSTOMPROPERTYTAG
  1
H
  9
$CUSTOMPROPERTY
  1
1/2
  9
$CUSTOMPROPERTYTAG
  1
J
  9
$CUSTOMPROPERTY
  1
4-11/32
  9
$CUSTOMPROPERTYTAG
  1
L
  9
$CUSTOMPROPERTY
  1
3-3/16
  9
$CUSTOMPROPERTYTAG
  1
P
  9
$CUSTOMPROPERTY
  1
19/64
  9
$CUSTOMPROPERTYTAG
  1
X
  9
$CUSTOMPROPERTY
  1
1/4
  9
$CUSTOMPROPERTYTAG
  1
Y
  9
$CUSTOMPROPERTY
  1
0.020
  9
$CUSTOMPROPERTYTAG
  1
Z
  9
$CUSTOMPROPERTY
  1
2-5/64
  9
$CUSTOMPROPERTYTAG
  1
COMPANY
  9
$CUSTOMPROPERTY
  1
baldor
  9
$INSBASE
 10
0.0
 20
0.0
 30
0.0
  9
$EXTMIN
 10
1.000000000000000E+20
 20
1.000000000000000E+20
 30
1.000000000000000E+20
  9
$EXTMAX
 10
-1.000000000000000E+20
 20
-1.000000000000000E+20
 30
-1.000000000000000E+20
  9
$LIMMIN
 10
0.0
 20
0.0
  9
$LIMMAX
 10
12.0
 20
9.0
  9
$ORTHOMODE
 70
     0
  9
$REGENMODE
 70
     1
  9
$FILLMODE
 70
     1
  9
$QTEXTMODE
 70
     0
  9
$MIRRTEXT
 70
     1
  9
$LTSCALE
 40
1.0
  9
$ATTMODE
 70
     1
  9
$TEXTSIZE
 40
0.2
  9
$TRACEWID
 40
0.05
  9
$TEXTSTYLE
  7
Standard
  9
$CLAYER
  8
0
  9
$CELTYPE
  6
ByLayer
  9
$CECOLOR
 62
   256
  9
$CELTSCALE
 40
1.0
  9
$DISPSILH
 70
     0
  9
$DIMSCALE
 40
1.0
  9
$DIMASZ
 40
0.18
  9
$DIMEXO
 40
0.0625
  9
$DIMDLI
 40
0.38
  9
$DIMRND
 40
0.0
  9
$DIMDLE
 40
0.0
  9
$DIMEXE
 40
0.18
  9
$DIMTP
 40
0.0
  9
$DIMTM
 40
0.0
  9
$DIMTXT
 40
0.18
  9
$DIMCEN
 40
0.09
  9
$DIMTSZ
 40
0.0
  9
$DIMTOL
 70
     0
  9
$DIMLIM
 70
     0
  9
$DIMTIH
 70
     1
  9
$DIMTOH
 70
     1
  9
$DIMSE1
 70
     0
  9
$DIMSE2
 70
     0
  9
$DIMTAD
 70
     0
  9
$DIMZIN
 70
     0
  9
$DIMBLK
  1

  9
$DIMASO
 70
     1
  9
$DIMSHO
 70
     1
  9
$DIMPOST
  1

  9
$DIMAPOST
  1

  9
$DIMALT
 70
     0
  9
$DIMALTD
 70
     2
  9
$DIMALTF
 40
25.4
  9
$DIMLFAC
 40
1.0
  9
$DIMTOFL
 70
     0
  9
$DIMTVP
 40
0.0
  9
$DIMTIX
 70
     0
  9
$DIMSOXD
 70
     0
  9
$DIMSAH
 70
     0
  9
$DIMBLK1
  1

  9
$DIMBLK2
  1

  9
$DIMSTYLE
  2
Standard
  9
$DIMCLRD
 70
     0
  9
$DIMCLRE
 70
     0
  9
$DIMCLRT
 70
     0
  9
$DIMTFAC
 40
1.0
  9
$DIMGAP
 40
0.09
  9
$DIMJUST
 70
     0
  9
$DIMSD1
 70
     0
  9
$DIMSD2
 70
     0
  9
$DIMTOLJ
 70
     1
  9
$DIMTZIN
 70
     0
  9
$DIMALTZ
 70
     0
  9
$DIMALTTZ
 70
     0
  9
$DIMUPT
 70
     0
  9
$DIMDEC
 70
     4
  9
$DIMTDEC
 70
     4
  9
$DIMALTU
 70
     2
  9
$DIMALTTD
 70
     2
  9
$DIMTXSTY
  7
Standard
  9
$DIMAUNIT
 70
     0
  9
$DIMADEC
 70
     0
  9
$DIMALTRND
 40
0.0
  9
$DIMAZIN
 70
     0
  9
$DIMDSEP
 70
    46
  9
$DIMATFIT
 70
     3
  9
$DIMFRAC
 70
     0
  9
$DIMLDRBLK
  1

  9
$DIMLUNIT
 70
     2
  9
$DIMLWD
 70
    -2
  9
$DIMLWE
 70
    -2
  9
$DIMTMOVE
 70
     0
  9
$DIMFXL
 40
1.0
  9
$DIMFXLON
 70
     0
  9
$DIMJOGANG
 40
0.7853981633974483
  9
$DIMTFILL
 70
     0
  9
$DIMTFILLCLR
 70
     0
  9
$DIMARCSYM
 70
     0
  9
$DIMLTYPE
  6

  9
$DIMLTEX1
  6

  9
$DIMLTEX2
  6

  9
$DIMTXTDIRECTION
 70
     0
  9
$LUNITS
 70
     2
  9
$LUPREC
 70
     4
  9
$SKETCHINC
 40
0.1
  9
$FILLETRAD
 40
0.5
  9
$AUNITS
 70
     0
  9
$AUPREC
 70
     0
  9
$MENU
  1
.
  9
$ELEVATION
 40
0.0
  9
$PELEVATION
 40
0.0
  9
$THICKNESS
 40
0.0
  9
$LIMCHECK
 70
     0
  9
$CHAMFERA
 40
0.0
  9
$CHAMFERB
 40
0.0
  9
$CHAMFERC
 40
0.0
  9
$CHAMFERD
 40
0.0
  9
$SKPOLY
 70
     0
  9
$TDCREATE
 40
2458168.985775347
  9
$TDUCREATE
 40
2458168.94410868
  9
$TDUPDATE
 40
2458168.985775532
  9
$TDUUPDATE
 40
2458168.944108866
  9
$TDINDWG
 40
0.0000000116
  9
$TDUSRTIMER
 40
0.0000000116
  9
$USRTIMER
 70
     1
  9
$ANGBASE
 50
0.0
  9
$ANGDIR
 70
     0
  9
$PDMODE
 70
     0
  9
$PDSIZE
 40
0.0
  9
$PLINEWID
 40
0.0
  9
$SPLFRAME
 70
     0
  9
$SPLINETYPE
 70
     6
  9
$SPLINESEGS
 70
     8
  9
$HANDSEED
  5
1E6
  9
$SURFTAB1
 70
     6
  9
$SURFTAB2
 70
     6
  9
$SURFTYPE
 70
     6
  9
$SURFU
 70
     6
  9
$SURFV
 70
     6
  9
$UCSBASE
  2

  9
$UCSNAME
  2

  9
$UCSORG
 10
0.0
 20
0.0
 30
0.0
  9
$UCSXDIR
 10
1.0
 20
0.0
 30
0.0
  9
$UCSYDIR
 10
0.0
 20
1.0
 30
0.0
  9
$UCSORTHOREF
  2

  9
$UCSORTHOVIEW
 70
     0
  9
$UCSORGTOP
 10
0.0
 20
0.0
 30
0.0
  9
$UCSORGBOTTOM
 10
0.0
 20
0.0
 30
0.0
  9
$UCSORGLEFT
 10
0.0
 20
0.0
 30
0.0
  9
$UCSORGRIGHT
 10
0.0
 20
0.0
 30
0.0
  9
$UCSORGFRONT
 10
0.0
 20
0.0
 30
0.0
  9
$UCSORGBACK
 10
0.0
 20
0.0
 30
0.0
  9
$PUCSBASE
  2

  9
$PUCSNAME
  2

  9
$PUCSORG
 10
0.0
 20
0.0
 30
0.0
  9
$PUCSXDIR
 10
1.0
 20
0.0
 30
0.0
  9
$PUCSYDIR
 10
0.0
 20
1.0
 30
0.0
  9
$PUCSORTHOREF
  2

  9
$PUCSORTHOVIEW
 70
     0
  9
$PUCSORGTOP
 10
0.0
 20
0.0
 30
0.0
  9
$PUCSORGBOTTOM
 10
0.0
 20
0.0
 30
0.0
  9
$PUCSORGLEFT
 10
0.0
 20
0.0
 30
0.0
  9
$PUCSORGRIGHT
 10
0.0
 20
0.0
 30
0.0
  9
$PUCSORGFRONT
 10
0.0
 20
0.0
 30
0.0
  9
$PUCSORGBACK
 10
0.0
 20
0.0
 30
0.0
  9
$USERI1
 70
     0
  9
$USERI2
 70
     0
  9
$USERI3
 70
     0
  9
$USERI4
 70
     0
  9
$USERI5
 70
     0
  9
$USERR1
 40
0.0
  9
$USERR2
 40
0.0
  9
$USERR3
 40
0.0
  9
$USERR4
 40
0.0
  9
$USERR5
 40
0.0
  9
$WORLDVIEW
 70
     1
  9
$SHADEDGE
 70
     3
  9
$SHADEDIF
 70
    70
  9
$TILEMODE
 70
     1
  9
$MAXACTVP
 70
    64
  9
$PINSBASE
 10
0.0
 20
0.0
 30
0.0
  9
$PLIMCHECK
 70
     0
  9
$PEXTMIN
 10
1.000000000000000E+20
 20
1.000000000000000E+20
 30
1.000000000000000E+20
  9
$PEXTMAX
 10
-1.000000000000000E+20
 20
-1.000000000000000E+20
 30
-1.000000000000000E+20
  9
$PLIMMIN
 10
0.0
 20
0.0
  9
$PLIMMAX
 10
12.0
 20
9.0
  9
$UNITMODE
 70
     0
  9
$VISRETAIN
 70
     1
  9
$PLINEGEN
 70
     0
  9
$PSLTSCALE
 70
     1
  9
$TREEDEPTH
 70
  3020
  9
$CMLSTYLE
  2
Standard
  9
$CMLJUST
 70
     0
  9
$CMLSCALE
 40
1.0
  9
$PROXYGRAPHICS
 70
     1
  9
$MEASUREMENT
 70
     0
  9
$CELWEIGHT
370
    -1
  9
$ENDCAPS
280
     0
  9
$JOINSTYLE
280
     0
  9
$LWDISPLAY
290
     0
  9
$INSUNITS
 70
     1
  9
$HYPERLINKBASE
  1

  9
$STYLESHEET
  1

  9
$XEDIT
290
     1
  9
$CEPSNTYPE
380
     0
  9
$PSTYLEMODE
290
     1
  9
$FINGERPRINTGUID
  2
{8C5C51B9-57EB-4C99-9B27-238F934AD3A7}
  9
$VERSIONGUID
  2
{FAEB1C32-E019-11D5-929B-00C0DF256EC4}
  9
$EXTNAMES
290
     1
  9
$PSVPSCALE
 40
0.0
  9
$OLESTARTUP
290
     0
  9
$SORTENTS
280
   127
  9
$INDEXCTL
280
     0
  9
$HIDETEXT
280
     1
  9
$XCLIPFRAME
280
     2
  9
$HALOGAP
280
     0
  9
$OBSCOLOR
 70
   257
  9
$OBSLTYPE
280
     0
  9
$INTERSECTIONDISPLAY
280
     0
  9
$INTERSECTIONCOLOR
 70
   257
  9
$DIMASSOC
280
     2
  9
$PROJECTNAME
  1

  9
$CAMERADISPLAY
290
     0
  9
$LENSLENGTH
 40
50.0
  9
$CAMERAHEIGHT
 40
0.0
  9
$STEPSPERSEC
 40
2.0
  9
$STEPSIZE
 40
6.0
  9
$3DDWFPREC
 40
2.0
  9
$PSOLWIDTH
 40
0.25
  9
$PSOLHEIGHT
 40
4.0
  9
$LOFTANG1
 40
1.570796326794897
  9
$LOFTANG2
 40
1.570796326794897
  9
$LOFTMAG1
 40
0.0
  9
$LOFTMAG2
 40
0.0
  9
$LOFTPARAM
 70
     7
  9
$LOFTNORMALS
280
     1
  9
$LATITUDE
 40
37.795
  9
$LONGITUDE
 40
-122.394
  9
$NORTHDIRECTION
 40
0.0
  9
$TIMEZONE
 70
 -8000
  9
$LIGHTGLYPHDISPLAY
280
     1
  9
$TILEMODELIGHTSYNCH
280
     1
  9
$CMATERIAL
347
44
  9
$SOLIDHIST
280
     0
  9
$SHOWHIST
280
     1
  9
$DWFFRAME
280
     2
  9
$DGNFRAME
280
     2
  9
$REALWORLDSCALE
290
     1
  9
$INTERFERECOLOR
 62
   256
  9
$CSHADOW
280
     0
  9
$SHADOWPLANELOCATION
 40
0.0
  0
ENDSEC
  0
SECTION
  2
CLASSES
  0
CLASS
  1
ACDBDICTIONARYWDFLT
  2
AcDbDictionaryWithDefault
  3
ObjectDBX Classes
 90
        0
 91
        4
280
     0
281
     0
  0
CLASS
  1
VISUALSTYLE
  2
AcDbVisualStyle
  3
ObjectDBX Classes
 90
     4095
 91
        4
280
     0
281
     0
  0
CLASS
  1
MATERIAL
  2
AcDbMaterial
  3
ObjectDBX Classes
 90
     1153
 91
        4
280
     0
281
     0
  0
CLASS
  1
SCALE
  2
AcDbScale
  3
ObjectDBX Classes
 90
     1153
 91
        4
280
     0
281
     0
  0
CLASS
  1
TABLESTYLE
  2
AcDbTableStyle
  3
ObjectDBX Classes
 90
     4095
 91
        4
280
     0
281
     0
  0
CLASS
  1
MLEADERSTYLE
  2
AcDbMLeaderStyle
  3
ACDB_MLEADERSTYLE_CLASS
 90
     4095
 91
        4
280
     0
281
     0
  0
CLASS
  1
SUN
  2
AcDbSun
  3
SCENEOE
 90
     1153
 91
        4
280
     0
281
     0
  0
CLASS
  1
DICTIONARYVAR
  2
AcDbDictionaryVar
  3
ObjectDBX Classes
 90
        0
 91
        4
280
     0
281
     0
  0
CLASS
  1
CELLSTYLEMAP
  2
AcDbCellStyleMap
  3
ObjectDBX Classes
 90
     1152
 91
        4
280
     0
281
     0
  0
ENDSEC
  0
SECTION
  2
TABLES
  0
TABLE
  2
VPORT
  5
8
330
0
100
AcDbSymbolTable
 70
     1
  0
VPORT
  5
29
330
8
100
AcDbSymbolTableRecord
100
AcDbViewportTableRecord
  2
*Active
 70
     0
 10
0.0
 20
0.0
 11
1.0
 21
1.0
 12
-1.141500000000001
 22
-0.0049019607843137
 13
0.0
 23
0.0
 14
0.5
 24
0.5
 15
0.5
 25
0.5
 16
0.0
 26
0.0
 36
1.0
 17
0.0
 27
0.0
 37
0.0
 40
6.4925
 41
0.5741378513669617
 42
50.0
 43
0.0
 44
0.0
 50
0.0
 51
0.0
 71
     0
 72
   100
 73
     1
 74
     3
 75
     0
 76
     0
 77
     0
 78
     0
281
     0
 65
     1
110
0.0
120
0.0
130
0.0
111
1.0
121
0.0
131
0.0
112
0.0
122
1.0
132
0.0
 79
     0
146
0.0
348
2F
 60
     3
 61
     5
292
     1
282
     1
141
0.0
142
0.0
 63
   250
361
6D
  0
ENDTAB
  0
TABLE
  2
LTYPE
  5
5
330
0
100
AcDbSymbolTable
 70
     3
  0
LTYPE
  5
14
330
5
100
AcDbSymbolTableRecord
100
AcDbLinetypeTableRecord
  2
ByBlock
 70
     0
  3

 72
    65
 73
     0
 40
0.0
  0
LTYPE
  5
15
330
5
100
AcDbSymbolTableRecord
100
AcDbLinetypeTableRecord
  2
ByLayer
 70
     0
  3

 72
    65
 73
     0
 40
0.0
  0
LTYPE
  5
16
330
5
100
AcDbSymbolTableRecord
100
AcDbLinetypeTableRecord
  2
Continuous
 70
     0
  3
Solid line
 72
    65
 73
     0
 40
0.0
  0
LTYPE
  5
A5
330
5
100
AcDbSymbolTableRecord
100
AcDbLinetypeTableRecord
  2
Dashed
 70
     0
  3

 72
    65
 73
     2
 40
2.0
 49
1.0
 74
     0
 49
-1.0
 74
     0
  0
LTYPE
  5
BE
330
5
100
AcDbSymbolTableRecord
100
AcDbLinetypeTableRecord
  2
Center
 70
     0
  3

 72
    65
 73
     4
 40
1.5
 49
0.45
 74
     0
 49
-0.5
 74
     0
 49
0.05
 74
     0
 49
-0.5
 74
     0
  0
ENDTAB
  0
TABLE
  2
LAYER
  5
2
330
0
100
AcDbSymbolTable
 70
     7
  0
LAYER
  5
10
330
2
100
AcDbSymbolTableRecord
100
AcDbLayerTableRecord
  2
0
 70
     0
 62
     7
  6
Continuous
370
    -3
390
F
347
46
348
0
  0
LAYER
  5
72
330
2
100
AcDbSymbolTableRecord
100
AcDbLayerTableRecord
  2
AM_6
 70
     0
 62
    -2
  6
Continuous
370
    35
390
F
347
46
348
0
  0
LAYER
  5
A6
330
2
100
AcDbSymbolTableRecord
100
AcDbLayerTableRecord
  2
AM_9
 70
     0
 62
     6
  6
Dashed
370
    25
390
F
347
46
348
0
  0
LAYER
  5
B9
330
2
100
AcDbSymbolTableRecord
100
AcDbLayerTableRecord
  2
AM_5
 70
     0
 62
     3
  6
Continuous
370
    25
390
F
347
46
348
0
  0
LAYER
  5
BF
330
2
100
AcDbSymbolTableRecord
100
AcDbLayerTableRecord
  2
AM_7
 70
     0
 62
     7
  6
Center
370
    25
390
F
347
46
348
0
  0
LAYER
  5
C1
330
2
100
AcDbSymbolTableRecord
100
AcDbLayerTableRecord
  2
AM_4
 70
     0
 62
     7
  6
Continuous
370
    50
390
F
347
46
348
0
  0
LAYER
  5
1D5
330
2
100
AcDbSymbolTableRecord
100
AcDbLayerTableRecord
  2
ConnectionPoints
 70
     0
 62
     7
  6
Continuous
370
    50
390
F
347
46
348
0
  0
ENDTAB
  0
TABLE
  2
STYLE
  5
3
330
0
100
AcDbSymbolTable
 70
     1
  0
STYLE
  5
11
330
3
100
AcDbSymbolTableRecord
100
AcDbTextStyleTableRecord
  2
Standard
 70
     0
 40
0.0
 41
1.0
 50
0.0
 71
     0
 42
0.2
  3
txt
  4

  0
ENDTAB
  0
TABLE
  2
VIEW
  5
6
330
0
100
AcDbSymbolTable
 70
     0
  0
ENDTAB
  0
TABLE
  2
UCS
  5
7
330
0
100
AcDbSymbolTable
 70
     0
  0
ENDTAB
  0
TABLE
  2
APPID
  5
9
330
0
100
AcDbSymbolTable
 70
     1
  0
APPID
  5
12
330
9
100
AcDbSymbolTableRecord
100
AcDbRegAppTableRecord
  2
ACAD
 70
     0
  0
ENDTAB
  0
TABLE
  2
DIMSTYLE
  5
A
330
0
100
AcDbSymbolTable
 70
     1
100
AcDbDimStyleTable
  0
DIMSTYLE
105
27
330
A
100
AcDbSymbolTableRecord
100
AcDbDimStyleTableRecord
  2
Standard
 70
     0
178
     0
340
11
  0
ENDTAB
  0
TABLE
  2
BLOCK_RECORD
  5
1
330
0
100
AcDbSymbolTable
 70
     6
  0
BLOCK_RECORD
  5
1F
330
1
100
AcDbSymbolTableRecord
100
AcDbBlockTableRecord
  2
*Model_Space
340
22
 70
     0
280
     1
281
     0
  0
BLOCK_RECORD
  5
1B
330
1
100
AcDbSymbolTableRecord
100
AcDbBlockTableRecord
  2
*Paper_Space
340
1E
 70
     0
280
     1
281
     0
  0
BLOCK_RECORD
  5
23
330
1
100
AcDbSymbolTableRecord
100
AcDbBlockTableRecord
  2
*Paper_Space0
340
26
 70
     0
280
     1
281
     0
  0
BLOCK_RECORD
  5
6E
330
1
100
AcDbSymbolTableRecord
100
AcDbBlockTableRecord
  2
1_070528_2
340
0
102
{BLKREFS
331
6F
102
}
 70
     0
280
     1
281
     0
  0
BLOCK_RECORD
  5
8C
330
1
100
AcDbSymbolTableRecord
100
AcDbBlockTableRecord
  2
2_1_3_4CS2i_0_in_070528_2
340
0
102
{BLKREFS
331
8D
102
}
 70
     0
280
     1
281
     0
  0
BLOCK_RECORD
  5
D6
330
1
100
AcDbSymbolTableRecord
100
AcDbBlockTableRecord
  2
3_070020i_0_in_070528_2
340
0
102
{BLKREFS
331
D7
102
}
 70
     0
280
     1
281
     0
  0
BLOCK_RECORD
  5
135
330
1
100
AcDbSymbolTableRecord
100
AcDbBlockTableRecord
  2
4_405015E_Inch_0_in_070528_2
340
0
102
{BLKREFS
331
136
102
}
 70
     0
280
     1
281
     0
  0
BLOCK_RECORD
  5
173
330
1
100
AcDbSymbolTableRecord
100
AcDbBlockTableRecord
  2
5_070528H_0_in_070528_2
340
0
102
{BLKREFS
331
174
102
}
 70
     0
280
     1
281
     0
  0
ENDTAB
  0
ENDSEC
  0
SECTION
  2
BLOCKS
  0
BLOCK
  5
20
330
1F
100
AcDbEntity
  8
0
100
AcDbBlockBegin
  2
*Model_Space
 70
     0
 10
0.0
 20
0.0
 30
0.0
  3
*Model_Space
  1

  0
ENDBLK
  5
21
330
1F
100
AcDbEntity
  8
0
100
AcDbBlockEnd
  0
BLOCK
  5
1C
330
1B
100
AcDbEntity
 67
     1
  8
0
100
AcDbBlockBegin
  2
*Paper_Space
 70
     0
 10
0.0
 20
0.0
 30
0.0
  3
*Paper_Space
  1

  0
ENDBLK
  5
1D
330
1B
100
AcDbEntity
 67
     1
  8
0
100
AcDbBlockEnd
  0
BLOCK
  5
24
330
23
100
AcDbEntity
  8
0
100
AcDbBlockBegin
  2
*Paper_Space0
 70
     0
 10
0.0
 20
0.0
 30
0.0
  3
*Paper_Space0
  1

  0
ENDBLK
  5
25
330
23
100
AcDbEntity
  8
0
100
AcDbBlockEnd
  0
BLOCK
  5
70
330
6E
100
AcDbEntity
  8
0
100
AcDbBlockBegin
  2
1_070528_2
 70
     2
 10
0.0
 20
0.0
 30
0.0
  3
1_070528_2
  1

  0
ATTDEF
  5
73
330
6E
100
AcDbEntity
  8
AM_6
100
AcDbText
 10
5.09453125
 20
3.177696078431373
 30
0.0
 40
0.5
  1
S-2000 Flange Bearing - Round Labyrinth Seal
100
AcDbAttributeDefinition
  3

  2
NN
 70
     8
280
     0
  0
ATTDEF
  5
74
330
6E
100
AcDbEntity
  8
AM_6
100
AcDbText
 10
5.09453125
 20
2.677696078431373
 30
0.0
 40
0.5
  1
S-2000 3 & 4 Bolt Round Flange Bearing -Inch
100
AcDbAttributeDefinition
  3

  2
NT
 70
     8
280
     0
  0
ATTDEF
  5
75
330
6E
100
AcDbEntity
  8
AM_6
100
AcDbText
 10
5.09453125
 20
2.177696078431373
 30
0.0
 40
0.5
  1
070528
100
AcDbAttributeDefinition
  3

  2
NB
 70
     8
280
     0
  0
ATTDEF
  5
76
330
6E
100
AcDbEntity
  8
AM_6
100
AcDbText
 10
5.09453125
 20
1.677696078431373
 30
0.0
 40
0.5
  1
$PN.
100
AcDbAttributeDefinition
  3

  2
NBSYN
 70
     8
280
     0
  0
ATTDEF
  5
77
330
6E
100
AcDbEntity
  8
AM_6
100
AcDbText
 10
5.09453125
 20
1.177696078431373
 30
0.0
 40
0.5
  1
070528
100
AcDbAttributeDefinition
  3

  2
LINA
 70
     8
280
     0
  0
ATTDEF
  5
78
330
6E
100
AcDbEntity
  8
AM_6
100
AcDbText
 10
5.09453125
 20
0.6776960784313726
 30
0.0
 40
0.5
  1
1-3/4
100
AcDbAttributeDefinition
  3

  2
SS
 70
     8
280
     0
  0
ATTDEF
  5
79
330
6E
100
AcDbEntity
  8
AM_6
100
AcDbText
 10
5.09453125
 20
0.1776960784313726
 30
0.0
 40
0.5
  1
070528
100
AcDbAttributeDefinition
  3

  2
PN
 70
     8
280
     0
  0
ATTDEF
  5
7A
330
6E
100
AcDbEntity
  8
AM_6
100
AcDbText
 10
5.09453125
 20
-0.3223039215686274
 30
0.0
 40
0.5
  1
F4R-S2-112LE
100
AcDbAttributeDefinition
  3

  2
DESCRIPTION
 70
     8
280
     0
  0
ATTDEF
  5
7B
330
6E
100
AcDbEntity
  8
AM_6
100
AcDbText
 10
5.09453125
 20
-0.8223039215686274
 30
0.0
 40
0.5
  1
Expansion Type
100
AcDbAttributeDefinition
  3

  2
EF
 70
     8
280
     0
  0
ATTDEF
  5
7C
330
6E
100
AcDbEntity
  8
AM_6
100
AcDbText
 10
5.09453125
 20
-1.322303921568627
 30
0.0
 40
0.5
  1
Labyrinth Seal
100
AcDbAttributeDefinition
  3

  2
ST
 70
     8
280
     0
  0
ATTDEF
  5
7D
330
6E
100
AcDbEntity
  8
AM_6
100
AcDbText
 10
5.09453125
 20
-1.822303921568627
 30
0.0
 40
0.5
  1
2-43/64
100
AcDbAttributeDefinition
  3

  2
A
 70
     8
280
     0
  0
ATTDEF
  5
7E
330
6E
100
AcDbEntity
  8
AM_6
100
AcDbText
 10
5.09453125
 20
-2.322303921568627
 30
0.0
 40
0.5
  1
6-3/8
100
AcDbAttributeDefinition
  3

  2
B
 70
     8
280
     0
  0
ATTDEF
  5
7F
330
6E
100
AcDbEntity
  8
AM_6
100
AcDbText
 10
5.09453125
 20
-2.822303921568627
 30
0.0
 40
0.5
  1
2-31/32
100
AcDbAttributeDefinition
  3

  2
C
 70
     8
280
     0
  0
ATTDEF
  5
80
330
6E
100
AcDbEntity
  8
AM_6
100
AcDbText
 10
5.09453125
 20
-3.322303921568627
 30
0.0
 40
0.5
  1
3-57/64
100
AcDbAttributeDefinition
  3

  2
D
 70
     8
280
     0
  0
ATTDEF
  5
81
330
6E
100
AcDbEntity
  8
AM_6
100
AcDbText
 10
5.09453125
 20
-3.822303921568627
 30
0.0
 40
0.5
  1
5-1/2
100
AcDbAttributeDefinition
  3

  2
DD
 70
     8
280
     0
  0
ATTDEF
  5
82
330
6E
100
AcDbEntity
  8
AM_6
100
AcDbText
 10
5.09453125
 20
-4.322303921568627
 30
0.0
 40
0.5
  1
1-57/64
100
AcDbAttributeDefinition
  3

  2
E
 70
     8
280
     0
  0
ATTDEF
  5
83
330
6E
100
AcDbEntity
  8
AM_6
100
AcDbText
 10
5.09453125
 20
-4.822303921568627
 30
0.0
 40
0.5
  1
1/2
100
AcDbAttributeDefinition
  3

  2
F
 70
     8
280
     0
  0
ATTDEF
  5
84
330
6E
100
AcDbEntity
  8
AM_6
100
AcDbText
 10
5.09453125
 20
-5.322303921568627
 30
0.0
 40
0.5
  1
1/2
100
AcDbAttributeDefinition
  3

  2
H
 70
     8
280
     0
  0
ATTDEF
  5
85
330
6E
100
AcDbEntity
  8
AM_6
100
AcDbText
 10
5.09453125
 20
-5.822303921568627
 30
0.0
 40
0.5
  1
4-11/32
100
AcDbAttributeDefinition
  3

  2
J
 70
     8
280
     0
  0
ATTDEF
  5
86
330
6E
100
AcDbEntity
  8
AM_6
100
AcDbText
 10
5.09453125
 20
-6.322303921568627
 30
0.0
 40
0.5
  1
3-3/16
100
AcDbAttributeDefinition
  3

  2
L
 70
     8
280
     0
  0
ATTDEF
  5
87
330
6E
100
AcDbEntity
  8
AM_6
100
AcDbText
 10
5.09453125
 20
-6.822303921568627
 30
0.0
 40
0.5
  1
19/64
100
AcDbAttributeDefinition
  3

  2
P
 70
     8
280
     0
  0
ATTDEF
  5
88
330
6E
100
AcDbEntity
  8
AM_6
100
AcDbText
 10
5.09453125
 20
-7.322303921568627
 30
0.0
 40
0.5
  1
1/4
100
AcDbAttributeDefinition
  3

  2
X
 70
     8
280
     0
  0
ATTDEF
  5
89
330
6E
100
AcDbEntity
  8
AM_6
100
AcDbText
 10
5.09453125
 20
-7.822303921568627
 30
0.0
 40
0.5
  1
0.020
100
AcDbAttributeDefinition
  3

  2
Y
 70
     8
280
     0
  0
ATTDEF
  5
8A
330
6E
100
AcDbEntity
  8
AM_6
100
AcDbText
 10
5.09453125
 20
-8.322303921568627
 30
0.0
 40
0.5
  1
2-5/64
100
AcDbAttributeDefinition
  3

  2
Z
 70
     8
280
     0
  0
ATTDEF
  5
8B
330
6E
100
AcDbEntity
  8
AM_6
100
AcDbText
 10
5.09453125
 20
-8.822303921568627
 30
0.0
 40
0.5
  1
baldor
100
AcDbAttributeDefinition
  3

  2
COMPANY
 70
     8
280
     0
  0
INSERT
  5
8D
330
6E
100
AcDbEntity
  8
0
100
AcDbBlockReference
  2
2_1_3_4CS2i_0_in_070528_2
 10
0.0
 20
0.0
 30
0.0
  0
INSERT
  5
D7
330
6E
100
AcDbEntity
  8
0
100
AcDbBlockReference
  2
3_070020i_0_in_070528_2
 10
0.0
 20
0.0
 30
0.0
  0
INSERT
  5
136
330
6E
100
AcDbEntity
  8
0
100
AcDbBlockReference
  2
4_405015E_Inch_0_in_070528_2
 10
0.0
 20
0.0
 30
0.0
  0
INSERT
  5
174
330
6E
100
AcDbEntity
  8
0
100
AcDbBlockReference
  2
5_070528H_0_in_070528_2
 10
0.0
 20
0.0
 30
0.0
  0
ENDBLK
  5
71
330
6E
100
AcDbEntity
  8
0
100
AcDbBlockEnd
  0
BLOCK
  5
8E
330
8C
100
AcDbEntity
  8
0
100
AcDbBlockBegin
  2
2_1_3_4CS2i_0_in_070528_2
 70
     2
 10
0.0
 20
0.0
 30
0.0
  3
2_1_3_4CS2i_0_in_070528_2
  1

  0
ATTDEF
  5
90
330
8C
100
AcDbEntity
  8
AM_6
100
AcDbText
 10
2.91525
 20
1.6169375
 30
0.0
 40
0.5
  1
S-2000 Collar -Inch
100
AcDbAttributeDefinition
  3

  2
NN
 70
     8
280
     0
  0
ATTDEF
  5
91
330
8C
100
AcDbEntity
  8
AM_6
100
AcDbText
 10
2.91525
 20
1.1169375
 30
0.0
 40
0.5
  1
S-2000 Bearings
100
AcDbAttributeDefinition
  3

  2
NT
 70
     8
280
     0
  0
ATTDEF
  5
92
330
8C
100
AcDbEntity
  8
AM_6
100
AcDbText
 10
2.91525
 20
0.6169374999999999
 30
0.0
 40
0.5
  1
1-3/4CS2i
100
AcDbAttributeDefinition
  3

  2
NB
 70
     8
280
     0
  0
ATTDEF
  5
93
330
8C
100
AcDbEntity
  8
AM_6
100
AcDbText
 10
2.91525
 20
0.1169374999999999
 30
0.0
 40
0.5
  1
$BORE.CS2i
100
AcDbAttributeDefinition
  3

  2
NBSYN
 70
     8
280
     0
  0
ATTDEF
  5
94
330
8C
100
AcDbEntity
  8
AM_6
100
AcDbText
 10
2.91525
 20
-0.3830625000000001
 30
0.0
 40
0.5
  1
1-3/4CS2i
100
AcDbAttributeDefinition
  3

  2
LINA
 70
     8
280
     0
  0
ATTDEF
  5
95
330
8C
100
AcDbEntity
  8
AM_6
100
AcDbText
 10
2.91525
 20
-0.8830625000000001
 30
0.0
 40
0.5
  1
1-3/4
100
AcDbAttributeDefinition
  3

  2
BORE
 70
     8
280
     0
  0
ATTDEF
  5
96
330
8C
100
AcDbEntity
  8
AM_6
100
AcDbText
 10
2.91525
 20
-1.3830625
 30
0.0
 40
0.5
  1
1.750000
100
AcDbAttributeDefinition
  3

  2
BORE1
 70
     8
280
     0
  0
ATTDEF
  5
97
330
8C
100
AcDbEntity
  8
AM_6
100
AcDbText
 10
2.91525
 20
-1.8830625
 30
0.0
 40
0.5
  1
3-3/16
100
AcDbAttributeDefinition
  3

  2
L1
 70
     8
280
     0
  0
ATTDEF
  5
98
330
8C
100
AcDbEntity
  8
AM_6
100
AcDbText
 10
2.91525
 20
-2.3830625
 30
0.0
 40
0.5
  1
3.18750
100
AcDbAttributeDefinition
  3

  2
L
 70
     8
280
     0
  0
ATTDEF
  5
99
330
8C
100
AcDbEntity
  8
AM_6
100
AcDbText
 10
2.91525
 20
-2.8830625
 30
0.0
 40
0.5
  1
3.09375
100
AcDbAttributeDefinition
  3

  2
L2
 70
     8
280
     0
  0
ATTDEF
  5
9A
330
8C
100
AcDbEntity
  8
AM_6
100
AcDbText
 10
2.91525
 20
-3.3830625
 30
0.0
 40
0.5
  1
3.50
100
AcDbAttributeDefinition
  3

  2
A
 70
     8
280
     0
  0
ATTDEF
  5
9B
330
8C
100
AcDbEntity
  8
AM_6
100
AcDbText
 10
2.91525
 20
-3.8830625
 30
0.0
 40
0.5
  1
1.62
100
AcDbAttributeDefinition
  3

  2
B
 70
     8
280
     0
  0
ATTDEF
  5
9C
330
8C
100
AcDbEntity
  8
AM_6
100
AcDbText
 10
2.91525
 20
-4.3830625
 30
0.0
 40
0.5
  1
2.31
100
AcDbAttributeDefinition
  3

  2
C
 70
     8
280
     0
  0
ATTDEF
  5
9D
330
8C
100
AcDbEntity
  8
AM_6
100
AcDbText
 10
2.91525
 20
-4.8830625
 30
0.0
 40
0.5
  1
3.50
100
AcDbAttributeDefinition
  3

  2
D
 70
     8
280
     0
  0
ATTDEF
  5
9E
330
8C
100
AcDbEntity
  8
AM_6
100
AcDbText
 10
2.91525
 20
-5.3830625
 30
0.0
 40
0.5
  1
0.41
100
AcDbAttributeDefinition
  3

  2
E
 70
     8
280
     0
  0
ATTDEF
  5
9F
330
8C
100
AcDbEntity
  8
AM_6
100
AcDbText
 10
2.91525
 20
-5.8830625
 30
0.0
 40
0.5
  1
0.317
100
AcDbAttributeDefinition
  3

  2
F
 70
     8
280
     0
  0
ATTDEF
  5
A0
330
8C
100
AcDbEntity
  8
AM_6
100
AcDbText
 10
2.91525
 20
-6.3830625
 30
0.0
 40
0.5
  1
3/8-16
100
AcDbAttributeDefinition
  3

  2
CS
 70
     8
280
     0
  0
ATTDEF
  5
A1
330
8C
100
AcDbEntity
  8
AM_6
100
AcDbText
 10
2.91525
 20
-6.8830625
 30
0.0
 40
0.5
  1
0.3750
100
AcDbAttributeDefinition
  3

  2
NDM
 70
     8
280
     0
  0
ATTDEF
  5
A2
330
8C
100
AcDbEntity
  8
AM_6
100
AcDbText
 10
2.91525
 20
-7.3830625
 30
0.0
 40
0.5
  1
0.3070
100
AcDbAttributeDefinition
  3

  2
KDM
 70
     8
280
     0
  0
ATTDEF
  5
A3
330
8C
100
AcDbEntity
  8
AM_6
100
AcDbText
 10
2.91525
 20
-7.8830625
 30
0.0
 40
0.5
  1
1
100
AcDbAttributeDefinition
  3

  2
DD
 70
     8
280
     0
  0
ATTDEF
  5
A4
330
8C
100
AcDbEntity
  8
AM_6
100
AcDbText
 10
2.91525
 20
-8.383062500000001
 30
0.0
 40
0.5
  1
baldor
100
AcDbAttributeDefinition
  3

  2
COMPANY
 70
     8
280
     0
  0
LINE
  5
A7
330
8C
100
AcDbEntity
  8
AM_9
100
AcDbLine
 10
-2.2481
 20
1.163849999999998
 30
0.0
 11
-2.2481
 21
1.5599
 31
0.0
  0
LINE
  5
A8
330
8C
100
AcDbEntity
  8
AM_9
100
AcDbLine
 10
-2.5554
 20
1.546825496357723
 30
0.0
 11
-2.5554
 21
1.163849999999998
 31
0.0
  0
LINE
  5
A9
330
8C
100
AcDbEntity
  8
AM_9
100
AcDbLine
 10
-2.5554
 20
1.163849999999998
 30
0.0
 11
-2.2481
 21
1.163849999999998
 31
0.0
  0
LINE
  5
AA
330
8C
100
AcDbEntity
  8
AM_9
100
AcDbLine
 10
-2.5554
 20
1.163849999999998
 30
0.0
 11
-2.564083859590501
 21
1.155166140409497
 31
0.0
  0
LINE
  5
AB
330
8C
100
AcDbEntity
  8
AM_9
100
AcDbLine
 10
-2.239518486589466
 20
1.155268486589464
 30
0.0
 11
-2.2481
 21
1.163849999999998
 31
0.0
  0
LINE
  5
AC
330
8C
100
AcDbEntity
  8
AM_9
100
AcDbLine
 10
-2.40175
 20
1.5599
 30
0.0
 11
-2.2481
 21
1.5599
 31
0.0
  0
LINE
  5
AD
330
8C
100
AcDbEntity
  8
AM_9
100
AcDbLine
 10
-2.2481
 20
1.5599
 30
0.0
 11
-2.21425
 21
1.59375
 31
0.0
  0
LWPOLYLINE
  5
AE
330
8C
100
AcDbEntity
  8
AM_9
100
AcDbPolyline
 90
       39
 70
     0
 43
0.0
 10
-2.282020700757612
 20
0.3779306153227044
 10
-2.267323278082185
 20
0.396982385124557
 10
-2.255558271443683
 20
0.41762933606481
 10
-2.245551432537048
 20
0.443918251971025
 10
-2.240181658753938
 20
0.4710708270096682
 10
-2.239672827735138
 20
0.4993266874148425
 10
-2.244256840884039
 20
0.5269257457283382
 10
-2.254014255474738
 20
0.5533184649773223
 10
-2.268666029846859
 20
0.5775465560041884
 10
-2.287578571350549
 20
0.5985069496908864
 10
-2.310490925088391
 20
0.6160441469379788
 10
-2.335259356111882
 20
0.6288048404677827
 10
-2.362365795223777
 20
0.6374696658014952
 10
-2.388421165229202
 20
0.6414014566813416
 10
-2.414897638067584
 20
0.6414329664232032
 10
-2.439447315440199
 20
0.6378349976865144
 10
-2.46296247261877
 20
0.630908090442375
 10
-2.48515029802289
 20
0.620674193172453
 10
-2.505187085965839
 20
0.6075673369347369
 10
-2.523814809653995
 20
0.5906952130942349
 10
-2.539195301954541
 20
0.5713661406842145
 10
-2.551830868890706
 20
0.548212272045049
 10
-2.560154421512372
 20
0.5232951791991909
 10
-2.564042849706191
 20
0.4958213139565711
 10
-2.562926650013289
 20
0.4677970280308617
 10
-2.556608942332216
 20
0.4394979658413348
 10
-2.545254583658788
 20
0.4122797271984379
 10
-2.529182303738319
 20
0.3872468336572877
 10
-2.508722829888135
 20
0.3650564070238989
 10
-2.485428283758052
 20
0.3473968064820112
 10
-2.459161069580451
 20
0.3340073621827003
 10
-2.433086514347769
 20
0.3261834974355969
 10
-2.40597461584844
 20
0.3229852316942748
 10
-2.380771520915244
 20
0.324387128498041
 10
-2.356169242035971
 20
0.3298323777881114
 10
-2.333105322039371
 20
0.3390024523154564
 10
-2.311828384257335
 20
0.3514964254536936
 10
-2.296086269731259
 20
0.3638867207156673
 10
-2.282020700757612
 20
0.3779306153227046
  0
LINE
  5
AF
330
8C
100
AcDbEntity
  8
AM_9
100
AcDbLine
 10
-2.71875
 20
-1.155
 30
0.0
 11
-2.08475
 21
-1.155
 31
0.0
  0
LINE
  5
B0
330
8C
100
AcDbEntity
  8
AM_9
100
AcDbLine
 10
-2.08475
 20
1.155
 30
0.0
 11
-2.239891874627086
 21
1.155
 31
0.0
  0
LINE
  5
B1
330
8C
100
AcDbEntity
  8
AM_9
100
AcDbLine
 10
-2.563852342789092
 20
1.155
 30
0.0
 11
-2.71875
 21
1.155
 31
0.0
  0
LWPOLYLINE
  5
B2
330
8C
100
AcDbEntity
  8
AM_9
100
AcDbPolyline
 90
       21
 70
     0
 43
0.0
 10
-2.564249999999292
 20
1.154999999999884
 10
-2.564150986662971
 20
1.15498379342257
 10
-2.56050712012805
 20
1.154393873255462
 10
-2.551881994249786
 20
1.153048235227185
 10
-2.537948885410673
 20
1.151026350938733
 10
-2.520135052348584
 20
1.148717802829725
 10
-2.497521329989636
 20
1.146240524342773
 10
-2.473565148278001
 20
1.144177281125706
 10
-2.446173654001466
 20
1.142534733138016
 10
-2.420513695572541
 20
1.141696141547657
 10
-2.393391036554752
 20
1.1415500348332
 10
-2.368989733160896
 20
1.14206930960979
 10
-2.344828803751199
 20
1.143188797776558
 10
-2.32264754678549
 20
1.144743350316933
 10
-2.301992928870743
 20
1.146640022566709
 10
-2.283148942507808
 20
1.148743921308349
 10
-2.267037017588641
 20
1.150821876167579
 10
-2.253845250353041
 20
1.152712392277049
 10
-2.244608838042087
 20
1.154136323883433
 10
-2.239823151141624
 20
1.154906315782236
 10
-2.239250000000018
 20
1.154999999999997
  0
ELLIPSE
  5
B3
330
8C
100
AcDbEntity
  8
AM_9
100
AcDbEllipse
 10
-2.401750000000002
 20
0.4918642639269132
 30
0.0
 11
0.153649999999998
 21
2.289563417434664E-9
 31
0.0
210
0.0
220
0.0
230
1.0
 40
0.9063077870366489
 41
2.522850266316825
 42
3.141592653589793
  0
LINE
  5
B4
330
8C
100
AcDbEntity
  8
AM_9
100
AcDbLine
 10
-2.2481
 20
0.491864263926912
 30
0.0
 11
-2.2481
 21
0.6592422264893171
 31
0.0
  0
LINE
  5
B5
330
8C
100
AcDbEntity
  8
AM_9
100
AcDbLine
 10
-2.5554
 20
0.6537167266102905
 30
0.0
 11
-2.5554
 21
0.491864263926912
 31
0.0
  0
ELLIPSE
  5
B6
330
8C
100
AcDbEntity
  8
AM_9
100
AcDbEllipse
 10
-2.401749999999999
 20
0.4918642639269121
 30
0.0
 11
0.1536500000000003
 21
0.0
 31
0.0
210
0.0
220
0.0
230
1.0
 40
0.9063077870366492
 41
3.141592653589793
 42
6.283185307179586
  0
ELLIPSE
  5
B7
330
8C
100
AcDbEntity
  8
AM_9
100
AcDbEllipse
 10
-2.401750000000008
 20
0.4918642639269085
 30
0.0
 11
0.1536500000000083
 21
0.0
 31
0.0
210
0.0
220
0.0
230
1.0
 40
0.906307787036651
 41
0.0
 42
0.6447266479736974
  0
LINE
  5
B8
330
8C
100
AcDbEntity
  8
AM_9
100
AcDbLine
 10
-2.40175
 20
0.5199880350111358
 30
0.0
 11
-2.40175
 21
0.7897588324253697
 31
0.0
  0
LINE
  5
BA
330
8C
100
AcDbEntity
  8
AM_5
100
AcDbLine
 10
-2.58925
 20
1.546875
 30
0.0
 11
-2.58925
 21
1.155
 31
0.0
  0
LINE
  5
BB
330
8C
100
AcDbEntity
  8
AM_5
100
AcDbLine
 10
-2.4955
 20
1.13
 30
0.0
 11
-2.58925
 21
1.13
 31
0.0
  0
LINE
  5
BC
330
8C
100
AcDbEntity
  8
AM_5
100
AcDbLine
 10
-2.21425
 20
1.59375
 30
0.0
 11
-2.21425
 21
1.155
 31
0.0
  0
LINE
  5
BD
330
8C
100
AcDbEntity
  8
AM_5
100
AcDbLine
 10
-2.308
 20
1.13
 30
0.0
 11
-2.21425
 21
1.13
 31
0.0
  0
LINE
  5
C0
330
8C
100
AcDbEntity
  8
AM_7
100
AcDbLine
 10
-2.40175
 20
1.6169375
 30
0.0
 11
-2.40175
 21
-0.0592307692307692
 31
0.0
  0
ELLIPSE
  5
C2
330
8C
100
AcDbEntity
  8
AM_4
100
AcDbEllipse
 10
-2.401749999999999
 20
0.4918642639269108
 30
0.0
 11
0.1536500000000012
 21
0.0
 31
0.0
210
0.0
220
0.0
230
1.0
 40
0.906307787036651
 41
1.570796326794897
 42
2.522850281770531
  0
LWPOLYLINE
  5
C3
330
8C
100
AcDbEntity
  8
AM_4
100
AcDbPolyline
 90
       11
 70
     0
 43
0.0
 10
-2.555399999349988
 20
0.6537248145305802
 10
-2.554408534076903
 20
0.6694902100128133
 10
-2.54933590108883
 20
0.692173396281489
 10
-2.540146532813431
 20
0.7136191476943571
 10
-2.527021578952377
 20
0.7332644979763938
 10
-2.510395976773056
 20
0.7505915780337036
 10
-2.490598421808835
 20
0.7651827235382235
 10
-2.468289226919943
 20
0.7766312327198052
 10
-2.444060712241371
 20
0.7846070700048264
 10
-2.41862808327275
 20
0.7889552341485261
 10
-2.40175
 20
0.7897588324253696
  0
ELLIPSE
  5
C4
330
8C
100
AcDbEntity
  8
AM_4
100
AcDbEllipse
 10
-2.40175
 20
0.6592422264893164
 30
0.0
 11
0.1536500000000007
 21
0.0
 31
0.0
210
0.0
220
0.0
230
1.0
 40
0.9063077870366495
 41
0.0
 42
1.570796326794897
  0
ELLIPSE
  5
C5
330
8C
100
AcDbEntity
  8
AM_4
100
AcDbEllipse
 10
-2.40175
 20
0.4918642639269112
 30
0.0
 11
0.1536500000000007
 21
0.0
 31
0.0
210
0.0
220
0.0
230
1.0
 40
0.9063077870366516
 41
0.6447266479737106
 42
1.570796326794897
  0
LINE
  5
C6
330
8C
100
AcDbEntity
  8
AM_4
100
AcDbLine
 10
-2.40175
 20
-1.59375
 30
0.0
 11
-2.40175
 21
0.5199880350111358
 31
0.0
  0
ELLIPSE
  5
C7
330
8C
100
AcDbEntity
  8
AM_4
100
AcDbEllipse
 10
-2.40175
 20
0.6592422264893176
 30
0.0
 11
0.1536500000000007
 21
0.0
 31
0.0
210
0.0
220
0.0
230
1.0
 40
0.9063077870366495
 41
4.71238898038469
 42
6.283185307179586
  0
LINE
  5
C8
330
8C
100
AcDbEntity
  8
AM_4
100
AcDbLine
 10
-2.71875
 20
1.441208333333333
 30
0.0
 11
-2.71875
 21
-1.441208333333333
 31
0.0
  0
ARC
  5
C9
330
8C
100
AcDbEntity
  8
AM_4
100
AcDbCircle
 10
-2.613083333333333
 20
-1.441208333333333
 30
0.0
 40
0.1056666666666666
100
AcDbArc
 50
180.0
 51
270.0
  0
ARC
  5
CA
330
8C
100
AcDbEntity
  8
AM_4
100
AcDbCircle
 10
-2.613083333333333
 20
1.441208333333333
 30
0.0
 40
0.1056666666666668
100
AcDbArc
 50
90.0
 51
180.0
  0
LWPOLYLINE
  5
CB
330
8C
100
AcDbEntity
  8
AM_4
100
AcDbPolyline
 90
       11
 70
     0
 43
0.0
 10
-2.40175
 20
0.511250449469007
 10
-2.42747172922563
 20
0.5133219094703223
 10
-2.452466702282939
 20
0.5194082268745936
 10
-2.476007803082138
 20
0.5293663629671626
 10
-2.497463621436604
 20
0.5428259645581357
 10
-2.516255596223206
 20
0.5594683004531308
 10
-2.531827168436838
 20
0.5787039165694384
 10
-2.543711270949998
 20
0.6000275405621878
 10
-2.55158412810816
 20
0.6227375470170178
 10
-2.555153338142889
 20
0.6460944893221523
 10
-2.555399999349988
 20
0.6537248145305802
  0
LWPOLYLINE
  5
CC
330
8C
100
AcDbEntity
  8
AM_4
100
AcDbPolyline
 90
       11
 70
     0
 43
0.0
 10
-2.40175
 20
1.539225111257285
 10
-2.42710835114147
 20
1.539433983351548
 10
-2.452466702282939
 20
1.540060429663543
 10
-2.475693239925218
 20
1.541000177110839
 10
-2.497463621436604
 20
1.542198119715333
 10
-2.516020288070897
 20
1.543460929813517
 10
-2.531827168436838
 20
1.544711627739477
 10
-2.543582040756281
 20
1.545745862329927
 10
-2.55158412810816
 20
1.546500633388468
 10
-2.555148075558388
 20
1.54684999683551
 10
-2.555399999999937
 20
1.546874999999994
  0
LINE
  5
CD
330
8C
100
AcDbEntity
  8
AM_4
100
AcDbLine
 10
-2.613083333333333
 20
-1.546875
 30
0.0
 11
-2.40175
 21
-1.546875
 31
0.0
  0
LINE
  5
CE
330
8C
100
AcDbEntity
  8
AM_4
100
AcDbLine
 10
-2.554900030724261
 20
1.546875
 30
0.0
 11
-2.613083333333333
 21
1.546875
 31
0.0
  0
LINE
  5
CF
330
8C
100
AcDbEntity
  8
AM_4
100
AcDbLine
 10
-2.613083333333333
 20
1.546875
 30
0.0
 11
-2.613083333333333
 21
-1.546875
 31
0.0
  0
LINE
  5
D0
330
8C
100
AcDbEntity
  8
AM_4
100
AcDbLine
 10
-2.40175
 20
1.583826291940122
 30
0.0
 11
-2.40175
 21
0.7897588324253697
 31
0.0
  0
LWPOLYLINE
  5
D1
330
8C
100
AcDbEntity
  8
AM_4
100
AcDbPolyline
 90
       20
 70
     0
 43
0.0
 10
-2.40175
 20
0.8302926905773781
 10
-2.378122918002793
 20
0.8290697843534947
 10
-2.35483976840654
 20
0.8254261528237798
 10
-2.324008094221128
 20
0.8165001009959976
 10
-2.294554094004459
 20
0.8027192624688106
 10
-2.269540569531892
 20
0.7854948511252777
 10
-2.247736520263102
 20
0.7639027141726964
 10
-2.231902014308103
 20
0.740901071632438
 10
-2.22059446029423
 20
0.7147338318258754
 10
-2.215160059662535
 20
0.6893254616202225
 10
-2.214698610984433
 20
0.6624152984080941
 10
-2.219129306305625
 20
0.6369678646881228
 10
-2.228083662700012
 20
0.6123479147143142
 10
-2.241415296806327
 20
0.589090160447988
 10
-2.258575130476645
 20
0.5679634878225376
 10
-2.280047976494898
 20
0.548777987424049
 10
-2.304491430863774
 20
0.5329385847931812
 10
-2.33237462812713
 20
0.5204392332250196
 10
-2.362825362996881
 20
0.5121114909653607
 10
-2.40175
 20
0.5084151382205259
  0
LINE
  5
D2
330
8C
100
AcDbEntity
  8
AM_4
100
AcDbLine
 10
-2.40175
 20
-1.59375
 30
0.0
 11
-2.08475
 21
-1.59375
 31
0.0
  0
LINE
  5
D3
330
8C
100
AcDbEntity
  8
AM_4
100
AcDbLine
 10
-2.08475
 20
1.59375
 30
0.0
 11
-2.21425
 21
1.59375
 31
0.0
  0
LWPOLYLINE
  5
D4
330
8C
100
AcDbEntity
  8
AM_4
100
AcDbPolyline
 90
       11
 70
     0
 43
0.0
 10
-2.214250000000036
 20
1.593749999999996
 10
-2.214698610984433
 20
1.593702833033883
 10
-2.219017451963367
 20
1.593254405019843
 10
-2.228083662700012
 20
1.59234643697765
 10
-2.241202205658949
 20
1.591112929399318
 10
-2.258575130476645
 20
1.589626149044103
 10
-2.27974294464296
 20
1.588041734163982
 10
-2.304491430863774
 20
1.586507352246304
 10
-2.33237462812713
 20
1.585191458231039
 10
-2.362825362996881
 20
1.584256278135053
 10
-2.40175
 20
1.583826291940122
  0
LINE
  5
D5
330
8C
100
AcDbEntity
  8
AM_4
100
AcDbLine
 10
-2.08475
 20
1.59375
 30
0.0
 11
-2.08475
 21
-1.59375
 31
0.0
  0
ENDBLK
  5
8F
330
8C
100
AcDbEntity
  8
0
100
AcDbBlockEnd
  0
BLOCK
  5
D8
330
D6
100
AcDbEntity
  8
0
100
AcDbBlockBegin
  2
3_070020i_0_in_070528_2
 70
     2
 10
0.0
 20
0.0
 30
0.0
  3
3_070020i_0_in_070528_2
  1

  0
ATTDEF
  5
DA
330
D6
100
AcDbEntity
  8
AM_6
100
AcDbText
 10
4.9375
 20
1.67325
 30
0.0
 40
0.5
  1
S-2000 Insert -Inch
100
AcDbAttributeDefinition
  3

  2
NN
 70
     8
280
     0
  0
ATTDEF
  5
DB
330
D6
100
AcDbEntity
  8
AM_6
100
AcDbText
 10
4.9375
 20
1.17325
 30
0.0
 40
0.5
  1
S-2000 Bearings
100
AcDbAttributeDefinition
  3

  2
NT
 70
     8
280
     0
  0
ATTDEF
  5
DC
330
D6
100
AcDbEntity
  8
AM_6
100
AcDbText
 10
4.9375
 20
0.6732499999999999
 30
0.0
 40
0.5
  1
070020i
100
AcDbAttributeDefinition
  3

  2
NB
 70
     8
280
     0
  0
ATTDEF
  5
DD
330
D6
100
AcDbEntity
  8
AM_6
100
AcDbText
 10
4.9375
 20
0.1732499999999999
 30
0.0
 40
0.5
  1
$PN.i
100
AcDbAttributeDefinition
  3

  2
NBSYN
 70
     8
280
     0
  0
ATTDEF
  5
DE
330
D6
100
AcDbEntity
  8
AM_6
100
AcDbText
 10
4.9375
 20
-0.3267500000000001
 30
0.0
 40
0.5
  1
070020i
100
AcDbAttributeDefinition
  3

  2
LINA
 70
     8
280
     0
  0
ATTDEF
  5
DF
330
D6
100
AcDbEntity
  8
AM_6
100
AcDbText
 10
4.9375
 20
-0.8267500000000001
 30
0.0
 40
0.5
  1
1-3/4
100
AcDbAttributeDefinition
  3

  2
SS
 70
     8
280
     0
  0
ATTDEF
  5
E0
330
D6
100
AcDbEntity
  8
AM_6
100
AcDbText
 10
4.9375
 20
-1.32675
 30
0.0
 40
0.5
  1
2.31
100
AcDbAttributeDefinition
  3

  2
CC
 70
     8
280
     0
  0
ATTDEF
  5
E1
330
D6
100
AcDbEntity
  8
AM_6
100
AcDbText
 10
4.9375
 20
-1.82675
 30
0.0
 40
0.5
  1
1.750000
100
AcDbAttributeDefinition
  3

  2
SS1
 70
     8
280
     0
  0
ATTDEF
  5
E2
330
D6
100
AcDbEntity
  8
AM_6
100
AcDbText
 10
4.9375
 20
-2.32675
 30
0.0
 40
0.5
  1
070020
100
AcDbAttributeDefinition
  3

  2
PN
 70
     8
280
     0
  0
ATTDEF
  5
E3
330
D6
100
AcDbEntity
  8
AM_6
100
AcDbText
 10
4.9375
 20
-2.82675
 30
0.0
 40
0.5
  1
INS-S2-112L
100
AcDbAttributeDefinition
  3

  2
DESCRIPTION
 70
     8
280
     0
  0
ATTDEF
  5
E4
330
D6
100
AcDbEntity
  8
AM_6
100
AcDbText
 10
4.9375
 20
-3.32675
 30
0.0
 40
0.5
  1
Labyrinth Seal
100
AcDbAttributeDefinition
  3

  2
ST
 70
     8
280
     0
  0
ATTDEF
  5
E5
330
D6
100
AcDbEntity
  8
AM_6
100
AcDbText
 10
4.9375
 20
-3.82675
 30
0.0
 40
0.5
  1
2
100
AcDbAttributeDefinition
  3

  2
ST1
 70
     8
280
     0
  0
ATTDEF
  5
E6
330
D6
100
AcDbEntity
  8
AM_6
100
AcDbText
 10
4.9375
 20
-4.326750000000001
 30
0.0
 40
0.5
  1
3.3465
100
AcDbAttributeDefinition
  3

  2
A
 70
     8
280
     0
  0
ATTDEF
  5
E7
330
D6
100
AcDbEntity
  8
AM_6
100
AcDbText
 10
4.9375
 20
-4.826750000000001
 30
0.0
 40
0.5
  1
61/64
100
AcDbAttributeDefinition
  3

  2
B
 70
     8
280
     0
  0
ATTDEF
  5
E8
330
D6
100
AcDbEntity
  8
AM_6
100
AcDbText
 10
4.9375
 20
-5.326750000000001
 30
0.0
 40
0.5
  1
2-21/32
100
AcDbAttributeDefinition
  3

  2
C
 70
     8
280
     0
  0
ATTDEF
  5
E9
330
D6
100
AcDbEntity
  8
AM_6
100
AcDbText
 10
4.9375
 20
-5.826750000000001
 30
0.0
 40
0.5
  1
0.954
100
AcDbAttributeDefinition
  3

  2
D
 70
     8
280
     0
  0
ATTDEF
  5
EA
330
D6
100
AcDbEntity
  8
AM_6
100
AcDbText
 10
4.9375
 20
-6.326750000000001
 30
0.0
 40
0.5
  1
3-3/32
100
AcDbAttributeDefinition
  3

  2
E
 70
     8
280
     0
  0
ATTDEF
  5
EB
330
D6
100
AcDbEntity
  8
AM_6
100
AcDbText
 10
4.9375
 20
-6.826750000000001
 30
0.0
 40
0.5
  1
0.43750
100
AcDbAttributeDefinition
  3

  2
F
 70
     8
280
     0
  0
ATTDEF
  5
EC
330
D6
100
AcDbEntity
  8
AM_6
100
AcDbText
 10
4.9375
 20
-7.326750000000001
 30
0.0
 40
0.5
  1
1
100
AcDbAttributeDefinition
  3

  2
DD
 70
     8
280
     0
  0
ATTDEF
  5
ED
330
D6
100
AcDbEntity
  8
AM_6
100
AcDbText
 10
4.9375
 20
-7.826750000000001
 30
0.0
 40
0.5
  1
baldor
100
AcDbAttributeDefinition
  3

  2
COMPANY
 70
     8
280
     0
  0
LINE
  5
EE
330
D6
100
AcDbEntity
  8
AM_9
100
AcDbLine
 10
-2.60675
 20
1.154877756637566
 30
0.0
 11
-2.60675
 21
0.8750000000000001
 31
0.0
  0
LINE
  5
EF
330
D6
100
AcDbEntity
  8
AM_9
100
AcDbLine
 10
-2.19675
 20
0.8750000000000001
 30
0.0
 11
-2.19675
 21
1.154962221367664
 31
0.0
  0
LINE
  5
F0
330
D6
100
AcDbEntity
  8
AM_9
100
AcDbLine
 10
-2.60675
 20
0.4881240923105078
 30
0.0
 11
-2.60675
 21
0.3697471187285267
 31
0.0
  0
LINE
  5
F1
330
D6
100
AcDbEntity
  8
AM_9
100
AcDbLine
 10
-2.19675
 20
0.3697209106717949
 30
0.0
 11
-2.19675
 21
0.4881240923105079
 31
0.0
  0
LWPOLYLINE
  5
F2
330
D6
100
AcDbEntity
  8
AM_9
100
AcDbPolyline
 90
        4
 70
     0
 43
0.0
 10
-2.595874679093403
 20
0.4284517948219038
 10
-2.602580910443485
 20
0.4065577583553244
 10
-2.606644726283833
 20
0.3757340511299149
 10
-2.606749998743439
 20
0.3698115500932063
  0
LWPOLYLINE
  5
F3
330
D6
100
AcDbEntity
  8
AM_9
100
AcDbPolyline
 90
        7
 70
     0
 43
0.0
 10
-2.480676106182236
 20
0.5325140983074644
 10
-2.50512881725037
 20
0.5225830063512711
 10
-2.532952826845427
 20
0.5064866474973635
 10
-2.557175372334274
 20
0.4865975902299395
 10
-2.577496559178011
 20
0.4627042237763447
 10
-2.592828244620992
 20
0.4357566496083178
 10
-2.595874679093403
 20
0.4284517948219038
  0
LWPOLYLINE
  5
F4
330
D6
100
AcDbEntity
  8
AM_9
100
AcDbPolyline
 90
        7
 70
     0
 43
0.0
 10
-2.207292104035898
 20
0.4275858134181196
 10
-2.21553144024101
 20
0.445699546548865
 10
-2.23216104759553
 20
0.4709258560878992
 10
-2.253336703523211
 20
0.4930959123639926
 10
-2.279201651611344
 20
0.5121307536144065
 10
-2.308558645768286
 20
0.5271356652315872
 10
-2.332339840251297
 20
0.5355129749248358
  0
LWPOLYLINE
  5
F5
330
D6
100
AcDbEntity
  8
AM_9
100
AcDbPolyline
 90
        4
 70
     0
 43
0.0
 10
-2.196750000404329
 20
0.3697793099458534
 10
-2.197835243870969
 20
0.3887759853512512
 10
-2.204049946916134
 20
0.4181506938978115
 10
-2.207292104035898
 20
0.4275858134181196
  0
LWPOLYLINE
  5
F6
330
D6
100
AcDbEntity
  8
AM_9
100
AcDbPolyline
 90
       11
 70
     0
 43
0.0
 10
-2.606749998743439
 20
0.3698115500932063
 10
-2.604908574870382
 20
0.3449027201794122
 10
-2.597676574539398
 20
0.3142483849699571
 10
-2.585164969582888
 20
0.2848119867095079
 10
-2.567790722800626
 20
0.2573171663985049
 10
-2.545455056527176
 20
0.2321164712545188
 10
-2.519136850912132
 20
0.2105885179680656
 10
-2.488991101982319
 20
0.1932796572068633
 10
-2.456274555685125
 20
0.1811357297778931
 10
-2.429272712911754
 20
0.1755861665252661
 10
-2.40175
 20
0.173705781006791
  0
LWPOLYLINE
  5
F7
330
D6
100
AcDbEntity
  8
AM_9
100
AcDbPolyline
 90
        7
 70
     0
 43
0.0
 10
-2.256413788694085
 20
0.6153157431926005
 10
-2.243719404785717
 20
0.6033408369111424
 10
-2.223995335435469
 20
0.5787257344100866
 10
-2.209305624917103
 20
0.551232841494723
 10
-2.200191907098632
 20
0.5216613630812378
 10
-2.196769874684364
 20
0.4907096659398388
 10
-2.196750000576729
 20
0.4881380287629354
  0
LWPOLYLINE
  5
F8
330
D6
100
AcDbEntity
  8
AM_9
100
AcDbPolyline
 90
       12
 70
     0
 43
0.0
 10
-2.548574825767545
 20
0.614025592921747
 10
-2.548389899355452
 20
0.6141873703698317
 10
-2.522231352391879
 20
0.6333634238699369
 10
-2.492650303144283
 20
0.648436972693003
 10
-2.46037500327932
 20
0.6590286972977397
 10
-2.426395425831918
 20
0.6649324833827778
 10
-2.392154582061244
 20
0.6659645037566182
 10
-2.358187555419073
 20
0.6622764730365414
 10
-2.325710575943977
 20
0.6539702262409812
 10
-2.295342745364521
 20
0.6412787325986631
 10
-2.267668559939227
 20
0.6242252158873672
 10
-2.256413788694085
 20
0.6153157431926005
  0
LWPOLYLINE
  5
F9
330
D6
100
AcDbEntity
  8
AM_9
100
AcDbPolyline
 90
        6
 70
     0
 43
0.0
 10
-2.606749999363772
 20
0.4881094545278523
 10
-2.605544998115517
 20
0.5081490698992479
 10
-2.599048212665202
 20
0.5379371389228211
 10
-2.587170443226722
 20
0.565963361436172
 10
-2.570086514271011
 20
0.5916166019356104
 10
-2.548574825767545
 20
0.614025592921747
  0
LWPOLYLINE
  5
FA
330
D6
100
AcDbEntity
  8
AM_9
100
AcDbPolyline
 90
       11
 70
     0
 43
0.0
 10
-2.196750000576729
 20
0.4881380287629354
 10
-2.199157761293979
 20
0.4596740657920109
 10
-2.207113953789169
 20
0.4290386003036938
 10
-2.220452571434621
 20
0.3997597701124795
 10
-2.238726360126783
 20
0.372643524411945
 10
-2.261816196985514
 20
0.3482500085262513
 10
-2.288823889191244
 20
0.3276763021680447
 10
-2.319310959345697
 20
0.3115511382649416
 10
-2.352185264890734
 20
0.3005496543899619
 10
-2.376776989680055
 20
0.296086952188345
 10
-2.40175
 20
0.2945809289154055
  0
LWPOLYLINE
  5
FB
330
D6
100
AcDbEntity
  8
AM_9
100
AcDbPolyline
 90
       11
 70
     0
 43
0.0
 10
-2.40175
 20
0.173705781006791
 10
-2.367869444254735
 20
0.1765691463619163
 10
-2.334957142944052
 20
0.1849506209614774
 10
-2.303985507777246
 20
0.1985824668204299
 10
-2.275712824048849
 20
0.2168939155495052
 10
-2.250509995897258
 20
0.2397393691991538
 10
-2.229514809448745
 20
0.2660345177538186
 10
-2.213199269584921
 20
0.2953528211428397
 10
-2.20227054827736
 20
0.3264245936393599
 10
-2.197203454993401
 20
0.35770096448595
 10
-2.196750000404329
 20
0.3697793099458534
  0
LWPOLYLINE
  5
FC
330
D6
100
AcDbEntity
  8
AM_9
100
AcDbPolyline
 90
       11
 70
     0
 43
0.0
 10
-2.40175
 20
0.8506468127254697
 10
-2.368353571472026
 20
0.8513021328755287
 10
-2.334957142944052
 20
0.853265073557858
 10
-2.304387651122677
 20
0.8562005763715124
 10
-2.275712824048849
 20
0.859933351906845
 10
-2.250821291057514
 20
0.8639325640251361
 10
-2.229514809448745
 20
0.8679083827595097
 10
-2.213383956557062
 20
0.8712529864065588
 10
-2.20227054827736
 20
0.8737230978173608
 10
-2.197215137946529
 20
0.8748911416829138
 10
-2.196750000001169
 20
0.8749999999997261
  0
LINE
  5
FD
330
D6
100
AcDbEntity
  8
AM_9
100
AcDbLine
 10
-0.0625000000000002
 20
0.8750000000000001
 30
0.0
 11
-2.19675
 21
0.8750000000000001
 31
0.0
  0
LINE
  5
FE
330
D6
100
AcDbEntity
  8
AM_9
100
AcDbLine
 10
-2.60675
 20
0.8750000000000001
 30
0.0
 11
-2.71875
 21
0.8750000000000001
 31
0.0
  0
LINE
  5
FF
330
D6
100
AcDbEntity
  8
AM_9
100
AcDbLine
 10
-2.71875
 20
-0.8750000000000001
 30
0.0
 11
-0.0625000000000002
 21
-0.8750000000000001
 31
0.0
  0
LINE
  5
100
330
D6
100
AcDbEntity
  8
AM_9
100
AcDbLine
 10
-2.601250231216629
 20
0.8737278422114567
 30
0.0
 11
-2.606749999996698
 21
0.8749999999992264
 31
0.0
  0
LINE
  5
101
330
D6
100
AcDbEntity
  8
AM_9
100
AcDbLine
 10
-2.388081251356976
 20
0.8507566248284325
 30
0.0
 11
-2.40546647085048
 21
0.8506549313062155
 31
0.0
  0
LWPOLYLINE
  5
102
330
D6
100
AcDbEntity
  8
AM_9
100
AcDbPolyline
 90
       11
 70
     0
 43
0.0
 10
-2.606749999996698
 20
0.8749999999992264
 10
-2.604993695190084
 20
0.8745901895370881
 10
-2.597676574539398
 20
0.8729187949693501
 10
-2.585386396193909
 20
0.8702426822485132
 10
-2.567790722800625
 20
0.8667003643867668
 10
-2.545806858885328
 20
0.8627585865072033
 10
-2.519136850912132
 20
0.8587081417845457
 10
-2.489467541207085
 20
0.8551575100736802
 10
-2.456274555685125
 20
0.852392472498825
 10
-2.429535795144082
 20
0.8511004937207997
 10
-2.40175
 20
0.8506468127254697
  0
LWPOLYLINE
  5
103
330
D6
100
AcDbEntity
  8
AM_9
100
AcDbPolyline
 90
       11
 70
     0
 43
0.0
 10
-2.40175
 20
0.2945809289154055
 10
-2.43585843538501
 20
0.2974090635686094
 10
-2.468998002252064
 20
0.3057019191665715
 10
-2.500197523479572
 20
0.3192274373077653
 10
-2.528655193923416
 20
0.3374457705877584
 10
-2.55379195531181
 20
0.360055348193841
 10
-2.574674449120014
 20
0.3861162654203096
 10
-2.590749307750009
 20
0.4150579676835031
 10
-2.601455549264894
 20
0.4457796282625968
 10
-2.606363652474625
 20
0.4770156832445993
 10
-2.606749999363772
 20
0.4881094545278523
  0
LWPOLYLINE
  5
104
330
D6
100
AcDbEntity
  8
AM_9
100
AcDbPolyline
 90
       11
 70
     0
 43
0.0
 10
-2.40175
 20
1.136661779070626
 10
-2.435374001126033
 20
1.137158992160605
 10
-2.468998002252064
 20
1.138649328725439
 10
-2.499786334280951
 20
1.140881730434512
 10
-2.528655193923416
 20
1.1437241486673
 10
-2.553479194740477
 20
1.146743976891352
 10
-2.574674449120014
 20
1.149740346818994
 10
-2.590571069430812
 20
1.15223842856459
 10
-2.601455549264894
 20
1.154072054252763
 10
-2.606354431485292
 20
1.154929856477621
 10
-2.606749999999383
 20
1.15499999999989
  0
LINE
  5
105
330
D6
100
AcDbEntity
  8
AM_9
100
AcDbLine
 10
-2.08475
 20
1.155
 30
0.0
 11
-2.196964888604288
 21
1.155
 31
0.0
  0
LINE
  5
106
330
D6
100
AcDbEntity
  8
AM_9
100
AcDbLine
 10
-1.64725
 20
1.155
 30
0.0
 11
-1.890625
 21
1.155
 31
0.0
  0
LINE
  5
107
330
D6
100
AcDbEntity
  8
AM_9
100
AcDbLine
 10
-2.606059419942035
 20
1.155
 30
0.0
 11
-2.71875
 21
1.155
 31
0.0
  0
LINE
  5
108
330
D6
100
AcDbEntity
  8
AM_9
100
AcDbLine
 10
-1.890625
 20
-1.155
 30
0.0
 11
-1.64725
 21
-1.155
 31
0.0
  0
LINE
  5
109
330
D6
100
AcDbEntity
  8
AM_9
100
AcDbLine
 10
-2.71875
 20
-1.155
 30
0.0
 11
-2.08475
 21
-1.155
 31
0.0
  0
LINE
  5
10A
330
D6
100
AcDbEntity
  8
AM_9
100
AcDbLine
 10
-2.202145680631354
 20
1.154054541306701
 30
0.0
 11
-2.196750000000512
 21
1.154999999999909
 31
0.0
  0
LINE
  5
10B
330
D6
100
AcDbEntity
  8
AM_9
100
AcDbLine
 10
-2.41419718314445
 20
1.136729929388778
 30
0.0
 11
-2.396234740588993
 21
1.136675159439306
 31
0.0
  0
LWPOLYLINE
  5
10C
330
D6
100
AcDbEntity
  8
AM_9
100
AcDbPolyline
 90
       11
 70
     0
 43
0.0
 10
-2.196750000000512
 20
1.154999999999909
 10
-2.199063289603336
 20
1.154591660532597
 10
-2.207113953789169
 20
1.153205615007395
 10
-2.220214750620486
 20
1.151066916719998
 10
-2.238726360126783
 20
1.148292953543438
 10
-2.261448368403657
 20
1.14528797593819
 10
-2.288823889191244
 20
1.142257548236119
 10
-2.318836840693594
 20
1.139681794180362
 10
-2.352185264890734
 20
1.13774191404134
 10
-2.376584828794659
 20
1.136940317625246
 10
-2.40175
 20
1.136661779070626
  0
LINE
  5
10D
330
D6
100
AcDbEntity
  8
AM_9
100
AcDbLine
 10
-0.0625000000000002
 20
-1.155
 30
0.0
 11
-0.0625000000000002
 21
1.155
 31
0.0
  0
LINE
  5
10E
330
D6
100
AcDbEntity
  8
AM_9
100
AcDbLine
 10
-0.0625000000000002
 20
1.155
 30
0.0
 11
-0.3857499999999998
 21
1.155
 31
0.0
  0
LINE
  5
10F
330
D6
100
AcDbEntity
  8
AM_9
100
AcDbLine
 10
-0.3857499999999998
 20
-1.155
 30
0.0
 11
-0.0625000000000002
 21
-1.155
 31
0.0
  0
LINE
  5
110
330
D6
100
AcDbEntity
  8
AM_9
100
AcDbLine
 10
-0.4810624999999997
 20
1.3386
 30
0.0
 11
-0.5399374999999998
 21
1.3386
 31
0.0
  0
LINE
  5
111
330
D6
100
AcDbEntity
  8
AM_9
100
AcDbLine
 10
-0.5399374999999998
 20
-1.3386
 30
0.0
 11
-0.4810624999999997
 21
-1.3386
 31
0.0
  0
LINE
  5
112
330
D6
100
AcDbEntity
  8
AM_9
100
AcDbLine
 10
-1.4930625
 20
1.3386
 30
0.0
 11
-1.5519375
 21
1.3386
 31
0.0
  0
LINE
  5
113
330
D6
100
AcDbEntity
  8
AM_9
100
AcDbLine
 10
-1.5519375
 20
-1.3386
 30
0.0
 11
-1.4930625
 21
-1.3386
 31
0.0
  0
LINE
  5
114
330
D6
100
AcDbEntity
  8
AM_9
100
AcDbLine
 10
-1.5519375
 20
-1.3386
 30
0.0
 11
-1.5519375
 21
1.3386
 31
0.0
  0
LINE
  5
115
330
D6
100
AcDbEntity
  8
AM_9
100
AcDbLine
 10
-1.64725
 20
-1.2432875
 30
0.0
 11
-1.64725
 21
1.2432875
 31
0.0
  0
ARC
  5
116
330
D6
100
AcDbEntity
  8
AM_9
100
AcDbCircle
 10
-1.551937500000001
 20
1.243287500000001
 30
0.0
 40
0.0953124999999995
100
AcDbArc
 50
90.0
 51
179.9999991462263
  0
ARC
  5
117
330
D6
100
AcDbEntity
  8
AM_9
100
AcDbCircle
 10
-1.551937500000001
 20
-1.243287500000001
 30
0.0
 40
0.0953124999999995
100
AcDbArc
 50
179.9999991462263
 51
270.0
  0
LINE
  5
118
330
D6
100
AcDbEntity
  8
AM_9
100
AcDbLine
 10
-0.3857499999999998
 20
-1.2432875
 30
0.0
 11
-0.3857499999999998
 21
1.2432875
 31
0.0
  0
LINE
  5
119
330
D6
100
AcDbEntity
  8
AM_9
100
AcDbLine
 10
-0.4810624999999997
 20
-1.3386
 30
0.0
 11
-0.4810624999999997
 21
1.3386
 31
0.0
  0
ARC
  5
11A
330
D6
100
AcDbEntity
  8
AM_9
100
AcDbCircle
 10
-0.4810624999999992
 20
1.243287500000001
 30
0.0
 40
0.0953124999999994
100
AcDbArc
 50
0.0000008537736463
 51
90.0
  0
ARC
  5
11B
330
D6
100
AcDbEntity
  8
AM_9
100
AcDbCircle
 10
-0.4810624999999998
 20
-1.2432875
 30
0.0
 40
0.0953124999999999
100
AcDbArc
 50
270.0
 51
0.0
  0
LINE
  5
11C
330
D6
100
AcDbEntity
  8
AM_9
100
AcDbLine
 10
-0.9688437499999981
 20
1.60632
 30
0.0
 11
-1.064156250000002
 21
1.60632
 31
0.0
  0
LINE
  5
11D
330
D6
100
AcDbEntity
  8
AM_9
100
AcDbLine
 10
-1.064156250000002
 20
-1.60632
 30
0.0
 11
-0.9688437499999981
 21
-1.60632
 31
0.0
  0
LINE
  5
11E
330
D6
100
AcDbEntity
  8
AM_9
100
AcDbLine
 10
-1.064156250000002
 20
-1.60632
 30
0.0
 11
-1.064156250000002
 21
1.60632
 31
0.0
  0
LINE
  5
11F
330
D6
100
AcDbEntity
  8
AM_9
100
AcDbLine
 10
-1.064156250000002
 20
1.60632
 30
0.0
 11
-1.102798303516863
 21
1.67325
 31
0.0
  0
LINE
  5
120
330
D6
100
AcDbEntity
  8
AM_9
100
AcDbLine
 10
-1.102798303516863
 20
-1.67325
 30
0.0
 11
-1.064156250000002
 21
-1.60632
 31
0.0
  0
LINE
  5
121
330
D6
100
AcDbEntity
  8
AM_9
100
AcDbLine
 10
-1.4930625
 20
-1.5779375
 30
0.0
 11
-1.4930625
 21
1.5779375
 31
0.0
  0
ARC
  5
122
330
D6
100
AcDbEntity
  8
AM_9
100
AcDbCircle
 10
-1.39775
 20
1.5779375
 30
0.0
 40
0.0953124999999999
100
AcDbArc
 50
90.0
 51
180.0
  0
ARC
  5
123
330
D6
100
AcDbEntity
  8
AM_9
100
AcDbCircle
 10
-1.39775
 20
-1.5779375
 30
0.0
 40
0.0953124999999999
100
AcDbArc
 50
180.0
 51
270.0
  0
LINE
  5
124
330
D6
100
AcDbEntity
  8
AM_9
100
AcDbLine
 10
-0.9688437499999981
 20
-1.60632
 30
0.0
 11
-0.9688437499999981
 21
1.60632
 31
0.0
  0
LINE
  5
125
330
D6
100
AcDbEntity
  8
AM_9
100
AcDbLine
 10
-0.9688437499999981
 20
-1.60632
 30
0.0
 11
-0.9302016964831364
 21
-1.67325
 31
0.0
  0
LINE
  5
126
330
D6
100
AcDbEntity
  8
AM_9
100
AcDbLine
 10
-0.9302016964831364
 20
1.67325
 30
0.0
 11
-0.9688437499999981
 21
1.60632
 31
0.0
  0
LINE
  5
127
330
D6
100
AcDbEntity
  8
AM_9
100
AcDbLine
 10
-1.102798303516863
 20
-1.67325
 30
0.0
 11
-1.102798303516863
 21
1.67325
 31
0.0
  0
LINE
  5
128
330
D6
100
AcDbEntity
  8
AM_9
100
AcDbLine
 10
-1.39775
 20
-1.67325
 30
0.0
 11
-1.39775
 21
1.67325
 31
0.0
  0
LINE
  5
129
330
D6
100
AcDbEntity
  8
AM_9
100
AcDbLine
 10
-1.102798303516863
 20
1.67325
 30
0.0
 11
-1.39775
 21
1.67325
 31
0.0
  0
LINE
  5
12A
330
D6
100
AcDbEntity
  8
AM_9
100
AcDbLine
 10
-1.39775
 20
-1.67325
 30
0.0
 11
-1.102798303516863
 21
-1.67325
 31
0.0
  0
LINE
  5
12B
330
D6
100
AcDbEntity
  8
AM_9
100
AcDbLine
 10
-0.9302016964831364
 20
-1.67325
 30
0.0
 11
-0.9302016964831364
 21
1.67325
 31
0.0
  0
LINE
  5
12C
330
D6
100
AcDbEntity
  8
AM_9
100
AcDbLine
 10
-0.63525
 20
1.67325
 30
0.0
 11
-0.9302016964831364
 21
1.67325
 31
0.0
  0
LINE
  5
12D
330
D6
100
AcDbEntity
  8
AM_9
100
AcDbLine
 10
-0.9302016964831364
 20
-1.67325
 30
0.0
 11
-0.63525
 21
-1.67325
 31
0.0
  0
LINE
  5
12E
330
D6
100
AcDbEntity
  8
AM_9
100
AcDbLine
 10
-0.5399374999999998
 20
-1.577937501420267
 30
0.0
 11
-0.5399374999999998
 21
1.577937501420267
 31
0.0
  0
LINE
  5
12F
330
D6
100
AcDbEntity
  8
AM_9
100
AcDbLine
 10
-0.63525
 20
-1.67325
 30
0.0
 11
-0.63525
 21
1.67325
 31
0.0
  0
ARC
  5
130
330
D6
100
AcDbEntity
  8
AM_9
100
AcDbCircle
 10
-0.6352499999999999
 20
1.5779375
 30
0.0
 40
0.0953125
100
AcDbArc
 50
0.0
 51
90.0
  0
ARC
  5
131
330
D6
100
AcDbEntity
  8
AM_9
100
AcDbCircle
 10
-0.6352499999999999
 20
-1.5779375
 30
0.0
 40
0.0953124999999999
100
AcDbArc
 50
270.0
 51
0.0
  0
LWPOLYLINE
  5
132
330
D6
100
AcDbEntity
  8
AM_4
100
AcDbPolyline
 90
        7
 70
     0
 43
0.0
 10
-2.332339840251297
 20
0.5355129749248358
 10
-2.340787173249018
 20
0.5377911968645097
 10
-2.374829855212846
 20
0.5438630421348409
 10
-2.408881175064668
 20
0.5451767200051031
 10
-2.442726616006929
 20
0.5419593748452951
 10
-2.474931533153508
 20
0.5343629561815103
 10
-2.480676106182236
 20
0.5325140983074644
  0
LINE
  5
133
330
D6
100
AcDbEntity
  8
AM_4
100
AcDbLine
 10
-1.890625
 20
1.155
 30
0.0
 11
-2.08475
 21
1.155
 31
0.0
  0
LINE
  5
134
330
D6
100
AcDbEntity
  8
AM_4
100
AcDbLine
 10
-2.08475
 20
-1.155
 30
0.0
 11
-1.890625
 21
-1.155
 31
0.0
  0
ENDBLK
  5
D9
330
D6
100
AcDbEntity
  8
0
100
AcDbBlockEnd
  0
BLOCK
  5
137
330
135
100
AcDbEntity
  8
0
100
AcDbBlockBegin
  2
4_405015E_Inch_0_in_070528_2
 70
     2
 10
0.0
 20
0.0
 30
0.0
  3
4_405015E_Inch_0_in_070528_2
  1

  0
ATTDEF
  5
139
330
135
100
AcDbEntity
  8
AM_6
100
AcDbText
 10
4.057278242770462
 20
2.646875
 30
0.0
 40
0.5
  1
405015E -Inch
100
AcDbAttributeDefinition
  3

  2
NN
 70
     8
280
     0
  0
ATTDEF
  5
13A
330
135
100
AcDbEntity
  8
AM_6
100
AcDbText
 10
4.057278242770462
 20
2.146875
 30
0.0
 40
0.5
  1
Grease Fitting
100
AcDbAttributeDefinition
  3

  2
NT
 70
     8
280
     0
  0
ATTDEF
  5
13B
330
135
100
AcDbEntity
  8
AM_6
100
AcDbText
 10
4.057278242770462
 20
1.646875
 30
0.0
 40
0.5
  1
405015E-Inch
100
AcDbAttributeDefinition
  3

  2
NB
 70
     8
280
     0
  0
ATTDEF
  5
13C
330
135
100
AcDbEntity
  8
AM_6
100
AcDbText
 10
4.057278242770462
 20
1.146875
 30
0.0
 40
0.5
  1
$MN.-Inch
100
AcDbAttributeDefinition
  3

  2
NBSYN
 70
     8
280
     0
  0
ATTDEF
  5
13D
330
135
100
AcDbEntity
  8
AM_6
100
AcDbText
 10
4.057278242770462
 20
0.6468749999999996
 30
0.0
 40
0.5
  1
405015E
100
AcDbAttributeDefinition
  3

  2
LINA
 70
     8
280
     0
  0
ATTDEF
  5
13E
330
135
100
AcDbEntity
  8
AM_6
100
AcDbText
 10
4.057278242770462
 20
0.1468749999999996
 30
0.0
 40
0.5
  1
405015E
100
AcDbAttributeDefinition
  3

  2
MN
 70
     8
280
     0
  0
ATTDEF
  5
13F
330
135
100
AcDbEntity
  8
AM_6
100
AcDbText
 10
4.057278242770462
 20
-0.3531250000000004
 30
0.0
 40
0.5
  1
1/8 x 27PTF
100
AcDbAttributeDefinition
  3

  2
T
 70
     8
280
     0
  0
ATTDEF
  5
140
330
135
100
AcDbEntity
  8
AM_6
100
AcDbText
 10
4.057278242770462
 20
-0.8531250000000004
 30
0.0
 40
0.5
  1
baldor
100
AcDbAttributeDefinition
  3

  2
COMPANY
 70
     8
280
     0
  0
LINE
  5
141
330
135
100
AcDbEntity
  8
AM_9
100
AcDbLine
 10
-1.357215372472269
 20
2.006875
 30
0.0
 11
-1.033409627527731
 21
2.006875
 31
0.0
  0
LINE
  5
142
330
135
100
AcDbEntity
  8
AM_9
100
AcDbLine
 10
-1.033409627527731
 20
2.006875
 30
0.0
 11
-0.9966948732187846
 21
2.043589754308946
 31
0.0
  0
LINE
  5
143
330
135
100
AcDbEntity
  8
AM_9
100
AcDbLine
 10
-1.393930126781215
 20
2.043589754308946
 30
0.0
 11
-1.357215372472269
 21
2.006875
 31
0.0
  0
LINE
  5
144
330
135
100
AcDbEntity
  8
AM_9
100
AcDbLine
 10
-1.393930126781215
 20
2.043589754308946
 30
0.0
 11
-0.9966948732187846
 21
2.043589754308946
 31
0.0
  0
LINE
  5
145
330
135
100
AcDbEntity
  8
AM_9
100
AcDbLine
 10
-0.9966948732187846
 20
2.043589754308946
 30
0.0
 11
-0.9895606027769303
 21
2.271875
 31
0.0
  0
LINE
  5
146
330
135
100
AcDbEntity
  8
AM_9
100
AcDbLine
 10
-1.40106439722307
 20
2.271875
 30
0.0
 11
-1.393930126781215
 21
2.043589754308946
 31
0.0
  0
LINE
  5
147
330
135
100
AcDbEntity
  8
AM_5
100
AcDbLine
 10
-1.027163375147652
 20
2.206745087748463
 30
0.0
 11
-1.033409627527731
 21
2.006875
 31
0.0
  0
LINE
  5
148
330
135
100
AcDbEntity
  8
AM_5
100
AcDbLine
 10
-0.9895606027769303
 20
2.271875
 30
0.0
 11
-1.027163375147652
 21
2.206745087748463
 31
0.0
  0
LINE
  5
149
330
135
100
AcDbEntity
  8
AM_5
100
AcDbLine
 10
-1.399028985751557
 20
2.206745087748463
 30
0.0
 11
-0.9915960142484432
 21
2.206745087748463
 31
0.0
  0
LINE
  5
14A
330
135
100
AcDbEntity
  8
AM_5
100
AcDbLine
 10
-1.363461624852348
 20
2.206745087748463
 30
0.0
 11
-1.357215372472269
 21
2.006875
 31
0.0
  0
LINE
  5
14B
330
135
100
AcDbEntity
  8
AM_5
100
AcDbLine
 10
-1.40106439722307
 20
2.271875
 30
0.0
 11
-1.363461624852348
 21
2.206745087748463
 31
0.0
  0
LINE
  5
14C
330
135
100
AcDbEntity
  8
AM_4
100
AcDbLine
 10
-1.0903125
 20
2.476875
 30
0.0
 11
-1.0903125
 21
2.506875
 31
0.0
  0
LINE
  5
14D
330
135
100
AcDbEntity
  8
AM_4
100
AcDbLine
 10
-1.3003125
 20
2.506875
 30
0.0
 11
-1.3003125
 21
2.476875
 31
0.0
  0
LINE
  5
14E
330
135
100
AcDbEntity
  8
AM_4
100
AcDbLine
 10
-1.4140625
 20
2.371875
 30
0.0
 11
-0.9765625
 21
2.371875
 31
0.0
  0
LINE
  5
14F
330
135
100
AcDbEntity
  8
AM_4
100
AcDbLine
 10
-0.9427217572295387
 20
2.362807400303386
 30
0.0
 11
-0.9765625
 21
2.371875
 31
0.0
  0
LINE
  5
150
330
135
100
AcDbEntity
  8
AM_4
100
AcDbLine
 10
-1.4140625
 20
2.371875
 30
0.0
 11
-1.447903242770461
 21
2.362807400303386
 31
0.0
  0
LINE
  5
151
330
135
100
AcDbEntity
  8
AM_4
100
AcDbLine
 10
-0.9765625
 20
2.271875
 30
0.0
 11
-0.9427217572295387
 21
2.280942599696615
 31
0.0
  0
LINE
  5
152
330
135
100
AcDbEntity
  8
AM_4
100
AcDbLine
 10
-1.447903242770461
 20
2.280942599696615
 30
0.0
 11
-1.4140625
 21
2.271875
 31
0.0
  0
LINE
  5
153
330
135
100
AcDbEntity
  8
AM_4
100
AcDbLine
 10
-1.3003125
 20
2.476875
 30
0.0
 11
-1.0903125
 21
2.476875
 31
0.0
  0
LINE
  5
154
330
135
100
AcDbEntity
  8
AM_4
100
AcDbLine
 10
-1.3003125
 20
2.476875
 30
0.0
 11
-1.314132590734897
 21
2.444628121618572
 31
0.0
  0
LINE
  5
155
330
135
100
AcDbEntity
  8
AM_4
100
AcDbLine
 10
-1.076492409265102
 20
2.444628121618572
 30
0.0
 11
-1.0903125
 21
2.476875
 31
0.0
  0
LINE
  5
156
330
135
100
AcDbEntity
  8
AM_4
100
AcDbLine
 10
-1.3003125
 20
2.506875
 30
0.0
 11
-1.0903125
 21
2.506875
 31
0.0
  0
LINE
  5
157
330
135
100
AcDbEntity
  8
AM_4
100
AcDbLine
 10
-1.0903125
 20
2.506875
 30
0.0
 11
-1.0603125
 21
2.566875
 31
0.0
  0
LINE
  5
158
330
135
100
AcDbEntity
  8
AM_4
100
AcDbLine
 10
-1.3303125
 20
2.566875
 30
0.0
 11
-1.3003125
 21
2.506875
 31
0.0
  0
LINE
  5
159
330
135
100
AcDbEntity
  8
AM_4
100
AcDbLine
 10
-1.297990401933187
 20
2.646875
 30
0.0
 11
-1.092634598066812
 21
2.646875
 31
0.0
  0
LINE
  5
15A
330
135
100
AcDbEntity
  8
AM_4
100
AcDbLine
 10
-1.3303125
 20
2.566875
 30
0.0
 11
-1.0603125
 21
2.566875
 31
0.0
  0
LINE
  5
15B
330
135
100
AcDbEntity
  8
AM_4
100
AcDbLine
 10
-1.297990401933187
 20
2.646875
 30
0.0
 11
-1.3303125
 21
2.566875
 31
0.0
  0
LINE
  5
15C
330
135
100
AcDbEntity
  8
AM_4
100
AcDbLine
 10
-1.0603125
 20
2.566875
 30
0.0
 11
-1.092634598066812
 21
2.646875
 31
0.0
  0
LINE
  5
15D
330
135
100
AcDbEntity
  8
AM_4
100
AcDbLine
 10
-1.314132590734897
 20
2.444628121618572
 30
0.0
 11
-1.076492409265102
 21
2.444628121618572
 31
0.0
  0
LINE
  5
15E
330
135
100
AcDbEntity
  8
AM_4
100
AcDbLine
 10
-1.314132590734898
 20
2.444628121618572
 30
0.0
 11
-1.367846553283015
 21
2.390193198540882
 31
0.0
  0
LINE
  5
15F
330
135
100
AcDbEntity
  8
AM_4
100
AcDbLine
 10
-1.022778446716984
 20
2.390193198540882
 30
0.0
 11
-1.076492409265102
 21
2.444628121618572
 31
0.0
  0
LINE
  5
160
330
135
100
AcDbEntity
  8
AM_4
100
AcDbLine
 10
-1.367846553283015
 20
2.390193198540882
 30
0.0
 11
-1.022778446716984
 21
2.390193198540882
 31
0.0
  0
LINE
  5
161
330
135
100
AcDbEntity
  8
AM_4
100
AcDbLine
 10
-1.367846553283015
 20
2.390193198540882
 30
0.0
 11
-1.4090625
 21
2.371875
 31
0.0
  0
LINE
  5
162
330
135
100
AcDbEntity
  8
AM_4
100
AcDbLine
 10
-0.9815624999999999
 20
2.371875
 30
0.0
 11
-1.022778446716984
 21
2.390193198540882
 31
0.0
  0
LWPOLYLINE
  5
163
330
135
100
AcDbEntity
  8
AM_4
100
AcDbPolyline
 90
        3
 70
     0
 43
0.0
 10
-1.384755557077846
 20
2.371875
 10
-1.353181714231538
 20
2.369481619214965
 10
-1.32160787138523
 20
2.362807400303386
  0
LWPOLYLINE
  5
164
330
135
100
AcDbEntity
  8
AM_4
100
AcDbPolyline
 90
        3
 70
     0
 43
0.0
 10
-1.447903242770461
 20
2.362807400303386
 10
-1.416471364423564
 20
2.36946047505038
 10
-1.384755557077846
 20
2.371875
  0
LINE
  5
165
330
135
100
AcDbEntity
  8
AM_4
100
AcDbLine
 10
-1.447903242770461
 20
2.362807400303386
 30
0.0
 11
-1.447903242770461
 21
2.280942599696615
 31
0.0
  0
LWPOLYLINE
  5
166
330
135
100
AcDbEntity
  8
AM_4
100
AcDbPolyline
 90
        3
 70
     0
 43
0.0
 10
-1.384755557077846
 20
2.271875
 10
-1.416329399924154
 20
2.274268380785034
 10
-1.447903242770461
 20
2.280942599696615
  0
LWPOLYLINE
  5
167
330
135
100
AcDbEntity
  8
AM_4
100
AcDbPolyline
 90
        3
 70
     0
 43
0.0
 10
-1.32160787138523
 20
2.280942599696615
 10
-1.353039749732128
 20
2.27428952494962
 10
-1.384755557077846
 20
2.271875
  0
LINE
  5
168
330
135
100
AcDbEntity
  8
AM_4
100
AcDbLine
 10
-0.9427217572295387
 20
2.362807400303386
 30
0.0
 11
-0.9427217572295387
 21
2.280942599696615
 31
0.0
  0
LWPOLYLINE
  5
169
330
135
100
AcDbEntity
  8
AM_4
100
AcDbPolyline
 90
        3
 70
     0
 43
0.0
 10
-1.005869442922154
 20
2.371875
 10
-0.9742956000758464
 20
2.369481619214965
 10
-0.9427217572295387
 20
2.362807400303386
  0
LWPOLYLINE
  5
16A
330
135
100
AcDbEntity
  8
AM_4
100
AcDbPolyline
 90
        3
 70
     0
 43
0.0
 10
-1.069017128614769
 20
2.362807400303386
 10
-1.037585250267872
 20
2.36946047505038
 10
-1.005869442922154
 20
2.371875
  0
LWPOLYLINE
  5
16B
330
135
100
AcDbEntity
  8
AM_4
100
AcDbPolyline
 90
        3
 70
     0
 43
0.0
 10
-1.005869442922154
 20
2.271875
 10
-1.037443285768462
 20
2.274268380785034
 10
-1.069017128614769
 20
2.280942599696615
  0
LWPOLYLINE
  5
16C
330
135
100
AcDbEntity
  8
AM_4
100
AcDbPolyline
 90
        3
 70
     0
 43
0.0
 10
-0.9427217572295387
 20
2.280942599696615
 10
-0.9741536355764355
 20
2.27428952494962
 10
-1.005869442922154
 20
2.271875
  0
LINE
  5
16D
330
135
100
AcDbEntity
  8
AM_4
100
AcDbLine
 10
-1.069017128614769
 20
2.362807400303386
 30
0.0
 11
-1.069017128614769
 21
2.280942599696615
 31
0.0
  0
LWPOLYLINE
  5
16E
330
135
100
AcDbEntity
  8
AM_4
100
AcDbPolyline
 90
        4
 70
     0
 43
0.0
 10
-1.1953125
 20
2.371875
 10
-1.146912683944101
 20
2.370457439282863
 10
-1.098512867888202
 20
2.366392587482156
 10
-1.069017128614769
 20
2.362807400303386
  0
LWPOLYLINE
  5
16F
330
135
100
AcDbEntity
  8
AM_4
100
AcDbPolyline
 90
        3
 70
     0
 43
0.0
 10
-1.32160787138523
 20
2.362807400303386
 10
-1.258744114691437
 20
2.36946047505038
 10
-1.1953125
 20
2.371875
  0
LINE
  5
170
330
135
100
AcDbEntity
  8
AM_4
100
AcDbLine
 10
-1.32160787138523
 20
2.362807400303386
 30
0.0
 11
-1.32160787138523
 21
2.280942599696615
 31
0.0
  0
LWPOLYLINE
  5
171
330
135
100
AcDbEntity
  8
AM_4
100
AcDbPolyline
 90
        3
 70
     0
 43
0.0
 10
-1.1953125
 20
2.271875
 10
-1.258460185692615
 20
2.274268380785034
 10
-1.32160787138523
 20
2.280942599696615
  0
LWPOLYLINE
  5
172
330
135
100
AcDbEntity
  8
AM_4
100
AcDbPolyline
 90
        4
 70
     0
 43
0.0
 10
-1.069017128614769
 20
2.280942599696615
 10
-1.098512867888202
 20
2.277357412517844
 10
-1.146770058752246
 20
2.273300828243072
 10
-1.1953125
 20
2.271875
  0
ENDBLK
  5
138
330
135
100
AcDbEntity
  8
0
100
AcDbBlockEnd
  0
BLOCK
  5
175
330
173
100
AcDbEntity
  8
0
100
AcDbBlockBegin
  2
5_070528H_0_in_070528_2
 70
     2
 10
0.0
 20
0.0
 30
0.0
  3
5_070528H_0_in_070528_2
  1

  0
ATTDEF
  5
177
330
173
100
AcDbEntity
  8
AM_6
100
AcDbText
 10
5.09453125
 20
3.177696078431373
 30
0.0
 40
0.5
  1
F3&4R-S2 -(Labyrinth Seal)-Housing
100
AcDbAttributeDefinition
  3

  2
NN
 70
     8
280
     0
  0
ATTDEF
  5
178
330
173
100
AcDbEntity
  8
AM_6
100
AcDbText
 10
5.09453125
 20
2.677696078431373
 30
0.0
 40
0.5
  1
S-2000 3 & 4 Bolt Round Flange Bearing -Inch
100
AcDbAttributeDefinition
  3

  2
NT
 70
     8
280
     0
  0
ATTDEF
  5
179
330
173
100
AcDbEntity
  8
AM_6
100
AcDbText
 10
5.09453125
 20
2.177696078431373
 30
0.0
 40
0.5
  1
070528H
100
AcDbAttributeDefinition
  3

  2
NB
 70
     8
280
     0
  0
ATTDEF
  5
17A
330
173
100
AcDbEntity
  8
AM_6
100
AcDbText
 10
5.09453125
 20
1.677696078431373
 30
0.0
 40
0.5
  1
$PN.H
100
AcDbAttributeDefinition
  3

  2
NBSYN
 70
     8
280
     0
  0
ATTDEF
  5
17B
330
173
100
AcDbEntity
  8
AM_6
100
AcDbText
 10
5.09453125
 20
1.177696078431373
 30
0.0
 40
0.5
  1
070528
100
AcDbAttributeDefinition
  3

  2
LINA
 70
     8
280
     0
  0
ATTDEF
  5
17C
330
173
100
AcDbEntity
  8
AM_6
100
AcDbText
 10
5.09453125
 20
0.6776960784313726
 30
0.0
 40
0.5
  1
1-3/4
100
AcDbAttributeDefinition
  3

  2
SS
 70
     8
280
     0
  0
ATTDEF
  5
17D
330
173
100
AcDbEntity
  8
AM_6
100
AcDbText
 10
5.09453125
 20
0.1776960784313726
 30
0.0
 40
0.5
  1
070528
100
AcDbAttributeDefinition
  3

  2
PN
 70
     8
280
     0
  0
ATTDEF
  5
17E
330
173
100
AcDbEntity
  8
AM_6
100
AcDbText
 10
5.09453125
 20
-0.3223039215686274
 30
0.0
 40
0.5
  1
F4R-S2-112LE
100
AcDbAttributeDefinition
  3

  2
DESCRIPTION
 70
     8
280
     0
  0
ATTDEF
  5
17F
330
173
100
AcDbEntity
  8
AM_6
100
AcDbText
 10
5.09453125
 20
-0.8223039215686274
 30
0.0
 40
0.5
  1
Expansion Type
100
AcDbAttributeDefinition
  3

  2
EF
 70
     8
280
     0
  0
ATTDEF
  5
180
330
173
100
AcDbEntity
  8
AM_6
100
AcDbText
 10
5.09453125
 20
-1.322303921568627
 30
0.0
 40
0.5
  1
2-43/64
100
AcDbAttributeDefinition
  3

  2
A
 70
     8
280
     0
  0
ATTDEF
  5
181
330
173
100
AcDbEntity
  8
AM_6
100
AcDbText
 10
5.09453125
 20
-1.822303921568627
 30
0.0
 40
0.5
  1
6-3/8
100
AcDbAttributeDefinition
  3

  2
B
 70
     8
280
     0
  0
ATTDEF
  5
182
330
173
100
AcDbEntity
  8
AM_6
100
AcDbText
 10
5.09453125
 20
-2.322303921568627
 30
0.0
 40
0.5
  1
2-31/32
100
AcDbAttributeDefinition
  3

  2
C
 70
     8
280
     0
  0
ATTDEF
  5
183
330
173
100
AcDbEntity
  8
AM_6
100
AcDbText
 10
5.09453125
 20
-2.822303921568627
 30
0.0
 40
0.5
  1
5-1/2
100
AcDbAttributeDefinition
  3

  2
DD
 70
     8
280
     0
  0
ATTDEF
  5
184
330
173
100
AcDbEntity
  8
AM_6
100
AcDbText
 10
5.09453125
 20
-3.322303921568627
 30
0.0
 40
0.5
  1
1-57/64
100
AcDbAttributeDefinition
  3

  2
E
 70
     8
280
     0
  0
ATTDEF
  5
185
330
173
100
AcDbEntity
  8
AM_6
100
AcDbText
 10
5.09453125
 20
-3.822303921568627
 30
0.0
 40
0.5
  1
1/2
100
AcDbAttributeDefinition
  3

  2
F
 70
     8
280
     0
  0
ATTDEF
  5
186
330
173
100
AcDbEntity
  8
AM_6
100
AcDbText
 10
5.09453125
 20
-4.322303921568627
 30
0.0
 40
0.5
  1
1/2
100
AcDbAttributeDefinition
  3

  2
H
 70
     8
280
     0
  0
ATTDEF
  5
187
330
173
100
AcDbEntity
  8
AM_6
100
AcDbText
 10
5.09453125
 20
-4.822303921568627
 30
0.0
 40
0.5
  1
4-11/32
100
AcDbAttributeDefinition
  3

  2
J
 70
     8
280
     0
  0
ATTDEF
  5
188
330
173
100
AcDbEntity
  8
AM_6
100
AcDbText
 10
5.09453125
 20
-5.322303921568627
 30
0.0
 40
0.5
  1
3-3/16
100
AcDbAttributeDefinition
  3

  2
L
 70
     8
280
     0
  0
ATTDEF
  5
189
330
173
100
AcDbEntity
  8
AM_6
100
AcDbText
 10
5.09453125
 20
-5.822303921568627
 30
0.0
 40
0.5
  1
19/64
100
AcDbAttributeDefinition
  3

  2
P
 70
     8
280
     0
  0
ATTDEF
  5
18A
330
173
100
AcDbEntity
  8
AM_6
100
AcDbText
 10
5.09453125
 20
-6.322303921568627
 30
0.0
 40
0.5
  1
1/4
100
AcDbAttributeDefinition
  3

  2
X
 70
     8
280
     0
  0
ATTDEF
  5
18B
330
173
100
AcDbEntity
  8
AM_6
100
AcDbText
 10
5.09453125
 20
-6.822303921568627
 30
0.0
 40
0.5
  1
0.020
100
AcDbAttributeDefinition
  3

  2
Y
 70
     8
280
     0
  0
ATTDEF
  5
18C
330
173
100
AcDbEntity
  8
AM_6
100
AcDbText
 10
5.09453125
 20
-7.322303921568627
 30
0.0
 40
0.5
  1
2-5/64
100
AcDbAttributeDefinition
  3

  2
Z
 70
     8
280
     0
  0
ATTDEF
  5
18D
330
173
100
AcDbEntity
  8
AM_6
100
AcDbText
 10
5.09453125
 20
-7.822303921568627
 30
0.0
 40
0.5
  1
baldor
100
AcDbAttributeDefinition
  3

  2
COMPANY
 70
     8
280
     0
  0
LINE
  5
18E
330
173
100
AcDbEntity
  8
AM_9
100
AcDbLine
 10
-0.4285714285714285
 20
2.93750000000001
 30
0.0
 11
0.0
 21
2.93750000000001
 31
0.0
  0
LINE
  5
18F
330
173
100
AcDbEntity
  8
AM_9
100
AcDbLine
 10
-0.5
 20
1.969719660648547
 30
0.0
 11
-0.4285714285714285
 21
1.969719660648547
 31
0.0
  0
LINE
  5
190
330
173
100
AcDbEntity
  8
AM_9
100
AcDbLine
 10
-0.5088070217229825
 20
1.933550069506346
 30
0.0
 11
-0.4285714285714285
 21
1.933550069506346
 31
0.0
  0
LINE
  5
191
330
173
100
AcDbEntity
  8
AM_9
100
AcDbLine
 10
-0.5
 20
-1.969719660648549
 30
0.0
 11
-0.4285714285714285
 21
-1.969719660648549
 31
0.0
  0
LINE
  5
192
330
173
100
AcDbEntity
  8
AM_9
100
AcDbLine
 10
-0.4285714285714285
 20
-1.933550069506347
 30
0.0
 11
-0.5091121811568753
 21
-1.933550069506347
 31
0.0
  0
LINE
  5
193
330
173
100
AcDbEntity
  8
AM_9
100
AcDbLine
 10
-1.890625
 20
-1.67325
 30
0.0
 11
-0.0714285714285714
 21
-1.67325
 31
0.0
  0
LINE
  5
194
330
173
100
AcDbEntity
  8
AM_9
100
AcDbLine
 10
-0.0714285714285714
 20
1.67325
 30
0.0
 11
-1.890625
 21
1.67325
 31
0.0
  0
LINE
  5
195
330
173
100
AcDbEntity
  8
AM_9
100
AcDbLine
 10
-0.0714285714285714
 20
1.8725625
 30
0.0
 11
-0.0714285714285714
 21
-1.8725625
 31
0.0
  0
ARC
  5
196
330
173
100
AcDbEntity
  8
AM_9
100
AcDbCircle
 10
-0.0214285714285714
 20
-1.8725625
 30
0.0
 40
0.05
100
AcDbArc
 50
179.9999991462263
 51
270.0
  0
ARC
  5
197
330
173
100
AcDbEntity
  8
AM_9
100
AcDbCircle
 10
-0.0214285714285714
 20
1.8725625
 30
0.0
 40
0.05
100
AcDbArc
 50
90.0
 51
180.0
  0
LINE
  5
198
330
173
100
AcDbEntity
  8
AM_9
100
AcDbLine
 10
-0.0214285714285712
 20
-1.9225625
 30
0.0
 11
0.0
 21
-1.9225625
 31
0.0
  0
LINE
  5
199
330
173
100
AcDbEntity
  8
AM_9
100
AcDbLine
 10
0.0
 20
1.9225625
 30
0.0
 11
-0.0214285714285712
 21
1.9225625
 31
0.0
  0
LINE
  5
19A
330
173
100
AcDbEntity
  8
AM_9
100
AcDbLine
 10
-0.0214285714285712
 20
1.9225625
 30
0.0
 11
-0.0214285714285712
 21
-1.9225625
 31
0.0
  0
LINE
  5
19B
330
173
100
AcDbEntity
  8
AM_9
100
AcDbLine
 10
-0.4285714285714285
 20
-1.94470726265615
 30
0.0
 11
-0.4285714285714284
 21
-2.525523690756519
 31
0.0
  0
LINE
  5
19C
330
173
100
AcDbEntity
  8
AM_9
100
AcDbLine
 10
-0.4285714285714284
 20
2.525523690756518
 30
0.0
 11
-0.4285714285714285
 21
1.944707262656149
 31
0.0
  0
LINE
  5
19D
330
173
100
AcDbEntity
  8
AM_9
100
AcDbLine
 10
-0.5499999999999998
 20
-1.953645979323994
 30
0.0
 11
-0.4285714285714286
 21
-1.953645988673268
 31
0.0
  0
LINE
  5
19E
330
173
100
AcDbEntity
  8
AM_9
100
AcDbLine
 10
-0.5499999999999998
 20
1.953645979323992
 30
0.0
 11
-0.4285714285714286
 21
1.953645979323992
 31
0.0
  0
LINE
  5
19F
330
173
100
AcDbEntity
  8
AM_9
100
AcDbLine
 10
-0.5
 20
-2.171875
 30
0.0
 11
-0.4285714285714285
 21
-2.171875
 31
0.0
  0
LINE
  5
1A0
330
173
100
AcDbEntity
  8
AM_9
100
AcDbLine
 10
-0.4285714285714285
 20
2.171875
 30
0.0
 11
-0.5
 21
2.171875
 31
0.0
  0
LINE
  5
1A1
330
173
100
AcDbEntity
  8
AM_9
100
AcDbLine
 10
-0.4999999999999999
 20
-2.194543648263006
 30
0.0
 11
0.0000000000000001
 21
-2.194543648263006
 31
0.0
  0
LINE
  5
1A2
330
173
100
AcDbEntity
  8
AM_9
100
AcDbLine
 10
0.0000000000000001
 20
-1.694543648263006
 30
0.0
 11
-0.4999999999999999
 21
-1.694543648263006
 31
0.0
  0
LINE
  5
1A3
330
173
100
AcDbEntity
  8
AM_9
100
AcDbLine
 10
-0.4999999999999999
 20
1.694543648263005
 30
0.0
 11
0.0000000000000001
 21
1.694543648263005
 31
0.0
  0
LINE
  5
1A4
330
173
100
AcDbEntity
  8
AM_9
100
AcDbLine
 10
0.0000000000000001
 20
2.194543648263005
 30
0.0
 11
-0.4999999999999999
 21
2.194543648263005
 31
0.0
  0
LINE
  5
1A5
330
173
100
AcDbEntity
  8
AM_7
100
AcDbLine
 10
-2.8515625
 20
0.0
 30
0.0
 11
0.09453125
 21
0.0
 31
0.0
  0
LINE
  5
1A6
330
173
100
AcDbEntity
  8
AM_7
100
AcDbLine
 10
0.0263157894736841
 20
1.944543648263006
 30
0.0
 11
-0.5526315789473685
 21
1.944543648263006
 31
0.0
  0
LINE
  5
1A7
330
173
100
AcDbEntity
  8
AM_7
100
AcDbLine
 10
0.0263157894736841
 20
-1.944543648263005
 30
0.0
 11
-0.5526315789473685
 21
-1.944543648263005
 31
0.0
  0
LINE
  5
1A8
330
173
100
AcDbEntity
  8
AM_7
100
AcDbLine
 10
-1.1953125
 20
2.678875
 30
0.0
 11
-1.1953125
 21
1.74831875
 31
0.0
  0
LINE
  5
1A9
330
173
100
AcDbEntity
  8
AM_4
100
AcDbLine
 10
-1.5953125
 20
2.271875
 30
0.0
 11
-0.79531250010285
 21
2.271875
 31
0.0
  0
ARC
  5
1AA
330
173
100
AcDbEntity
  8
AM_4
100
AcDbCircle
 10
-0.7953125000000005
 20
2.171874999999999
 30
0.0
 40
0.1000000000000008
100
AcDbArc
 50
0.0
 51
90.0
  0
ARC
  5
1AB
330
173
100
AcDbEntity
  8
AM_4
100
AcDbCircle
 10
-1.595312499999999
 20
2.171875
 30
0.0
 40
0.1000000000000005
100
AcDbArc
 50
90.0
 51
180.0
  0
LINE
  5
1AC
330
173
100
AcDbEntity
  8
AM_4
100
AcDbLine
 10
-1.6953125
 20
2.171875
 30
0.0
 11
-0.6953124999999998
 21
2.171875
 31
0.0
  0
LWPOLYLINE
  5
1AD
330
173
100
AcDbEntity
  8
AM_4
100
AcDbPolyline
 90
        4
 70
     0
 43
0.0
 10
-0.5086964397565794
 20
1.933550072021448
 10
-0.5075497109217002
 20
1.933582944687727
 10
-0.5026257176167426
 20
1.934887353978043
 10
-0.4999999999999986
 20
1.939390532563765
  0
LWPOLYLINE
  5
1AE
330
173
100
AcDbEntity
  8
AM_4
100
AcDbPolyline
 90
        6
 70
     0
 43
0.0
 10
-0.5087268558864373
 20
-1.933550109239895
 10
-0.5131749863955841
 20
-1.933960688316089
 10
-0.5244602806227665
 20
-1.937449535406995
 10
-0.5367105902965923
 20
-1.943936040548454
 10
-0.5497512979192862
 20
-1.953438546501485
 10
-0.5499999999999996
 20
-1.953645979323993
  0
LWPOLYLINE
  5
1AF
330
173
100
AcDbEntity
  8
AM_4
100
AcDbPolyline
 90
        6
 70
     0
 43
0.0
 10
-0.5499999999999997
 20
1.953645979323993
 10
-0.5497512979196217
 20
1.95343854650141
 10
-0.5311452670275083
 20
1.940686370050623
 10
-0.5221717050648643
 20
1.936523753110935
 10
-0.5140462719731388
 20
1.934120151659295
 10
-0.5086964397565794
 20
1.933550072021448
  0
LWPOLYLINE
  5
1B0
330
173
100
AcDbEntity
  8
AM_4
100
AcDbPolyline
 90
        4
 70
     0
 43
0.0
 10
-0.4999999999999999
 20
-1.939390532563765
 10
-0.5012465434089748
 20
-1.936002589279822
 10
-0.5046341289066528
 20
-1.93404880395433
 10
-0.5087268558864373
 20
-1.933550109239895
  0
LWPOLYLINE
  5
1B1
330
173
100
AcDbEntity
  8
AM_4
100
AcDbPolyline
 90
        8
 70
     0
 43
0.0
 10
-0.5499999999999997
 20
-0.9488458268318378
 10
-0.5497512979197215
 20
-0.9492742213987916
 10
-0.5370308106650098
 20
-0.9719749240894549
 10
-0.5248693764866746
 20
-0.9960051650777867
 10
-0.5140462719760187
 20
-1.021131565343724
 10
-0.507498555096805
 20
-1.039999658058146
 10
-0.5026257176170282
 20
-1.059311067362452
 10
-0.4999999999999998
 20
-1.084201493186132
  0
LWPOLYLINE
  5
1B2
330
173
100
AcDbEntity
  8
AM_4
100
AcDbPolyline
 90
        8
 70
     0
 43
0.0
 10
-0.4999999999999998
 20
1.084201493186924
 10
-0.5012708562773935
 20
1.067256589159111
 10
-0.5046341289066527
 20
1.050336976279546
 10
-0.5132865025362732
 20
1.023076291091608
 10
-0.5244602806227672
 20
0.9969204059352542
 10
-0.5367930210920355
 20
0.9724483146875298
 10
-0.5497512979193263
 20
0.9492742213986114
 10
-0.5499999999999997
 20
0.9488458268318384
  0
LINE
  5
1B3
330
173
100
AcDbEntity
  8
AM_4
100
AcDbLine
 10
-1.890625
 20
2.121875
 30
0.0
 11
-1.890625
 21
-2.121875
 31
0.0
  0
ARC
  5
1B4
330
173
100
AcDbEntity
  8
AM_4
100
AcDbCircle
 10
-1.840625
 20
-2.121875
 30
0.0
 40
0.0499999999999998
100
AcDbArc
 50
180.0
 51
270.0
  0
ARC
  5
1B5
330
173
100
AcDbEntity
  8
AM_4
100
AcDbCircle
 10
-1.840625
 20
2.121875
 30
0.0
 40
0.0499999999999998
100
AcDbArc
 50
90.0
 51
180.0
  0
LINE
  5
1B6
330
173
100
AcDbEntity
  8
AM_4
100
AcDbLine
 10
-0.5499999999999997
 20
-1.953645979323993
 30
0.0
 11
-0.5
 21
-1.953645979323993
 31
0.0
  0
LINE
  5
1B7
330
173
100
AcDbEntity
  8
AM_4
100
AcDbLine
 10
-0.5499999999999997
 20
-0.9488458268318378
 30
0.0
 11
-0.5499999999999997
 21
-1.953645979323993
 31
0.0
  0
LINE
  5
1B8
330
173
100
AcDbEntity
  8
AM_4
100
AcDbLine
 10
-0.5499999999999997
 20
-0.9488458268318378
 30
0.0
 11
-0.4285714285714284
 21
-0.9488458075819537
 31
0.0
  0
LINE
  5
1B9
330
173
100
AcDbEntity
  8
AM_4
100
AcDbLine
 10
-0.5499999999999997
 20
0.9488458268318396
 30
0.0
 11
-0.4285714285714284
 21
0.9488458268318396
 31
0.0
  0
LINE
  5
1BA
330
173
100
AcDbEntity
  8
AM_4
100
AcDbLine
 10
-0.5499999999999997
 20
1.953645979323993
 30
0.0
 11
-0.5499999999999997
 21
0.9488458268318396
 31
0.0
  0
LINE
  5
1BB
330
173
100
AcDbEntity
  8
AM_4
100
AcDbLine
 10
-0.5499999999999997
 20
1.953645979323993
 30
0.0
 11
-0.5
 21
1.953645988673268
 31
0.0
  0
LWPOLYLINE
  5
1BC
330
173
100
AcDbEntity
  8
AM_4
100
AcDbPolyline
 90
       39
 70
     0
 43
0.0
 10
-0.6953124999999998
 20
2.171875
 10
-0.6978364528913373
 20
2.171295335294547
 10
-0.7054863371754316
 20
2.169555411924858
 10
-0.7152165858347096
 20
2.167378867569504
 10
-0.7280769508295234
 20
2.164566948383357
 10
-0.7444746114696774
 20
2.161086421941339
 10
-0.7639582345546045
 20
2.157106283413716
 10
-0.786108893524805
 20
2.152786199620807
 10
-0.8109839897587993
 20
2.148196783213591
 10
-0.8392286299275201
 20
2.14332402367977
 10
-0.8699873510822446
 20
2.138428738149429
 10
-0.9027980188683944
 20
2.133684206049686
 10
-0.9376674863599364
 20
2.129183404190111
 10
-0.9754772235971552
 20
2.124940748826489
 10
-1.014957338982975
 20
2.121218753389305
 10
-1.054382163245796
 20
2.11823223240489
 10
-1.094824130053766
 20
2.115925076206493
 10
-1.137265996686322
 20
2.11433620310219
 10
-1.180158596633876
 20
2.113591885017595
 10
-1.220903981388557
 20
2.11369389064681
 10
-1.261470564564767
 20
2.114572747656593
 10
-1.302741278360334
 20
2.116267456883635
 10
-1.343224062535444
 20
2.118706880612955
 10
-1.381386722648106
 20
2.121713647105939
 10
-1.41829184023128
 20
2.125267230678292
 10
-1.454660312077471
 20
2.129390875315649
 10
-1.489212774739318
 20
2.133874032626304
 10
-1.521549204782989
 20
2.138568004256419
 10
-1.551660901789594
 20
2.143367723719614
 10
-1.580091666897185
 20
2.148277556437942
 10
-1.605770758869019
 20
2.153025080647875
 10
-1.628206175544635
 20
2.157414451944032
 10
-1.647631630943442
 20
2.161396218152154
 10
-1.664329882396109
 20
2.164951775190787
 10
-1.677548181256073
 20
2.167854300431999
 10
-1.685225081398656
 20
2.169574694896111
 10
-1.690763492631294
 20
2.170832260153772
 10
-1.694172259154977
 20
2.17161250390144
 10
-1.6953125
 20
2.171875
  0
LINE
  5
1BD
330
173
100
AcDbEntity
  8
AM_4
100
AcDbLine
 10
-1.840625
 20
-2.171875
 30
0.0
 11
-0.5
 21
-2.171875
 31
0.0
  0
LINE
  5
1BE
330
173
100
AcDbEntity
  8
AM_4
100
AcDbLine
 10
-0.5
 20
2.171875
 30
0.0
 11
-0.6953124999999999
 21
2.171875
 31
0.0
  0
LINE
  5
1BF
330
173
100
AcDbEntity
  8
AM_4
100
AcDbLine
 10
-1.6953125
 20
2.171875
 30
0.0
 11
-1.840625
 21
2.171875
 31
0.0
  0
LINE
  5
1C0
330
173
100
AcDbEntity
  8
AM_4
100
AcDbLine
 10
-1.840625
 20
2.171875
 30
0.0
 11
-1.840625
 21
-2.171875
 31
0.0
  0
LINE
  5
1C1
330
173
100
AcDbEntity
  8
AM_4
100
AcDbLine
 10
-0.4999999999999999
 20
1.150936844918217
 30
0.0
 11
-0.4285714285714284
 21
1.150936844918217
 31
0.0
  0
LWPOLYLINE
  5
1C2
330
173
100
AcDbEntity
  8
AM_4
100
AcDbPolyline
 90
        7
 70
     0
 43
0.0
 10
-0.5
 20
2.495445553052701
 10
-0.4998518522950501
 20
2.497760950210574
 10
-0.4954121322368664
 20
2.508037358713187
 10
-0.4852586084237271
 20
2.516776924857051
 10
-0.4709992468450121
 20
2.52274437833608
 10
-0.4548225681094697
 20
2.525383566780212
 10
-0.4499999999999998
 20
2.525523690756518
  0
LINE
  5
1C3
330
173
100
AcDbEntity
  8
AM_4
100
AcDbLine
 10
-0.5
 20
2.495445553052701
 30
0.0
 11
-0.4999999999999998
 21
1.084201493186924
 31
0.0
  0
LWPOLYLINE
  5
1C4
330
173
100
AcDbEntity
  8
AM_4
100
AcDbPolyline
 90
        6
 70
     0
 43
0.0
 10
-0.4499999999999998
 20
1.944707262656149
 10
-0.4659754409916176
 20
1.9424573223114
 10
-0.4801513850603479
 20
1.936023576371167
 10
-0.4912697101354535
 20
1.926010687181928
 10
-0.4982299116505561
 20
1.913086377416037
 10
-0.5
 20
1.901751230247926
  0
LINE
  5
1C5
330
173
100
AcDbEntity
  8
AM_4
100
AcDbLine
 10
-0.4999999999999999
 20
-1.150936844918216
 30
0.0
 11
-0.4285714285714284
 21
-1.150936844918216
 31
0.0
  0
LWPOLYLINE
  5
1C6
330
173
100
AcDbEntity
  8
AM_4
100
AcDbPolyline
 90
        7
 70
     0
 43
0.0
 10
-0.5
 20
-1.901751230247927
 10
-0.4998518522950501
 20
-1.905057960083762
 10
-0.4954121322368665
 20
-1.919734192403235
 10
-0.4852586084237278
 20
-1.932215586371386
 10
-0.4709992468450129
 20
-1.940737993162787
 10
-0.4548225681094701
 20
-1.944507144878692
 10
-0.4499999999999998
 20
-1.94470726265615
  0
LINE
  5
1C7
330
173
100
AcDbEntity
  8
AM_4
100
AcDbLine
 10
-0.4999999999999998
 20
-1.084201493186132
 30
0.0
 11
-0.5
 21
-2.495445553052701
 31
0.0
  0
LWPOLYLINE
  5
1C8
330
173
100
AcDbEntity
  8
AM_4
100
AcDbPolyline
 90
        6
 70
     0
 43
0.0
 10
-0.4499999999999998
 20
-2.525523690756519
 10
-0.4659754409916176
 20
-2.523948265566603
 10
-0.4801513850603479
 20
-2.519443308160326
 10
-0.4912697101354532
 20
-2.512432207670763
 10
-0.4982299116505561
 20
-2.503382508546529
 10
-0.5
 20
-2.495445553052701
  0
LINE
  5
1C9
330
173
100
AcDbEntity
  8
AM_4
100
AcDbLine
 10
-0.4285714285714284
 20
1.944707262656149
 30
0.0
 11
-0.4285714285714284
 21
-1.94470726265615
 31
0.0
  0
LINE
  5
1CA
330
173
100
AcDbEntity
  8
AM_4
100
AcDbLine
 10
0.0
 20
3.177696078431373
 30
0.0
 11
0.0
 21
-3.1875
 31
0.0
  0
LINE
  5
1CB
330
173
100
AcDbEntity
  8
AM_4
100
AcDbLine
 10
-0.4285714285714285
 20
3.177696078431373
 30
0.0
 11
0.0
 21
3.177696078431373
 31
0.0
  0
LINE
  5
1CC
330
173
100
AcDbEntity
  8
AM_4
100
AcDbLine
 10
-0.4285714285714285
 20
3.177696078431373
 30
0.0
 11
-0.4285714285714284
 21
2.525523690756518
 31
0.0
  0
LINE
  5
1CD
330
173
100
AcDbEntity
  8
AM_4
100
AcDbLine
 10
-0.4499999999999998
 20
2.525523690756518
 30
0.0
 11
-0.4285714285714284
 21
2.525523690756518
 31
0.0
  0
LINE
  5
1CE
330
173
100
AcDbEntity
  8
AM_4
100
AcDbLine
 10
-0.4499999999999998
 20
2.525523690756518
 30
0.0
 11
-0.4499999999999998
 21
1.944707262656149
 31
0.0
  0
LINE
  5
1CF
330
173
100
AcDbEntity
  8
AM_4
100
AcDbLine
 10
-0.4285714285714284
 20
1.944707262656149
 30
0.0
 11
-0.4499999999999998
 21
1.944707262656149
 31
0.0
  0
LINE
  5
1D0
330
173
100
AcDbEntity
  8
AM_4
100
AcDbLine
 10
-0.4499999999999998
 20
-1.94470726265615
 30
0.0
 11
-0.4285714285714284
 21
-1.94470726265615
 31
0.0
  0
LINE
  5
1D1
330
173
100
AcDbEntity
  8
AM_4
100
AcDbLine
 10
-0.4499999999999998
 20
-1.94470726265615
 30
0.0
 11
-0.4499999999999998
 21
-2.525523690756519
 31
0.0
  0
LINE
  5
1D2
330
173
100
AcDbEntity
  8
AM_4
100
AcDbLine
 10
-0.4285714285714284
 20
-2.525523690756519
 30
0.0
 11
-0.4499999999999998
 21
-2.525523690756519
 31
0.0
  0
LINE
  5
1D3
330
173
100
AcDbEntity
  8
AM_4
100
AcDbLine
 10
-0.4285714285714284
 20
-2.525523690756519
 30
0.0
 11
-0.4285714285714285
 21
-3.1875
 31
0.0
  0
LINE
  5
1D4
330
173
100
AcDbEntity
  8
AM_4
100
AcDbLine
 10
-0.4285714285714285
 20
-3.1875
 30
0.0
 11
0.0
 21
-3.1875
 31
0.0
  0
ENDBLK
  5
176
330
173
100
AcDbEntity
  8
0
100
AcDbBlockEnd
  0
ENDSEC
  0
SECTION
  2
ENTITIES
  0
INSERT
  5
6F
330
1F
100
AcDbEntity
  8
0
100
AcDbBlockReference
  2
1_070528_2
 10
0.0
 20
0.0
 30
0.0
  0
POINT
  5
1D6
330
1F
100
AcDbEntity
  8
ConnectionPoints
100
AcDbPoint
 10
-2.71875
 20
0.0
 30
0.0000000000000002
  0
POINT
  5
1D7
330
1F
100
AcDbEntity
  8
ConnectionPoints
100
AcDbPoint
 10
0.6857500000000001
 20
0.0
 30
0.0
  0
POINT
  5
1D8
330
1F
100
AcDbEntity
  8
ConnectionPoints
100
AcDbPoint
 10
-2.71875
 20
0.0
 30
0.0000000000000002
  0
POINT
  5
1D9
330
1F
100
AcDbEntity
  8
ConnectionPoints
100
AcDbPoint
 10
-1.1953125
 20
2.271875
 30
0.0000000000000001
  0
POINT
  5
1DA
330
1F
100
AcDbEntity
  8
ConnectionPoints
100
AcDbPoint
 10
-1.1953125
 20
2.271875
 30
0.0000000000000001
  0
POINT
  5
1DB
330
1F
100
AcDbEntity
  8
ConnectionPoints
100
AcDbPoint
 10
-2.71875
 20
0.0
 30
0.0000000000000002
  0
POINT
  5
1DC
330
1F
100
AcDbEntity
  8
ConnectionPoints
100
AcDbPoint
 10
-2.96875
 20
0.0
 30
0.0000000000000002
  0
ENDSEC
  0
SECTION
  2
OBJECTS
  0
DICTIONARY
  5
C
330
0
100
AcDbDictionary
281
     1
  3
ACAD_DETAILVIEWSTYLE
350
1E4
  3
ACAD_GROUP
350
D
  3
ACAD_LAYOUT
350
1A
  3
ACAD_MATERIAL
350
43
  3
ACAD_MLEADERSTYLE
350
6B
  3
ACAD_MLINESTYLE
350
17
  3
ACAD_PLOTSETTINGS
350
19
  3
ACAD_PLOTSTYLENAME
350
E
  3
ACAD_SCALELIST
350
47
  3
ACAD_SECTIONVIEWSTYLE
350
1E5
  3
ACAD_TABLESTYLE
350
69
  3
ACAD_VISUALSTYLE
350
2A
  3
ACDB_RECOMPOSE_DATA
350
1E1
  3
AcDbVariableDictionary
350
1DD
  0
SUN
  5
6D
330
29
100
AcDbSun
 90
        1
290
     0
 63
     7
421
 16777215
 40
1.0
291
     1
 91
  2455826
 92
 54000000
292
     0
 70
     2
 71
   256
280
     1
  0
DICTIONARY
  5
1E4
102
{ACAD_REACTORS
330
C
102
}
330
C
100
AcDbDictionary
281
     1
  0
DICTIONARY
  5
D
102
{ACAD_REACTORS
330
C
102
}
330
C
100
AcDbDictionary
281
     1
  0
DICTIONARY
  5
1A
102
{ACAD_REACTORS
330
C
102
}
330
C
100
AcDbDictionary
281
     1
  3
Layout1
350
1E
  3
Layout2
350
26
  3
Model
350
22
  0
DICTIONARY
  5
43
102
{ACAD_REACTORS
330
C
102
}
330
C
100
AcDbDictionary
281
     1
  3
ByBlock
350
45
  3
ByLayer
350
44
  3
Global
350
46
  0
DICTIONARY
  5
6B
102
{ACAD_REACTORS
330
C
102
}
330
C
100
AcDbDictionary
281
     1
  3
Standard
350
6C
  0
DICTIONARY
  5
17
102
{ACAD_REACTORS
330
C
102
}
330
C
100
AcDbDictionary
281
     1
  3
Standard
350
18
  0
DICTIONARY
  5
19
102
{ACAD_REACTORS
330
C
102
}
330
C
100
AcDbDictionary
281
     1
  0
ACDBDICTIONARYWDFLT
  5
E
102
{ACAD_REACTORS
330
C
102
}
330
C
100
AcDbDictionary
281
     1
  3
Normal
350
F
100
AcDbDictionaryWithDefault
340
F
  0
DICTIONARY
  5
47
102
{ACAD_REACTORS
330
C
102
}
330
C
100
AcDbDictionary
281
     1
  3
A0
350
48
  3
A1
350
49
  3
A2
350
4A
  3
A3
350
4B
  3
A4
350
4C
  3
A5
350
4D
  3
A6
350
4E
  3
A7
350
4F
  3
A8
350
50
  3
A9
350
51
  3
B0
350
52
  3
B1
350
53
  3
B2
350
54
  3
B3
350
55
  3
B4
350
56
  3
B5
350
57
  3
B6
350
58
  3
B7
350
59
  3
B8
350
5A
  3
B9
350
5B
  3
C0
350
5C
  3
C1
350
5D
  3
C2
350
5E
  3
C3
350
5F
  3
C4
350
60
  3
C5
350
61
  3
C6
350
62
  3
C7
350
63
  3
C8
350
64
  3
C9
350
65
  3
D0
350
66
  3
D1
350
67
  3
D2
350
68
  0
DICTIONARY
  5
1E5
102
{ACAD_REACTORS
330
C
102
}
330
C
100
AcDbDictionary
281
     1
  0
DICTIONARY
  5
69
102
{ACAD_REACTORS
330
C
102
}
330
C
100
AcDbDictionary
281
     1
  3
Standard
350
6A
  0
DICTIONARY
  5
2A
102
{ACAD_REACTORS
330
C
102
}
330
C
100
AcDbDictionary
281
     1
  3
2dWireframe
350
2F
  3
Basic
350
32
  3
Brighten
350
36
  3
ColorChange
350
3A
  3
Conceptual
350
34
  3
Dim
350
35
  3
EdgeColorOff
350
3D
  3
Facepattern
350
39
  3
Flat
350
2B
  3
FlatWithEdges
350
2C
  3
Gouraud
350
2D
  3
GouraudWithEdges
350
2E
  3
Hidden
350
31
  3
JitterOff
350
3B
  3
Linepattern
350
38
  3
OverhangOff
350
3C
  3
Realistic
350
33
  3
Shaded
350
42
  3
Shaded with edges
350
41
  3
Shades of Gray
350
3E
  3
Sketchy
350
3F
  3
Thicken
350
37
  3
Wireframe
350
30
  3
X-Ray
350
40
  0
XRECORD
  5
1E1
102
{ACAD_REACTORS
330
C
102
}
330
C
100
AcDbXrecord
280
     1
 90
        1
330
6A
  0
DICTIONARY
  5
1DD
102
{ACAD_REACTORS
330
C
102
}
330
C
100
AcDbDictionary
281
     1
  3
CANNOSCALE
350
1DE
  3
CMLEADERSTYLE
350
1E3
  3
CTABLESTYLE
350
1E2
  0
LAYOUT
  5
1E
102
{ACAD_REACTORS
330
1A
102
}
330
1A
100
AcDbPlotSettings
  1

  2
none_device
  4

  6

 40
0.0
 41
0.0
 42
0.0
 43
0.0
 44
0.0
 45
0.0
 46
0.0
 47
0.0
 48
0.0
 49
0.0
140
0.0
141
0.0
142
1.0
143
1.0
 70
   688
 72
     0
 73
     0
 74
     5
  7

 75
    16
 76
     0
 77
     2
 78
   300
147
1.0
148
0.0
149
0.0
100
AcDbLayout
  1
Layout1
 70
     1
 71
     1
 10
0.0
 20
0.0
 11
12.0
 21
9.0
 12
0.0
 22
0.0
 32
0.0
 14
1.000000000000000E+20
 24
1.000000000000000E+20
 34
1.000000000000000E+20
 15
-1.000000000000000E+20
 25
-1.000000000000000E+20
 35
-1.000000000000000E+20
146
0.0
 13
0.0
 23
0.0
 33
0.0
 16
1.0
 26
0.0
 36
0.0
 17
0.0
 27
1.0
 37
0.0
 76
     0
330
1B
  0
LAYOUT
  5
26
102
{ACAD_REACTORS
330
1A
102
}
330
1A
100
AcDbPlotSettings
  1

  2
none_device
  4

  6

 40
0.0
 41
0.0
 42
0.0
 43
0.0
 44
0.0
 45
0.0
 46
0.0
 47
0.0
 48
0.0
 49
0.0
140
0.0
141
0.0
142
1.0
143
1.0
 70
   688
 72
     0
 73
     0
 74
     5
  7

 75
    16
 76
     0
 77
     2
 78
   300
147
1.0
148
0.0
149
0.0
100
AcDbLayout
  1
Layout2
 70
     1
 71
     2
 10
0.0
 20
0.0
 11
0.0
 21
0.0
 12
0.0
 22
0.0
 32
0.0
 14
0.0
 24
0.0
 34
0.0
 15
0.0
 25
0.0
 35
0.0
146
0.0
 13
0.0
 23
0.0
 33
0.0
 16
1.0
 26
0.0
 36
0.0
 17
0.0
 27
1.0
 37
0.0
 76
     0
330
23
  0
LAYOUT
  5
22
102
{ACAD_REACTORS
330
1A
102
}
330
1A
100
AcDbPlotSettings
  1

  2
none_device
  4
Letter_(8.50_x_11.00_Inches)
  6

 40
6.35
 41
6.35
 42
6.35000508
 43
6.35000508
 44
215.9
 45
279.4
 46
0.0
 47
0.0
 48
0.0
 49
0.0
140
0.0
141
0.0
142
1.0
143
1.0
 70
  1712
 72
     0
 73
     0
 74
     0
  7

 75
     0
 76
     0
 77
     2
 78
   300
147
1.0
148
0.0
149
0.0
100
AcDbLayout
  1
Model
 70
     1
 71
     0
 10
0.0
 20
0.0
 11
12.0
 21
9.0
 12
0.0
 22
0.0
 32
0.0
 14
1.000000000000000E+20
 24
1.000000000000000E+20
 34
1.000000000000000E+20
 15
-1.000000000000000E+20
 25
-1.000000000000000E+20
 35
-1.000000000000000E+20
146
0.0
 13
0.0
 23
0.0
 33
0.0
 16
1.0
 26
0.0
 36
0.0
 17
0.0
 27
1.0
 37
0.0
 76
     0
330
1F
331
29
  0
MATERIAL
  5
45
102
{ACAD_REACTORS
330
43
102
}
330
43
100
AcDbMaterial
  1
ByBlock
 72
     1
 94
      127
  0
MATERIAL
  5
44
102
{ACAD_REACTORS
330
43
102
}
330
43
100
AcDbMaterial
  1
ByLayer
 72
     1
 94
      127
  0
MATERIAL
  5
46
102
{ACAD_REACTORS
330
43
102
}
330
43
100
AcDbMaterial
  1
Global
 72
     1
 94
      127
  0
MLEADERSTYLE
  5
6C
102
{ACAD_REACTORS
330
6B
102
}
330
6B
100
AcDbMLeaderStyle
179
     2
170
     2
171
     1
172
     0
 90
        2
 40
0.0
 41
0.0
173
     1
 91
-1056964608
340
14
 92
       -2
290
     1
 42
0.09
291
     1
 43
0.36
  3
Standard
341
0
 44
0.18
300

342
11
174
     1
178
     6
175
     1
176
     0
 93
-1056964608
 45
0.18
292
     0
297
     0
 46
0.18
343
0
 94
-1056964608
 47
1.0
 49
1.0
140
1.0
293
     1
141
0.0
294
     1
177
     0
142
1.0
295
     0
296
     0
143
0.125
271
     0
272
     9
273
     9
298
     0
  0
MLINESTYLE
  5
18
102
{ACAD_REACTORS
330
17
102
}
330
17
100
AcDbMlineStyle
  2
Standard
 70
     0
  3

 62
   256
 51
90.0
 52
90.0
 71
     2
 49
0.5
 62
   256
  6
BYLAYER
 49
-0.5
 62
   256
  6
BYLAYER
  0
ACDBPLACEHOLDER
  5
F
102
{ACAD_REACTORS
330
E
102
}
330
E
  0
SCALE
  5
48
102
{ACAD_REACTORS
330
47
102
}
330
47
100
AcDbScale
 70
     0
300
1:1
140
1.0
141
1.0
290
     1
  0
SCALE
  5
49
102
{ACAD_REACTORS
330
47
102
}
330
47
100
AcDbScale
 70
     0
300
1:2
140
1.0
141
2.0
290
     0
  0
SCALE
  5
4A
102
{ACAD_REACTORS
330
47
102
}
330
47
100
AcDbScale
 70
     0
300
1:4
140
1.0
141
4.0
290
     0
  0
SCALE
  5
4B
102
{ACAD_REACTORS
330
47
102
}
330
47
100
AcDbScale
 70
     0
300
1:5
140
1.0
141
5.0
290
     0
  0
SCALE
  5
4C
102
{ACAD_REACTORS
330
47
102
}
330
47
100
AcDbScale
 70
     0
300
1:8
140
1.0
141
8.0
290
     0
  0
SCALE
  5
4D
102
{ACAD_REACTORS
330
47
102
}
330
47
100
AcDbScale
 70
     0
300
1:10
140
1.0
141
10.0
290
     0
  0
SCALE
  5
4E
102
{ACAD_REACTORS
330
47
102
}
330
47
100
AcDbScale
 70
     0
300
1:16
140
1.0
141
16.0
290
     0
  0
SCALE
  5
4F
102
{ACAD_REACTORS
330
47
102
}
330
47
100
AcDbScale
 70
     0
300
1:20
140
1.0
141
20.0
290
     0
  0
SCALE
  5
50
102
{ACAD_REACTORS
330
47
102
}
330
47
100
AcDbScale
 70
     0
300
1:30
140
1.0
141
30.0
290
     0
  0
SCALE
  5
51
102
{ACAD_REACTORS
330
47
102
}
330
47
100
AcDbScale
 70
     0
300
1:40
140
1.0
141
40.0
290
     0
  0
SCALE
  5
52
102
{ACAD_REACTORS
330
47
102
}
330
47
100
AcDbScale
 70
     0
300
1:50
140
1.0
141
50.0
290
     0
  0
SCALE
  5
53
102
{ACAD_REACTORS
330
47
102
}
330
47
100
AcDbScale
 70
     0
300
1:100
140
1.0
141
100.0
290
     0
  0
SCALE
  5
54
102
{ACAD_REACTORS
330
47
102
}
330
47
100
AcDbScale
 70
     0
300
2:1
140
2.0
141
1.0
290
     0
  0
SCALE
  5
55
102
{ACAD_REACTORS
330
47
102
}
330
47
100
AcDbScale
 70
     0
300
4:1
140
4.0
141
1.0
290
     0
  0
SCALE
  5
56
102
{ACAD_REACTORS
330
47
102
}
330
47
100
AcDbScale
 70
     0
300
8:1
140
8.0
141
1.0
290
     0
  0
SCALE
  5
57
102
{ACAD_REACTORS
330
47
102
}
330
47
100
AcDbScale
 70
     0
300
10:1
140
10.0
141
1.0
290
     0
  0
SCALE
  5
58
102
{ACAD_REACTORS
330
47
102
}
330
47
100
AcDbScale
 70
     0
300
100:1
140
100.0
141
1.0
290
     0
  0
SCALE
  5
59
102
{ACAD_REACTORS
330
47
102
}
330
47
100
AcDbScale
 70
     0
300
1/128" = 1'-0"
140
0.0078125
141
12.0
290
     0
  0
SCALE
  5
5A
102
{ACAD_REACTORS
330
47
102
}
330
47
100
AcDbScale
 70
     0
300
1/64" = 1'-0"
140
0.015625
141
12.0
290
     0
  0
SCALE
  5
5B
102
{ACAD_REACTORS
330
47
102
}
330
47
100
AcDbScale
 70
     0
300
1/32" = 1'-0"
140
0.03125
141
12.0
290
     0
  0
SCALE
  5
5C
102
{ACAD_REACTORS
330
47
102
}
330
47
100
AcDbScale
 70
     0
300
1/16" = 1'-0"
140
0.0625
141
12.0
290
     0
  0
SCALE
  5
5D
102
{ACAD_REACTORS
330
47
102
}
330
47
100
AcDbScale
 70
     0
300
3/32" = 1'-0"
140
0.09375
141
12.0
290
     0
  0
SCALE
  5
5E
102
{ACAD_REACTORS
330
47
102
}
330
47
100
AcDbScale
 70
     0
300
1/8" = 1'-0"
140
0.125
141
12.0
290
     0
  0
SCALE
  5
5F
102
{ACAD_REACTORS
330
47
102
}
330
47
100
AcDbScale
 70
     0
300
3/16" = 1'-0"
140
0.1875
141
12.0
290
     0
  0
SCALE
  5
60
102
{ACAD_REACTORS
330
47
102
}
330
47
100
AcDbScale
 70
     0
300
1/4" = 1'-0"
140
0.25
141
12.0
290
     0
  0
SCALE
  5
61
102
{ACAD_REACTORS
330
47
102
}
330
47
100
AcDbScale
 70
     0
300
3/8" = 1'-0"
140
0.375
141
12.0
290
     0
  0
SCALE
  5
62
102
{ACAD_REACTORS
330
47
102
}
330
47
100
AcDbScale
 70
     0
300
1/2" = 1'-0"
140
0.5
141
12.0
290
     0
  0
SCALE
  5
63
102
{ACAD_REACTORS
330
47
102
}
330
47
100
AcDbScale
 70
     0
300
3/4" = 1'-0"
140
0.75
141
12.0
290
     0
  0
SCALE
  5
64
102
{ACAD_REACTORS
330
47
102
}
330
47
100
AcDbScale
 70
     0
300
1" = 1'-0"
140
1.0
141
12.0
290
     0
  0
SCALE
  5
65
102
{ACAD_REACTORS
330
47
102
}
330
47
100
AcDbScale
 70
     0
300
1-1/2" = 1'-0"
140
1.5
141
12.0
290
     0
  0
SCALE
  5
66
102
{ACAD_REACTORS
330
47
102
}
330
47
100
AcDbScale
 70
     0
300
3" = 1'-0"
140
3.0
141
12.0
290
     0
  0
SCALE
  5
67
102
{ACAD_REACTORS
330
47
102
}
330
47
100
AcDbScale
 70
     0
300
6" = 1'-0"
140
6.0
141
12.0
290
     0
  0
SCALE
  5
68
102
{ACAD_REACTORS
330
47
102
}
330
47
100
AcDbScale
 70
     0
300
1'-0" = 1'-0"
140
12.0
141
12.0
290
     0
  0
TABLESTYLE
  5
6A
102
{ACAD_REACTORS
330
69
102
}
102
{ACAD_XDICTIONARY
360
1DF
102
}
330
69
100
AcDbTableStyle
  3
Standard
 70
     0
 71
     0
 40
0.06
 41
0.06
280
     0
281
     0
  7
Standard
140
0.18
170
     2
 62
     0
 63
   257
283
     0
 90
        4
 91
        0
  1

274
    -2
284
     1
 64
     0
275
    -2
285
     1
 65
     0
276
    -2
286
     1
 66
     0
277
    -2
287
     1
 67
     0
278
    -2
288
     1
 68
     0
279
    -2
289
     1
 69
     0
  7
Standard
140
0.25
170
     5
 62
     0
 63
   257
283
     0
 90
        4
 91
        0
  1

274
    -2
284
     1
 64
     0
275
    -2
285
     1
 65
     0
276
    -2
286
     1
 66
     0
277
    -2
287
     1
 67
     0
278
    -2
288
     1
 68
     0
279
    -2
289
     1
 69
     0
  7
Standard
140
0.18
170
     5
 62
     0
 63
   257
283
     0
 90
        4
 91
        0
  1

274
    -2
284
     1
 64
     0
275
    -2
285
     1
 65
     0
276
    -2
286
     1
 66
     0
277
    -2
287
     1
 67
     0
278
    -2
288
     1
 68
     0
279
    -2
289
     1
 69
     0
  0
VISUALSTYLE
  5
2F
102
{ACAD_REACTORS
330
2A
102
}
330
2A
100
AcDbVisualStyle
  2
2dWireframe
 70
     4
177
     3
291
     0
 70
    58
 90
        0
176
     1
 90
        2
176
     1
 90
        0
176
     1
 90
        0
176
     1
 40
0.6
176
     1
 40
30.0
176
     1
 62
     7
420
 16777215
176
     1
 90
        1
176
     1
 90
        4
176
     1
 62
     7
176
     1
 62
   257
176
     1
 90
        1
176
     1
 90
        1
176
     1
 40
1.0
176
     1
 90
        0
176
     1
 62
   257
176
     1
 40
1.0
176
     1
 90
        1
176
     1
 90
        6
176
     1
 90
        2
176
     1
 62
     7
176
     1
 90
        5
176
     1
 90
        0
176
     1
 90
        0
176
     1
290
     0
176
     1
 90
        1
176
     1
 40
0.0
176
     1
 90
        0
176
     1
290
     1
176
     1
290
     1
176
     1
290
     0
176
     1
290
     0
176
     1
290
     0
176
     1
290
     0
176
     1
290
     0
176
     1
290
     0
176
     1
290
     0
176
     1
 90
       50
176
     1
 40
0.0
176
     1
 40
1.0
176
     1
 90
        0
176
     1
 62
    18
420
        0
176
     1
 90
       50
176
     1
 90
        3
176
     1
 62
     5
420
      255
176
     1
290
     0
176
     1
 90
       50
176
     1
 90
       50
176
     1
 90
       50
176
     1
290
     0
176
     1
 90
       50
176
     1
 62
   256
176
     0
 40
1.0
176
     0
 90
        2
176
     1
  1
strokes_ogs.tif
176
     1
290
     0
176
     1
 40
1.0
176
     1
 40
1.0
176
     1
  0
VISUALSTYLE
  5
32
102
{ACAD_REACTORS
330
2A
102
}
330
2A
100
AcDbVisualStyle
  2
Basic
 70
     7
177
     3
291
     1
 70
    58
 90
        1
176
     1
 90
        0
176
     1
 90
        1
176
     1
 90
        0
176
     1
 40
0.6
176
     1
 40
30.0
176
     1
 62
     7
420
 16777215
176
     1
 90
        0
176
     1
 90
        4
176
     1
 62
     7
176
     1
 62
   257
176
     1
 90
        1
176
     1
 90
        1
176
     1
 40
1.0
176
     1
 90
        8
176
     1
 62
     7
176
     1
 40
1.0
176
     1
 90
        1
176
     1
 90
        6
176
     1
 90
        2
176
     1
 62
     7
176
     1
 90
        5
176
     1
 90
        0
176
     1
 90
        0
176
     1
290
     0
176
     1
 90
        1
176
     1
 40
0.0
176
     1
 90
        0
176
     1
290
     0
176
     1
290
     1
176
     1
290
     1
176
     1
290
     0
176
     1
290
     0
176
     1
290
     0
176
     1
290
     0
176
     1
290
     0
176
     1
290
     0
176
     1
 90
       50
176
     1
 40
0.0
176
     1
 40
1.0
176
     1
 90
        0
176
     1
 62
    18
420
        0
176
     1
 90
       50
176
     1
 90
        3
176
     1
 62
     5
420
      255
176
     1
290
     0
176
     1
 90
       50
176
     1
 90
       50
176
     1
 90
       50
176
     1
290
     0
176
     1
 90
       50
176
     1
 62
   256
176
     0
 40
1.0
176
     0
 90
        2
176
     1
  1
strokes_ogs.tif
176
     1
290
     0
176
     1
 40
1.0
176
     1
 40
1.0
176
     1
  0
VISUALSTYLE
  5
36
102
{ACAD_REACTORS
330
2A
102
}
330
2A
100
AcDbVisualStyle
  2
Brighten
 70
    12
177
     3
291
     1
 70
    58
 90
        2
176
     1
 90
        2
176
     1
 90
        0
176
     1
 90
        0
176
     1
 40
0.6
176
     1
 40
30.0
176
     1
 62
     7
420
 16777215
176
     1
 90
        1
176
     1
 90
        4
176
     1
 62
     7
176
     1
 62
   257
176
     1
 90
        1
176
     1
 90
        1
176
     1
 40
1.0
176
     1
 90
        8
176
     1
 62
     7
176
     1
 40
1.0
176
     1
 90
        1
176
     1
 90
        6
176
     1
 90
        2
176
     1
 62
     7
176
     1
 90
        5
176
     1
 90
        0
176
     1
 90
        0
176
     1
290
     0
176
     1
 90
        1
176
     1
 40
50.0
176
     1
 90
        0
176
     1
290
     0
176
     1
290
     1
176
     1
290
     1
176
     1
290
     0
176
     1
290
     0
176
     1
290
     0
176
     1
290
     0
176
     1
290
     0
176
     1
290
     0
176
     1
 90
       50
176
     1
 40
0.0
176
     1
 40
1.0
176
     1
 90
        0
176
     1
 62
    18
420
        0
176
     1
 90
       50
176
     1
 90
        3
176
     1
 62
     5
420
      255
176
     1
290
     0
176
     1
 90
       50
176
     1
 90
       50
176
     1
 90
       50
176
     1
290
     0
176
     1
 90
       50
176
     1
 62
   256
176
     0
 40
1.0
176
     0
 90
        2
176
     1
  1
strokes_ogs.tif
176
     1
290
     0
176
     1
 40
1.0
176
     1
 40
1.0
176
     1
  0
VISUALSTYLE
  5
3A
102
{ACAD_REACTORS
330
2A
102
}
330
2A
100
AcDbVisualStyle
  2
ColorChange
 70
    16
177
     3
291
     1
 70
    58
 90
        2
176
     1
 90
        2
176
     1
 90
        3
176
     1
 90
        0
176
     1
 40
0.6
176
     1
 40
30.0
176
     1
 62
     8
420
  8421504
176
     1
 90
        1
176
     1
 90
        4
176
     1
 62
     7
176
     1
 62
   257
176
     1
 90
        1
176
     1
 90
        1
176
     1
 40
1.0
176
     1
 90
        8
176
     1
 62
     8
420
  8421504
176
     1
 40
1.0
176
     1
 90
        1
176
     1
 90
        6
176
     1
 90
        2
176
     1
 62
     7
176
     1
 90
        5
176
     1
 90
        0
176
     1
 90
        0
176
     1
290
     0
176
     1
 90
        1
176
     1
 40
0.0
176
     1
 90
        0
176
     1
290
     0
176
     1
290
     1
176
     1
290
     1
176
     1
290
     0
176
     1
290
     0
176
     1
290
     0
176
     1
290
     0
176
     1
290
     0
176
     1
290
     0
176
     1
 90
       50
176
     1
 40
0.0
176
     1
 40
1.0
176
     1
 90
        0
176
     1
 62
    18
420
        0
176
     1
 90
       50
176
     1
 90
        3
176
     1
 62
     5
420
      255
176
     1
290
     0
176
     1
 90
       50
176
     1
 90
       50
176
     1
 90
       50
176
     1
290
     0
176
     1
 90
       50
176
     1
 62
   256
176
     0
 40
1.0
176
     0
 90
        2
176
     1
  1
strokes_ogs.tif
176
     1
290
     0
176
     1
 40
1.0
176
     1
 40
1.0
176
     1
  0
VISUALSTYLE
  5
34
102
{ACAD_REACTORS
330
2A
102
}
330
2A
100
AcDbVisualStyle
  2
Conceptual
 70
     9
177
     3
291
     0
 70
    58
 90
        3
176
     1
 90
        2
176
     1
 90
        0
176
     1
 90
        0
176
     1
 40
0.6
176
     1
 40
30.0
176
     1
 62
     7
420
 16777215
176
     1
 90
        2
176
     1
 90
        2
176
     1
 62
     7
176
     1
 62
   257
176
     1
 90
        1
176
     1
 90
        1
176
     1
 40
179.0
176
     1
 90
        8
176
     1
 62
     7
176
     1
 40
1.0
176
     1
 90
        1
176
     1
 90
        6
176
     1
 90
        2
176
     1
 62
     7
176
     1
 90
        3
176
     1
 90
        0
176
     1
 90
        0
176
     1
290
     0
176
     1
 90
        1
176
     1
 40
0.0
176
     1
 90
        0
176
     1
290
     0
176
     1
290
     1
176
     1
290
     1
176
     1
290
     0
176
     1
290
     0
176
     1
290
     0
176
     1
290
     0
176
     1
290
     0
176
     1
290
     0
176
     1
 90
       50
176
     1
 40
0.0
176
     1
 40
1.0
176
     1
 90
        0
176
     1
 62
    18
420
        0
176
     1
 90
       50
176
     1
 90
        3
176
     1
 62
     5
420
      255
176
     1
290
     0
176
     1
 90
       50
176
     1
 90
       50
176
     1
 90
       50
176
     1
290
     0
176
     1
 90
       50
176
     1
 62
   256
176
     0
 40
1.0
176
     0
 90
        2
176
     1
  1
strokes_ogs.tif
176
     1
290
     0
176
     1
 40
1.0
176
     1
 40
1.0
176
     1
  0
VISUALSTYLE
  5
35
102
{ACAD_REACTORS
330
2A
102
}
330
2A
100
AcDbVisualStyle
  2
Dim
 70
    11
177
     3
291
     1
 70
    58
 90
        2
176
     1
 90
        2
176
     1
 90
        0
176
     1
 90
        0
176
     1
 40
0.6
176
     1
 40
30.0
176
     1
 62
     7
420
 16777215
176
     1
 90
        1
176
     1
 90
        4
176
     1
 62
     7
176
     1
 62
   257
176
     1
 90
        1
176
     1
 90
        1
176
     1
 40
1.0
176
     1
 90
        8
176
     1
 62
     7
176
     1
 40
1.0
176
     1
 90
        1
176
     1
 90
        6
176
     1
 90
        2
176
     1
 62
     7
176
     1
 90
        5
176
     1
 90
        0
176
     1
 90
        0
176
     1
290
     0
176
     1
 90
        1
176
     1
 40
-50.0
176
     1
 90
        0
176
     1
290
     0
176
     1
290
     1
176
     1
290
     1
176
     1
290
     0
176
     1
290
     0
176
     1
290
     0
176
     1
290
     0
176
     1
290
     0
176
     1
290
     0
176
     1
 90
       50
176
     1
 40
0.0
176
     1
 40
1.0
176
     1
 90
        0
176
     1
 62
    18
420
        0
176
     1
 90
       50
176
     1
 90
        3
176
     1
 62
     5
420
      255
176
     1
290
     0
176
     1
 90
       50
176
     1
 90
       50
176
     1
 90
       50
176
     1
290
     0
176
     1
 90
       50
176
     1
 62
   256
176
     0
 40
1.0
176
     0
 90
        2
176
     1
  1
strokes_ogs.tif
176
     1
290
     0
176
     1
 40
1.0
176
     1
 40
1.0
176
     1
  0
VISUALSTYLE
  5
3D
102
{ACAD_REACTORS
330
2A
102
}
330
2A
100
AcDbVisualStyle
  2
EdgeColorOff
 70
    22
177
     3
291
     1
 70
    58
 90
        2
176
     0
 90
        2
176
     0
 90
        0
176
     0
 90
        0
176
     0
 40
0.6
176
     0
 40
30.0
176
     0
 62
     7
420
 16777215
176
     0
 90
        1
176
     0
 90
        4
176
     0
 62
     7
176
     0
 62
   257
176
     0
 90
        1
176
     0
 90
        1
176
     0
 40
1.0
176
     0
 90
        8
176
     2
 62
     7
176
     0
 40
1.0
176
     0
 90
        1
176
     0
 90
        6
176
     0
 90
        2
176
     0
 62
     7
176
     0
 90
        5
176
     0
 90
        0
176
     0
 90
        0
176
     0
290
     0
176
     0
 90
        1
176
     0
 40
0.0
176
     0
 90
        0
176
     0
290
     0
176
     0
290
     1
176
     0
290
     1
176
     0
290
     0
176
     0
290
     0
176
     0
290
     0
176
     0
290
     0
176
     0
290
     0
176
     0
290
     0
176
     0
 90
       50
176
     0
 40
0.0
176
     0
 40
1.0
176
     0
 90
        0
176
     0
 62
    18
420
        0
176
     0
 90
       50
176
     0
 90
        3
176
     0
 62
     5
420
      255
176
     0
290
     0
176
     0
 90
       50
176
     0
 90
       50
176
     0
 90
       50
176
     0
290
     0
176
     0
 90
       50
176
     0
 62
   256
176
     0
 40
1.0
176
     0
 90
        2
176
     0
  1
strokes_ogs.tif
176
     0
290
     0
176
     0
 40
1.0
176
     0
 40
1.0
176
     0
  0
VISUALSTYLE
  5
39
102
{ACAD_REACTORS
330
2A
102
}
330
2A
100
AcDbVisualStyle
  2
Facepattern
 70
    15
177
     3
291
     1
 70
    58
 90
        2
176
     1
 90
        2
176
     1
 90
        0
176
     1
 90
        0
176
     1
 40
0.6
176
     1
 40
30.0
176
     1
 62
     7
420
 16777215
176
     1
 90
        1
176
     1
 90
        4
176
     1
 62
     7
176
     1
 62
   257
176
     1
 90
        1
176
     1
 90
        1
176
     1
 40
1.0
176
     1
 90
        8
176
     1
 62
     7
176
     1
 40
1.0
176
     1
 90
        1
176
     1
 90
        6
176
     1
 90
        2
176
     1
 62
     7
176
     1
 90
        5
176
     1
 90
        0
176
     1
 90
        0
176
     1
290
     0
176
     1
 90
        1
176
     1
 40
0.0
176
     1
 90
        0
176
     1
290
     0
176
     1
290
     1
176
     1
290
     1
176
     1
290
     0
176
     1
290
     0
176
     1
290
     0
176
     1
290
     0
176
     1
290
     0
176
     1
290
     0
176
     1
 90
       50
176
     1
 40
0.0
176
     1
 40
1.0
176
     1
 90
        0
176
     1
 62
    18
420
        0
176
     1
 90
       50
176
     1
 90
        3
176
     1
 62
     5
420
      255
176
     1
290
     0
176
     1
 90
       50
176
     1
 90
       50
176
     1
 90
       50
176
     1
290
     0
176
     1
 90
       50
176
     1
 62
   256
176
     0
 40
1.0
176
     0
 90
        2
176
     1
  1
strokes_ogs.tif
176
     1
290
     0
176
     1
 40
1.0
176
     1
 40
1.0
176
     1
  0
VISUALSTYLE
  5
2B
102
{ACAD_REACTORS
330
2A
102
}
330
2A
100
AcDbVisualStyle
  2
Flat
 70
     0
177
     3
291
     1
 70
    58
 90
        2
176
     1
 90
        1
176
     1
 90
        1
176
     1
 90
        2
176
     1
 40
0.6
176
     1
 40
30.0
176
     1
 62
     7
420
 16777215
176
     1
 90
        0
176
     1
 90
        0
176
     1
 62
     7
176
     1
 62
   257
176
     1
 90
        1
176
     1
 90
        1
176
     1
 40
1.0
176
     1
 90
        8
176
     1
 62
     7
176
     1
 40
1.0
176
     1
 90
        1
176
     1
 90
        6
176
     1
 90
        2
176
     1
 62
     7
176
     1
 90
        5
176
     1
 90
        0
176
     1
 90
        0
176
     1
290
     0
176
     1
 90
       13
176
     1
 40
0.0
176
     1
 90
        0
176
     1
290
     0
176
     1
290
     1
176
     1
290
     1
176
     1
290
     0
176
     1
290
     0
176
     1
290
     0
176
     1
290
     0
176
     1
290
     0
176
     1
290
     0
176
     1
 90
       50
176
     1
 40
0.0
176
     1
 40
1.0
176
     1
 90
        0
176
     1
 62
    18
420
        0
176
     1
 90
       50
176
     1
 90
        3
176
     1
 62
     5
420
      255
176
     1
290
     0
176
     1
 90
       50
176
     1
 90
       50
176
     1
 90
       50
176
     1
290
     0
176
     1
 90
       50
176
     1
 62
   256
176
     0
 40
1.0
176
     0
 90
        2
176
     1
  1
strokes_ogs.tif
176
     1
290
     0
176
     1
 40
1.0
176
     1
 40
1.0
176
     1
  0
VISUALSTYLE
  5
2C
102
{ACAD_REACTORS
330
2A
102
}
330
2A
100
AcDbVisualStyle
  2
FlatWithEdges
 70
     1
177
     3
291
     1
 70
    58
 90
        2
176
     1
 90
        1
176
     1
 90
        1
176
     1
 90
        2
176
     1
 40
0.6
176
     1
 40
30.0
176
     1
 62
     7
420
 16777215
176
     1
 90
        1
176
     1
 90
        0
176
     1
 62
     7
176
     1
 62
   257
176
     1
 90
        1
176
     1
 90
        1
176
     1
 40
1.0
176
     1
 90
        0
176
     1
 62
   257
176
     1
 40
1.0
176
     1
 90
        1
176
     1
 90
        6
176
     1
 90
        2
176
     1
 62
     7
176
     1
 90
        5
176
     1
 90
        0
176
     1
 90
        0
176
     1
290
     0
176
     1
 90
       13
176
     1
 40
0.0
176
     1
 90
        0
176
     1
290
     0
176
     1
290
     1
176
     1
290
     1
176
     1
290
     0
176
     1
290
     0
176
     1
290
     0
176
     1
290
     0
176
     1
290
     0
176
     1
290
     0
176
     1
 90
       50
176
     1
 40
0.0
176
     1
 40
1.0
176
     1
 90
        0
176
     1
 62
    18
420
        0
176
     1
 90
       50
176
     1
 90
        3
176
     1
 62
     5
420
      255
176
     1
290
     0
176
     1
 90
       50
176
     1
 90
       50
176
     1
 90
       50
176
     1
290
     0
176
     1
 90
       50
176
     1
 62
   256
176
     0
 40
1.0
176
     0
 90
        2
176
     1
  1
strokes_ogs.tif
176
     1
290
     0
176
     1
 40
1.0
176
     1
 40
1.0
176
     1
  0
VISUALSTYLE
  5
2D
102
{ACAD_REACTORS
330
2A
102
}
330
2A
100
AcDbVisualStyle
  2
Gouraud
 70
     2
177
     3
291
     1
 70
    58
 90
        2
176
     1
 90
        2
176
     1
 90
        1
176
     1
 90
        2
176
     1
 40
0.6
176
     1
 40
30.0
176
     1
 62
     7
420
 16777215
176
     1
 90
        0
176
     1
 90
        0
176
     1
 62
     7
176
     1
 62
   257
176
     1
 90
        1
176
     1
 90
        1
176
     1
 40
1.0
176
     1
 90
        0
176
     1
 62
     7
176
     1
 40
1.0
176
     1
 90
        1
176
     1
 90
        6
176
     1
 90
        2
176
     1
 62
     7
176
     1
 90
        5
176
     1
 90
        0
176
     1
 90
        0
176
     1
290
     0
176
     1
 90
       13
176
     1
 40
0.0
176
     1
 90
        0
176
     1
290
     0
176
     1
290
     1
176
     1
290
     1
176
     1
290
     0
176
     1
290
     0
176
     1
290
     0
176
     1
290
     0
176
     1
290
     0
176
     1
290
     0
176
     1
 90
       50
176
     1
 40
0.0
176
     1
 40
1.0
176
     1
 90
        0
176
     1
 62
    18
420
        0
176
     1
 90
       50
176
     1
 90
        3
176
     1
 62
     5
420
      255
176
     1
290
     0
176
     1
 90
       50
176
     1
 90
       50
176
     1
 90
       50
176
     1
290
     0
176
     1
 90
       50
176
     1
 62
   256
176
     0
 40
1.0
176
     0
 90
        2
176
     1
  1
strokes_ogs.tif
176
     1
290
     0
176
     1
 40
1.0
176
     1
 40
1.0
176
     1
  0
VISUALSTYLE
  5
2E
102
{ACAD_REACTORS
330
2A
102
}
330
2A
100
AcDbVisualStyle
  2
GouraudWithEdges
 70
     3
177
     3
291
     1
 70
    58
 90
        2
176
     1
 90
        2
176
     1
 90
        1
176
     1
 90
        2
176
     1
 40
0.6
176
     1
 40
30.0
176
     1
 62
     7
420
 16777215
176
     1
 90
        1
176
     1
 90
        0
176
     1
 62
     7
176
     1
 62
   257
176
     1
 90
        1
176
     1
 90
        1
176
     1
 40
1.0
176
     1
 90
        0
176
     1
 62
   257
176
     1
 40
1.0
176
     1
 90
        1
176
     1
 90
        6
176
     1
 90
        2
176
     1
 62
     7
176
     1
 90
        5
176
     1
 90
        0
176
     1
 90
        0
176
     1
290
     0
176
     1
 90
       13
176
     1
 40
0.0
176
     1
 90
        0
176
     1
290
     0
176
     1
290
     1
176
     1
290
     1
176
     1
290
     0
176
     1
290
     0
176
     1
290
     0
176
     1
290
     0
176
     1
290
     0
176
     1
290
     0
176
     1
 90
       50
176
     1
 40
0.0
176
     1
 40
1.0
176
     1
 90
        0
176
     1
 62
    18
420
        0
176
     1
 90
       50
176
     1
 90
        3
176
     1
 62
     5
420
      255
176
     1
290
     0
176
     1
 90
       50
176
     1
 90
       50
176
     1
 90
       50
176
     1
290
     0
176
     1
 90
       50
176
     1
 62
   256
176
     0
 40
1.0
176
     0
 90
        2
176
     1
  1
strokes_ogs.tif
176
     1
290
     0
176
     1
 40
1.0
176
     1
 40
1.0
176
     1
  0
VISUALSTYLE
  5
31
102
{ACAD_REACTORS
330
2A
102
}
330
2A
100
AcDbVisualStyle
  2
Hidden
 70
     6
177
     3
291
     0
 70
    58
 90
        1
176
     1
 90
        2
176
     1
 90
        2
176
     1
 90
        0
176
     1
 40
0.6
176
     1
 40
30.0
176
     1
 62
     7
420
 16777215
176
     1
 90
        2
176
     1
 90
        2
176
     1
 62
     7
176
     1
 62
   257
176
     1
 90
        2
176
     1
 90
        1
176
     1
 40
40.0
176
     1
 90
        0
176
     1
 62
   257
176
     1
 40
1.0
176
     1
 90
        1
176
     1
 90
        6
176
     1
 90
        2
176
     1
 62
     7
176
     1
 90
        3
176
     1
 90
        0
176
     1
 90
        0
176
     1
290
     0
176
     1
 90
        1
176
     1
 40
0.0
176
     1
 90
        0
176
     1
290
     0
176
     1
290
     1
176
     1
290
     1
176
     1
290
     0
176
     1
290
     0
176
     1
290
     0
176
     1
290
     0
176
     1
290
     0
176
     1
290
     0
176
     1
 90
       50
176
     1
 40
0.0
176
     1
 40
1.0
176
     1
 90
        0
176
     1
 62
    18
420
        0
176
     1
 90
       50
176
     1
 90
        3
176
     1
 62
     5
420
      255
176
     1
290
     0
176
     1
 90
       50
176
     1
 90
       50
176
     1
 90
       50
176
     1
290
     0
176
     1
 90
       50
176
     1
 62
   256
176
     0
 40
1.0
176
     0
 90
        2
176
     1
  1
strokes_ogs.tif
176
     1
290
     0
176
     1
 40
1.0
176
     1
 40
1.0
176
     1
  0
VISUALSTYLE
  5
3B
102
{ACAD_REACTORS
330
2A
102
}
330
2A
100
AcDbVisualStyle
  2
JitterOff
 70
    20
177
     3
291
     1
 70
    58
 90
        2
176
     0
 90
        2
176
     0
 90
        0
176
     0
 90
        0
176
     0
 40
0.6
176
     0
 40
30.0
176
     0
 62
     7
420
 16777215
176
     0
 90
        1
176
     0
 90
        4
176
     0
 62
     7
176
     0
 62
   257
176
     0
 90
        1
176
     0
 90
        1
176
     0
 40
1.0
176
     0
 90
       10
176
     2
 62
     7
176
     0
 40
1.0
176
     0
 90
        1
176
     0
 90
        6
176
     0
 90
        2
176
     0
 62
     7
176
     0
 90
        5
176
     0
 90
        0
176
     0
 90
        0
176
     0
290
     0
176
     0
 90
        1
176
     0
 40
0.0
176
     0
 90
        0
176
     0
290
     0
176
     0
290
     1
176
     0
290
     1
176
     0
290
     0
176
     0
290
     0
176
     0
290
     0
176
     0
290
     0
176
     0
290
     0
176
     0
290
     0
176
     0
 90
       50
176
     0
 40
0.0
176
     0
 40
1.0
176
     0
 90
        0
176
     0
 62
    18
420
        0
176
     0
 90
       50
176
     0
 90
        3
176
     0
 62
     5
420
      255
176
     0
290
     0
176
     0
 90
       50
176
     0
 90
       50
176
     0
 90
       50
176
     0
290
     0
176
     0
 90
       50
176
     0
 62
   256
176
     0
 40
1.0
176
     0
 90
        2
176
     0
  1
strokes_ogs.tif
176
     0
290
     0
176
     0
 40
1.0
176
     0
 40
1.0
176
     0
  0
VISUALSTYLE
  5
38
102
{ACAD_REACTORS
330
2A
102
}
330
2A
100
AcDbVisualStyle
  2
Linepattern
 70
    14
177
     3
291
     1
 70
    58
 90
        2
176
     1
 90
        2
176
     1
 90
        0
176
     1
 90
        0
176
     1
 40
0.6
176
     1
 40
30.0
176
     1
 62
     7
420
 16777215
176
     1
 90
        1
176
     1
 90
        4
176
     1
 62
     7
176
     1
 62
   257
176
     1
 90
        7
176
     1
 90
        7
176
     1
 40
1.0
176
     1
 90
        8
176
     1
 62
     7
176
     1
 40
1.0
176
     1
 90
        1
176
     1
 90
        6
176
     1
 90
        2
176
     1
 62
     7
176
     1
 90
        5
176
     1
 90
        0
176
     1
 90
        0
176
     1
290
     0
176
     1
 90
        1
176
     1
 40
0.0
176
     1
 90
        0
176
     1
290
     0
176
     1
290
     1
176
     1
290
     1
176
     1
290
     0
176
     1
290
     0
176
     1
290
     0
176
     1
290
     0
176
     1
290
     0
176
     1
290
     0
176
     1
 90
       50
176
     1
 40
0.0
176
     1
 40
1.0
176
     1
 90
        0
176
     1
 62
    18
420
        0
176
     1
 90
       50
176
     1
 90
        3
176
     1
 62
     5
420
      255
176
     1
290
     0
176
     1
 90
       50
176
     1
 90
       50
176
     1
 90
       50
176
     1
290
     0
176
     1
 90
       50
176
     1
 62
   256
176
     0
 40
1.0
176
     0
 90
        2
176
     1
  1
strokes_ogs.tif
176
     1
290
     0
176
     1
 40
1.0
176
     1
 40
1.0
176
     1
  0
VISUALSTYLE
  5
3C
102
{ACAD_REACTORS
330
2A
102
}
330
2A
100
AcDbVisualStyle
  2
OverhangOff
 70
    21
177
     3
291
     1
 70
    58
 90
        2
176
     0
 90
        2
176
     0
 90
        0
176
     0
 90
        0
176
     0
 40
0.6
176
     0
 40
30.0
176
     0
 62
     7
420
 16777215
176
     0
 90
        1
176
     0
 90
        4
176
     0
 62
     7
176
     0
 62
   257
176
     0
 90
        1
176
     0
 90
        1
176
     0
 40
1.0
176
     0
 90
        9
176
     2
 62
     7
176
     0
 40
1.0
176
     0
 90
        1
176
     0
 90
        6
176
     0
 90
        2
176
     0
 62
     7
176
     0
 90
        5
176
     0
 90
        0
176
     0
 90
        0
176
     0
290
     0
176
     0
 90
        1
176
     0
 40
0.0
176
     0
 90
        0
176
     0
290
     0
176
     0
290
     1
176
     0
290
     1
176
     0
290
     0
176
     0
290
     0
176
     0
290
     0
176
     0
290
     0
176
     0
290
     0
176
     0
290
     0
176
     0
 90
       50
176
     0
 40
0.0
176
     0
 40
1.0
176
     0
 90
        0
176
     0
 62
    18
420
        0
176
     0
 90
       50
176
     0
 90
        3
176
     0
 62
     5
420
      255
176
     0
290
     0
176
     0
 90
       50
176
     0
 90
       50
176
     0
 90
       50
176
     0
290
     0
176
     0
 90
       50
176
     0
 62
   256
176
     0
 40
1.0
176
     0
 90
        2
176
     0
  1
strokes_ogs.tif
176
     0
290
     0
176
     0
 40
1.0
176
     0
 40
1.0
176
     0
  0
VISUALSTYLE
  5
33
102
{ACAD_REACTORS
330
2A
102
}
330
2A
100
AcDbVisualStyle
  2
Realistic
 70
     8
177
     3
291
     0
 70
    58
 90
        2
176
     1
 90
        3
176
     1
 90
        0
176
     1
 90
        2
176
     1
 40
0.6
176
     1
 40
30.0
176
     1
 62
     7
420
 16777215
176
     1
 90
        0
176
     1
 90
        0
176
     1
 62
     7
176
     1
 62
   257
176
     1
 90
        1
176
     1
 90
        1
176
     1
 40
1.0
176
     1
 90
        8
176
     1
 62
   257
176
     1
 40
1.0
176
     1
 90
        1
176
     1
 90
        6
176
     1
 90
        2
176
     1
 62
     7
176
     1
 90
        3
176
     1
 90
        0
176
     1
 90
        0
176
     1
290
     0
176
     1
 90
       13
176
     1
 40
0.0
176
     1
 90
        0
176
     1
290
     0
176
     1
290
     1
176
     1
290
     1
176
     1
290
     0
176
     1
290
     0
176
     1
290
     0
176
     1
290
     0
176
     1
290
     0
176
     1
290
     0
176
     1
 90
       50
176
     1
 40
0.0
176
     1
 40
1.0
176
     1
 90
        0
176
     1
 62
    18
420
        0
176
     1
 90
       50
176
     1
 90
        3
176
     1
 62
     5
420
      255
176
     1
290
     0
176
     1
 90
       50
176
     1
 90
       50
176
     1
 90
       50
176
     1
290
     0
176
     1
 90
       50
176
     1
 62
   256
176
     0
 40
1.0
176
     0
 90
        2
176
     1
  1
strokes_ogs.tif
176
     1
290
     0
176
     1
 40
1.0
176
     1
 40
1.0
176
     1
  0
VISUALSTYLE
  5
42
102
{ACAD_REACTORS
330
2A
102
}
330
2A
100
AcDbVisualStyle
  2
Shaded
 70
    27
177
     3
291
     0
 70
    58
 90
        2
176
     1
 90
        2
176
     1
 90
        1
176
     1
 90
        2
176
     1
 40
0.6
176
     1
 40
30.0
176
     1
 62
     7
420
 16777215
176
     1
 90
        0
176
     1
 90
        4
176
     1
 62
     7
176
     1
 62
   257
176
     1
 90
        1
176
     1
 90
        1
176
     1
 40
1.0
176
     1
 90
        8
176
     1
 62
   257
176
     1
 40
1.0
176
     1
 90
        1
176
     1
 90
        6
176
     1
 90
        2
176
     1
 62
     8
420
  7895160
176
     1
 90
        3
176
     1
 90
        0
176
     1
 90
        0
176
     1
290
     0
176
     1
 90
        5
176
     1
 40
0.0
176
     1
 90
        0
176
     1
290
     0
176
     1
290
     1
176
     1
290
     1
176
     1
290
     0
176
     1
290
     0
176
     1
290
     0
176
     1
290
     0
176
     1
290
     0
176
     1
290
     0
176
     1
 90
       50
176
     1
 40
0.0
176
     1
 40
1.0
176
     1
 90
        0
176
     1
 62
    18
420
        0
176
     1
 90
       50
176
     1
 90
        3
176
     1
 62
     5
420
      255
176
     1
290
     0
176
     1
 90
       50
176
     1
 90
       50
176
     1
 90
       50
176
     1
290
     0
176
     1
 90
       50
176
     1
 62
   256
176
     0
 40
1.0
176
     0
 90
        2
176
     1
  1
strokes_ogs.tif
176
     1
290
     0
176
     1
 40
1.0
176
     1
 40
1.0
176
     1
  0
VISUALSTYLE
  5
41
102
{ACAD_REACTORS
330
2A
102
}
330
2A
100
AcDbVisualStyle
  2
Shaded with edges
 70
    26
177
     3
291
     0
 70
    58
 90
        2
176
     1
 90
        2
176
     1
 90
        1
176
     1
 90
        2
176
     1
 40
0.6
176
     1
 40
30.0
176
     1
 62
     7
420
 16777215
176
     1
 90
        1
176
     1
 90
       10
176
     1
 62
     7
176
     1
 62
   257
176
     1
 90
        2
176
     1
 90
        1
176
     1
 40
1.0
176
     1
 90
        8
176
     1
 62
   257
176
     1
 40
1.0
176
     1
 90
        1
176
     1
 90
        6
176
     1
 90
        2
176
     1
 62
     7
176
     1
 90
        3
176
     1
 90
        0
176
     1
 90
        0
176
     1
290
     0
176
     1
 90
        5
176
     1
 40
0.0
176
     1
 90
        0
176
     1
290
     0
176
     1
290
     1
176
     1
290
     1
176
     1
290
     0
176
     1
290
     0
176
     1
290
     0
176
     1
290
     0
176
     1
290
     0
176
     1
290
     0
176
     1
 90
       50
176
     1
 40
0.0
176
     1
 40
1.0
176
     1
 90
        0
176
     1
 62
    18
420
        0
176
     1
 90
       50
176
     1
 90
        3
176
     1
 62
     5
420
      255
176
     1
290
     0
176
     1
 90
       50
176
     1
 90
       50
176
     1
 90
       50
176
     1
290
     0
176
     1
 90
       50
176
     1
 62
   256
176
     0
 40
1.0
176
     0
 90
        2
176
     1
  1
strokes_ogs.tif
176
     1
290
     0
176
     1
 40
1.0
176
     1
 40
1.0
176
     1
  0
VISUALSTYLE
  5
3E
102
{ACAD_REACTORS
330
2A
102
}
330
2A
100
AcDbVisualStyle
  2
Shades of Gray
 70
    23
177
     3
291
     0
 70
    58
 90
        2
176
     1
 90
        2
176
     1
 90
        3
176
     1
 90
        0
176
     1
 40
0.6
176
     1
 40
30.0
176
     1
 62
     7
420
 16777215
176
     1
 90
        2
176
     1
 90
        2
176
     1
 62
     7
176
     1
 62
     7
176
     1
 90
        1
176
     1
 90
        1
176
     1
 40
40.0
176
     1
 90
        8
176
     1
 62
     7
176
     1
 40
1.0
176
     1
 90
        1
176
     1
 90
        6
176
     1
 90
        2
176
     1
 62
     7
176
     1
 90
        3
176
     1
 90
        0
176
     1
 90
        0
176
     1
290
     0
176
     1
 90
        1
176
     1
 40
0.0
176
     1
 90
        0
176
     1
290
     0
176
     1
290
     1
176
     1
290
     1
176
     1
290
     0
176
     1
290
     0
176
     1
290
     0
176
     1
290
     0
176
     1
290
     0
176
     1
290
     0
176
     1
 90
       50
176
     1
 40
0.0
176
     1
 40
1.0
176
     1
 90
        0
176
     1
 62
    18
420
        0
176
     1
 90
       50
176
     1
 90
        3
176
     1
 62
     5
420
      255
176
     1
290
     0
176
     1
 90
       50
176
     1
 90
       50
176
     1
 90
       50
176
     1
290
     0
176
     1
 90
       50
176
     1
 62
   256
176
     0
 40
1.0
176
     0
 90
        2
176
     1
  1
strokes_ogs.tif
176
     1
290
     0
176
     1
 40
1.0
176
     1
 40
1.0
176
     1
  0
VISUALSTYLE
  5
3F
102
{ACAD_REACTORS
330
2A
102
}
330
2A
100
AcDbVisualStyle
  2
Sketchy
 70
    24
177
     3
291
     0
 70
    58
 90
        1
176
     1
 90
        2
176
     1
 90
        2
176
     1
 90
        0
176
     1
 40
0.6
176
     1
 40
30.0
176
     1
 62
     7
420
 16777215
176
     1
 90
        2
176
     1
 90
        2
176
     1
 62
     7
176
     1
 62
     7
176
     1
 90
        1
176
     1
 90
        1
176
     1
 40
40.0
176
     1
 90
       11
176
     1
 62
     7
176
     1
 40
1.0
176
     1
 90
        1
176
     1
 90
        6
176
     1
 90
        2
176
     1
 62
     7
176
     1
 90
        6
176
     1
 90
        0
176
     1
 90
        0
176
     1
290
     0
176
     1
 90
        1
176
     1
 40
0.0
176
     1
 90
        0
176
     1
290
     0
176
     1
290
     1
176
     1
290
     1
176
     1
290
     0
176
     1
290
     0
176
     1
290
     0
176
     1
290
     0
176
     1
290
     0
176
     1
290
     0
176
     1
 90
       50
176
     1
 40
0.0
176
     1
 40
1.0
176
     1
 90
        0
176
     1
 62
    18
420
        0
176
     1
 90
       50
176
     1
 90
        3
176
     1
 62
     5
420
      255
176
     1
290
     0
176
     1
 90
       50
176
     1
 90
       50
176
     1
 90
       50
176
     1
290
     0
176
     1
 90
       50
176
     1
 62
   256
176
     0
 40
1.0
176
     0
 90
        2
176
     1
  1
strokes_ogs.tif
176
     1
290
     0
176
     1
 40
1.0
176
     1
 40
1.0
176
     1
  0
VISUALSTYLE
  5
37
102
{ACAD_REACTORS
330
2A
102
}
330
2A
100
AcDbVisualStyle
  2
Thicken
 70
    13
177
     3
291
     1
 70
    58
 90
        2
176
     1
 90
        2
176
     1
 90
        0
176
     1
 90
        0
176
     1
 40
0.6
176
     1
 40
30.0
176
     1
 62
     7
420
 16777215
176
     1
 90
        1
176
     1
 90
        4
176
     1
 62
     7
176
     1
 62
   257
176
     1
 90
        1
176
     1
 90
        1
176
     1
 40
1.0
176
     1
 90
       12
176
     1
 62
     7
176
     1
 40
1.0
176
     1
 90
        1
176
     1
 90
        6
176
     1
 90
        2
176
     1
 62
     7
176
     1
 90
        5
176
     1
 90
        0
176
     1
 90
        0
176
     1
290
     0
176
     1
 90
        1
176
     1
 40
0.0
176
     1
 90
        0
176
     1
290
     0
176
     1
290
     1
176
     1
290
     1
176
     1
290
     0
176
     1
290
     0
176
     1
290
     0
176
     1
290
     0
176
     1
290
     0
176
     1
290
     0
176
     1
 90
       50
176
     1
 40
0.0
176
     1
 40
1.0
176
     1
 90
        0
176
     1
 62
    18
420
        0
176
     1
 90
       50
176
     1
 90
        3
176
     1
 62
     5
420
      255
176
     1
290
     0
176
     1
 90
       50
176
     1
 90
       50
176
     1
 90
       50
176
     1
290
     0
176
     1
 90
       50
176
     1
 62
   256
176
     0
 40
1.0
176
     0
 90
        2
176
     1
  1
strokes_ogs.tif
176
     1
290
     0
176
     1
 40
1.0
176
     1
 40
1.0
176
     1
  0
VISUALSTYLE
  5
30
102
{ACAD_REACTORS
330
2A
102
}
330
2A
100
AcDbVisualStyle
  2
Wireframe
 70
     5
177
     3
291
     0
 70
    58
 90
        0
176
     1
 90
        2
176
     1
 90
        0
176
     1
 90
        0
176
     1
 40
0.6
176
     1
 40
30.0
176
     1
 62
     7
420
 16777215
176
     1
 90
        1
176
     1
 90
        4
176
     1
 62
     7
176
     1
 62
   257
176
     1
 90
        1
176
     1
 90
        1
176
     1
 40
1.0
176
     1
 90
        0
176
     1
 62
   257
176
     1
 40
1.0
176
     1
 90
        1
176
     1
 90
        6
176
     1
 90
        2
176
     1
 62
     7
176
     1
 90
        3
176
     1
 90
        0
176
     1
 90
        0
176
     1
290
     0
176
     1
 90
        1
176
     1
 40
0.0
176
     1
 90
        0
176
     1
290
     0
176
     1
290
     1
176
     1
290
     1
176
     1
290
     0
176
     1
290
     0
176
     1
290
     0
176
     1
290
     0
176
     1
290
     0
176
     1
290
     0
176
     1
 90
       50
176
     1
 40
0.0
176
     1
 40
1.0
176
     1
 90
        0
176
     1
 62
    18
420
        0
176
     1
 90
       50
176
     1
 90
        3
176
     1
 62
     5
420
      255
176
     1
290
     0
176
     1
 90
       50
176
     1
 90
       50
176
     1
 90
       50
176
     1
290
     0
176
     1
 90
       50
176
     1
 62
   256
176
     0
 40
1.0
176
     0
 90
        2
176
     1
  1
strokes_ogs.tif
176
     1
290
     0
176
     1
 40
1.0
176
     1
 40
1.0
176
     1
  0
VISUALSTYLE
  5
40
102
{ACAD_REACTORS
330
2A
102
}
330
2A
100
AcDbVisualStyle
  2
X-Ray
 70
    25
177
     3
291
     0
 70
    58
 90
        2
176
     1
 90
        2
176
     1
 90
        1
176
     1
 90
        1
176
     1
 40
0.5
176
     1
 40
30.0
176
     1
 62
     7
420
 16777215
176
     1
 90
        1
176
     1
 90
        0
176
     1
 62
     7
176
     1
 62
   257
176
     1
 90
        1
176
     1
 90
        1
176
     1
 40
1.0
176
     1
 90
        8
176
     1
 62
     7
176
     1
 40
1.0
176
     1
 90
        1
176
     1
 90
        6
176
     1
 90
        2
176
     1
 62
     7
176
     1
 90
        3
176
     1
 90
        0
176
     1
 90
        0
176
     1
290
     0
176
     1
 90
       13
176
     1
 40
0.0
176
     1
 90
        0
176
     1
290
     0
176
     1
290
     1
176
     1
290
     1
176
     1
290
     0
176
     1
290
     0
176
     1
290
     0
176
     1
290
     0
176
     1
290
     0
176
     1
290
     0
176
     1
 90
       50
176
     1
 40
0.0
176
     1
 40
1.0
176
     1
 90
        0
176
     1
 62
    18
420
        0
176
     1
 90
       50
176
     1
 90
        3
176
     1
 62
     5
420
      255
176
     1
290
     0
176
     1
 90
       50
176
     1
 90
       50
176
     1
 90
       50
176
     1
290
     0
176
     1
 90
       50
176
     1
 62
   256
176
     0
 40
1.0
176
     0
 90
        2
176
     1
  1
strokes_ogs.tif
176
     1
290
     0
176
     1
 40
1.0
176
     1
 40
1.0
176
     1
  0
DICTIONARYVAR
  5
1DE
102
{ACAD_REACTORS
330
1DD
102
}
330
1DD
100
DictionaryVariables
280
     0
  1
1:1
  0
DICTIONARYVAR
  5
1E3
102
{ACAD_REACTORS
330
1DD
102
}
330
1DD
100
DictionaryVariables
280
     0
  1
Standard
  0
DICTIONARYVAR
  5
1E2
102
{ACAD_REACTORS
330
1DD
102
}
330
1DD
100
DictionaryVariables
280
     0
  1
Standard
  0
DICTIONARY
  5
1DF
330
6A
100
AcDbDictionary
280
     1
281
     1
  3
ACAD_ROUNDTRIP_2008_TABLESTYLE_CELLSTYLEMAP
360
1E0
  0
CELLSTYLEMAP
  5
1E0
102
{ACAD_REACTORS
330
1DF
102
}
330
1DF
100
AcDbCellStyleMap
 90
        3
300
CELLSTYLE
  1
TABLEFORMAT_BEGIN
 90
        5
170
     1
 91
        0
 92
    32768
 62
   257
 93
        1
300
CONTENTFORMAT
  1
CONTENTFORMAT_BEGIN
 90
        0
 91
        0
 92
        4
 93
        0
300

 40
0.0
140
1.0
 94
        5
 62
     0
340
11
144
0.25
309
CONTENTFORMAT_END
171
     1
301
MARGIN
  1
CELLMARGIN_BEGIN
 40
0.06
 40
0.06
 40
0.06
 40
0.06
 40
0.06
 40
0.06
309
CELLMARGIN_END
 94
        6
 95
        1
302
GRIDFORMAT
  1
GRIDFORMAT_BEGIN
 90
        0
 91
        1
 62
     0
 92
       -2
340
14
 93
        0
 40
0.045
309
GRIDFORMAT_END
 95
        2
302
GRIDFORMAT
  1
GRIDFORMAT_BEGIN
 90
        0
 91
        1
 62
     0
 92
       -2
340
14
 93
        0
 40
0.045
309
GRIDFORMAT_END
 95
        4
302
GRIDFORMAT
  1
GRIDFORMAT_BEGIN
 90
        0
 91
        1
 62
     0
 92
       -2
340
14
 93
        0
 40
0.045
309
GRIDFORMAT_END
 95
        8
302
GRIDFORMAT
  1
GRIDFORMAT_BEGIN
 90
        0
 91
        1
 62
     0
 92
       -2
340
14
 93
        0
 40
0.045
309
GRIDFORMAT_END
 95
       16
302
GRIDFORMAT
  1
GRIDFORMAT_BEGIN
 90
        0
 91
        1
 62
     0
 92
       -2
340
14
 93
        0
 40
0.045
309
GRIDFORMAT_END
 95
       32
302
GRIDFORMAT
  1
GRIDFORMAT_BEGIN
 90
        0
 91
        1
 62
     0
 92
       -2
340
14
 93
        0
 40
0.045
309
GRIDFORMAT_END
309
TABLEFORMAT_END
  1
CELLSTYLE_BEGIN
 90
        1
 91
        1
300
_TITLE
309
CELLSTYLE_END
300
CELLSTYLE
  1
TABLEFORMAT_BEGIN
 90
        5
170
     1
 91
        0
 92
        0
 62
   257
 93
        1
300
CONTENTFORMAT
  1
CONTENTFORMAT_BEGIN
 90
        0
 91
        0
 92
        4
 93
        0
300

 40
0.0
140
1.0
 94
        5
 62
     0
340
11
144
0.18
309
CONTENTFORMAT_END
171
     1
301
MARGIN
  1
CELLMARGIN_BEGIN
 40
0.06
 40
0.06
 40
0.06
 40
0.06
 40
0.06
 40
0.06
309
CELLMARGIN_END
 94
        6
 95
        1
302
GRIDFORMAT
  1
GRIDFORMAT_BEGIN
 90
        0
 91
        1
 62
     0
 92
       -2
340
14
 93
        0
 40
0.045
309
GRIDFORMAT_END
 95
        2
302
GRIDFORMAT
  1
GRIDFORMAT_BEGIN
 90
        0
 91
        1
 62
     0
 92
       -2
340
14
 93
        0
 40
0.045
309
GRIDFORMAT_END
 95
        4
302
GRIDFORMAT
  1
GRIDFORMAT_BEGIN
 90
        0
 91
        1
 62
     0
 92
       -2
340
14
 93
        0
 40
0.045
309
GRIDFORMAT_END
 95
        8
302
GRIDFORMAT
  1
GRIDFORMAT_BEGIN
 90
        0
 91
        1
 62
     0
 92
       -2
340
14
 93
        0
 40
0.045
309
GRIDFORMAT_END
 95
       16
302
GRIDFORMAT
  1
GRIDFORMAT_BEGIN
 90
        0
 91
        1
 62
     0
 92
       -2
340
14
 93
        0
 40
0.045
309
GRIDFORMAT_END
 95
       32
302
GRIDFORMAT
  1
GRIDFORMAT_BEGIN
 90
        0
 91
        1
 62
     0
 92
       -2
340
14
 93
        0
 40
0.045
309
GRIDFORMAT_END
309
TABLEFORMAT_END
  1
CELLSTYLE_BEGIN
 90
        2
 91
        1
300
_HEADER
309
CELLSTYLE_END
300
CELLSTYLE
  1
TABLEFORMAT_BEGIN
 90
        5
170
     1
 91
        0
 92
        0
 62
   257
 93
        1
300
CONTENTFORMAT
  1
CONTENTFORMAT_BEGIN
 90
        0
 91
        0
 92
        4
 93
        0
300

 40
0.0
140
1.0
 94
        2
 62
     0
340
11
144
0.18
309
CONTENTFORMAT_END
171
     1
301
MARGIN
  1
CELLMARGIN_BEGIN
 40
0.06
 40
0.06
 40
0.06
 40
0.06
 40
0.06
 40
0.06
309
CELLMARGIN_END
 94
        6
 95
        1
302
GRIDFORMAT
  1
GRIDFORMAT_BEGIN
 90
        0
 91
        1
 62
     0
 92
       -2
340
14
 93
        0
 40
0.045
309
GRIDFORMAT_END
 95
        2
302
GRIDFORMAT
  1
GRIDFORMAT_BEGIN
 90
        0
 91
        1
 62
     0
 92
       -2
340
14
 93
        0
 40
0.045
309
GRIDFORMAT_END
 95
        4
302
GRIDFORMAT
  1
GRIDFORMAT_BEGIN
 90
        0
 91
        1
 62
     0
 92
       -2
340
14
 93
        0
 40
0.045
309
GRIDFORMAT_END
 95
        8
302
GRIDFORMAT
  1
GRIDFORMAT_BEGIN
 90
        0
 91
        1
 62
     0
 92
       -2
340
14
 93
        0
 40
0.045
309
GRIDFORMAT_END
 95
       16
302
GRIDFORMAT
  1
GRIDFORMAT_BEGIN
 90
        0
 91
        1
 62
     0
 92
       -2
340
14
 93
        0
 40
0.045
309
GRIDFORMAT_END
 95
       32
302
GRIDFORMAT
  1
GRIDFORMAT_BEGIN
 90
        0
 91
        1
 62
     0
 92
       -2
340
14
 93
        0
 40
0.045
309
GRIDFORMAT_END
309
TABLEFORMAT_END
  1
CELLSTYLE_BEGIN
 90
        3
 91
        2
300
_DATA
309
CELLSTYLE_END
  0
ENDSEC
  0
EOF